ISO-10303-21;
HEADER;
/* Generated by software containing ST-Developer
 * from STEP Tools, Inc. (www.steptools.com) 
 */

FILE_DESCRIPTION(
/* description */ (''),
/* implementation_level */ '2;1');

FILE_NAME(
/* name */ '6116 - DN65.step',
/* time_stamp */ '2022-12-20T09:05:03+01:00',
/* author */ (''),
/* organization */ (''),
/* preprocessor_version */ 'ST-DEVELOPER v19.2',
/* originating_system */ 'Autodesk Translation Framework v11.17.0.187',

/* authorisation */ '');

FILE_SCHEMA (('AUTOMOTIVE_DESIGN { 1 0 10303 214 3 1 1 }'));
ENDSEC;

DATA;
#10=MECHANICAL_DESIGN_GEOMETRIC_PRESENTATION_REPRESENTATION('',(#13),#452);
#11=SHAPE_REPRESENTATION_RELATIONSHIP('SRR','None',#459,#12);
#12=ADVANCED_BREP_SHAPE_REPRESENTATION('',(#14),#451);
#13=STYLED_ITEM('',(#469),#14);
#14=MANIFOLD_SOLID_BREP('Body1',#243);
#15=TOROIDAL_SURFACE('',#277,38.3422932225947,4.99999999999961);
#16=TOROIDAL_SURFACE('',#293,32.4999999999998,1.5);
#17=CYLINDRICAL_SURFACE('',#266,56.5000000000001);
#18=CYLINDRICAL_SURFACE('',#272,45.);
#19=CYLINDRICAL_SURFACE('',#282,36.);
#20=CYLINDRICAL_SURFACE('',#286,34.7999999999998);
#21=CYLINDRICAL_SURFACE('',#290,30.9999999999999);
#22=LINE('',#391,#31);
#23=LINE('',#398,#32);
#24=LINE('',#402,#33);
#25=LINE('',#405,#34);
#26=LINE('',#413,#35);
#27=LINE('',#419,#36);
#28=LINE('',#430,#37);
#29=LINE('',#437,#38);
#30=LINE('',#446,#39);
#31=VECTOR('',#307,50.0042521936222);
#32=VECTOR('',#316,54.9999999999999);
#33=VECTOR('',#321,56.5000000000001);
#34=VECTOR('',#324,56.0000000000002);
#35=VECTOR('',#335,45.);
#36=VECTOR('',#342,44.1677204481835);
#37=VECTOR('',#357,36.);
#38=VECTOR('',#366,34.7999999999998);
#39=VECTOR('',#377,30.9999999999999);
#40=CONICAL_SURFACE('',#260,50.0042521936222,0.0523598775598309);
#41=CONICAL_SURFACE('',#264,54.9999999999999,1.04719755119663);
#42=CONICAL_SURFACE('',#268,56.0000000000002,0.785398163397262);
#43=CONICAL_SURFACE('',#274,44.1677204481835,0.0523598775598309);
#44=FACE_BOUND('',#68,.T.);
#45=FACE_BOUND('',#71,.T.);
#46=FACE_BOUND('',#76,.T.);
#47=FACE_BOUND('',#81,.T.);
#48=FACE_BOUND('',#84,.T.);
#49=FACE_BOUND('',#87,.T.);
#50=FACE_OUTER_BOUND('',#67,.T.);
#51=FACE_OUTER_BOUND('',#69,.T.);
#52=FACE_OUTER_BOUND('',#70,.T.);
#53=FACE_OUTER_BOUND('',#72,.T.);
#54=FACE_OUTER_BOUND('',#73,.T.);
#55=FACE_OUTER_BOUND('',#74,.T.);
#56=FACE_OUTER_BOUND('',#75,.T.);
#57=FACE_OUTER_BOUND('',#77,.T.);
#58=FACE_OUTER_BOUND('',#78,.T.);
#59=FACE_OUTER_BOUND('',#79,.T.);
#60=FACE_OUTER_BOUND('',#80,.T.);
#61=FACE_OUTER_BOUND('',#82,.T.);
#62=FACE_OUTER_BOUND('',#83,.T.);
#63=FACE_OUTER_BOUND('',#85,.T.);
#64=FACE_OUTER_BOUND('',#86,.T.);
#65=FACE_OUTER_BOUND('',#88,.T.);
#66=FACE_OUTER_BOUND('',#89,.T.);
#67=EDGE_LOOP('',(#160));
#68=EDGE_LOOP('',(#161));
#69=EDGE_LOOP('',(#162,#163,#164,#165));
#70=EDGE_LOOP('',(#166));
#71=EDGE_LOOP('',(#167));
#72=EDGE_LOOP('',(#168,#169,#170,#171));
#73=EDGE_LOOP('',(#172,#173,#174,#175));
#74=EDGE_LOOP('',(#176,#177,#178,#179));
#75=EDGE_LOOP('',(#180));
#76=EDGE_LOOP('',(#181));
#77=EDGE_LOOP('',(#182,#183,#184,#185));
#78=EDGE_LOOP('',(#186,#187,#188,#189,#190));
#79=EDGE_LOOP('',(#191,#192,#193,#194,#195));
#80=EDGE_LOOP('',(#196));
#81=EDGE_LOOP('',(#197));
#82=EDGE_LOOP('',(#198,#199,#200,#201));
#83=EDGE_LOOP('',(#202));
#84=EDGE_LOOP('',(#203));
#85=EDGE_LOOP('',(#204,#205,#206,#207));
#86=EDGE_LOOP('',(#208));
#87=EDGE_LOOP('',(#209));
#88=EDGE_LOOP('',(#210,#211,#212,#213,#214));
#89=EDGE_LOOP('',(#215,#216,#217,#218,#219));
#90=CIRCLE('',#258,49.0085043872444);
#91=CIRCLE('',#259,32.4999999999998);
#92=CIRCLE('',#261,51.);
#93=CIRCLE('',#263,53.5);
#94=CIRCLE('',#265,56.4999999999999);
#95=CIRCLE('',#267,56.5000000000002);
#96=CIRCLE('',#269,55.5000000000002);
#97=CIRCLE('',#271,45.0000000000002);
#98=CIRCLE('',#273,44.9999999999998);
#99=CIRCLE('',#275,43.3354408963672);
#100=CIRCLE('',#276,43.3354408963672);
#101=CIRCLE('',#278,38.3422932225945);
#102=CIRCLE('',#279,4.99999999999961);
#103=CIRCLE('',#281,36.);
#104=CIRCLE('',#283,36.0000000000001);
#105=CIRCLE('',#285,34.7999999999998);
#106=CIRCLE('',#287,34.7999999999998);
#107=CIRCLE('',#289,31.);
#108=CIRCLE('',#291,30.9999999999997);
#109=CIRCLE('',#292,30.9999999999997);
#110=CIRCLE('',#294,1.5);
#111=VERTEX_POINT('',#384);
#112=VERTEX_POINT('',#386);
#113=VERTEX_POINT('',#389);
#114=VERTEX_POINT('',#393);
#115=VERTEX_POINT('',#396);
#116=VERTEX_POINT('',#400);
#117=VERTEX_POINT('',#404);
#118=VERTEX_POINT('',#408);
#119=VERTEX_POINT('',#411);
#120=VERTEX_POINT('',#415);
#121=VERTEX_POINT('',#416);
#122=VERTEX_POINT('',#421);
#123=VERTEX_POINT('',#425);
#124=VERTEX_POINT('',#428);
#125=VERTEX_POINT('',#432);
#126=VERTEX_POINT('',#435);
#127=VERTEX_POINT('',#439);
#128=VERTEX_POINT('',#442);
#129=VERTEX_POINT('',#443);
#130=EDGE_CURVE('',#111,#111,#90,.T.);
#131=EDGE_CURVE('',#112,#112,#91,.T.);
#132=EDGE_CURVE('',#113,#113,#92,.T.);
#133=EDGE_CURVE('',#113,#111,#22,.T.);
#134=EDGE_CURVE('',#114,#114,#93,.T.);
#135=EDGE_CURVE('',#115,#115,#94,.T.);
#136=EDGE_CURVE('',#115,#114,#23,.T.);
#137=EDGE_CURVE('',#116,#116,#95,.T.);
#138=EDGE_CURVE('',#116,#115,#24,.T.);
#139=EDGE_CURVE('',#116,#117,#25,.T.);
#140=EDGE_CURVE('',#117,#117,#96,.T.);
#141=EDGE_CURVE('',#118,#118,#97,.T.);
#142=EDGE_CURVE('',#119,#119,#98,.T.);
#143=EDGE_CURVE('',#119,#118,#26,.T.);
#144=EDGE_CURVE('',#120,#121,#99,.T.);
#145=EDGE_CURVE('',#121,#120,#100,.T.);
#146=EDGE_CURVE('',#121,#119,#27,.T.);
#147=EDGE_CURVE('',#122,#122,#101,.T.);
#148=EDGE_CURVE('',#122,#120,#102,.T.);
#149=EDGE_CURVE('',#123,#123,#103,.T.);
#150=EDGE_CURVE('',#124,#124,#104,.T.);
#151=EDGE_CURVE('',#124,#123,#28,.T.);
#152=EDGE_CURVE('',#125,#125,#105,.T.);
#153=EDGE_CURVE('',#126,#126,#106,.T.);
#154=EDGE_CURVE('',#126,#125,#29,.T.);
#155=EDGE_CURVE('',#127,#127,#107,.T.);
#156=EDGE_CURVE('',#128,#129,#108,.T.);
#157=EDGE_CURVE('',#129,#128,#109,.T.);
#158=EDGE_CURVE('',#129,#127,#30,.T.);
#159=EDGE_CURVE('',#112,#128,#110,.T.);
#160=ORIENTED_EDGE('',*,*,#130,.F.);
#161=ORIENTED_EDGE('',*,*,#131,.T.);
#162=ORIENTED_EDGE('',*,*,#132,.F.);
#163=ORIENTED_EDGE('',*,*,#133,.T.);
#164=ORIENTED_EDGE('',*,*,#130,.T.);
#165=ORIENTED_EDGE('',*,*,#133,.F.);
#166=ORIENTED_EDGE('',*,*,#134,.F.);
#167=ORIENTED_EDGE('',*,*,#132,.T.);
#168=ORIENTED_EDGE('',*,*,#135,.F.);
#169=ORIENTED_EDGE('',*,*,#136,.T.);
#170=ORIENTED_EDGE('',*,*,#134,.T.);
#171=ORIENTED_EDGE('',*,*,#136,.F.);
#172=ORIENTED_EDGE('',*,*,#137,.F.);
#173=ORIENTED_EDGE('',*,*,#138,.T.);
#174=ORIENTED_EDGE('',*,*,#135,.T.);
#175=ORIENTED_EDGE('',*,*,#138,.F.);
#176=ORIENTED_EDGE('',*,*,#137,.T.);
#177=ORIENTED_EDGE('',*,*,#139,.T.);
#178=ORIENTED_EDGE('',*,*,#140,.F.);
#179=ORIENTED_EDGE('',*,*,#139,.F.);
#180=ORIENTED_EDGE('',*,*,#140,.T.);
#181=ORIENTED_EDGE('',*,*,#141,.F.);
#182=ORIENTED_EDGE('',*,*,#142,.F.);
#183=ORIENTED_EDGE('',*,*,#143,.T.);
#184=ORIENTED_EDGE('',*,*,#141,.T.);
#185=ORIENTED_EDGE('',*,*,#143,.F.);
#186=ORIENTED_EDGE('',*,*,#144,.F.);
#187=ORIENTED_EDGE('',*,*,#145,.F.);
#188=ORIENTED_EDGE('',*,*,#146,.T.);
#189=ORIENTED_EDGE('',*,*,#142,.T.);
#190=ORIENTED_EDGE('',*,*,#146,.F.);
#191=ORIENTED_EDGE('',*,*,#147,.F.);
#192=ORIENTED_EDGE('',*,*,#148,.T.);
#193=ORIENTED_EDGE('',*,*,#144,.T.);
#194=ORIENTED_EDGE('',*,*,#145,.T.);
#195=ORIENTED_EDGE('',*,*,#148,.F.);
#196=ORIENTED_EDGE('',*,*,#147,.T.);
#197=ORIENTED_EDGE('',*,*,#149,.F.);
#198=ORIENTED_EDGE('',*,*,#150,.F.);
#199=ORIENTED_EDGE('',*,*,#151,.T.);
#200=ORIENTED_EDGE('',*,*,#149,.T.);
#201=ORIENTED_EDGE('',*,*,#151,.F.);
#202=ORIENTED_EDGE('',*,*,#150,.T.);
#203=ORIENTED_EDGE('',*,*,#152,.F.);
#204=ORIENTED_EDGE('',*,*,#153,.F.);
#205=ORIENTED_EDGE('',*,*,#154,.T.);
#206=ORIENTED_EDGE('',*,*,#152,.T.);
#207=ORIENTED_EDGE('',*,*,#154,.F.);
#208=ORIENTED_EDGE('',*,*,#153,.T.);
#209=ORIENTED_EDGE('',*,*,#155,.F.);
#210=ORIENTED_EDGE('',*,*,#156,.F.);
#211=ORIENTED_EDGE('',*,*,#157,.F.);
#212=ORIENTED_EDGE('',*,*,#158,.T.);
#213=ORIENTED_EDGE('',*,*,#155,.T.);
#214=ORIENTED_EDGE('',*,*,#158,.F.);
#215=ORIENTED_EDGE('',*,*,#131,.F.);
#216=ORIENTED_EDGE('',*,*,#159,.T.);
#217=ORIENTED_EDGE('',*,*,#156,.T.);
#218=ORIENTED_EDGE('',*,*,#157,.T.);
#219=ORIENTED_EDGE('',*,*,#159,.F.);
#220=PLANE('',#257);
#221=PLANE('',#262);
#222=PLANE('',#270);
#223=PLANE('',#280);
#224=PLANE('',#284);
#225=PLANE('',#288);
#226=ADVANCED_FACE('',(#50,#44),#220,.T.);
#227=ADVANCED_FACE('',(#51),#40,.T.);
#228=ADVANCED_FACE('',(#52,#45),#221,.T.);
#229=ADVANCED_FACE('',(#53),#41,.T.);
#230=ADVANCED_FACE('',(#54),#17,.T.);
#231=ADVANCED_FACE('',(#55),#42,.T.);
#232=ADVANCED_FACE('',(#56,#46),#222,.T.);
#233=ADVANCED_FACE('',(#57),#18,.F.);
#234=ADVANCED_FACE('',(#58),#43,.F.);
#235=ADVANCED_FACE('',(#59),#15,.F.);
#236=ADVANCED_FACE('',(#60,#47),#223,.T.);
#237=ADVANCED_FACE('',(#61),#19,.F.);
#238=ADVANCED_FACE('',(#62,#48),#224,.T.);
#239=ADVANCED_FACE('',(#63),#20,.T.);
#240=ADVANCED_FACE('',(#64,#49),#225,.T.);
#241=ADVANCED_FACE('',(#65),#21,.F.);
#242=ADVANCED_FACE('',(#66),#16,.T.);
#243=CLOSED_SHELL('',(#226,#227,#228,#229,#230,#231,#232,#233,#234,#235,
#236,#237,#238,#239,#240,#241,#242));
#244=DERIVED_UNIT_ELEMENT(#246,1.);
#245=DERIVED_UNIT_ELEMENT(#454,-3.);
#246=(
MASS_UNIT()
NAMED_UNIT(*)
SI_UNIT(.KILO.,.GRAM.)
);
#247=DERIVED_UNIT((#244,#245));
#248=MEASURE_REPRESENTATION_ITEM('density measure',
POSITIVE_RATIO_MEASURE(7850.),#247);
#249=PROPERTY_DEFINITION_REPRESENTATION(#254,#251);
#250=PROPERTY_DEFINITION_REPRESENTATION(#255,#252);
#251=REPRESENTATION('material name',(#253),#451);
#252=REPRESENTATION('density',(#248),#451);
#253=DESCRIPTIVE_REPRESENTATION_ITEM('Steel','Steel');
#254=PROPERTY_DEFINITION('material property','material name',#461);
#255=PROPERTY_DEFINITION('material property','density of part',#461);
#256=AXIS2_PLACEMENT_3D('placement',#382,#295,#296);
#257=AXIS2_PLACEMENT_3D('',#383,#297,#298);
#258=AXIS2_PLACEMENT_3D('',#385,#299,#300);
#259=AXIS2_PLACEMENT_3D('',#387,#301,#302);
#260=AXIS2_PLACEMENT_3D('',#388,#303,#304);
#261=AXIS2_PLACEMENT_3D('',#390,#305,#306);
#262=AXIS2_PLACEMENT_3D('',#392,#308,#309);
#263=AXIS2_PLACEMENT_3D('',#394,#310,#311);
#264=AXIS2_PLACEMENT_3D('',#395,#312,#313);
#265=AXIS2_PLACEMENT_3D('',#397,#314,#315);
#266=AXIS2_PLACEMENT_3D('',#399,#317,#318);
#267=AXIS2_PLACEMENT_3D('',#401,#319,#320);
#268=AXIS2_PLACEMENT_3D('',#403,#322,#323);
#269=AXIS2_PLACEMENT_3D('',#406,#325,#326);
#270=AXIS2_PLACEMENT_3D('',#407,#327,#328);
#271=AXIS2_PLACEMENT_3D('',#409,#329,#330);
#272=AXIS2_PLACEMENT_3D('',#410,#331,#332);
#273=AXIS2_PLACEMENT_3D('',#412,#333,#334);
#274=AXIS2_PLACEMENT_3D('',#414,#336,#337);
#275=AXIS2_PLACEMENT_3D('',#417,#338,#339);
#276=AXIS2_PLACEMENT_3D('',#418,#340,#341);
#277=AXIS2_PLACEMENT_3D('',#420,#343,#344);
#278=AXIS2_PLACEMENT_3D('',#422,#345,#346);
#279=AXIS2_PLACEMENT_3D('',#423,#347,#348);
#280=AXIS2_PLACEMENT_3D('',#424,#349,#350);
#281=AXIS2_PLACEMENT_3D('',#426,#351,#352);
#282=AXIS2_PLACEMENT_3D('',#427,#353,#354);
#283=AXIS2_PLACEMENT_3D('',#429,#355,#356);
#284=AXIS2_PLACEMENT_3D('',#431,#358,#359);
#285=AXIS2_PLACEMENT_3D('',#433,#360,#361);
#286=AXIS2_PLACEMENT_3D('',#434,#362,#363);
#287=AXIS2_PLACEMENT_3D('',#436,#364,#365);
#288=AXIS2_PLACEMENT_3D('',#438,#367,#368);
#289=AXIS2_PLACEMENT_3D('',#440,#369,#370);
#290=AXIS2_PLACEMENT_3D('',#441,#371,#372);
#291=AXIS2_PLACEMENT_3D('',#444,#373,#374);
#292=AXIS2_PLACEMENT_3D('',#445,#375,#376);
#293=AXIS2_PLACEMENT_3D('',#447,#378,#379);
#294=AXIS2_PLACEMENT_3D('',#448,#380,#381);
#295=DIRECTION('axis',(0.,0.,1.));
#296=DIRECTION('refdir',(1.,0.,0.));
#297=DIRECTION('center_axis',(0.,-1.,0.));
#298=DIRECTION('ref_axis',(0.,0.,-1.));
#299=DIRECTION('center_axis',(0.,1.,0.));
#300=DIRECTION('ref_axis',(-1.,0.,0.));
#301=DIRECTION('center_axis',(0.,1.,0.));
#302=DIRECTION('ref_axis',(-1.,0.,0.));
#303=DIRECTION('center_axis',(-3.148056E-14,1.,0.));
#304=DIRECTION('ref_axis',(-1.,-3.148056E-14,0.));
#305=DIRECTION('center_axis',(0.,1.,0.));
#306=DIRECTION('ref_axis',(-1.,0.,0.));
#307=DIRECTION('',(-0.0523359562429134,-0.998629534754576,6.40930612932383E-18));
#308=DIRECTION('center_axis',(0.,-1.,0.));
#309=DIRECTION('ref_axis',(0.,0.,-1.));
#310=DIRECTION('center_axis',(0.,1.,0.));
#311=DIRECTION('ref_axis',(-1.,0.,0.));
#312=DIRECTION('center_axis',(-3.148056E-14,1.,0.));
#313=DIRECTION('ref_axis',(-1.,-3.148056E-14,0.));
#314=DIRECTION('center_axis',(0.,1.,0.));
#315=DIRECTION('ref_axis',(-1.,0.,0.));
#316=DIRECTION('',(-0.866025403784442,-0.499999999999995,1.06057523872493E-16));
#317=DIRECTION('center_axis',(-3.148056E-14,1.,0.));
#318=DIRECTION('ref_axis',(-1.,-3.148056E-14,0.));
#319=DIRECTION('center_axis',(0.,1.,0.));
#320=DIRECTION('ref_axis',(-1.,0.,0.));
#321=DIRECTION('',(3.148056E-14,-1.,0.));
#322=DIRECTION('center_axis',(3.148056E-14,-1.,0.));
#323=DIRECTION('ref_axis',(-1.,-3.148056E-14,0.));
#324=DIRECTION('',(-0.707106781186438,0.707106781186657,-8.65956056235332E-17));
#325=DIRECTION('center_axis',(0.,1.,0.));
#326=DIRECTION('ref_axis',(-1.,0.,0.));
#327=DIRECTION('center_axis',(0.,1.,0.));
#328=DIRECTION('ref_axis',(0.,0.,1.));
#329=DIRECTION('center_axis',(0.,1.,0.));
#330=DIRECTION('ref_axis',(-1.,0.,0.));
#331=DIRECTION('center_axis',(-3.148056E-14,1.,0.));
#332=DIRECTION('ref_axis',(-1.,-3.148056E-14,0.));
#333=DIRECTION('center_axis',(0.,1.,0.));
#334=DIRECTION('ref_axis',(-1.,0.,0.));
#335=DIRECTION('',(-3.148056E-14,1.,0.));
#336=DIRECTION('center_axis',(-3.148056E-14,1.,0.));
#337=DIRECTION('ref_axis',(-1.,-3.148056E-14,0.));
#338=DIRECTION('center_axis',(0.,1.,0.));
#339=DIRECTION('ref_axis',(-1.,0.,0.));
#340=DIRECTION('center_axis',(0.,1.,0.));
#341=DIRECTION('ref_axis',(-1.,0.,0.));
#342=DIRECTION('',(0.0523359562429134,0.998629534754575,-6.40930612932384E-18));
#343=DIRECTION('center_axis',(-3.148056E-14,1.,0.));
#344=DIRECTION('ref_axis',(0.,0.,1.));
#345=DIRECTION('center_axis',(0.,1.,0.));
#346=DIRECTION('ref_axis',(-1.,0.,0.));
#347=DIRECTION('center_axis',(1.,3.148056E-14,-1.22464679914736E-16));
#348=DIRECTION('ref_axis',(-1.22464679914736E-16,0.,-1.));
#349=DIRECTION('center_axis',(0.,1.,0.));
#350=DIRECTION('ref_axis',(0.,0.,1.));
#351=DIRECTION('center_axis',(0.,1.,0.));
#352=DIRECTION('ref_axis',(-1.,0.,0.));
#353=DIRECTION('center_axis',(-3.148056E-14,1.,0.));
#354=DIRECTION('ref_axis',(-1.,-3.148056E-14,0.));
#355=DIRECTION('center_axis',(0.,1.,0.));
#356=DIRECTION('ref_axis',(-1.,0.,0.));
#357=DIRECTION('',(-3.148056E-14,1.,0.));
#358=DIRECTION('center_axis',(0.,1.,0.));
#359=DIRECTION('ref_axis',(0.,0.,1.));
#360=DIRECTION('center_axis',(0.,1.,0.));
#361=DIRECTION('ref_axis',(-1.,0.,0.));
#362=DIRECTION('center_axis',(-3.148056E-14,1.,0.));
#363=DIRECTION('ref_axis',(-1.,-3.148056E-14,0.));
#364=DIRECTION('center_axis',(0.,1.,0.));
#365=DIRECTION('ref_axis',(-1.,0.,0.));
#366=DIRECTION('',(3.148056E-14,-1.,0.));
#367=DIRECTION('center_axis',(0.,1.,0.));
#368=DIRECTION('ref_axis',(0.,0.,1.));
#369=DIRECTION('center_axis',(0.,1.,0.));
#370=DIRECTION('ref_axis',(-1.,0.,0.));
#371=DIRECTION('center_axis',(-3.148056E-14,1.,0.));
#372=DIRECTION('ref_axis',(-1.,-3.148056E-14,0.));
#373=DIRECTION('center_axis',(0.,1.,0.));
#374=DIRECTION('ref_axis',(-1.,0.,0.));
#375=DIRECTION('center_axis',(0.,1.,0.));
#376=DIRECTION('ref_axis',(-1.,0.,0.));
#377=DIRECTION('',(-3.148056E-14,1.,0.));
#378=DIRECTION('center_axis',(-3.148056E-14,1.,0.));
#379=DIRECTION('ref_axis',(0.,0.,1.));
#380=DIRECTION('center_axis',(-1.,-3.148056E-14,1.22464679914735E-16));
#381=DIRECTION('ref_axis',(-1.22464679914735E-16,0.,-1.));
#382=CARTESIAN_POINT('',(0.,0.,0.));
#383=CARTESIAN_POINT('Origin',(-40.7542521936223,6.31142810601636,0.));
#384=CARTESIAN_POINT('',(49.0085043872441,6.31142810601768,-6.00181080288377E-15));
#385=CARTESIAN_POINT('Origin',(-1.986873E-13,6.31142810601768,0.));
#386=CARTESIAN_POINT('',(-2.05449262097229E-13,6.31142810601762,-32.4999999999998));
#387=CARTESIAN_POINT('Origin',(-1.986873E-13,6.31142810601762,0.));
#388=CARTESIAN_POINT('Origin',(-7.968179E-13,25.3114281060177,0.));
#389=CARTESIAN_POINT('',(50.9999999999987,44.311428106021,-6.24569867565151E-15));
#390=CARTESIAN_POINT('Origin',(-1.394948E-12,44.3114281060178,0.));
#391=CARTESIAN_POINT('',(50.0042521936214,25.3114281060193,-6.12375473926764E-15));
#392=CARTESIAN_POINT('Origin',(-52.2500000000014,44.3114281060161,0.));
#393=CARTESIAN_POINT('',(53.4999999999979,44.3114281060191,-6.55186037543825E-15));
#394=CARTESIAN_POINT('Origin',(-1.394948E-12,44.3114281060178,0.));
#395=CARTESIAN_POINT('Origin',(-1.422211E-12,45.1774535098022,0.));
#396=CARTESIAN_POINT('',(56.4999999999992,46.0434789135887,-6.91925441518263E-15));
#397=CARTESIAN_POINT('Origin',(-1.449474E-12,46.0434789135865,0.));
#398=CARTESIAN_POINT('',(54.9999999999985,45.1774535098039,-6.73555739531044E-15));
#399=CARTESIAN_POINT('Origin',(-1.532393E-12,48.677453509802,0.));
#400=CARTESIAN_POINT('',(56.4999999999984,51.311428106021,-6.91925441518255E-15));
#401=CARTESIAN_POINT('Origin',(-1.615312E-12,51.3114281060175,0.));
#402=CARTESIAN_POINT('',(56.4999999999985,48.6774535098038,-6.91925441518255E-15));
#403=CARTESIAN_POINT('Origin',(-1.631053E-12,51.8114281060177,0.));
#404=CARTESIAN_POINT('',(55.4999999999976,52.3114281060205,6.79678973526772E-15));
#405=CARTESIAN_POINT('',(55.9999999999986,51.8114281060194,6.8580220752252E-15));
#406=CARTESIAN_POINT('Origin',(-1.646793E-12,52.3114281060179,0.));
#407=CARTESIAN_POINT('Origin',(-50.2500000000018,52.3114281060161,0.));
#408=CARTESIAN_POINT('',(44.9999999999983,52.3114281060204,-5.51091059616309E-15));
#409=CARTESIAN_POINT('Origin',(-1.646793E-12,52.3114281060175,0.));
#410=CARTESIAN_POINT('Origin',(-1.615312E-12,51.3114281060176,0.));
#411=CARTESIAN_POINT('',(44.9999999999984,50.3114281060176,-5.51091059616309E-15));
#412=CARTESIAN_POINT('Origin',(-1.583832E-12,50.3114281060176,0.));
#413=CARTESIAN_POINT('',(44.9999999999984,51.311428106019,-5.51091059616309E-15));
#414=CARTESIAN_POINT('Origin',(-1.083894E-12,34.4305882154101,0.));
#415=CARTESIAN_POINT('',(-5.9214873484501E-13,18.5497483248027,-43.3354408963672));
#416=CARTESIAN_POINT('',(43.3354408963666,18.5497483248027,-5.30706089833753E-15));
#417=CARTESIAN_POINT('Origin',(-5.839564E-13,18.5497483248027,0.));
#418=CARTESIAN_POINT('Origin',(-5.839564E-13,18.5497483248027,0.));
#419=CARTESIAN_POINT('',(44.1677204481824,34.4305882154115,-5.4089857472503E-15));
#420=CARTESIAN_POINT('Origin',(-5.950795E-13,18.8114281060178,0.));
#421=CARTESIAN_POINT('',(-4.42372276666714E-13,13.8114281060182,-38.3422932225945));
#422=CARTESIAN_POINT('Origin',(-4.347915E-13,13.8114281060182,0.));
#423=CARTESIAN_POINT('Origin',(-5.99775076666702E-13,18.8114281060178,-38.3422932225947));
#424=CARTESIAN_POINT('Origin',(-37.1711466112977,13.8114281060168,0.));
#425=CARTESIAN_POINT('',(35.9999999999996,13.81142810602,-4.40872847693048E-15));
#426=CARTESIAN_POINT('Origin',(-4.347915E-13,13.8114281060177,0.));
#427=CARTESIAN_POINT('Origin',(-4.143291E-13,13.1614281060176,0.));
#428=CARTESIAN_POINT('',(35.9999999999997,12.5114281060175,-4.40872847693048E-15));
#429=CARTESIAN_POINT('Origin',(-3.938667E-13,12.5114281060175,0.));
#430=CARTESIAN_POINT('',(35.9999999999996,13.1614281060188,-4.40872847693048E-15));
#431=CARTESIAN_POINT('Origin',(-35.4000000000003,12.5114281060164,0.));
#432=CARTESIAN_POINT('',(34.7999999999994,12.5114281060175,-4.26177086103276E-15));
#433=CARTESIAN_POINT('Origin',(-3.938667E-13,12.5114281060175,0.));
#434=CARTESIAN_POINT('Origin',(-3.985888E-13,12.6614281060176,0.));
#435=CARTESIAN_POINT('',(34.7999999999994,12.8114281060199,-4.26177086103276E-15));
#436=CARTESIAN_POINT('Origin',(-4.033109E-13,12.8114281060177,0.));
#437=CARTESIAN_POINT('',(34.7999999999994,12.6614281060187,-4.26177086103276E-15));
#438=CARTESIAN_POINT('Origin',(-32.9000000000003,12.8114281060166,0.));
#439=CARTESIAN_POINT('',(30.9999999999995,12.8114281060195,-3.79640507735678E-15));
#440=CARTESIAN_POINT('Origin',(-4.033109E-13,12.8114281060176,0.));
#441=CARTESIAN_POINT('Origin',(-3.246095E-13,10.3114281060176,0.));
#442=CARTESIAN_POINT('',(-2.52486405077355E-13,7.81142810601757,-30.9999999999997));
#443=CARTESIAN_POINT('',(30.9999999999997,7.81142810601757,-3.79640507735678E-15));
#444=CARTESIAN_POINT('Origin',(-2.459081E-13,7.81142810601757,0.));
#445=CARTESIAN_POINT('Origin',(-2.459081E-13,7.81142810601757,0.));
#446=CARTESIAN_POINT('',(30.9999999999996,10.3114281060185,-3.79640507735678E-15));
#447=CARTESIAN_POINT('Origin',(-2.4869E-13,7.81142810601762,0.));
#448=CARTESIAN_POINT('Origin',(-2.52670102097229E-13,7.81142810601762,-32.4999999999998));
#449=UNCERTAINTY_MEASURE_WITH_UNIT(LENGTH_MEASURE(0.01),#453,
'DISTANCE_ACCURACY_VALUE',
'Maximum model space distance between geometric entities at asserted c
onnectivities');
#450=UNCERTAINTY_MEASURE_WITH_UNIT(LENGTH_MEASURE(0.01),#453,
'DISTANCE_ACCURACY_VALUE',
'Maximum model space distance between geometric entities at asserted c
onnectivities');
#451=(
GEOMETRIC_REPRESENTATION_CONTEXT(3)
GLOBAL_UNCERTAINTY_ASSIGNED_CONTEXT((#449))
GLOBAL_UNIT_ASSIGNED_CONTEXT((#453,#455,#456))
REPRESENTATION_CONTEXT('','3D')
);
#452=(
GEOMETRIC_REPRESENTATION_CONTEXT(3)
GLOBAL_UNCERTAINTY_ASSIGNED_CONTEXT((#450))
GLOBAL_UNIT_ASSIGNED_CONTEXT((#453,#455,#456))
REPRESENTATION_CONTEXT('','3D')
);
#453=(
LENGTH_UNIT()
NAMED_UNIT(*)
SI_UNIT(.MILLI.,.METRE.)
);
#454=(
LENGTH_UNIT()
NAMED_UNIT(*)
SI_UNIT($,.METRE.)
);
#455=(
NAMED_UNIT(*)
PLANE_ANGLE_UNIT()
SI_UNIT($,.RADIAN.)
);
#456=(
NAMED_UNIT(*)
SI_UNIT($,.STERADIAN.)
SOLID_ANGLE_UNIT()
);
#457=SHAPE_DEFINITION_REPRESENTATION(#458,#459);
#458=PRODUCT_DEFINITION_SHAPE('',$,#461);
#459=SHAPE_REPRESENTATION('',(#256),#451);
#460=PRODUCT_DEFINITION_CONTEXT('part definition',#465,'design');
#461=PRODUCT_DEFINITION('6116 - DN65','6116 - DN65 v1',#462,#460);
#462=PRODUCT_DEFINITION_FORMATION('',$,#467);
#463=PRODUCT_RELATED_PRODUCT_CATEGORY('6116 - DN65 v1','6116 - DN65 v1',
(#467));
#464=APPLICATION_PROTOCOL_DEFINITION('international standard',
'automotive_design',2009,#465);
#465=APPLICATION_CONTEXT(
'Core Data for Automotive Mechanical Design Process');
#466=PRODUCT_CONTEXT('part definition',#465,'mechanical');
#467=PRODUCT('6116 - DN65','6116 - DN65 v1',$,(#466));
#468=PRESENTATION_STYLE_ASSIGNMENT((#470));
#469=PRESENTATION_STYLE_ASSIGNMENT((#471));
#470=SURFACE_STYLE_USAGE(.BOTH.,#472);
#471=SURFACE_STYLE_USAGE(.BOTH.,#473);
#472=SURFACE_SIDE_STYLE('',(#474));
#473=SURFACE_SIDE_STYLE('',(#475));
#474=SURFACE_STYLE_FILL_AREA(#476);
#475=SURFACE_STYLE_FILL_AREA(#477);
#476=FILL_AREA_STYLE('Steel - Satin',(#478));
#477=FILL_AREA_STYLE('Opaque(191,191,191)',(#479));
#478=FILL_AREA_STYLE_COLOUR('Steel - Satin',#480);
#479=FILL_AREA_STYLE_COLOUR('Opaque(191,191,191)',#481);
#480=COLOUR_RGB('Steel - Satin',0.627450980392157,0.627450980392157,0.627450980392157);
#481=COLOUR_RGB('Opaque(191,191,191)',0.749019607843137,0.749019607843137,
0.749019607843137);
ENDSEC;
END-ISO-10303-21;
