ISO-10303-21;
HEADER;
/* Generated by software containing ST-Developer
 * from STEP Tools, Inc. (www.steptools.com) 
 */

FILE_DESCRIPTION(
/* description */ (''),
/* implementation_level */ '2;1');

FILE_NAME(
/* name */ '6116 - DN40.step',
/* time_stamp */ '2022-12-20T09:04:42+01:00',
/* author */ (''),
/* organization */ (''),
/* preprocessor_version */ 'ST-DEVELOPER v19.2',
/* originating_system */ 'Autodesk Translation Framework v11.17.0.187',

/* authorisation */ '');

FILE_SCHEMA (('AUTOMOTIVE_DESIGN { 1 0 10303 214 3 1 1 }'));
ENDSEC;

DATA;
#10=MECHANICAL_DESIGN_GEOMETRIC_PRESENTATION_REPRESENTATION('',(#13),#452);
#11=SHAPE_REPRESENTATION_RELATIONSHIP('SRR','None',#459,#12);
#12=ADVANCED_BREP_SHAPE_REPRESENTATION('',(#14),#451);
#13=STYLED_ITEM('',(#469),#14);
#14=MANIFOLD_SOLID_BREP('Body1',#243);
#15=TOROIDAL_SURFACE('',#269,25.4358734744912,4.);
#16=TOROIDAL_SURFACE('',#285,21.5,1.5);
#17=FACE_BOUND('',#53,.T.);
#18=FACE_BOUND('',#58,.T.);
#19=FACE_BOUND('',#61,.T.);
#20=FACE_BOUND('',#64,.T.);
#21=FACE_BOUND('',#68,.T.);
#22=FACE_BOUND('',#71,.T.);
#23=PLANE('',#262);
#24=PLANE('',#272);
#25=PLANE('',#276);
#26=PLANE('',#280);
#27=PLANE('',#288);
#28=PLANE('',#292);
#29=CONICAL_SURFACE('',#260,40.,0.785398163397457);
#30=CONICAL_SURFACE('',#266,29.9651958067548,0.0523598775598139);
#31=CONICAL_SURFACE('',#290,34.8973105382452,0.0523598775598179);
#32=CONICAL_SURFACE('',#294,39.6339745962155,1.04719755119665);
#33=FACE_OUTER_BOUND('',#50,.T.);
#34=FACE_OUTER_BOUND('',#51,.T.);
#35=FACE_OUTER_BOUND('',#52,.T.);
#36=FACE_OUTER_BOUND('',#54,.T.);
#37=FACE_OUTER_BOUND('',#55,.T.);
#38=FACE_OUTER_BOUND('',#56,.T.);
#39=FACE_OUTER_BOUND('',#57,.T.);
#40=FACE_OUTER_BOUND('',#59,.T.);
#41=FACE_OUTER_BOUND('',#60,.T.);
#42=FACE_OUTER_BOUND('',#62,.T.);
#43=FACE_OUTER_BOUND('',#63,.T.);
#44=FACE_OUTER_BOUND('',#65,.T.);
#45=FACE_OUTER_BOUND('',#66,.T.);
#46=FACE_OUTER_BOUND('',#67,.T.);
#47=FACE_OUTER_BOUND('',#69,.T.);
#48=FACE_OUTER_BOUND('',#70,.T.);
#49=FACE_OUTER_BOUND('',#72,.T.);
#50=EDGE_LOOP('',(#161,#162,#163,#164));
#51=EDGE_LOOP('',(#165,#166,#167,#168));
#52=EDGE_LOOP('',(#169));
#53=EDGE_LOOP('',(#170));
#54=EDGE_LOOP('',(#171,#172,#173,#174));
#55=EDGE_LOOP('',(#175,#176,#177,#178,#179));
#56=EDGE_LOOP('',(#180,#181,#182,#183,#184));
#57=EDGE_LOOP('',(#185));
#58=EDGE_LOOP('',(#186));
#59=EDGE_LOOP('',(#187,#188,#189,#190));
#60=EDGE_LOOP('',(#191));
#61=EDGE_LOOP('',(#192));
#62=EDGE_LOOP('',(#193,#194,#195,#196));
#63=EDGE_LOOP('',(#197));
#64=EDGE_LOOP('',(#198));
#65=EDGE_LOOP('',(#199,#200,#201,#202,#203));
#66=EDGE_LOOP('',(#204,#205,#206,#207,#208));
#67=EDGE_LOOP('',(#209));
#68=EDGE_LOOP('',(#210));
#69=EDGE_LOOP('',(#211,#212,#213,#214));
#70=EDGE_LOOP('',(#215));
#71=EDGE_LOOP('',(#216));
#72=EDGE_LOOP('',(#217,#218,#219,#220));
#73=LINE('',#387,#82);
#74=LINE('',#391,#83);
#75=LINE('',#399,#84);
#76=LINE('',#404,#85);
#77=LINE('',#416,#86);
#78=LINE('',#423,#87);
#79=LINE('',#431,#88);
#80=LINE('',#443,#89);
#81=LINE('',#448,#90);
#82=VECTOR('',#301,40.5);
#83=VECTOR('',#306,40.);
#84=VECTOR('',#317,30.5);
#85=VECTOR('',#322,29.9651958067548);
#86=VECTOR('',#339,23.4000000000001);
#87=VECTOR('',#348,22.1999999999998);
#88=VECTOR('',#357,20.);
#89=VECTOR('',#374,34.8973105382452);
#90=VECTOR('',#381,39.6339745962155);
#91=CIRCLE('',#258,40.5);
#92=CIRCLE('',#259,40.5);
#93=CIRCLE('',#261,39.5);
#94=CIRCLE('',#263,30.5);
#95=CIRCLE('',#265,30.5);
#96=CIRCLE('',#267,29.4303916135095);
#97=CIRCLE('',#268,29.4303916135095);
#98=CIRCLE('',#270,25.435873474491);
#99=CIRCLE('',#271,4.);
#100=CIRCLE('',#273,23.4000000000001);
#101=CIRCLE('',#275,23.4000000000001);
#102=CIRCLE('',#277,22.1999999999998);
#103=CIRCLE('',#279,22.1999999999998);
#104=CIRCLE('',#281,20.);
#105=CIRCLE('',#283,20.);
#106=CIRCLE('',#284,20.);
#107=CIRCLE('',#286,21.5);
#108=CIRCLE('',#287,1.5);
#109=CIRCLE('',#289,34.2946210764903);
#110=CIRCLE('',#291,35.5);
#111=CIRCLE('',#293,38.7679491924309);
#112=VERTEX_POINT('',#384);
#113=VERTEX_POINT('',#386);
#114=VERTEX_POINT('',#390);
#115=VERTEX_POINT('',#394);
#116=VERTEX_POINT('',#397);
#117=VERTEX_POINT('',#401);
#118=VERTEX_POINT('',#402);
#119=VERTEX_POINT('',#407);
#120=VERTEX_POINT('',#411);
#121=VERTEX_POINT('',#414);
#122=VERTEX_POINT('',#418);
#123=VERTEX_POINT('',#421);
#124=VERTEX_POINT('',#425);
#125=VERTEX_POINT('',#428);
#126=VERTEX_POINT('',#429);
#127=VERTEX_POINT('',#434);
#128=VERTEX_POINT('',#438);
#129=VERTEX_POINT('',#441);
#130=VERTEX_POINT('',#445);
#131=EDGE_CURVE('',#112,#112,#91,.T.);
#132=EDGE_CURVE('',#112,#113,#73,.T.);
#133=EDGE_CURVE('',#113,#113,#92,.T.);
#134=EDGE_CURVE('',#112,#114,#74,.T.);
#135=EDGE_CURVE('',#114,#114,#93,.T.);
#136=EDGE_CURVE('',#115,#115,#94,.T.);
#137=EDGE_CURVE('',#116,#116,#95,.T.);
#138=EDGE_CURVE('',#116,#115,#75,.T.);
#139=EDGE_CURVE('',#117,#118,#96,.T.);
#140=EDGE_CURVE('',#117,#116,#76,.T.);
#141=EDGE_CURVE('',#118,#117,#97,.T.);
#142=EDGE_CURVE('',#119,#119,#98,.T.);
#143=EDGE_CURVE('',#119,#118,#99,.T.);
#144=EDGE_CURVE('',#120,#120,#100,.T.);
#145=EDGE_CURVE('',#121,#121,#101,.T.);
#146=EDGE_CURVE('',#121,#120,#77,.T.);
#147=EDGE_CURVE('',#122,#122,#102,.T.);
#148=EDGE_CURVE('',#123,#123,#103,.T.);
#149=EDGE_CURVE('',#123,#122,#78,.T.);
#150=EDGE_CURVE('',#124,#124,#104,.T.);
#151=EDGE_CURVE('',#125,#126,#105,.T.);
#152=EDGE_CURVE('',#125,#124,#79,.T.);
#153=EDGE_CURVE('',#126,#125,#106,.T.);
#154=EDGE_CURVE('',#127,#127,#107,.T.);
#155=EDGE_CURVE('',#127,#126,#108,.T.);
#156=EDGE_CURVE('',#128,#128,#109,.T.);
#157=EDGE_CURVE('',#129,#129,#110,.T.);
#158=EDGE_CURVE('',#129,#128,#80,.T.);
#159=EDGE_CURVE('',#130,#130,#111,.T.);
#160=EDGE_CURVE('',#113,#130,#81,.T.);
#161=ORIENTED_EDGE('',*,*,#131,.F.);
#162=ORIENTED_EDGE('',*,*,#132,.T.);
#163=ORIENTED_EDGE('',*,*,#133,.T.);
#164=ORIENTED_EDGE('',*,*,#132,.F.);
#165=ORIENTED_EDGE('',*,*,#131,.T.);
#166=ORIENTED_EDGE('',*,*,#134,.T.);
#167=ORIENTED_EDGE('',*,*,#135,.F.);
#168=ORIENTED_EDGE('',*,*,#134,.F.);
#169=ORIENTED_EDGE('',*,*,#135,.T.);
#170=ORIENTED_EDGE('',*,*,#136,.F.);
#171=ORIENTED_EDGE('',*,*,#137,.F.);
#172=ORIENTED_EDGE('',*,*,#138,.T.);
#173=ORIENTED_EDGE('',*,*,#136,.T.);
#174=ORIENTED_EDGE('',*,*,#138,.F.);
#175=ORIENTED_EDGE('',*,*,#139,.F.);
#176=ORIENTED_EDGE('',*,*,#140,.T.);
#177=ORIENTED_EDGE('',*,*,#137,.T.);
#178=ORIENTED_EDGE('',*,*,#140,.F.);
#179=ORIENTED_EDGE('',*,*,#141,.F.);
#180=ORIENTED_EDGE('',*,*,#142,.F.);
#181=ORIENTED_EDGE('',*,*,#143,.T.);
#182=ORIENTED_EDGE('',*,*,#141,.T.);
#183=ORIENTED_EDGE('',*,*,#139,.T.);
#184=ORIENTED_EDGE('',*,*,#143,.F.);
#185=ORIENTED_EDGE('',*,*,#142,.T.);
#186=ORIENTED_EDGE('',*,*,#144,.F.);
#187=ORIENTED_EDGE('',*,*,#145,.F.);
#188=ORIENTED_EDGE('',*,*,#146,.T.);
#189=ORIENTED_EDGE('',*,*,#144,.T.);
#190=ORIENTED_EDGE('',*,*,#146,.F.);
#191=ORIENTED_EDGE('',*,*,#145,.T.);
#192=ORIENTED_EDGE('',*,*,#147,.F.);
#193=ORIENTED_EDGE('',*,*,#148,.F.);
#194=ORIENTED_EDGE('',*,*,#149,.T.);
#195=ORIENTED_EDGE('',*,*,#147,.T.);
#196=ORIENTED_EDGE('',*,*,#149,.F.);
#197=ORIENTED_EDGE('',*,*,#148,.T.);
#198=ORIENTED_EDGE('',*,*,#150,.F.);
#199=ORIENTED_EDGE('',*,*,#151,.F.);
#200=ORIENTED_EDGE('',*,*,#152,.T.);
#201=ORIENTED_EDGE('',*,*,#150,.T.);
#202=ORIENTED_EDGE('',*,*,#152,.F.);
#203=ORIENTED_EDGE('',*,*,#153,.F.);
#204=ORIENTED_EDGE('',*,*,#154,.F.);
#205=ORIENTED_EDGE('',*,*,#155,.T.);
#206=ORIENTED_EDGE('',*,*,#153,.T.);
#207=ORIENTED_EDGE('',*,*,#151,.T.);
#208=ORIENTED_EDGE('',*,*,#155,.F.);
#209=ORIENTED_EDGE('',*,*,#156,.F.);
#210=ORIENTED_EDGE('',*,*,#154,.T.);
#211=ORIENTED_EDGE('',*,*,#157,.F.);
#212=ORIENTED_EDGE('',*,*,#158,.T.);
#213=ORIENTED_EDGE('',*,*,#156,.T.);
#214=ORIENTED_EDGE('',*,*,#158,.F.);
#215=ORIENTED_EDGE('',*,*,#159,.F.);
#216=ORIENTED_EDGE('',*,*,#157,.T.);
#217=ORIENTED_EDGE('',*,*,#133,.F.);
#218=ORIENTED_EDGE('',*,*,#160,.T.);
#219=ORIENTED_EDGE('',*,*,#159,.T.);
#220=ORIENTED_EDGE('',*,*,#160,.F.);
#221=CYLINDRICAL_SURFACE('',#257,40.5);
#222=CYLINDRICAL_SURFACE('',#264,30.5);
#223=CYLINDRICAL_SURFACE('',#274,23.4000000000001);
#224=CYLINDRICAL_SURFACE('',#278,22.1999999999998);
#225=CYLINDRICAL_SURFACE('',#282,20.);
#226=ADVANCED_FACE('',(#33),#221,.T.);
#227=ADVANCED_FACE('',(#34),#29,.T.);
#228=ADVANCED_FACE('',(#35,#17),#23,.T.);
#229=ADVANCED_FACE('',(#36),#222,.F.);
#230=ADVANCED_FACE('',(#37),#30,.F.);
#231=ADVANCED_FACE('',(#38),#15,.F.);
#232=ADVANCED_FACE('',(#39,#18),#24,.T.);
#233=ADVANCED_FACE('',(#40),#223,.F.);
#234=ADVANCED_FACE('',(#41,#19),#25,.T.);
#235=ADVANCED_FACE('',(#42),#224,.T.);
#236=ADVANCED_FACE('',(#43,#20),#26,.T.);
#237=ADVANCED_FACE('',(#44),#225,.F.);
#238=ADVANCED_FACE('',(#45),#16,.T.);
#239=ADVANCED_FACE('',(#46,#21),#27,.T.);
#240=ADVANCED_FACE('',(#47),#31,.T.);
#241=ADVANCED_FACE('',(#48,#22),#28,.T.);
#242=ADVANCED_FACE('',(#49),#32,.T.);
#243=CLOSED_SHELL('',(#226,#227,#228,#229,#230,#231,#232,#233,#234,#235,
#236,#237,#238,#239,#240,#241,#242));
#244=DERIVED_UNIT_ELEMENT(#246,1.);
#245=DERIVED_UNIT_ELEMENT(#454,-3.);
#246=(
MASS_UNIT()
NAMED_UNIT(*)
SI_UNIT(.KILO.,.GRAM.)
);
#247=DERIVED_UNIT((#244,#245));
#248=MEASURE_REPRESENTATION_ITEM('density measure',
POSITIVE_RATIO_MEASURE(7850.),#247);
#249=PROPERTY_DEFINITION_REPRESENTATION(#254,#251);
#250=PROPERTY_DEFINITION_REPRESENTATION(#255,#252);
#251=REPRESENTATION('material name',(#253),#451);
#252=REPRESENTATION('density',(#248),#451);
#253=DESCRIPTIVE_REPRESENTATION_ITEM('Steel','Steel');
#254=PROPERTY_DEFINITION('material property','material name',#461);
#255=PROPERTY_DEFINITION('material property','density of part',#461);
#256=AXIS2_PLACEMENT_3D('placement',#382,#295,#296);
#257=AXIS2_PLACEMENT_3D('',#383,#297,#298);
#258=AXIS2_PLACEMENT_3D('',#385,#299,#300);
#259=AXIS2_PLACEMENT_3D('',#388,#302,#303);
#260=AXIS2_PLACEMENT_3D('',#389,#304,#305);
#261=AXIS2_PLACEMENT_3D('',#392,#307,#308);
#262=AXIS2_PLACEMENT_3D('',#393,#309,#310);
#263=AXIS2_PLACEMENT_3D('',#395,#311,#312);
#264=AXIS2_PLACEMENT_3D('',#396,#313,#314);
#265=AXIS2_PLACEMENT_3D('',#398,#315,#316);
#266=AXIS2_PLACEMENT_3D('',#400,#318,#319);
#267=AXIS2_PLACEMENT_3D('',#403,#320,#321);
#268=AXIS2_PLACEMENT_3D('',#405,#323,#324);
#269=AXIS2_PLACEMENT_3D('',#406,#325,#326);
#270=AXIS2_PLACEMENT_3D('',#408,#327,#328);
#271=AXIS2_PLACEMENT_3D('',#409,#329,#330);
#272=AXIS2_PLACEMENT_3D('',#410,#331,#332);
#273=AXIS2_PLACEMENT_3D('',#412,#333,#334);
#274=AXIS2_PLACEMENT_3D('',#413,#335,#336);
#275=AXIS2_PLACEMENT_3D('',#415,#337,#338);
#276=AXIS2_PLACEMENT_3D('',#417,#340,#341);
#277=AXIS2_PLACEMENT_3D('',#419,#342,#343);
#278=AXIS2_PLACEMENT_3D('',#420,#344,#345);
#279=AXIS2_PLACEMENT_3D('',#422,#346,#347);
#280=AXIS2_PLACEMENT_3D('',#424,#349,#350);
#281=AXIS2_PLACEMENT_3D('',#426,#351,#352);
#282=AXIS2_PLACEMENT_3D('',#427,#353,#354);
#283=AXIS2_PLACEMENT_3D('',#430,#355,#356);
#284=AXIS2_PLACEMENT_3D('',#432,#358,#359);
#285=AXIS2_PLACEMENT_3D('',#433,#360,#361);
#286=AXIS2_PLACEMENT_3D('',#435,#362,#363);
#287=AXIS2_PLACEMENT_3D('',#436,#364,#365);
#288=AXIS2_PLACEMENT_3D('',#437,#366,#367);
#289=AXIS2_PLACEMENT_3D('',#439,#368,#369);
#290=AXIS2_PLACEMENT_3D('',#440,#370,#371);
#291=AXIS2_PLACEMENT_3D('',#442,#372,#373);
#292=AXIS2_PLACEMENT_3D('',#444,#375,#376);
#293=AXIS2_PLACEMENT_3D('',#446,#377,#378);
#294=AXIS2_PLACEMENT_3D('',#447,#379,#380);
#295=DIRECTION('axis',(0.,0.,1.));
#296=DIRECTION('refdir',(1.,0.,0.));
#297=DIRECTION('center_axis',(0.,1.,0.));
#298=DIRECTION('ref_axis',(1.,0.,0.));
#299=DIRECTION('center_axis',(0.,1.,0.));
#300=DIRECTION('ref_axis',(1.,0.,0.));
#301=DIRECTION('',(0.,-1.,0.));
#302=DIRECTION('center_axis',(0.,1.,0.));
#303=DIRECTION('ref_axis',(1.,0.,0.));
#304=DIRECTION('center_axis',(0.,-1.,0.));
#305=DIRECTION('ref_axis',(1.,0.,0.));
#306=DIRECTION('',(0.707106781186554,0.707106781186541,8.65956056235501E-17));
#307=DIRECTION('center_axis',(0.,1.,0.));
#308=DIRECTION('ref_axis',(1.,0.,0.));
#309=DIRECTION('center_axis',(0.,1.,0.));
#310=DIRECTION('ref_axis',(0.,0.,1.));
#311=DIRECTION('center_axis',(0.,1.,0.));
#312=DIRECTION('ref_axis',(1.,0.,0.));
#313=DIRECTION('center_axis',(0.,1.,0.));
#314=DIRECTION('ref_axis',(1.,0.,0.));
#315=DIRECTION('center_axis',(0.,1.,0.));
#316=DIRECTION('ref_axis',(1.,0.,0.));
#317=DIRECTION('',(0.,1.,0.));
#318=DIRECTION('center_axis',(0.,1.,0.));
#319=DIRECTION('ref_axis',(1.,0.,0.));
#320=DIRECTION('center_axis',(0.,1.,0.));
#321=DIRECTION('ref_axis',(1.,0.,0.));
#322=DIRECTION('',(-0.0523359562429278,0.998629534754575,6.40930612932175E-18));
#323=DIRECTION('center_axis',(0.,1.,0.));
#324=DIRECTION('ref_axis',(1.,0.,0.));
#325=DIRECTION('center_axis',(0.,1.,0.));
#326=DIRECTION('ref_axis',(0.,0.,1.));
#327=DIRECTION('center_axis',(0.,1.,0.));
#328=DIRECTION('ref_axis',(1.,0.,0.));
#329=DIRECTION('center_axis',(1.,0.,-1.22464679914735E-16));
#330=DIRECTION('ref_axis',(-1.22464679914735E-16,0.,-1.));
#331=DIRECTION('center_axis',(0.,1.,0.));
#332=DIRECTION('ref_axis',(0.,0.,1.));
#333=DIRECTION('center_axis',(0.,1.,0.));
#334=DIRECTION('ref_axis',(1.,0.,0.));
#335=DIRECTION('center_axis',(0.,1.,0.));
#336=DIRECTION('ref_axis',(1.,0.,0.));
#337=DIRECTION('center_axis',(0.,1.,0.));
#338=DIRECTION('ref_axis',(1.,0.,0.));
#339=DIRECTION('',(0.,1.,0.));
#340=DIRECTION('center_axis',(0.,1.,0.));
#341=DIRECTION('ref_axis',(0.,0.,1.));
#342=DIRECTION('center_axis',(0.,1.,0.));
#343=DIRECTION('ref_axis',(1.,0.,0.));
#344=DIRECTION('center_axis',(0.,1.,0.));
#345=DIRECTION('ref_axis',(1.,0.,0.));
#346=DIRECTION('center_axis',(0.,1.,0.));
#347=DIRECTION('ref_axis',(1.,0.,0.));
#348=DIRECTION('',(0.,-1.,0.));
#349=DIRECTION('center_axis',(0.,1.,0.));
#350=DIRECTION('ref_axis',(0.,0.,1.));
#351=DIRECTION('center_axis',(0.,1.,0.));
#352=DIRECTION('ref_axis',(1.,0.,0.));
#353=DIRECTION('center_axis',(0.,1.,0.));
#354=DIRECTION('ref_axis',(1.,0.,0.));
#355=DIRECTION('center_axis',(0.,1.,0.));
#356=DIRECTION('ref_axis',(1.,0.,0.));
#357=DIRECTION('',(0.,1.,0.));
#358=DIRECTION('center_axis',(0.,1.,0.));
#359=DIRECTION('ref_axis',(1.,0.,0.));
#360=DIRECTION('center_axis',(0.,1.,0.));
#361=DIRECTION('ref_axis',(0.,0.,1.));
#362=DIRECTION('center_axis',(0.,1.,0.));
#363=DIRECTION('ref_axis',(1.,0.,0.));
#364=DIRECTION('center_axis',(-1.,0.,1.22464679914735E-16));
#365=DIRECTION('ref_axis',(-1.22464679914735E-16,0.,-1.));
#366=DIRECTION('center_axis',(0.,-1.,0.));
#367=DIRECTION('ref_axis',(0.,0.,-1.));
#368=DIRECTION('center_axis',(0.,1.,0.));
#369=DIRECTION('ref_axis',(1.,0.,0.));
#370=DIRECTION('center_axis',(0.,1.,0.));
#371=DIRECTION('ref_axis',(1.,0.,0.));
#372=DIRECTION('center_axis',(0.,1.,0.));
#373=DIRECTION('ref_axis',(1.,0.,0.));
#374=DIRECTION('',(0.0523359562429319,-0.998629534754574,-6.40930612932224E-18));
#375=DIRECTION('center_axis',(0.,-1.,0.));
#376=DIRECTION('ref_axis',(0.,0.,-1.));
#377=DIRECTION('center_axis',(0.,1.,0.));
#378=DIRECTION('ref_axis',(1.,0.,0.));
#379=DIRECTION('center_axis',(0.,1.,0.));
#380=DIRECTION('ref_axis',(1.,0.,0.));
#381=DIRECTION('',(0.866025403784465,-0.499999999999955,-1.06057523872494E-16));
#382=CARTESIAN_POINT('',(0.,0.,0.));
#383=CARTESIAN_POINT('Origin',(0.,33.077150713937,0.));
#384=CARTESIAN_POINT('',(-40.5,36.077150713937,4.95981953654678E-15));
#385=CARTESIAN_POINT('Origin',(0.,36.077150713937,0.));
#386=CARTESIAN_POINT('',(-40.5,30.077150713937,4.95981953654678E-15));
#387=CARTESIAN_POINT('',(-40.5,33.077150713937,4.95981953654678E-15));
#388=CARTESIAN_POINT('Origin',(0.,30.077150713937,0.));
#389=CARTESIAN_POINT('Origin',(0.,36.577150713937,0.));
#390=CARTESIAN_POINT('',(-39.5,37.077150713937,-4.83735485663204E-15));
#391=CARTESIAN_POINT('',(-40.,36.577150713937,-4.89858719658941E-15));
#392=CARTESIAN_POINT('Origin',(0.,37.077150713937,0.));
#393=CARTESIAN_POINT('Origin',(35.,37.077150713937,0.));
#394=CARTESIAN_POINT('',(-30.5,37.077150713937,3.73517273739943E-15));
#395=CARTESIAN_POINT('Origin',(0.,37.077150713937,0.));
#396=CARTESIAN_POINT('Origin',(0.,36.4271507139369,0.));
#397=CARTESIAN_POINT('',(-30.5,35.7771507139369,3.73517273739943E-15));
#398=CARTESIAN_POINT('Origin',(0.,35.7771507139369,0.));
#399=CARTESIAN_POINT('',(-30.5,36.4271507139369,3.73517273739943E-15));
#400=CARTESIAN_POINT('Origin',(0.,25.5724788014511,0.));
#401=CARTESIAN_POINT('',(-29.4303916135095,15.3678068889653,3.60418348871376E-15));
#402=CARTESIAN_POINT('',(-3.60418348871376E-15,15.3678068889653,-29.4303916135095));
#403=CARTESIAN_POINT('Origin',(0.,15.3678068889653,0.));
#404=CARTESIAN_POINT('',(-29.9651958067548,25.5724788014511,3.66967811305659E-15));
#405=CARTESIAN_POINT('Origin',(0.,15.3678068889653,0.));
#406=CARTESIAN_POINT('Origin',(0.,15.577150713937,0.));
#407=CARTESIAN_POINT('',(-3.11499610340525E-15,11.577150713937,-25.435873474491));
#408=CARTESIAN_POINT('Origin',(0.,11.577150713937,0.));
#409=CARTESIAN_POINT('Origin',(-3.11499610340528E-15,15.577150713937,-25.4358734744912));
#410=CARTESIAN_POINT('Origin',(24.4179367372456,11.577150713937,0.));
#411=CARTESIAN_POINT('',(-23.4000000000001,11.577150713937,2.86567351000482E-15));
#412=CARTESIAN_POINT('Origin',(0.,11.577150713937,0.));
#413=CARTESIAN_POINT('Origin',(0.,10.9271507139369,0.));
#414=CARTESIAN_POINT('',(-23.4000000000001,10.2771507139369,2.86567351000482E-15));
#415=CARTESIAN_POINT('Origin',(0.,10.2771507139369,0.));
#416=CARTESIAN_POINT('',(-23.4000000000001,10.9271507139369,2.86567351000482E-15));
#417=CARTESIAN_POINT('Origin',(22.8,10.2771507139369,0.));
#418=CARTESIAN_POINT('',(-22.1999999999998,10.2771507139369,2.7187158941071E-15));
#419=CARTESIAN_POINT('Origin',(0.,10.2771507139369,0.));
#420=CARTESIAN_POINT('Origin',(0.,10.4271507139369,0.));
#421=CARTESIAN_POINT('',(-22.1999999999998,10.577150713937,2.7187158941071E-15));
#422=CARTESIAN_POINT('Origin',(0.,10.577150713937,0.));
#423=CARTESIAN_POINT('',(-22.1999999999998,10.4271507139369,2.7187158941071E-15));
#424=CARTESIAN_POINT('Origin',(21.0999999999999,10.577150713937,0.));
#425=CARTESIAN_POINT('',(-20.,10.577150713937,2.44929359829471E-15));
#426=CARTESIAN_POINT('Origin',(0.,10.577150713937,0.));
#427=CARTESIAN_POINT('Origin',(0.,9.07715071393704,0.));
#428=CARTESIAN_POINT('',(-20.,7.57715071393704,2.44929359829471E-15));
#429=CARTESIAN_POINT('',(-2.44929359829471E-15,7.57715071393704,-20.));
#430=CARTESIAN_POINT('Origin',(0.,7.57715071393704,0.));
#431=CARTESIAN_POINT('',(-20.,9.07715071393704,2.44929359829471E-15));
#432=CARTESIAN_POINT('Origin',(0.,7.57715071393704,0.));
#433=CARTESIAN_POINT('Origin',(0.,7.57715071393704,0.));
#434=CARTESIAN_POINT('',(-2.63299061816681E-15,6.07715071393701,-21.5));
#435=CARTESIAN_POINT('Origin',(0.,6.07715071393701,0.));
#436=CARTESIAN_POINT('Origin',(-2.63299061816681E-15,7.57715071393704,-21.5));
#437=CARTESIAN_POINT('Origin',(27.8973105382452,6.07715071393702,0.));
#438=CARTESIAN_POINT('',(-34.2946210764903,6.07715071393704,4.19987979292953E-15));
#439=CARTESIAN_POINT('Origin',(0.,6.07715071393704,0.));
#440=CARTESIAN_POINT('Origin',(0.,17.577150713937,0.));
#441=CARTESIAN_POINT('',(-35.5,29.077150713937,4.34749613697311E-15));
#442=CARTESIAN_POINT('Origin',(0.,29.077150713937,0.));
#443=CARTESIAN_POINT('',(-34.8973105382452,17.577150713937,4.27368796495132E-15));
#444=CARTESIAN_POINT('Origin',(37.1339745962155,29.077150713937,0.));
#445=CARTESIAN_POINT('',(-38.7679491924309,29.077150713937,4.74770448880178E-15));
#446=CARTESIAN_POINT('Origin',(0.,29.077150713937,0.));
#447=CARTESIAN_POINT('Origin',(0.,29.577150713937,0.));
#448=CARTESIAN_POINT('',(-39.6339745962155,29.577150713937,4.85376201267428E-15));
#449=UNCERTAINTY_MEASURE_WITH_UNIT(LENGTH_MEASURE(0.01),#453,
'DISTANCE_ACCURACY_VALUE',
'Maximum model space distance between geometric entities at asserted c
onnectivities');
#450=UNCERTAINTY_MEASURE_WITH_UNIT(LENGTH_MEASURE(0.01),#453,
'DISTANCE_ACCURACY_VALUE',
'Maximum model space distance between geometric entities at asserted c
onnectivities');
#451=(
GEOMETRIC_REPRESENTATION_CONTEXT(3)
GLOBAL_UNCERTAINTY_ASSIGNED_CONTEXT((#449))
GLOBAL_UNIT_ASSIGNED_CONTEXT((#453,#455,#456))
REPRESENTATION_CONTEXT('','3D')
);
#452=(
GEOMETRIC_REPRESENTATION_CONTEXT(3)
GLOBAL_UNCERTAINTY_ASSIGNED_CONTEXT((#450))
GLOBAL_UNIT_ASSIGNED_CONTEXT((#453,#455,#456))
REPRESENTATION_CONTEXT('','3D')
);
#453=(
LENGTH_UNIT()
NAMED_UNIT(*)
SI_UNIT(.MILLI.,.METRE.)
);
#454=(
LENGTH_UNIT()
NAMED_UNIT(*)
SI_UNIT($,.METRE.)
);
#455=(
NAMED_UNIT(*)
PLANE_ANGLE_UNIT()
SI_UNIT($,.RADIAN.)
);
#456=(
NAMED_UNIT(*)
SI_UNIT($,.STERADIAN.)
SOLID_ANGLE_UNIT()
);
#457=SHAPE_DEFINITION_REPRESENTATION(#458,#459);
#458=PRODUCT_DEFINITION_SHAPE('',$,#461);
#459=SHAPE_REPRESENTATION('',(#256),#451);
#460=PRODUCT_DEFINITION_CONTEXT('part definition',#465,'design');
#461=PRODUCT_DEFINITION('6116 - DN40','6116 - DN40 v1',#462,#460);
#462=PRODUCT_DEFINITION_FORMATION('',$,#467);
#463=PRODUCT_RELATED_PRODUCT_CATEGORY('6116 - DN40 v1','6116 - DN40 v1',
(#467));
#464=APPLICATION_PROTOCOL_DEFINITION('international standard',
'automotive_design',2009,#465);
#465=APPLICATION_CONTEXT(
'Core Data for Automotive Mechanical Design Process');
#466=PRODUCT_CONTEXT('part definition',#465,'mechanical');
#467=PRODUCT('6116 - DN40','6116 - DN40 v1',$,(#466));
#468=PRESENTATION_STYLE_ASSIGNMENT((#470));
#469=PRESENTATION_STYLE_ASSIGNMENT((#471));
#470=SURFACE_STYLE_USAGE(.BOTH.,#472);
#471=SURFACE_STYLE_USAGE(.BOTH.,#473);
#472=SURFACE_SIDE_STYLE('',(#474));
#473=SURFACE_SIDE_STYLE('',(#475));
#474=SURFACE_STYLE_FILL_AREA(#476);
#475=SURFACE_STYLE_FILL_AREA(#477);
#476=FILL_AREA_STYLE('Steel - Satin',(#478));
#477=FILL_AREA_STYLE('Opaque(224,223,219)',(#479));
#478=FILL_AREA_STYLE_COLOUR('Steel - Satin',#480);
#479=FILL_AREA_STYLE_COLOUR('Opaque(224,223,219)',#481);
#480=COLOUR_RGB('Steel - Satin',0.627450980392157,0.627450980392157,0.627450980392157);
#481=COLOUR_RGB('Opaque(224,223,219)',0.87843137254902,0.874509803921569,
0.858823529411765);
ENDSEC;
END-ISO-10303-21;
