ISO-10303-21;
HEADER;
/* Generated by software containing ST-Developer
 * from STEP Tools, Inc. (www.steptools.com) 
 */

FILE_DESCRIPTION(
/* description */ (''),
/* implementation_level */ '2;1');

FILE_NAME(
/* name */ '6116 - DN25.step',
/* time_stamp */ '2022-12-20T09:04:27+01:00',
/* author */ (''),
/* organization */ (''),
/* preprocessor_version */ 'ST-DEVELOPER v19.2',
/* originating_system */ 'Autodesk Translation Framework v11.17.0.187',

/* authorisation */ '');

FILE_SCHEMA (('AUTOMOTIVE_DESIGN { 1 0 10303 214 3 1 1 }'));
ENDSEC;

DATA;
#10=MECHANICAL_DESIGN_GEOMETRIC_PRESENTATION_REPRESENTATION('',(#13),#472);
#11=SHAPE_REPRESENTATION_RELATIONSHIP('SRR','None',#479,#12);
#12=ADVANCED_BREP_SHAPE_REPRESENTATION('',(#14),#471);
#13=STYLED_ITEM('',(#489),#14);
#14=MANIFOLD_SOLID_BREP('Body1',#254);
#15=CYLINDRICAL_SURFACE('',#280,12.5001548461255);
#16=CYLINDRICAL_SURFACE('',#284,14.7999999999999);
#17=CYLINDRICAL_SURFACE('',#288,16.);
#18=CYLINDRICAL_SURFACE('',#298,20.);
#19=CYLINDRICAL_SURFACE('',#304,27.);
#20=TOROIDAL_SURFACE('',#276,13.5001548461255,1.);
#21=TOROIDAL_SURFACE('',#292,17.7380286813991,1.5);
#22=LINE('',#406,#33);
#23=LINE('',#410,#34);
#24=LINE('',#423,#35);
#25=LINE('',#426,#36);
#26=LINE('',#431,#37);
#27=LINE('',#438,#38);
#28=LINE('',#450,#39);
#29=LINE('',#455,#40);
#30=LINE('',#462,#41);
#31=LINE('',#466,#42);
#32=LINE('',#468,#43);
#33=VECTOR('',#317,24.1724576323045);
#34=VECTOR('',#322,18.6725350553672);
#35=VECTOR('',#339,12.5001548461255);
#36=VECTOR('',#342,13.6500774230627);
#37=VECTOR('',#349,14.7999999999999);
#38=VECTOR('',#358,16.);
#39=VECTOR('',#373,19.6179864917655);
#40=VECTOR('',#380,20.);
#41=VECTOR('',#389,26.75);
#42=VECTOR('',#394,27.);
#43=VECTOR('',#397,26.1339745962156);
#44=CONICAL_SURFACE('',#271,24.1724576323045,0.0523598775598284);
#45=CONICAL_SURFACE('',#273,18.6725350553672,1.57011457423638);
#46=CONICAL_SURFACE('',#282,13.6500774230627,1.56783355077089);
#47=CONICAL_SURFACE('',#296,19.6179864917655,0.0523598775598258);
#48=CONICAL_SURFACE('',#302,26.75,0.785398163397417);
#49=CONICAL_SURFACE('',#306,26.1339745962156,1.04719755119659);
#50=FACE_BOUND('',#72,.T.);
#51=FACE_BOUND('',#80,.T.);
#52=FACE_BOUND('',#83,.T.);
#53=FACE_BOUND('',#88,.T.);
#54=FACE_OUTER_BOUND('',#71,.T.);
#55=FACE_OUTER_BOUND('',#73,.T.);
#56=FACE_OUTER_BOUND('',#74,.T.);
#57=FACE_OUTER_BOUND('',#75,.T.);
#58=FACE_OUTER_BOUND('',#76,.T.);
#59=FACE_OUTER_BOUND('',#77,.T.);
#60=FACE_OUTER_BOUND('',#78,.T.);
#61=FACE_OUTER_BOUND('',#79,.T.);
#62=FACE_OUTER_BOUND('',#81,.T.);
#63=FACE_OUTER_BOUND('',#82,.T.);
#64=FACE_OUTER_BOUND('',#84,.T.);
#65=FACE_OUTER_BOUND('',#85,.T.);
#66=FACE_OUTER_BOUND('',#86,.T.);
#67=FACE_OUTER_BOUND('',#87,.T.);
#68=FACE_OUTER_BOUND('',#89,.T.);
#69=FACE_OUTER_BOUND('',#90,.T.);
#70=FACE_OUTER_BOUND('',#91,.T.);
#71=EDGE_LOOP('',(#167));
#72=EDGE_LOOP('',(#168));
#73=EDGE_LOOP('',(#169,#170,#171,#172));
#74=EDGE_LOOP('',(#173,#174,#175,#176,#177));
#75=EDGE_LOOP('',(#178,#179,#180,#181,#182,#183));
#76=EDGE_LOOP('',(#184,#185,#186,#187,#188));
#77=EDGE_LOOP('',(#189,#190,#191,#192));
#78=EDGE_LOOP('',(#193,#194,#195,#196));
#79=EDGE_LOOP('',(#197));
#80=EDGE_LOOP('',(#198));
#81=EDGE_LOOP('',(#199,#200,#201,#202));
#82=EDGE_LOOP('',(#203));
#83=EDGE_LOOP('',(#204));
#84=EDGE_LOOP('',(#205,#206,#207,#208,#209));
#85=EDGE_LOOP('',(#210,#211,#212,#213,#214));
#86=EDGE_LOOP('',(#215,#216,#217,#218));
#87=EDGE_LOOP('',(#219));
#88=EDGE_LOOP('',(#220));
#89=EDGE_LOOP('',(#221,#222,#223,#224));
#90=EDGE_LOOP('',(#225,#226,#227,#228));
#91=EDGE_LOOP('',(#229,#230,#231,#232));
#92=CIRCLE('',#269,25.2679491924312);
#93=CIRCLE('',#270,24.5);
#94=CIRCLE('',#272,23.8449152646089);
#95=CIRCLE('',#274,13.5001548461255);
#96=CIRCLE('',#275,13.5001548461255);
#97=CIRCLE('',#277,12.5001548461255);
#98=CIRCLE('',#278,12.5001548461255);
#99=CIRCLE('',#279,1.);
#100=CIRCLE('',#281,12.5001548461255);
#101=CIRCLE('',#283,14.7999999999999);
#102=CIRCLE('',#285,14.7999999999999);
#103=CIRCLE('',#287,16.);
#104=CIRCLE('',#289,16.);
#105=CIRCLE('',#291,17.7380286813991);
#106=CIRCLE('',#293,19.2359729835309);
#107=CIRCLE('',#294,19.2359729835309);
#108=CIRCLE('',#295,1.5);
#109=CIRCLE('',#297,20.);
#110=CIRCLE('',#299,20.);
#111=CIRCLE('',#301,26.5);
#112=CIRCLE('',#303,27.);
#113=CIRCLE('',#305,27.);
#114=VERTEX_POINT('',#400);
#115=VERTEX_POINT('',#402);
#116=VERTEX_POINT('',#405);
#117=VERTEX_POINT('',#409);
#118=VERTEX_POINT('',#411);
#119=VERTEX_POINT('',#415);
#120=VERTEX_POINT('',#416);
#121=VERTEX_POINT('',#421);
#122=VERTEX_POINT('',#425);
#123=VERTEX_POINT('',#429);
#124=VERTEX_POINT('',#433);
#125=VERTEX_POINT('',#436);
#126=VERTEX_POINT('',#440);
#127=VERTEX_POINT('',#443);
#128=VERTEX_POINT('',#444);
#129=VERTEX_POINT('',#449);
#130=VERTEX_POINT('',#453);
#131=VERTEX_POINT('',#457);
#132=VERTEX_POINT('',#460);
#133=VERTEX_POINT('',#464);
#134=EDGE_CURVE('',#114,#114,#92,.T.);
#135=EDGE_CURVE('',#115,#115,#93,.T.);
#136=EDGE_CURVE('',#115,#116,#22,.T.);
#137=EDGE_CURVE('',#116,#116,#94,.T.);
#138=EDGE_CURVE('',#116,#117,#23,.T.);
#139=EDGE_CURVE('',#118,#117,#95,.T.);
#140=EDGE_CURVE('',#117,#118,#96,.T.);
#141=EDGE_CURVE('',#119,#120,#97,.T.);
#142=EDGE_CURVE('',#120,#119,#98,.T.);
#143=EDGE_CURVE('',#120,#118,#99,.T.);
#144=EDGE_CURVE('',#121,#121,#100,.T.);
#145=EDGE_CURVE('',#121,#119,#24,.T.);
#146=EDGE_CURVE('',#121,#122,#25,.T.);
#147=EDGE_CURVE('',#122,#122,#101,.T.);
#148=EDGE_CURVE('',#123,#123,#102,.T.);
#149=EDGE_CURVE('',#123,#122,#26,.T.);
#150=EDGE_CURVE('',#124,#124,#103,.T.);
#151=EDGE_CURVE('',#125,#125,#104,.T.);
#152=EDGE_CURVE('',#125,#124,#27,.T.);
#153=EDGE_CURVE('',#126,#126,#105,.T.);
#154=EDGE_CURVE('',#127,#128,#106,.T.);
#155=EDGE_CURVE('',#128,#127,#107,.T.);
#156=EDGE_CURVE('',#128,#126,#108,.T.);
#157=EDGE_CURVE('',#127,#129,#28,.T.);
#158=EDGE_CURVE('',#129,#129,#109,.T.);
#159=EDGE_CURVE('',#130,#130,#110,.T.);
#160=EDGE_CURVE('',#130,#129,#29,.T.);
#161=EDGE_CURVE('',#131,#131,#111,.T.);
#162=EDGE_CURVE('',#132,#132,#112,.T.);
#163=EDGE_CURVE('',#132,#131,#30,.T.);
#164=EDGE_CURVE('',#133,#133,#113,.T.);
#165=EDGE_CURVE('',#133,#132,#31,.T.);
#166=EDGE_CURVE('',#133,#114,#32,.T.);
#167=ORIENTED_EDGE('',*,*,#134,.T.);
#168=ORIENTED_EDGE('',*,*,#135,.F.);
#169=ORIENTED_EDGE('',*,*,#135,.T.);
#170=ORIENTED_EDGE('',*,*,#136,.T.);
#171=ORIENTED_EDGE('',*,*,#137,.F.);
#172=ORIENTED_EDGE('',*,*,#136,.F.);
#173=ORIENTED_EDGE('',*,*,#137,.T.);
#174=ORIENTED_EDGE('',*,*,#138,.T.);
#175=ORIENTED_EDGE('',*,*,#139,.F.);
#176=ORIENTED_EDGE('',*,*,#140,.F.);
#177=ORIENTED_EDGE('',*,*,#138,.F.);
#178=ORIENTED_EDGE('',*,*,#141,.F.);
#179=ORIENTED_EDGE('',*,*,#142,.F.);
#180=ORIENTED_EDGE('',*,*,#143,.T.);
#181=ORIENTED_EDGE('',*,*,#139,.T.);
#182=ORIENTED_EDGE('',*,*,#140,.T.);
#183=ORIENTED_EDGE('',*,*,#143,.F.);
#184=ORIENTED_EDGE('',*,*,#144,.F.);
#185=ORIENTED_EDGE('',*,*,#145,.T.);
#186=ORIENTED_EDGE('',*,*,#141,.T.);
#187=ORIENTED_EDGE('',*,*,#142,.T.);
#188=ORIENTED_EDGE('',*,*,#145,.F.);
#189=ORIENTED_EDGE('',*,*,#144,.T.);
#190=ORIENTED_EDGE('',*,*,#146,.T.);
#191=ORIENTED_EDGE('',*,*,#147,.F.);
#192=ORIENTED_EDGE('',*,*,#146,.F.);
#193=ORIENTED_EDGE('',*,*,#148,.F.);
#194=ORIENTED_EDGE('',*,*,#149,.T.);
#195=ORIENTED_EDGE('',*,*,#147,.T.);
#196=ORIENTED_EDGE('',*,*,#149,.F.);
#197=ORIENTED_EDGE('',*,*,#150,.F.);
#198=ORIENTED_EDGE('',*,*,#148,.T.);
#199=ORIENTED_EDGE('',*,*,#151,.F.);
#200=ORIENTED_EDGE('',*,*,#152,.T.);
#201=ORIENTED_EDGE('',*,*,#150,.T.);
#202=ORIENTED_EDGE('',*,*,#152,.F.);
#203=ORIENTED_EDGE('',*,*,#153,.F.);
#204=ORIENTED_EDGE('',*,*,#151,.T.);
#205=ORIENTED_EDGE('',*,*,#154,.F.);
#206=ORIENTED_EDGE('',*,*,#155,.F.);
#207=ORIENTED_EDGE('',*,*,#156,.T.);
#208=ORIENTED_EDGE('',*,*,#153,.T.);
#209=ORIENTED_EDGE('',*,*,#156,.F.);
#210=ORIENTED_EDGE('',*,*,#154,.T.);
#211=ORIENTED_EDGE('',*,*,#155,.T.);
#212=ORIENTED_EDGE('',*,*,#157,.T.);
#213=ORIENTED_EDGE('',*,*,#158,.F.);
#214=ORIENTED_EDGE('',*,*,#157,.F.);
#215=ORIENTED_EDGE('',*,*,#159,.F.);
#216=ORIENTED_EDGE('',*,*,#160,.T.);
#217=ORIENTED_EDGE('',*,*,#158,.T.);
#218=ORIENTED_EDGE('',*,*,#160,.F.);
#219=ORIENTED_EDGE('',*,*,#161,.F.);
#220=ORIENTED_EDGE('',*,*,#159,.T.);
#221=ORIENTED_EDGE('',*,*,#162,.F.);
#222=ORIENTED_EDGE('',*,*,#163,.T.);
#223=ORIENTED_EDGE('',*,*,#161,.T.);
#224=ORIENTED_EDGE('',*,*,#163,.F.);
#225=ORIENTED_EDGE('',*,*,#164,.F.);
#226=ORIENTED_EDGE('',*,*,#165,.T.);
#227=ORIENTED_EDGE('',*,*,#162,.T.);
#228=ORIENTED_EDGE('',*,*,#165,.F.);
#229=ORIENTED_EDGE('',*,*,#164,.T.);
#230=ORIENTED_EDGE('',*,*,#166,.T.);
#231=ORIENTED_EDGE('',*,*,#134,.F.);
#232=ORIENTED_EDGE('',*,*,#166,.F.);
#233=PLANE('',#268);
#234=PLANE('',#286);
#235=PLANE('',#290);
#236=PLANE('',#300);
#237=ADVANCED_FACE('',(#54,#50),#233,.T.);
#238=ADVANCED_FACE('',(#55),#44,.T.);
#239=ADVANCED_FACE('',(#56),#45,.T.);
#240=ADVANCED_FACE('',(#57),#20,.T.);
#241=ADVANCED_FACE('',(#58),#15,.F.);
#242=ADVANCED_FACE('',(#59),#46,.F.);
#243=ADVANCED_FACE('',(#60),#16,.T.);
#244=ADVANCED_FACE('',(#61,#51),#234,.T.);
#245=ADVANCED_FACE('',(#62),#17,.F.);
#246=ADVANCED_FACE('',(#63,#52),#235,.T.);
#247=ADVANCED_FACE('',(#64),#21,.F.);
#248=ADVANCED_FACE('',(#65),#47,.F.);
#249=ADVANCED_FACE('',(#66),#18,.F.);
#250=ADVANCED_FACE('',(#67,#53),#236,.T.);
#251=ADVANCED_FACE('',(#68),#48,.T.);
#252=ADVANCED_FACE('',(#69),#19,.T.);
#253=ADVANCED_FACE('',(#70),#49,.T.);
#254=CLOSED_SHELL('',(#237,#238,#239,#240,#241,#242,#243,#244,#245,#246,
#247,#248,#249,#250,#251,#252,#253));
#255=DERIVED_UNIT_ELEMENT(#257,1.);
#256=DERIVED_UNIT_ELEMENT(#474,-3.);
#257=(
MASS_UNIT()
NAMED_UNIT(*)
SI_UNIT(.KILO.,.GRAM.)
);
#258=DERIVED_UNIT((#255,#256));
#259=MEASURE_REPRESENTATION_ITEM('density measure',
POSITIVE_RATIO_MEASURE(7850.),#258);
#260=PROPERTY_DEFINITION_REPRESENTATION(#265,#262);
#261=PROPERTY_DEFINITION_REPRESENTATION(#266,#263);
#262=REPRESENTATION('material name',(#264),#471);
#263=REPRESENTATION('density',(#259),#471);
#264=DESCRIPTIVE_REPRESENTATION_ITEM('Steel','Steel');
#265=PROPERTY_DEFINITION('material property','material name',#481);
#266=PROPERTY_DEFINITION('material property','density of part',#481);
#267=AXIS2_PLACEMENT_3D('placement',#398,#307,#308);
#268=AXIS2_PLACEMENT_3D('',#399,#309,#310);
#269=AXIS2_PLACEMENT_3D('',#401,#311,#312);
#270=AXIS2_PLACEMENT_3D('',#403,#313,#314);
#271=AXIS2_PLACEMENT_3D('',#404,#315,#316);
#272=AXIS2_PLACEMENT_3D('',#407,#318,#319);
#273=AXIS2_PLACEMENT_3D('',#408,#320,#321);
#274=AXIS2_PLACEMENT_3D('',#412,#323,#324);
#275=AXIS2_PLACEMENT_3D('',#413,#325,#326);
#276=AXIS2_PLACEMENT_3D('',#414,#327,#328);
#277=AXIS2_PLACEMENT_3D('',#417,#329,#330);
#278=AXIS2_PLACEMENT_3D('',#418,#331,#332);
#279=AXIS2_PLACEMENT_3D('',#419,#333,#334);
#280=AXIS2_PLACEMENT_3D('',#420,#335,#336);
#281=AXIS2_PLACEMENT_3D('',#422,#337,#338);
#282=AXIS2_PLACEMENT_3D('',#424,#340,#341);
#283=AXIS2_PLACEMENT_3D('',#427,#343,#344);
#284=AXIS2_PLACEMENT_3D('',#428,#345,#346);
#285=AXIS2_PLACEMENT_3D('',#430,#347,#348);
#286=AXIS2_PLACEMENT_3D('',#432,#350,#351);
#287=AXIS2_PLACEMENT_3D('',#434,#352,#353);
#288=AXIS2_PLACEMENT_3D('',#435,#354,#355);
#289=AXIS2_PLACEMENT_3D('',#437,#356,#357);
#290=AXIS2_PLACEMENT_3D('',#439,#359,#360);
#291=AXIS2_PLACEMENT_3D('',#441,#361,#362);
#292=AXIS2_PLACEMENT_3D('',#442,#363,#364);
#293=AXIS2_PLACEMENT_3D('',#445,#365,#366);
#294=AXIS2_PLACEMENT_3D('',#446,#367,#368);
#295=AXIS2_PLACEMENT_3D('',#447,#369,#370);
#296=AXIS2_PLACEMENT_3D('',#448,#371,#372);
#297=AXIS2_PLACEMENT_3D('',#451,#374,#375);
#298=AXIS2_PLACEMENT_3D('',#452,#376,#377);
#299=AXIS2_PLACEMENT_3D('',#454,#378,#379);
#300=AXIS2_PLACEMENT_3D('',#456,#381,#382);
#301=AXIS2_PLACEMENT_3D('',#458,#383,#384);
#302=AXIS2_PLACEMENT_3D('',#459,#385,#386);
#303=AXIS2_PLACEMENT_3D('',#461,#387,#388);
#304=AXIS2_PLACEMENT_3D('',#463,#390,#391);
#305=AXIS2_PLACEMENT_3D('',#465,#392,#393);
#306=AXIS2_PLACEMENT_3D('',#467,#395,#396);
#307=DIRECTION('axis',(0.,0.,1.));
#308=DIRECTION('refdir',(1.,0.,0.));
#309=DIRECTION('center_axis',(0.,-1.,0.));
#310=DIRECTION('ref_axis',(0.,0.,-1.));
#311=DIRECTION('center_axis',(0.,-1.,0.));
#312=DIRECTION('ref_axis',(1.,0.,0.));
#313=DIRECTION('center_axis',(0.,-1.,0.));
#314=DIRECTION('ref_axis',(1.,0.,0.));
#315=DIRECTION('center_axis',(0.,1.,0.));
#316=DIRECTION('ref_axis',(1.,0.,0.));
#317=DIRECTION('',(0.0523359562429423,-0.998629534754574,-6.40930612932353E-18));
#318=DIRECTION('center_axis',(0.,-1.,0.));
#319=DIRECTION('ref_axis',(1.,0.,0.));
#320=DIRECTION('center_axis',(0.,1.,0.));
#321=DIRECTION('ref_axis',(1.,0.,0.));
#322=DIRECTION('',(0.999999767606733,-0.000681752505702818,-1.22464651454768E-16));
#323=DIRECTION('center_axis',(0.,-1.,0.));
#324=DIRECTION('ref_axis',(1.,0.,0.));
#325=DIRECTION('center_axis',(0.,-1.,0.));
#326=DIRECTION('ref_axis',(1.,0.,0.));
#327=DIRECTION('center_axis',(0.,-1.,0.));
#328=DIRECTION('ref_axis',(0.,0.,-1.));
#329=DIRECTION('center_axis',(0.,-1.,0.));
#330=DIRECTION('ref_axis',(1.,0.,0.));
#331=DIRECTION('center_axis',(0.,-1.,0.));
#332=DIRECTION('ref_axis',(1.,0.,0.));
#333=DIRECTION('center_axis',(-1.,0.,-1.22464679914735E-16));
#334=DIRECTION('ref_axis',(-1.22464679914735E-16,0.,1.));
#335=DIRECTION('center_axis',(0.,-1.,0.));
#336=DIRECTION('ref_axis',(1.,0.,0.));
#337=DIRECTION('center_axis',(0.,-1.,0.));
#338=DIRECTION('ref_axis',(1.,0.,0.));
#339=DIRECTION('',(0.,-1.,0.));
#340=DIRECTION('center_axis',(0.,1.,0.));
#341=DIRECTION('ref_axis',(1.,0.,0.));
#342=DIRECTION('',(-0.999995610982326,0.00296277168944742,1.22464142415091E-16));
#343=DIRECTION('center_axis',(0.,-1.,0.));
#344=DIRECTION('ref_axis',(1.,0.,0.));
#345=DIRECTION('center_axis',(0.,-1.,0.));
#346=DIRECTION('ref_axis',(1.,0.,0.));
#347=DIRECTION('center_axis',(0.,-1.,0.));
#348=DIRECTION('ref_axis',(1.,0.,0.));
#349=DIRECTION('',(0.,1.,0.));
#350=DIRECTION('center_axis',(0.,1.,0.));
#351=DIRECTION('ref_axis',(0.,0.,1.));
#352=DIRECTION('center_axis',(0.,-1.,0.));
#353=DIRECTION('ref_axis',(1.,0.,0.));
#354=DIRECTION('center_axis',(0.,-1.,0.));
#355=DIRECTION('ref_axis',(1.,0.,0.));
#356=DIRECTION('center_axis',(0.,-1.,0.));
#357=DIRECTION('ref_axis',(1.,0.,0.));
#358=DIRECTION('',(0.,-1.,0.));
#359=DIRECTION('center_axis',(0.,1.,0.));
#360=DIRECTION('ref_axis',(0.,0.,1.));
#361=DIRECTION('center_axis',(0.,-1.,0.));
#362=DIRECTION('ref_axis',(1.,0.,0.));
#363=DIRECTION('center_axis',(0.,-1.,0.));
#364=DIRECTION('ref_axis',(0.,0.,-1.));
#365=DIRECTION('center_axis',(0.,-1.,0.));
#366=DIRECTION('ref_axis',(1.,0.,0.));
#367=DIRECTION('center_axis',(0.,-1.,0.));
#368=DIRECTION('ref_axis',(1.,0.,0.));
#369=DIRECTION('center_axis',(1.,0.,1.22464679914735E-16));
#370=DIRECTION('ref_axis',(-1.22464679914735E-16,0.,1.));
#371=DIRECTION('center_axis',(0.,1.,0.));
#372=DIRECTION('ref_axis',(1.,0.,0.));
#373=DIRECTION('',(-0.0523359562429398,0.998629534754574,6.40930612932322E-18));
#374=DIRECTION('center_axis',(0.,-1.,0.));
#375=DIRECTION('ref_axis',(1.,0.,0.));
#376=DIRECTION('center_axis',(0.,-1.,0.));
#377=DIRECTION('ref_axis',(1.,0.,0.));
#378=DIRECTION('center_axis',(0.,-1.,0.));
#379=DIRECTION('ref_axis',(1.,0.,0.));
#380=DIRECTION('',(0.,-1.,0.));
#381=DIRECTION('center_axis',(0.,1.,0.));
#382=DIRECTION('ref_axis',(0.,0.,1.));
#383=DIRECTION('center_axis',(0.,-1.,0.));
#384=DIRECTION('ref_axis',(1.,0.,0.));
#385=DIRECTION('center_axis',(0.,-1.,0.));
#386=DIRECTION('ref_axis',(1.,0.,0.));
#387=DIRECTION('center_axis',(0.,-1.,0.));
#388=DIRECTION('ref_axis',(1.,0.,0.));
#389=DIRECTION('',(0.707106781186525,0.707106781186569,8.65956056235467E-17));
#390=DIRECTION('center_axis',(0.,-1.,0.));
#391=DIRECTION('ref_axis',(1.,0.,0.));
#392=DIRECTION('center_axis',(0.,-1.,0.));
#393=DIRECTION('ref_axis',(1.,0.,0.));
#394=DIRECTION('',(0.,1.,0.));
#395=DIRECTION('center_axis',(0.,1.,0.));
#396=DIRECTION('ref_axis',(1.,0.,0.));
#397=DIRECTION('',(0.866025403784433,-0.50000000000001,-1.0605752387249E-16));
#398=CARTESIAN_POINT('',(0.,0.,0.));
#399=CARTESIAN_POINT('Origin',(24.8839745962156,16.6543851968645,0.));
#400=CARTESIAN_POINT('',(-25.2679491924312,16.6543851968645,3.09443130995288E-15));
#401=CARTESIAN_POINT('Origin',(0.,16.6543851968645,0.));
#402=CARTESIAN_POINT('',(-24.5,16.6543851968645,3.00038465791102E-15));
#403=CARTESIAN_POINT('Origin',(0.,16.6543851968645,0.));
#404=CARTESIAN_POINT('Origin',(0.,10.4045045078436,0.));
#405=CARTESIAN_POINT('',(-23.8449152646089,4.15462381882275,2.92015991547432E-15));
#406=CARTESIAN_POINT('',(-24.1724576323045,10.4045045078436,2.96027228669267E-15));
#407=CARTESIAN_POINT('Origin',(0.,4.15462381882276,0.));
#408=CARTESIAN_POINT('Origin',(0.,4.15109753483432,0.));
#409=CARTESIAN_POINT('',(-13.5001548461255,4.14757125084674,1.65329214203012E-15));
#410=CARTESIAN_POINT('',(-18.6725350553672,4.15109753483432,2.28672602875222E-15));
#411=CARTESIAN_POINT('',(-1.65329214203012E-15,4.14757125084588,13.5001548461255));
#412=CARTESIAN_POINT('Origin',(0.,4.14757125084588,0.));
#413=CARTESIAN_POINT('Origin',(0.,4.14757125084588,0.));
#414=CARTESIAN_POINT('Origin',(0.,5.14757125084589,0.));
#415=CARTESIAN_POINT('',(-12.5001548461255,5.14757125084589,-1.53082746211539E-15));
#416=CARTESIAN_POINT('',(-1.53082746211538E-15,5.14757125084589,12.5001548461255));
#417=CARTESIAN_POINT('Origin',(0.,5.14757125084589,0.));
#418=CARTESIAN_POINT('Origin',(0.,5.14757125084589,0.));
#419=CARTESIAN_POINT('Origin',(-1.65329214203012E-15,5.14757125084589,13.5001548461255));
#420=CARTESIAN_POINT('Origin',(0.,6.14757125084589,0.));
#421=CARTESIAN_POINT('',(-12.5001548461255,7.14757125084589,-1.53082746211539E-15));
#422=CARTESIAN_POINT('Origin',(0.,7.14757125084589,0.));
#423=CARTESIAN_POINT('',(-12.5001548461255,6.14757125084589,-1.53082746211539E-15));
#424=CARTESIAN_POINT('Origin',(0.,7.15097822385519,0.));
#425=CARTESIAN_POINT('',(-14.8,7.15438519686446,1.81247726273808E-15));
#426=CARTESIAN_POINT('',(-13.6500774230627,7.15097822385519,1.67165236242673E-15));
#427=CARTESIAN_POINT('Origin',(0.,7.15438519686449,0.));
#428=CARTESIAN_POINT('Origin',(0.,7.00438519686451,0.));
#429=CARTESIAN_POINT('',(-14.7999999999999,6.85438519686454,-1.81247726273808E-15));
#430=CARTESIAN_POINT('Origin',(0.,6.85438519686454,0.));
#431=CARTESIAN_POINT('',(-14.7999999999999,7.00438519686451,-1.81247726273808E-15));
#432=CARTESIAN_POINT('Origin',(15.4,6.85438519686454,0.));
#433=CARTESIAN_POINT('',(-16.,6.85438519686454,-1.95943487863577E-15));
#434=CARTESIAN_POINT('Origin',(0.,6.85438519686454,0.));
#435=CARTESIAN_POINT('Origin',(0.,7.50438519686452,0.));
#436=CARTESIAN_POINT('',(-16.,8.1543851968645,-1.95943487863577E-15));
#437=CARTESIAN_POINT('Origin',(0.,8.1543851968645,0.));
#438=CARTESIAN_POINT('',(-16.,7.50438519686452,-1.95943487863577E-15));
#439=CARTESIAN_POINT('Origin',(16.8690143406995,8.1543851968645,0.));
#440=CARTESIAN_POINT('',(-2.17228200478593E-15,8.15438519686451,17.7380286813991));
#441=CARTESIAN_POINT('Origin',(0.,8.15438519686451,0.));
#442=CARTESIAN_POINT('Origin',(0.,9.65438519686449,0.));
#443=CARTESIAN_POINT('',(-19.2359729835309,9.57588126249992,2.35572727427661E-15));
#444=CARTESIAN_POINT('',(-2.35572727427661E-15,9.57588126249992,19.2359729835309));
#445=CARTESIAN_POINT('Origin',(0.,9.57588126249992,0.));
#446=CARTESIAN_POINT('Origin',(0.,9.57588126249992,0.));
#447=CARTESIAN_POINT('Origin',(-2.17228200478593E-15,9.65438519686449,17.7380286813991));
#448=CARTESIAN_POINT('Origin',(0.,16.8651332296822,0.));
#449=CARTESIAN_POINT('',(-20.,24.1543851968645,2.44929359829471E-15));
#450=CARTESIAN_POINT('',(-19.6179864917655,16.8651332296822,2.40251043628566E-15));
#451=CARTESIAN_POINT('Origin',(0.,24.1543851968645,0.));
#452=CARTESIAN_POINT('Origin',(0.,24.6543851968645,0.));
#453=CARTESIAN_POINT('',(-20.,25.1543851968645,-2.44929359829471E-15));
#454=CARTESIAN_POINT('Origin',(0.,25.1543851968645,0.));
#455=CARTESIAN_POINT('',(-20.,24.6543851968645,-2.44929359829471E-15));
#456=CARTESIAN_POINT('Origin',(23.25,25.1543851968645,0.));
#457=CARTESIAN_POINT('',(-26.5,25.1543851968645,-3.24531401774049E-15));
#458=CARTESIAN_POINT('Origin',(0.,25.1543851968645,0.));
#459=CARTESIAN_POINT('Origin',(0.,24.9043851968645,0.));
#460=CARTESIAN_POINT('',(-27.,24.6543851968645,-3.30654635769785E-15));
#461=CARTESIAN_POINT('Origin',(0.,24.6543851968645,0.));
#462=CARTESIAN_POINT('',(-26.75,24.9043851968645,-3.27593018771917E-15));
#463=CARTESIAN_POINT('Origin',(0.,21.1543851968645,0.));
#464=CARTESIAN_POINT('',(-27.,17.6543851968645,-3.30654635769785E-15));
#465=CARTESIAN_POINT('Origin',(0.,17.6543851968645,0.));
#466=CARTESIAN_POINT('',(-27.,21.1543851968645,-3.30654635769785E-15));
#467=CARTESIAN_POINT('Origin',(0.,17.1543851968645,0.));
#468=CARTESIAN_POINT('',(-26.1339745962156,17.1543851968645,3.20048883382536E-15));
#469=UNCERTAINTY_MEASURE_WITH_UNIT(LENGTH_MEASURE(0.01),#473,
'DISTANCE_ACCURACY_VALUE',
'Maximum model space distance between geometric entities at asserted c
onnectivities');
#470=UNCERTAINTY_MEASURE_WITH_UNIT(LENGTH_MEASURE(0.01),#473,
'DISTANCE_ACCURACY_VALUE',
'Maximum model space distance between geometric entities at asserted c
onnectivities');
#471=(
GEOMETRIC_REPRESENTATION_CONTEXT(3)
GLOBAL_UNCERTAINTY_ASSIGNED_CONTEXT((#469))
GLOBAL_UNIT_ASSIGNED_CONTEXT((#473,#475,#476))
REPRESENTATION_CONTEXT('','3D')
);
#472=(
GEOMETRIC_REPRESENTATION_CONTEXT(3)
GLOBAL_UNCERTAINTY_ASSIGNED_CONTEXT((#470))
GLOBAL_UNIT_ASSIGNED_CONTEXT((#473,#475,#476))
REPRESENTATION_CONTEXT('','3D')
);
#473=(
LENGTH_UNIT()
NAMED_UNIT(*)
SI_UNIT(.MILLI.,.METRE.)
);
#474=(
LENGTH_UNIT()
NAMED_UNIT(*)
SI_UNIT($,.METRE.)
);
#475=(
NAMED_UNIT(*)
PLANE_ANGLE_UNIT()
SI_UNIT($,.RADIAN.)
);
#476=(
NAMED_UNIT(*)
SI_UNIT($,.STERADIAN.)
SOLID_ANGLE_UNIT()
);
#477=SHAPE_DEFINITION_REPRESENTATION(#478,#479);
#478=PRODUCT_DEFINITION_SHAPE('',$,#481);
#479=SHAPE_REPRESENTATION('',(#267),#471);
#480=PRODUCT_DEFINITION_CONTEXT('part definition',#485,'design');
#481=PRODUCT_DEFINITION('6116 - DN25','6116 - DN25 v1',#482,#480);
#482=PRODUCT_DEFINITION_FORMATION('',$,#487);
#483=PRODUCT_RELATED_PRODUCT_CATEGORY('6116 - DN25 v1','6116 - DN25 v1',
(#487));
#484=APPLICATION_PROTOCOL_DEFINITION('international standard',
'automotive_design',2009,#485);
#485=APPLICATION_CONTEXT(
'Core Data for Automotive Mechanical Design Process');
#486=PRODUCT_CONTEXT('part definition',#485,'mechanical');
#487=PRODUCT('6116 - DN25','6116 - DN25 v1',$,(#486));
#488=PRESENTATION_STYLE_ASSIGNMENT((#490));
#489=PRESENTATION_STYLE_ASSIGNMENT((#491));
#490=SURFACE_STYLE_USAGE(.BOTH.,#492);
#491=SURFACE_STYLE_USAGE(.BOTH.,#493);
#492=SURFACE_SIDE_STYLE('',(#494));
#493=SURFACE_SIDE_STYLE('',(#495));
#494=SURFACE_STYLE_FILL_AREA(#496);
#495=SURFACE_STYLE_FILL_AREA(#497);
#496=FILL_AREA_STYLE('Steel - Satin',(#498));
#497=FILL_AREA_STYLE('Opaque(191,191,191)',(#499));
#498=FILL_AREA_STYLE_COLOUR('Steel - Satin',#500);
#499=FILL_AREA_STYLE_COLOUR('Opaque(191,191,191)',#501);
#500=COLOUR_RGB('Steel - Satin',0.627450980392157,0.627450980392157,0.627450980392157);
#501=COLOUR_RGB('Opaque(191,191,191)',0.749019607843137,0.749019607843137,
0.749019607843137);
ENDSEC;
END-ISO-10303-21;
