ISO-10303-21;
HEADER;
/* Generated by software containing ST-Developer
 * from STEP Tools, Inc. (www.steptools.com) 
 */

FILE_DESCRIPTION(
/* description */ (''),
/* implementation_level */ '2;1');

FILE_NAME(
/* name */ '6116 - DN20.step',
/* time_stamp */ '2022-12-20T09:04:19+01:00',
/* author */ (''),
/* organization */ (''),
/* preprocessor_version */ 'ST-DEVELOPER v19.2',
/* originating_system */ 'Autodesk Translation Framework v11.17.0.187',

/* authorisation */ '');

FILE_SCHEMA (('AUTOMOTIVE_DESIGN { 1 0 10303 214 3 1 1 }'));
ENDSEC;

DATA;
#10=MECHANICAL_DESIGN_GEOMETRIC_PRESENTATION_REPRESENTATION('',(#13),#447);
#11=SHAPE_REPRESENTATION_RELATIONSHIP('SRR','None',#454,#12);
#12=ADVANCED_BREP_SHAPE_REPRESENTATION('',(#14),#446);
#13=STYLED_ITEM('',(#464),#14);
#14=MANIFOLD_SOLID_BREP('Body1',#240);
#15=CONICAL_SURFACE('',#276,17.5714306447098,0.0523598775598168);
#16=CONICAL_SURFACE('',#280,22.75,0.785398163397444);
#17=CONICAL_SURFACE('',#284,22.1339745962156,1.04719755119659);
#18=CONICAL_SURFACE('',#286,20.8839938895251,1.56717907365772);
#19=CONICAL_SURFACE('',#288,20.224897745383,0.0523598775598274);
#20=CONICAL_SURFACE('',#290,15.3748784520735,1.57049274068804);
#21=FACE_BOUND('',#72,.T.);
#22=FACE_BOUND('',#75,.T.);
#23=FACE_BOUND('',#78,.T.);
#24=FACE_BOUND('',#82,.T.);
#25=PLANE('',#262);
#26=PLANE('',#266);
#27=PLANE('',#270);
#28=PLANE('',#278);
#29=LINE('',#391,#39);
#30=LINE('',#398,#40);
#31=LINE('',#405,#41);
#32=LINE('',#417,#42);
#33=LINE('',#425,#43);
#34=LINE('',#429,#44);
#35=LINE('',#432,#45);
#36=LINE('',#436,#46);
#37=LINE('',#440,#47);
#38=LINE('',#443,#48);
#39=VECTOR('',#309,10.);
#40=VECTOR('',#318,12.3);
#41=VECTOR('',#327,13.5);
#42=VECTOR('',#342,17.5714306447098);
#43=VECTOR('',#353,22.75);
#44=VECTOR('',#358,23.);
#45=VECTOR('',#361,22.1339745962156);
#46=VECTOR('',#366,20.8839938895251);
#47=VECTOR('',#371,20.224897745383);
#48=VECTOR('',#376,15.3748784520735);
#49=CYLINDRICAL_SURFACE('',#260,10.);
#50=CYLINDRICAL_SURFACE('',#264,12.3);
#51=CYLINDRICAL_SURFACE('',#268,13.5);
#52=CYLINDRICAL_SURFACE('',#282,23.);
#53=FACE_OUTER_BOUND('',#69,.T.);
#54=FACE_OUTER_BOUND('',#70,.T.);
#55=FACE_OUTER_BOUND('',#71,.T.);
#56=FACE_OUTER_BOUND('',#73,.T.);
#57=FACE_OUTER_BOUND('',#74,.T.);
#58=FACE_OUTER_BOUND('',#76,.T.);
#59=FACE_OUTER_BOUND('',#77,.T.);
#60=FACE_OUTER_BOUND('',#79,.T.);
#61=FACE_OUTER_BOUND('',#80,.T.);
#62=FACE_OUTER_BOUND('',#81,.T.);
#63=FACE_OUTER_BOUND('',#83,.T.);
#64=FACE_OUTER_BOUND('',#84,.T.);
#65=FACE_OUTER_BOUND('',#85,.T.);
#66=FACE_OUTER_BOUND('',#86,.T.);
#67=FACE_OUTER_BOUND('',#87,.T.);
#68=FACE_OUTER_BOUND('',#88,.T.);
#69=EDGE_LOOP('',(#160,#161,#162,#163,#164,#165));
#70=EDGE_LOOP('',(#166,#167,#168,#169,#170));
#71=EDGE_LOOP('',(#171));
#72=EDGE_LOOP('',(#172));
#73=EDGE_LOOP('',(#173,#174,#175,#176));
#74=EDGE_LOOP('',(#177));
#75=EDGE_LOOP('',(#178));
#76=EDGE_LOOP('',(#179,#180,#181,#182));
#77=EDGE_LOOP('',(#183));
#78=EDGE_LOOP('',(#184));
#79=EDGE_LOOP('',(#185,#186,#187,#188,#189));
#80=EDGE_LOOP('',(#190,#191,#192,#193,#194));
#81=EDGE_LOOP('',(#195));
#82=EDGE_LOOP('',(#196));
#83=EDGE_LOOP('',(#197,#198,#199,#200));
#84=EDGE_LOOP('',(#201,#202,#203,#204));
#85=EDGE_LOOP('',(#205,#206,#207,#208));
#86=EDGE_LOOP('',(#209,#210,#211,#212));
#87=EDGE_LOOP('',(#213,#214,#215,#216));
#88=EDGE_LOOP('',(#217,#218,#219,#220,#221));
#89=CIRCLE('',#255,10.);
#90=CIRCLE('',#256,10.);
#91=CIRCLE('',#257,0.800000000000001);
#92=CIRCLE('',#258,10.8);
#93=CIRCLE('',#259,10.8);
#94=CIRCLE('',#261,10.);
#95=CIRCLE('',#263,12.3);
#96=CIRCLE('',#265,12.3);
#97=CIRCLE('',#267,13.5);
#98=CIRCLE('',#269,13.5);
#99=CIRCLE('',#271,14.7962874525333);
#100=CIRCLE('',#273,17.2928612894197);
#101=CIRCLE('',#274,17.2928612894197);
#102=CIRCLE('',#275,2.5);
#103=CIRCLE('',#277,17.8499999999999);
#104=CIRCLE('',#279,22.5);
#105=CIRCLE('',#281,23.);
#106=CIRCLE('',#283,23.);
#107=CIRCLE('',#285,21.2679491924312);
#108=CIRCLE('',#287,20.500038586619);
#109=CIRCLE('',#289,19.9497569041471);
#110=VERTEX_POINT('',#379);
#111=VERTEX_POINT('',#380);
#112=VERTEX_POINT('',#383);
#113=VERTEX_POINT('',#385);
#114=VERTEX_POINT('',#389);
#115=VERTEX_POINT('',#393);
#116=VERTEX_POINT('',#396);
#117=VERTEX_POINT('',#400);
#118=VERTEX_POINT('',#403);
#119=VERTEX_POINT('',#407);
#120=VERTEX_POINT('',#410);
#121=VERTEX_POINT('',#411);
#122=VERTEX_POINT('',#416);
#123=VERTEX_POINT('',#420);
#124=VERTEX_POINT('',#423);
#125=VERTEX_POINT('',#427);
#126=VERTEX_POINT('',#431);
#127=VERTEX_POINT('',#435);
#128=VERTEX_POINT('',#439);
#129=EDGE_CURVE('',#110,#111,#89,.T.);
#130=EDGE_CURVE('',#111,#110,#90,.T.);
#131=EDGE_CURVE('',#111,#112,#91,.T.);
#132=EDGE_CURVE('',#112,#113,#92,.T.);
#133=EDGE_CURVE('',#113,#112,#93,.T.);
#134=EDGE_CURVE('',#114,#114,#94,.T.);
#135=EDGE_CURVE('',#114,#110,#29,.T.);
#136=EDGE_CURVE('',#115,#115,#95,.T.);
#137=EDGE_CURVE('',#116,#116,#96,.T.);
#138=EDGE_CURVE('',#116,#115,#30,.T.);
#139=EDGE_CURVE('',#117,#117,#97,.T.);
#140=EDGE_CURVE('',#118,#118,#98,.T.);
#141=EDGE_CURVE('',#118,#117,#31,.T.);
#142=EDGE_CURVE('',#119,#119,#99,.T.);
#143=EDGE_CURVE('',#120,#121,#100,.T.);
#144=EDGE_CURVE('',#121,#120,#101,.T.);
#145=EDGE_CURVE('',#121,#119,#102,.T.);
#146=EDGE_CURVE('',#120,#122,#32,.T.);
#147=EDGE_CURVE('',#122,#122,#103,.T.);
#148=EDGE_CURVE('',#123,#123,#104,.T.);
#149=EDGE_CURVE('',#124,#124,#105,.T.);
#150=EDGE_CURVE('',#124,#123,#33,.T.);
#151=EDGE_CURVE('',#125,#125,#106,.T.);
#152=EDGE_CURVE('',#125,#124,#34,.T.);
#153=EDGE_CURVE('',#125,#126,#35,.T.);
#154=EDGE_CURVE('',#126,#126,#107,.T.);
#155=EDGE_CURVE('',#126,#127,#36,.T.);
#156=EDGE_CURVE('',#127,#127,#108,.T.);
#157=EDGE_CURVE('',#127,#128,#37,.T.);
#158=EDGE_CURVE('',#128,#128,#109,.T.);
#159=EDGE_CURVE('',#113,#128,#38,.T.);
#160=ORIENTED_EDGE('',*,*,#129,.F.);
#161=ORIENTED_EDGE('',*,*,#130,.F.);
#162=ORIENTED_EDGE('',*,*,#131,.T.);
#163=ORIENTED_EDGE('',*,*,#132,.T.);
#164=ORIENTED_EDGE('',*,*,#133,.T.);
#165=ORIENTED_EDGE('',*,*,#131,.F.);
#166=ORIENTED_EDGE('',*,*,#134,.F.);
#167=ORIENTED_EDGE('',*,*,#135,.T.);
#168=ORIENTED_EDGE('',*,*,#129,.T.);
#169=ORIENTED_EDGE('',*,*,#130,.T.);
#170=ORIENTED_EDGE('',*,*,#135,.F.);
#171=ORIENTED_EDGE('',*,*,#136,.F.);
#172=ORIENTED_EDGE('',*,*,#134,.T.);
#173=ORIENTED_EDGE('',*,*,#137,.F.);
#174=ORIENTED_EDGE('',*,*,#138,.T.);
#175=ORIENTED_EDGE('',*,*,#136,.T.);
#176=ORIENTED_EDGE('',*,*,#138,.F.);
#177=ORIENTED_EDGE('',*,*,#139,.F.);
#178=ORIENTED_EDGE('',*,*,#137,.T.);
#179=ORIENTED_EDGE('',*,*,#140,.F.);
#180=ORIENTED_EDGE('',*,*,#141,.T.);
#181=ORIENTED_EDGE('',*,*,#139,.T.);
#182=ORIENTED_EDGE('',*,*,#141,.F.);
#183=ORIENTED_EDGE('',*,*,#142,.F.);
#184=ORIENTED_EDGE('',*,*,#140,.T.);
#185=ORIENTED_EDGE('',*,*,#143,.F.);
#186=ORIENTED_EDGE('',*,*,#144,.F.);
#187=ORIENTED_EDGE('',*,*,#145,.T.);
#188=ORIENTED_EDGE('',*,*,#142,.T.);
#189=ORIENTED_EDGE('',*,*,#145,.F.);
#190=ORIENTED_EDGE('',*,*,#143,.T.);
#191=ORIENTED_EDGE('',*,*,#144,.T.);
#192=ORIENTED_EDGE('',*,*,#146,.T.);
#193=ORIENTED_EDGE('',*,*,#147,.F.);
#194=ORIENTED_EDGE('',*,*,#146,.F.);
#195=ORIENTED_EDGE('',*,*,#148,.F.);
#196=ORIENTED_EDGE('',*,*,#147,.T.);
#197=ORIENTED_EDGE('',*,*,#149,.F.);
#198=ORIENTED_EDGE('',*,*,#150,.T.);
#199=ORIENTED_EDGE('',*,*,#148,.T.);
#200=ORIENTED_EDGE('',*,*,#150,.F.);
#201=ORIENTED_EDGE('',*,*,#151,.F.);
#202=ORIENTED_EDGE('',*,*,#152,.T.);
#203=ORIENTED_EDGE('',*,*,#149,.T.);
#204=ORIENTED_EDGE('',*,*,#152,.F.);
#205=ORIENTED_EDGE('',*,*,#151,.T.);
#206=ORIENTED_EDGE('',*,*,#153,.T.);
#207=ORIENTED_EDGE('',*,*,#154,.F.);
#208=ORIENTED_EDGE('',*,*,#153,.F.);
#209=ORIENTED_EDGE('',*,*,#154,.T.);
#210=ORIENTED_EDGE('',*,*,#155,.T.);
#211=ORIENTED_EDGE('',*,*,#156,.F.);
#212=ORIENTED_EDGE('',*,*,#155,.F.);
#213=ORIENTED_EDGE('',*,*,#156,.T.);
#214=ORIENTED_EDGE('',*,*,#157,.T.);
#215=ORIENTED_EDGE('',*,*,#158,.F.);
#216=ORIENTED_EDGE('',*,*,#157,.F.);
#217=ORIENTED_EDGE('',*,*,#133,.F.);
#218=ORIENTED_EDGE('',*,*,#159,.T.);
#219=ORIENTED_EDGE('',*,*,#158,.T.);
#220=ORIENTED_EDGE('',*,*,#159,.F.);
#221=ORIENTED_EDGE('',*,*,#132,.F.);
#222=TOROIDAL_SURFACE('',#254,10.8,0.800000000000001);
#223=TOROIDAL_SURFACE('',#272,14.7962874525333,2.5);
#224=ADVANCED_FACE('',(#53),#222,.T.);
#225=ADVANCED_FACE('',(#54),#49,.F.);
#226=ADVANCED_FACE('',(#55,#21),#25,.T.);
#227=ADVANCED_FACE('',(#56),#50,.T.);
#228=ADVANCED_FACE('',(#57,#22),#26,.T.);
#229=ADVANCED_FACE('',(#58),#51,.F.);
#230=ADVANCED_FACE('',(#59,#23),#27,.T.);
#231=ADVANCED_FACE('',(#60),#223,.F.);
#232=ADVANCED_FACE('',(#61),#15,.F.);
#233=ADVANCED_FACE('',(#62,#24),#28,.T.);
#234=ADVANCED_FACE('',(#63),#16,.T.);
#235=ADVANCED_FACE('',(#64),#52,.T.);
#236=ADVANCED_FACE('',(#65),#17,.T.);
#237=ADVANCED_FACE('',(#66),#18,.T.);
#238=ADVANCED_FACE('',(#67),#19,.T.);
#239=ADVANCED_FACE('',(#68),#20,.F.);
#240=CLOSED_SHELL('',(#224,#225,#226,#227,#228,#229,#230,#231,#232,#233,
#234,#235,#236,#237,#238,#239));
#241=DERIVED_UNIT_ELEMENT(#243,1.);
#242=DERIVED_UNIT_ELEMENT(#449,-3.);
#243=(
MASS_UNIT()
NAMED_UNIT(*)
SI_UNIT(.KILO.,.GRAM.)
);
#244=DERIVED_UNIT((#241,#242));
#245=MEASURE_REPRESENTATION_ITEM('density measure',
POSITIVE_RATIO_MEASURE(7850.),#244);
#246=PROPERTY_DEFINITION_REPRESENTATION(#251,#248);
#247=PROPERTY_DEFINITION_REPRESENTATION(#252,#249);
#248=REPRESENTATION('material name',(#250),#446);
#249=REPRESENTATION('density',(#245),#446);
#250=DESCRIPTIVE_REPRESENTATION_ITEM('Steel','Steel');
#251=PROPERTY_DEFINITION('material property','material name',#456);
#252=PROPERTY_DEFINITION('material property','density of part',#456);
#253=AXIS2_PLACEMENT_3D('placement',#377,#291,#292);
#254=AXIS2_PLACEMENT_3D('',#378,#293,#294);
#255=AXIS2_PLACEMENT_3D('',#381,#295,#296);
#256=AXIS2_PLACEMENT_3D('',#382,#297,#298);
#257=AXIS2_PLACEMENT_3D('',#384,#299,#300);
#258=AXIS2_PLACEMENT_3D('',#386,#301,#302);
#259=AXIS2_PLACEMENT_3D('',#387,#303,#304);
#260=AXIS2_PLACEMENT_3D('',#388,#305,#306);
#261=AXIS2_PLACEMENT_3D('',#390,#307,#308);
#262=AXIS2_PLACEMENT_3D('',#392,#310,#311);
#263=AXIS2_PLACEMENT_3D('',#394,#312,#313);
#264=AXIS2_PLACEMENT_3D('',#395,#314,#315);
#265=AXIS2_PLACEMENT_3D('',#397,#316,#317);
#266=AXIS2_PLACEMENT_3D('',#399,#319,#320);
#267=AXIS2_PLACEMENT_3D('',#401,#321,#322);
#268=AXIS2_PLACEMENT_3D('',#402,#323,#324);
#269=AXIS2_PLACEMENT_3D('',#404,#325,#326);
#270=AXIS2_PLACEMENT_3D('',#406,#328,#329);
#271=AXIS2_PLACEMENT_3D('',#408,#330,#331);
#272=AXIS2_PLACEMENT_3D('',#409,#332,#333);
#273=AXIS2_PLACEMENT_3D('',#412,#334,#335);
#274=AXIS2_PLACEMENT_3D('',#413,#336,#337);
#275=AXIS2_PLACEMENT_3D('',#414,#338,#339);
#276=AXIS2_PLACEMENT_3D('',#415,#340,#341);
#277=AXIS2_PLACEMENT_3D('',#418,#343,#344);
#278=AXIS2_PLACEMENT_3D('',#419,#345,#346);
#279=AXIS2_PLACEMENT_3D('',#421,#347,#348);
#280=AXIS2_PLACEMENT_3D('',#422,#349,#350);
#281=AXIS2_PLACEMENT_3D('',#424,#351,#352);
#282=AXIS2_PLACEMENT_3D('',#426,#354,#355);
#283=AXIS2_PLACEMENT_3D('',#428,#356,#357);
#284=AXIS2_PLACEMENT_3D('',#430,#359,#360);
#285=AXIS2_PLACEMENT_3D('',#433,#362,#363);
#286=AXIS2_PLACEMENT_3D('',#434,#364,#365);
#287=AXIS2_PLACEMENT_3D('',#437,#367,#368);
#288=AXIS2_PLACEMENT_3D('',#438,#369,#370);
#289=AXIS2_PLACEMENT_3D('',#441,#372,#373);
#290=AXIS2_PLACEMENT_3D('',#442,#374,#375);
#291=DIRECTION('axis',(0.,0.,1.));
#292=DIRECTION('refdir',(1.,0.,0.));
#293=DIRECTION('center_axis',(0.,-1.,0.));
#294=DIRECTION('ref_axis',(0.,0.,-1.));
#295=DIRECTION('center_axis',(0.,-1.,0.));
#296=DIRECTION('ref_axis',(1.,0.,0.));
#297=DIRECTION('center_axis',(0.,-1.,0.));
#298=DIRECTION('ref_axis',(1.,0.,0.));
#299=DIRECTION('center_axis',(-1.,0.,-1.22464679914735E-16));
#300=DIRECTION('ref_axis',(-1.22464679914735E-16,0.,1.));
#301=DIRECTION('center_axis',(0.,-1.,0.));
#302=DIRECTION('ref_axis',(1.,0.,0.));
#303=DIRECTION('center_axis',(0.,-1.,0.));
#304=DIRECTION('ref_axis',(1.,0.,0.));
#305=DIRECTION('center_axis',(0.,-1.,0.));
#306=DIRECTION('ref_axis',(1.,0.,0.));
#307=DIRECTION('center_axis',(0.,-1.,0.));
#308=DIRECTION('ref_axis',(1.,0.,0.));
#309=DIRECTION('',(0.,-1.,0.));
#310=DIRECTION('center_axis',(0.,1.,0.));
#311=DIRECTION('ref_axis',(0.,0.,1.));
#312=DIRECTION('center_axis',(0.,-1.,0.));
#313=DIRECTION('ref_axis',(1.,0.,0.));
#314=DIRECTION('center_axis',(0.,-1.,0.));
#315=DIRECTION('ref_axis',(1.,0.,0.));
#316=DIRECTION('center_axis',(0.,-1.,0.));
#317=DIRECTION('ref_axis',(1.,0.,0.));
#318=DIRECTION('',(0.,1.,0.));
#319=DIRECTION('center_axis',(0.,1.,0.));
#320=DIRECTION('ref_axis',(0.,0.,1.));
#321=DIRECTION('center_axis',(0.,-1.,0.));
#322=DIRECTION('ref_axis',(1.,0.,0.));
#323=DIRECTION('center_axis',(0.,-1.,0.));
#324=DIRECTION('ref_axis',(1.,0.,0.));
#325=DIRECTION('center_axis',(0.,-1.,0.));
#326=DIRECTION('ref_axis',(1.,0.,0.));
#327=DIRECTION('',(0.,-1.,0.));
#328=DIRECTION('center_axis',(0.,1.,0.));
#329=DIRECTION('ref_axis',(0.,0.,1.));
#330=DIRECTION('center_axis',(0.,-1.,0.));
#331=DIRECTION('ref_axis',(1.,0.,0.));
#332=DIRECTION('center_axis',(0.,-1.,0.));
#333=DIRECTION('ref_axis',(0.,0.,-1.));
#334=DIRECTION('center_axis',(0.,-1.,0.));
#335=DIRECTION('ref_axis',(1.,0.,0.));
#336=DIRECTION('center_axis',(0.,-1.,0.));
#337=DIRECTION('ref_axis',(1.,0.,0.));
#338=DIRECTION('center_axis',(1.,0.,1.22464679914735E-16));
#339=DIRECTION('ref_axis',(-1.22464679914735E-16,0.,1.));
#340=DIRECTION('center_axis',(0.,1.,0.));
#341=DIRECTION('ref_axis',(1.,0.,0.));
#342=DIRECTION('',(-0.0523359562429307,0.998629534754574,6.40930612932211E-18));
#343=DIRECTION('center_axis',(0.,-1.,0.));
#344=DIRECTION('ref_axis',(1.,0.,0.));
#345=DIRECTION('center_axis',(0.,1.,0.));
#346=DIRECTION('ref_axis',(0.,0.,1.));
#347=DIRECTION('center_axis',(0.,-1.,0.));
#348=DIRECTION('ref_axis',(1.,0.,0.));
#349=DIRECTION('center_axis',(0.,-1.,0.));
#350=DIRECTION('ref_axis',(1.,0.,0.));
#351=DIRECTION('center_axis',(0.,-1.,0.));
#352=DIRECTION('ref_axis',(1.,0.,0.));
#353=DIRECTION('',(0.707106781186544,0.707106781186551,8.6595605623549E-17));
#354=DIRECTION('center_axis',(0.,-1.,0.));
#355=DIRECTION('ref_axis',(1.,0.,0.));
#356=DIRECTION('center_axis',(0.,-1.,0.));
#357=DIRECTION('ref_axis',(1.,0.,0.));
#358=DIRECTION('',(0.,1.,0.));
#359=DIRECTION('center_axis',(0.,1.,0.));
#360=DIRECTION('ref_axis',(1.,0.,0.));
#361=DIRECTION('',(0.866025403784435,-0.500000000000006,-1.0605752387249E-16));
#362=DIRECTION('center_axis',(0.,-1.,0.));
#363=DIRECTION('ref_axis',(1.,0.,0.));
#364=DIRECTION('center_axis',(0.,1.,0.));
#365=DIRECTION('ref_axis',(1.,0.,0.));
#366=DIRECTION('',(0.999993457747004,-0.00361724524884365,-1.22463878719816E-16));
#367=DIRECTION('center_axis',(0.,-1.,0.));
#368=DIRECTION('ref_axis',(1.,0.,0.));
#369=DIRECTION('center_axis',(0.,1.,0.));
#370=DIRECTION('ref_axis',(1.,0.,0.));
#371=DIRECTION('',(0.0523359562429414,-0.998629534754574,-6.40930612932341E-18));
#372=DIRECTION('center_axis',(0.,-1.,0.));
#373=DIRECTION('ref_axis',(1.,0.,0.));
#374=DIRECTION('center_axis',(0.,-1.,0.));
#375=DIRECTION('ref_axis',(1.,0.,0.));
#376=DIRECTION('',(-0.999999953917738,-0.000303586102193518,-1.22464674271286E-16));
#377=CARTESIAN_POINT('',(0.,0.,0.));
#378=CARTESIAN_POINT('Origin',(0.,3.01116698964488,0.));
#379=CARTESIAN_POINT('',(-10.,3.01116698964483,-1.22464679914735E-15));
#380=CARTESIAN_POINT('',(-1.22464679914735E-15,3.01116698964483,10.));
#381=CARTESIAN_POINT('Origin',(0.,3.01116698964483,0.));
#382=CARTESIAN_POINT('Origin',(0.,3.01116698964483,0.));
#383=CARTESIAN_POINT('',(-1.32261854307914E-15,2.21116698964488,10.8));
#384=CARTESIAN_POINT('Origin',(-1.32261854307914E-15,3.01116698964488,10.8));
#385=CARTESIAN_POINT('',(-10.8,2.21116698964461,-1.32261854307914E-15));
#386=CARTESIAN_POINT('Origin',(0.,2.21116698964488,0.));
#387=CARTESIAN_POINT('Origin',(0.,2.21116698964488,0.));
#388=CARTESIAN_POINT('Origin',(0.,4.61116698964486,0.));
#389=CARTESIAN_POINT('',(-10.,6.21116698964488,-1.22464679914735E-15));
#390=CARTESIAN_POINT('Origin',(0.,6.21116698964488,0.));
#391=CARTESIAN_POINT('',(-10.,4.61116698964486,-1.22464679914735E-15));
#392=CARTESIAN_POINT('Origin',(11.15,6.21116698964488,0.));
#393=CARTESIAN_POINT('',(-12.3,6.21116698964488,-1.50631556295124E-15));
#394=CARTESIAN_POINT('Origin',(0.,6.21116698964488,0.));
#395=CARTESIAN_POINT('Origin',(0.,6.06116698964479,0.));
#396=CARTESIAN_POINT('',(-12.3,5.9111669896447,-1.50631556295124E-15));
#397=CARTESIAN_POINT('Origin',(0.,5.9111669896447,0.));
#398=CARTESIAN_POINT('',(-12.3,6.06116698964479,-1.50631556295124E-15));
#399=CARTESIAN_POINT('Origin',(12.9,5.9111669896447,0.));
#400=CARTESIAN_POINT('',(-13.5,5.9111669896447,-1.65327317884893E-15));
#401=CARTESIAN_POINT('Origin',(0.,5.9111669896447,0.));
#402=CARTESIAN_POINT('Origin',(0.,7.06116698964479,0.));
#403=CARTESIAN_POINT('',(-13.5,8.21116698964488,-1.65327317884893E-15));
#404=CARTESIAN_POINT('Origin',(0.,8.21116698964488,0.));
#405=CARTESIAN_POINT('',(-13.5,7.06116698964479,-1.65327317884893E-15));
#406=CARTESIAN_POINT('Origin',(14.1481437262667,8.21116698964488,0.));
#407=CARTESIAN_POINT('',(-1.81202260680091E-15,8.21116698964488,14.7962874525333));
#408=CARTESIAN_POINT('Origin',(0.,8.21116698964488,0.));
#409=CARTESIAN_POINT('Origin',(0.,10.7111669896449,0.));
#410=CARTESIAN_POINT('',(-17.2928612894197,10.5803270990373,2.11776472261871E-15));
#411=CARTESIAN_POINT('',(-2.11776472261871E-15,10.5803270990373,17.2928612894197));
#412=CARTESIAN_POINT('Origin',(0.,10.5803270990373,0.));
#413=CARTESIAN_POINT('Origin',(0.,10.5803270990373,0.));
#414=CARTESIAN_POINT('Origin',(-1.81202260680091E-15,10.7111669896449,14.7962874525333));
#415=CARTESIAN_POINT('Origin',(0.,15.8957470443411,0.));
#416=CARTESIAN_POINT('',(-17.8499999999999,21.2111669896449,2.18599453647802E-15));
#417=CARTESIAN_POINT('',(-17.5714306447098,15.8957470443411,2.15187962954836E-15));
#418=CARTESIAN_POINT('Origin',(0.,21.2111669896449,0.));
#419=CARTESIAN_POINT('Origin',(20.175,21.2111669896449,0.));
#420=CARTESIAN_POINT('',(-22.5,21.2111669896449,-2.75545529808155E-15));
#421=CARTESIAN_POINT('Origin',(0.,21.2111669896449,0.));
#422=CARTESIAN_POINT('Origin',(0.,20.9611669896449,0.));
#423=CARTESIAN_POINT('',(-23.,20.7111669896449,-2.81668763803891E-15));
#424=CARTESIAN_POINT('Origin',(0.,20.7111669896449,0.));
#425=CARTESIAN_POINT('',(-22.75,20.9611669896449,-2.78607146806023E-15));
#426=CARTESIAN_POINT('Origin',(0.,17.2111669896449,0.));
#427=CARTESIAN_POINT('',(-23.,13.7111669896449,-2.81668763803891E-15));
#428=CARTESIAN_POINT('Origin',(0.,13.7111669896449,0.));
#429=CARTESIAN_POINT('',(-23.,17.2111669896449,-2.81668763803891E-15));
#430=CARTESIAN_POINT('Origin',(0.,13.2111669896449,0.));
#431=CARTESIAN_POINT('',(-21.2679491924312,12.7111669896449,2.60457259029394E-15));
#432=CARTESIAN_POINT('',(-22.1339745962156,13.2111669896449,2.71063011416643E-15));
#433=CARTESIAN_POINT('Origin',(0.,12.7111669896449,0.));
#434=CARTESIAN_POINT('Origin',(0.,12.7097781200633,0.));
#435=CARTESIAN_POINT('',(-20.500038586619,12.7083892504818,2.51053066375002E-15));
#436=CARTESIAN_POINT('',(-20.8839938895251,12.7097781200633,2.55755162702198E-15));
#437=CARTESIAN_POINT('Origin',(0.,12.7083892504818,0.));
#438=CARTESIAN_POINT('Origin',(0.,7.45838925048179,0.));
#439=CARTESIAN_POINT('',(-19.9497569041471,2.20838925048178,2.44314059364315E-15));
#440=CARTESIAN_POINT('',(-20.224897745383,7.45838925048179,2.47683562869659E-15));
#441=CARTESIAN_POINT('Origin',(0.,2.20838925048178,0.));
#442=CARTESIAN_POINT('Origin',(0.,2.20977812006333,0.));
#443=CARTESIAN_POINT('',(-15.3748784520735,2.20977812006333,-1.88287956836115E-15));
#444=UNCERTAINTY_MEASURE_WITH_UNIT(LENGTH_MEASURE(0.01),#448,
'DISTANCE_ACCURACY_VALUE',
'Maximum model space distance between geometric entities at asserted c
onnectivities');
#445=UNCERTAINTY_MEASURE_WITH_UNIT(LENGTH_MEASURE(0.01),#448,
'DISTANCE_ACCURACY_VALUE',
'Maximum model space distance between geometric entities at asserted c
onnectivities');
#446=(
GEOMETRIC_REPRESENTATION_CONTEXT(3)
GLOBAL_UNCERTAINTY_ASSIGNED_CONTEXT((#444))
GLOBAL_UNIT_ASSIGNED_CONTEXT((#448,#450,#451))
REPRESENTATION_CONTEXT('','3D')
);
#447=(
GEOMETRIC_REPRESENTATION_CONTEXT(3)
GLOBAL_UNCERTAINTY_ASSIGNED_CONTEXT((#445))
GLOBAL_UNIT_ASSIGNED_CONTEXT((#448,#450,#451))
REPRESENTATION_CONTEXT('','3D')
);
#448=(
LENGTH_UNIT()
NAMED_UNIT(*)
SI_UNIT(.MILLI.,.METRE.)
);
#449=(
LENGTH_UNIT()
NAMED_UNIT(*)
SI_UNIT($,.METRE.)
);
#450=(
NAMED_UNIT(*)
PLANE_ANGLE_UNIT()
SI_UNIT($,.RADIAN.)
);
#451=(
NAMED_UNIT(*)
SI_UNIT($,.STERADIAN.)
SOLID_ANGLE_UNIT()
);
#452=SHAPE_DEFINITION_REPRESENTATION(#453,#454);
#453=PRODUCT_DEFINITION_SHAPE('',$,#456);
#454=SHAPE_REPRESENTATION('',(#253),#446);
#455=PRODUCT_DEFINITION_CONTEXT('part definition',#460,'design');
#456=PRODUCT_DEFINITION('6116 - DN20','6116 - DN20 v1',#457,#455);
#457=PRODUCT_DEFINITION_FORMATION('',$,#462);
#458=PRODUCT_RELATED_PRODUCT_CATEGORY('6116 - DN20 v1','6116 - DN20 v1',
(#462));
#459=APPLICATION_PROTOCOL_DEFINITION('international standard',
'automotive_design',2009,#460);
#460=APPLICATION_CONTEXT(
'Core Data for Automotive Mechanical Design Process');
#461=PRODUCT_CONTEXT('part definition',#460,'mechanical');
#462=PRODUCT('6116 - DN20','6116 - DN20 v1',$,(#461));
#463=PRESENTATION_STYLE_ASSIGNMENT((#465));
#464=PRESENTATION_STYLE_ASSIGNMENT((#466));
#465=SURFACE_STYLE_USAGE(.BOTH.,#467);
#466=SURFACE_STYLE_USAGE(.BOTH.,#468);
#467=SURFACE_SIDE_STYLE('',(#469));
#468=SURFACE_SIDE_STYLE('',(#470));
#469=SURFACE_STYLE_FILL_AREA(#471);
#470=SURFACE_STYLE_FILL_AREA(#472);
#471=FILL_AREA_STYLE('Steel - Satin',(#473));
#472=FILL_AREA_STYLE('Opaque(191,191,191)',(#474));
#473=FILL_AREA_STYLE_COLOUR('Steel - Satin',#475);
#474=FILL_AREA_STYLE_COLOUR('Opaque(191,191,191)',#476);
#475=COLOUR_RGB('Steel - Satin',0.627450980392157,0.627450980392157,0.627450980392157);
#476=COLOUR_RGB('Opaque(191,191,191)',0.749019607843137,0.749019607843137,
0.749019607843137);
ENDSEC;
END-ISO-10303-21;
