ISO-10303-21;
HEADER;
/* Generated by software containing ST-Developer
 * from STEP Tools, Inc. (www.steptools.com) 
 */

FILE_DESCRIPTION(
/* description */ (''),
/* implementation_level */ '2;1');

FILE_NAME(
/* name */ '6116 - DN100.step',
/* time_stamp */ '2022-12-20T09:05:16+01:00',
/* author */ (''),
/* organization */ (''),
/* preprocessor_version */ 'ST-DEVELOPER v19.2',
/* originating_system */ 'Autodesk Translation Framework v11.17.0.187',

/* authorisation */ '');

FILE_SCHEMA (('AUTOMOTIVE_DESIGN { 1 0 10303 214 3 1 1 }'));
ENDSEC;

DATA;
#10=MECHANICAL_DESIGN_GEOMETRIC_PRESENTATION_REPRESENTATION('',(#13),#427);
#11=SHAPE_REPRESENTATION_RELATIONSHIP('SRR','None',#434,#12);
#12=ADVANCED_BREP_SHAPE_REPRESENTATION('',(#14),#426);
#13=STYLED_ITEM('',(#444),#14);
#14=MANIFOLD_SOLID_BREP('Body1',#229);
#15=TOROIDAL_SURFACE('',#258,49.4999988875002,1.99999995);
#16=TOROIDAL_SURFACE('',#274,54.6487428926457,6.00000000000033);
#17=CYLINDRICAL_SURFACE('',#248,74.9999981249998);
#18=CYLINDRICAL_SURFACE('',#262,47.4999989375001);
#19=CYLINDRICAL_SURFACE('',#266,52.8999988024998);
#20=CYLINDRICAL_SURFACE('',#270,53.9999987750002);
#21=LINE('',#370,#29);
#22=LINE('',#374,#30);
#23=LINE('',#377,#31);
#24=LINE('',#384,#32);
#25=LINE('',#398,#33);
#26=LINE('',#405,#34);
#27=LINE('',#412,#35);
#28=LINE('',#423,#36);
#29=VECTOR('',#291,74.4999981374999);
#30=VECTOR('',#296,74.9999981249998);
#31=VECTOR('',#299,73.7499981562498);
#32=VECTOR('',#308,68.7016501835299);
#33=VECTOR('',#327,47.4999989375001);
#34=VECTOR('',#336,52.8999988024998);
#35=VECTOR('',#345,53.9999987750002);
#36=VECTOR('',#360,61.7621866940374);
#37=CONICAL_SURFACE('',#246,74.4999981374999,0.785398163397448);
#38=CONICAL_SURFACE('',#250,73.7499981562498,1.04719755119654);
#39=CONICAL_SURFACE('',#254,68.7016501835299,0.0540451535222327);
#40=CONICAL_SURFACE('',#278,61.7621866940374,0.0523598775598267);
#41=FACE_BOUND('',#64,.T.);
#42=FACE_BOUND('',#69,.T.);
#43=FACE_BOUND('',#72,.T.);
#44=FACE_BOUND('',#76,.T.);
#45=FACE_BOUND('',#79,.T.);
#46=FACE_BOUND('',#82,.T.);
#47=FACE_OUTER_BOUND('',#63,.T.);
#48=FACE_OUTER_BOUND('',#65,.T.);
#49=FACE_OUTER_BOUND('',#66,.T.);
#50=FACE_OUTER_BOUND('',#67,.T.);
#51=FACE_OUTER_BOUND('',#68,.T.);
#52=FACE_OUTER_BOUND('',#70,.T.);
#53=FACE_OUTER_BOUND('',#71,.T.);
#54=FACE_OUTER_BOUND('',#73,.T.);
#55=FACE_OUTER_BOUND('',#74,.T.);
#56=FACE_OUTER_BOUND('',#75,.T.);
#57=FACE_OUTER_BOUND('',#77,.T.);
#58=FACE_OUTER_BOUND('',#78,.T.);
#59=FACE_OUTER_BOUND('',#80,.T.);
#60=FACE_OUTER_BOUND('',#81,.T.);
#61=FACE_OUTER_BOUND('',#83,.T.);
#62=FACE_OUTER_BOUND('',#84,.T.);
#63=EDGE_LOOP('',(#151));
#64=EDGE_LOOP('',(#152));
#65=EDGE_LOOP('',(#153,#154,#155,#156));
#66=EDGE_LOOP('',(#157,#158,#159,#160));
#67=EDGE_LOOP('',(#161,#162,#163,#164));
#68=EDGE_LOOP('',(#165));
#69=EDGE_LOOP('',(#166));
#70=EDGE_LOOP('',(#167,#168,#169,#170));
#71=EDGE_LOOP('',(#171));
#72=EDGE_LOOP('',(#172));
#73=EDGE_LOOP('',(#173,#174,#175,#176,#177));
#74=EDGE_LOOP('',(#178,#179,#180,#181,#182));
#75=EDGE_LOOP('',(#183));
#76=EDGE_LOOP('',(#184));
#77=EDGE_LOOP('',(#185,#186,#187,#188));
#78=EDGE_LOOP('',(#189));
#79=EDGE_LOOP('',(#190));
#80=EDGE_LOOP('',(#191,#192,#193,#194));
#81=EDGE_LOOP('',(#195));
#82=EDGE_LOOP('',(#196));
#83=EDGE_LOOP('',(#197,#198,#199,#200,#201));
#84=EDGE_LOOP('',(#202,#203,#204,#205,#206));
#85=CIRCLE('',#244,73.99999815);
#86=CIRCLE('',#245,62.8838532869013);
#87=CIRCLE('',#247,74.9999981249998);
#88=CIRCLE('',#249,74.9999981249998);
#89=CIRCLE('',#251,72.4999981874998);
#90=CIRCLE('',#253,69.9999981874998);
#91=CIRCLE('',#255,67.4033021795599);
#92=CIRCLE('',#257,49.4999988875002);
#93=CIRCLE('',#259,47.4999989375002);
#94=CIRCLE('',#260,47.4999989375002);
#95=CIRCLE('',#261,1.99999995);
#96=CIRCLE('',#263,47.4999989375001);
#97=CIRCLE('',#265,52.8999988024998);
#98=CIRCLE('',#267,52.8999988024998);
#99=CIRCLE('',#269,53.9999987750002);
#100=CIRCLE('',#271,53.9999987750002);
#101=CIRCLE('',#273,54.6487428926457);
#102=CIRCLE('',#275,60.6405201011735);
#103=CIRCLE('',#276,60.6405201011735);
#104=CIRCLE('',#277,6.00000000000033);
#105=VERTEX_POINT('',#363);
#106=VERTEX_POINT('',#365);
#107=VERTEX_POINT('',#368);
#108=VERTEX_POINT('',#372);
#109=VERTEX_POINT('',#376);
#110=VERTEX_POINT('',#380);
#111=VERTEX_POINT('',#383);
#112=VERTEX_POINT('',#387);
#113=VERTEX_POINT('',#390);
#114=VERTEX_POINT('',#391);
#115=VERTEX_POINT('',#396);
#116=VERTEX_POINT('',#400);
#117=VERTEX_POINT('',#403);
#118=VERTEX_POINT('',#407);
#119=VERTEX_POINT('',#410);
#120=VERTEX_POINT('',#414);
#121=VERTEX_POINT('',#417);
#122=VERTEX_POINT('',#418);
#123=EDGE_CURVE('',#105,#105,#85,.T.);
#124=EDGE_CURVE('',#106,#106,#86,.T.);
#125=EDGE_CURVE('',#107,#107,#87,.T.);
#126=EDGE_CURVE('',#107,#105,#21,.T.);
#127=EDGE_CURVE('',#108,#108,#88,.T.);
#128=EDGE_CURVE('',#108,#107,#22,.T.);
#129=EDGE_CURVE('',#108,#109,#23,.T.);
#130=EDGE_CURVE('',#109,#109,#89,.T.);
#131=EDGE_CURVE('',#110,#110,#90,.T.);
#132=EDGE_CURVE('',#110,#111,#24,.T.);
#133=EDGE_CURVE('',#111,#111,#91,.T.);
#134=EDGE_CURVE('',#112,#112,#92,.T.);
#135=EDGE_CURVE('',#113,#114,#93,.T.);
#136=EDGE_CURVE('',#114,#113,#94,.T.);
#137=EDGE_CURVE('',#114,#112,#95,.T.);
#138=EDGE_CURVE('',#115,#115,#96,.T.);
#139=EDGE_CURVE('',#115,#113,#25,.T.);
#140=EDGE_CURVE('',#116,#116,#97,.T.);
#141=EDGE_CURVE('',#117,#117,#98,.T.);
#142=EDGE_CURVE('',#117,#116,#26,.T.);
#143=EDGE_CURVE('',#118,#118,#99,.T.);
#144=EDGE_CURVE('',#119,#119,#100,.T.);
#145=EDGE_CURVE('',#119,#118,#27,.T.);
#146=EDGE_CURVE('',#120,#120,#101,.T.);
#147=EDGE_CURVE('',#121,#122,#102,.T.);
#148=EDGE_CURVE('',#122,#121,#103,.T.);
#149=EDGE_CURVE('',#122,#120,#104,.T.);
#150=EDGE_CURVE('',#121,#106,#28,.T.);
#151=ORIENTED_EDGE('',*,*,#123,.F.);
#152=ORIENTED_EDGE('',*,*,#124,.T.);
#153=ORIENTED_EDGE('',*,*,#125,.F.);
#154=ORIENTED_EDGE('',*,*,#126,.T.);
#155=ORIENTED_EDGE('',*,*,#123,.T.);
#156=ORIENTED_EDGE('',*,*,#126,.F.);
#157=ORIENTED_EDGE('',*,*,#127,.F.);
#158=ORIENTED_EDGE('',*,*,#128,.T.);
#159=ORIENTED_EDGE('',*,*,#125,.T.);
#160=ORIENTED_EDGE('',*,*,#128,.F.);
#161=ORIENTED_EDGE('',*,*,#127,.T.);
#162=ORIENTED_EDGE('',*,*,#129,.T.);
#163=ORIENTED_EDGE('',*,*,#130,.F.);
#164=ORIENTED_EDGE('',*,*,#129,.F.);
#165=ORIENTED_EDGE('',*,*,#130,.T.);
#166=ORIENTED_EDGE('',*,*,#131,.F.);
#167=ORIENTED_EDGE('',*,*,#131,.T.);
#168=ORIENTED_EDGE('',*,*,#132,.T.);
#169=ORIENTED_EDGE('',*,*,#133,.F.);
#170=ORIENTED_EDGE('',*,*,#132,.F.);
#171=ORIENTED_EDGE('',*,*,#133,.T.);
#172=ORIENTED_EDGE('',*,*,#134,.F.);
#173=ORIENTED_EDGE('',*,*,#135,.F.);
#174=ORIENTED_EDGE('',*,*,#136,.F.);
#175=ORIENTED_EDGE('',*,*,#137,.T.);
#176=ORIENTED_EDGE('',*,*,#134,.T.);
#177=ORIENTED_EDGE('',*,*,#137,.F.);
#178=ORIENTED_EDGE('',*,*,#138,.F.);
#179=ORIENTED_EDGE('',*,*,#139,.T.);
#180=ORIENTED_EDGE('',*,*,#135,.T.);
#181=ORIENTED_EDGE('',*,*,#136,.T.);
#182=ORIENTED_EDGE('',*,*,#139,.F.);
#183=ORIENTED_EDGE('',*,*,#140,.F.);
#184=ORIENTED_EDGE('',*,*,#138,.T.);
#185=ORIENTED_EDGE('',*,*,#141,.F.);
#186=ORIENTED_EDGE('',*,*,#142,.T.);
#187=ORIENTED_EDGE('',*,*,#140,.T.);
#188=ORIENTED_EDGE('',*,*,#142,.F.);
#189=ORIENTED_EDGE('',*,*,#143,.F.);
#190=ORIENTED_EDGE('',*,*,#141,.T.);
#191=ORIENTED_EDGE('',*,*,#144,.F.);
#192=ORIENTED_EDGE('',*,*,#145,.T.);
#193=ORIENTED_EDGE('',*,*,#143,.T.);
#194=ORIENTED_EDGE('',*,*,#145,.F.);
#195=ORIENTED_EDGE('',*,*,#146,.F.);
#196=ORIENTED_EDGE('',*,*,#144,.T.);
#197=ORIENTED_EDGE('',*,*,#147,.F.);
#198=ORIENTED_EDGE('',*,*,#148,.F.);
#199=ORIENTED_EDGE('',*,*,#149,.T.);
#200=ORIENTED_EDGE('',*,*,#146,.T.);
#201=ORIENTED_EDGE('',*,*,#149,.F.);
#202=ORIENTED_EDGE('',*,*,#147,.T.);
#203=ORIENTED_EDGE('',*,*,#148,.T.);
#204=ORIENTED_EDGE('',*,*,#150,.T.);
#205=ORIENTED_EDGE('',*,*,#124,.F.);
#206=ORIENTED_EDGE('',*,*,#150,.F.);
#207=PLANE('',#243);
#208=PLANE('',#252);
#209=PLANE('',#256);
#210=PLANE('',#264);
#211=PLANE('',#268);
#212=PLANE('',#272);
#213=ADVANCED_FACE('',(#47,#41),#207,.T.);
#214=ADVANCED_FACE('',(#48),#37,.T.);
#215=ADVANCED_FACE('',(#49),#17,.T.);
#216=ADVANCED_FACE('',(#50),#38,.T.);
#217=ADVANCED_FACE('',(#51,#42),#208,.T.);
#218=ADVANCED_FACE('',(#52),#39,.T.);
#219=ADVANCED_FACE('',(#53,#43),#209,.T.);
#220=ADVANCED_FACE('',(#54),#15,.T.);
#221=ADVANCED_FACE('',(#55),#18,.F.);
#222=ADVANCED_FACE('',(#56,#44),#210,.T.);
#223=ADVANCED_FACE('',(#57),#19,.T.);
#224=ADVANCED_FACE('',(#58,#45),#211,.T.);
#225=ADVANCED_FACE('',(#59),#20,.F.);
#226=ADVANCED_FACE('',(#60,#46),#212,.T.);
#227=ADVANCED_FACE('',(#61),#16,.F.);
#228=ADVANCED_FACE('',(#62),#40,.F.);
#229=CLOSED_SHELL('',(#213,#214,#215,#216,#217,#218,#219,#220,#221,#222,
#223,#224,#225,#226,#227,#228));
#230=DERIVED_UNIT_ELEMENT(#232,1.);
#231=DERIVED_UNIT_ELEMENT(#429,-3.);
#232=(
MASS_UNIT()
NAMED_UNIT(*)
SI_UNIT(.KILO.,.GRAM.)
);
#233=DERIVED_UNIT((#230,#231));
#234=MEASURE_REPRESENTATION_ITEM('density measure',
POSITIVE_RATIO_MEASURE(7850.),#233);
#235=PROPERTY_DEFINITION_REPRESENTATION(#240,#237);
#236=PROPERTY_DEFINITION_REPRESENTATION(#241,#238);
#237=REPRESENTATION('material name',(#239),#426);
#238=REPRESENTATION('density',(#234),#426);
#239=DESCRIPTIVE_REPRESENTATION_ITEM('Steel','Steel');
#240=PROPERTY_DEFINITION('material property','material name',#436);
#241=PROPERTY_DEFINITION('material property','density of part',#436);
#242=AXIS2_PLACEMENT_3D('placement',#361,#279,#280);
#243=AXIS2_PLACEMENT_3D('',#362,#281,#282);
#244=AXIS2_PLACEMENT_3D('',#364,#283,#284);
#245=AXIS2_PLACEMENT_3D('',#366,#285,#286);
#246=AXIS2_PLACEMENT_3D('',#367,#287,#288);
#247=AXIS2_PLACEMENT_3D('',#369,#289,#290);
#248=AXIS2_PLACEMENT_3D('',#371,#292,#293);
#249=AXIS2_PLACEMENT_3D('',#373,#294,#295);
#250=AXIS2_PLACEMENT_3D('',#375,#297,#298);
#251=AXIS2_PLACEMENT_3D('',#378,#300,#301);
#252=AXIS2_PLACEMENT_3D('',#379,#302,#303);
#253=AXIS2_PLACEMENT_3D('',#381,#304,#305);
#254=AXIS2_PLACEMENT_3D('',#382,#306,#307);
#255=AXIS2_PLACEMENT_3D('',#385,#309,#310);
#256=AXIS2_PLACEMENT_3D('',#386,#311,#312);
#257=AXIS2_PLACEMENT_3D('',#388,#313,#314);
#258=AXIS2_PLACEMENT_3D('',#389,#315,#316);
#259=AXIS2_PLACEMENT_3D('',#392,#317,#318);
#260=AXIS2_PLACEMENT_3D('',#393,#319,#320);
#261=AXIS2_PLACEMENT_3D('',#394,#321,#322);
#262=AXIS2_PLACEMENT_3D('',#395,#323,#324);
#263=AXIS2_PLACEMENT_3D('',#397,#325,#326);
#264=AXIS2_PLACEMENT_3D('',#399,#328,#329);
#265=AXIS2_PLACEMENT_3D('',#401,#330,#331);
#266=AXIS2_PLACEMENT_3D('',#402,#332,#333);
#267=AXIS2_PLACEMENT_3D('',#404,#334,#335);
#268=AXIS2_PLACEMENT_3D('',#406,#337,#338);
#269=AXIS2_PLACEMENT_3D('',#408,#339,#340);
#270=AXIS2_PLACEMENT_3D('',#409,#341,#342);
#271=AXIS2_PLACEMENT_3D('',#411,#343,#344);
#272=AXIS2_PLACEMENT_3D('',#413,#346,#347);
#273=AXIS2_PLACEMENT_3D('',#415,#348,#349);
#274=AXIS2_PLACEMENT_3D('',#416,#350,#351);
#275=AXIS2_PLACEMENT_3D('',#419,#352,#353);
#276=AXIS2_PLACEMENT_3D('',#420,#354,#355);
#277=AXIS2_PLACEMENT_3D('',#421,#356,#357);
#278=AXIS2_PLACEMENT_3D('',#422,#358,#359);
#279=DIRECTION('axis',(0.,0.,1.));
#280=DIRECTION('refdir',(1.,0.,0.));
#281=DIRECTION('center_axis',(0.,1.,0.));
#282=DIRECTION('ref_axis',(0.,0.,1.));
#283=DIRECTION('center_axis',(0.,-1.,0.));
#284=DIRECTION('ref_axis',(1.,0.,0.));
#285=DIRECTION('center_axis',(0.,-1.,0.));
#286=DIRECTION('ref_axis',(1.,0.,0.));
#287=DIRECTION('center_axis',(0.,-1.,0.));
#288=DIRECTION('ref_axis',(1.,0.,0.));
#289=DIRECTION('center_axis',(0.,-1.,0.));
#290=DIRECTION('ref_axis',(1.,0.,0.));
#291=DIRECTION('',(0.707106781186548,0.707106781186547,8.65956056235493E-17));
#292=DIRECTION('center_axis',(0.,-1.,0.));
#293=DIRECTION('ref_axis',(1.,0.,0.));
#294=DIRECTION('center_axis',(0.,-1.,0.));
#295=DIRECTION('ref_axis',(1.,0.,0.));
#296=DIRECTION('',(0.,1.,0.));
#297=DIRECTION('center_axis',(0.,1.,0.));
#298=DIRECTION('ref_axis',(1.,0.,0.));
#299=DIRECTION('',(0.866025403784408,-0.500000000000054,-1.06057523872487E-16));
#300=DIRECTION('center_axis',(0.,-1.,0.));
#301=DIRECTION('ref_axis',(1.,0.,0.));
#302=DIRECTION('center_axis',(0.,-1.,0.));
#303=DIRECTION('ref_axis',(0.,0.,-1.));
#304=DIRECTION('center_axis',(0.,-1.,0.));
#305=DIRECTION('ref_axis',(1.,0.,0.));
#306=DIRECTION('center_axis',(0.,1.,0.));
#307=DIRECTION('ref_axis',(1.,0.,0.));
#308=DIRECTION('',(0.0540188474754657,-0.998539916136267,-6.61540086544581E-18));
#309=DIRECTION('center_axis',(0.,-1.,0.));
#310=DIRECTION('ref_axis',(1.,0.,0.));
#311=DIRECTION('center_axis',(0.,-1.,0.));
#312=DIRECTION('ref_axis',(0.,0.,-1.));
#313=DIRECTION('center_axis',(0.,-1.,0.));
#314=DIRECTION('ref_axis',(1.,0.,0.));
#315=DIRECTION('center_axis',(0.,-1.,0.));
#316=DIRECTION('ref_axis',(0.,0.,-1.));
#317=DIRECTION('center_axis',(0.,-1.,0.));
#318=DIRECTION('ref_axis',(1.,0.,0.));
#319=DIRECTION('center_axis',(0.,-1.,0.));
#320=DIRECTION('ref_axis',(1.,0.,0.));
#321=DIRECTION('center_axis',(-1.,0.,-1.22464679914735E-16));
#322=DIRECTION('ref_axis',(-1.22464679914735E-16,0.,1.));
#323=DIRECTION('center_axis',(0.,-1.,0.));
#324=DIRECTION('ref_axis',(1.,0.,0.));
#325=DIRECTION('center_axis',(0.,-1.,0.));
#326=DIRECTION('ref_axis',(1.,0.,0.));
#327=DIRECTION('',(0.,-1.,0.));
#328=DIRECTION('center_axis',(0.,1.,0.));
#329=DIRECTION('ref_axis',(0.,0.,1.));
#330=DIRECTION('center_axis',(0.,-1.,0.));
#331=DIRECTION('ref_axis',(1.,0.,0.));
#332=DIRECTION('center_axis',(0.,-1.,0.));
#333=DIRECTION('ref_axis',(1.,0.,0.));
#334=DIRECTION('center_axis',(0.,-1.,0.));
#335=DIRECTION('ref_axis',(1.,0.,0.));
#336=DIRECTION('',(0.,1.,0.));
#337=DIRECTION('center_axis',(0.,1.,0.));
#338=DIRECTION('ref_axis',(0.,0.,1.));
#339=DIRECTION('center_axis',(0.,-1.,0.));
#340=DIRECTION('ref_axis',(1.,0.,0.));
#341=DIRECTION('center_axis',(0.,-1.,0.));
#342=DIRECTION('ref_axis',(1.,0.,0.));
#343=DIRECTION('center_axis',(0.,-1.,0.));
#344=DIRECTION('ref_axis',(1.,0.,0.));
#345=DIRECTION('',(0.,-1.,0.));
#346=DIRECTION('center_axis',(0.,1.,0.));
#347=DIRECTION('ref_axis',(0.,0.,1.));
#348=DIRECTION('center_axis',(0.,-1.,0.));
#349=DIRECTION('ref_axis',(1.,0.,0.));
#350=DIRECTION('center_axis',(0.,-1.,0.));
#351=DIRECTION('ref_axis',(0.,0.,-1.));
#352=DIRECTION('center_axis',(0.,-1.,0.));
#353=DIRECTION('ref_axis',(1.,0.,0.));
#354=DIRECTION('center_axis',(0.,-1.,0.));
#355=DIRECTION('ref_axis',(1.,0.,0.));
#356=DIRECTION('center_axis',(1.,0.,1.22464679914735E-16));
#357=DIRECTION('ref_axis',(-1.22464679914735E-16,0.,1.));
#358=DIRECTION('center_axis',(0.,1.,0.));
#359=DIRECTION('ref_axis',(1.,0.,0.));
#360=DIRECTION('',(-0.0523359562429407,0.998629534754574,6.40930612932332E-18));
#361=CARTESIAN_POINT('',(0.,0.,0.));
#362=CARTESIAN_POINT('Origin',(68.4419257184506,64.3193624394289,0.));
#363=CARTESIAN_POINT('',(-73.99999815,64.3193624394289,-9.06238608713076E-15));
#364=CARTESIAN_POINT('Origin',(0.,64.3193624394289,0.));
#365=CARTESIAN_POINT('',(-62.8838532869013,64.3193624394289,7.70105096458554E-15));
#366=CARTESIAN_POINT('Origin',(0.,64.3193624394289,0.));
#367=CARTESIAN_POINT('Origin',(0.,63.819362451929,0.));
#368=CARTESIAN_POINT('',(-74.9999981249998,63.3193624644291,-9.18485076398385E-15));
#369=CARTESIAN_POINT('Origin',(0.,63.3193624644291,0.));
#370=CARTESIAN_POINT('',(-74.4999981374999,63.819362451929,-9.1236184255573E-15));
#371=CARTESIAN_POINT('Origin',(0.,58.5410504203738,0.));
#372=CARTESIAN_POINT('',(-74.9999981249998,53.7627383763184,-9.18485076398385E-15));
#373=CARTESIAN_POINT('Origin',(0.,53.7627383763184,0.));
#374=CARTESIAN_POINT('',(-74.9999981249998,58.5410504203738,-9.18485076398385E-15));
#375=CARTESIAN_POINT('Origin',(0.,53.0410505578734,0.));
#376=CARTESIAN_POINT('',(-72.4999981874998,52.3193627394285,8.87868907185106E-15));
#377=CARTESIAN_POINT('',(-73.7499981562498,53.0410505578734,9.03176991791746E-15));
#378=CARTESIAN_POINT('Origin',(0.,52.3193627394285,0.));
#379=CARTESIAN_POINT('Origin',(71.2499981874998,52.3193627394285,0.));
#380=CARTESIAN_POINT('',(-69.9999981874998,52.3193627394285,8.57252737206422E-15));
#381=CARTESIAN_POINT('Origin',(0.,52.3193627394285,0.));
#382=CARTESIAN_POINT('Origin',(0.,28.3193633394285,0.));
#383=CARTESIAN_POINT('',(-67.4033021795599,4.31936393942851,8.25452382661598E-15));
#384=CARTESIAN_POINT('',(-68.7016501835299,28.3193633394285,8.4135255993401E-15));
#385=CARTESIAN_POINT('Origin',(0.,4.31936393942851,0.));
#386=CARTESIAN_POINT('Origin',(58.45165053353,4.31936393942832,0.));
#387=CARTESIAN_POINT('',(-6.06200151953746E-15,4.31936393942813,49.4999988875002));
#388=CARTESIAN_POINT('Origin',(0.,4.31936393942813,0.));
#389=CARTESIAN_POINT('Origin',(0.,6.31936388942813,0.));
#390=CARTESIAN_POINT('',(-47.4999989375001,6.31936388942813,-5.81707216583122E-15));
#391=CARTESIAN_POINT('',(-5.81707216583123E-15,6.31936388942813,47.4999989375002));
#392=CARTESIAN_POINT('Origin',(0.,6.31936388942813,0.));
#393=CARTESIAN_POINT('Origin',(0.,6.31936388942813,0.));
#394=CARTESIAN_POINT('Origin',(-6.06200151953746E-15,6.31936388942813,49.4999988875002));
#395=CARTESIAN_POINT('Origin',(0.,9.5693637581785,0.));
#396=CARTESIAN_POINT('',(-47.4999989375001,12.8193636269289,-5.81707216583122E-15));
#397=CARTESIAN_POINT('Origin',(0.,12.8193636269289,0.));
#398=CARTESIAN_POINT('',(-47.4999989375001,9.5693637581785,-5.81707216583122E-15));
#399=CARTESIAN_POINT('Origin',(50.1999988699999,12.8193636269289,0.));
#400=CARTESIAN_POINT('',(-52.8999988024998,12.8193636269289,-6.47838142083802E-15));
#401=CARTESIAN_POINT('Origin',(0.,12.8193636269289,0.));
#402=CARTESIAN_POINT('Origin',(0.,12.6693636306786,0.));
#403=CARTESIAN_POINT('',(-52.8999988024998,12.5193636344284,-6.47838142083802E-15));
#404=CARTESIAN_POINT('Origin',(0.,12.5193636344284,0.));
#405=CARTESIAN_POINT('',(-52.8999988024998,12.6693636306786,-6.47838142083802E-15));
#406=CARTESIAN_POINT('Origin',(53.44999878875,12.5193636344284,0.));
#407=CARTESIAN_POINT('',(-53.9999987750002,12.5193636344284,-6.6130925653765E-15));
#408=CARTESIAN_POINT('Origin',(0.,12.5193636344284,0.));
#409=CARTESIAN_POINT('Origin',(0.,14.323697325412,0.));
#410=CARTESIAN_POINT('',(-53.9999987750002,15.8280310238952,-6.6130925653765E-15));
#411=CARTESIAN_POINT('Origin',(0.,15.8280310238952,0.));
#412=CARTESIAN_POINT('',(-53.9999987750002,14.323697325412,-6.6130925653765E-15));
#413=CARTESIAN_POINT('Origin',(54.324370833823,15.828031023895,0.));
#414=CARTESIAN_POINT('',(-6.69254080609052E-15,15.8280310238948,54.6487428926457));
#415=CARTESIAN_POINT('Origin',(0.,15.8280310238948,0.));
#416=CARTESIAN_POINT('Origin',(0.,21.8280310238952,0.));
#417=CARTESIAN_POINT('',(-60.6405201011735,21.5140152864374,7.42632188405328E-15));
#418=CARTESIAN_POINT('',(-7.42632188405328E-15,21.5140152864374,60.6405201011735));
#419=CARTESIAN_POINT('Origin',(0.,21.5140152864374,0.));
#420=CARTESIAN_POINT('Origin',(0.,21.5140152864374,0.));
#421=CARTESIAN_POINT('Origin',(-6.69254080609052E-15,21.8280310238952,54.6487428926457));
#422=CARTESIAN_POINT('Origin',(0.,42.9166888629332,0.));
#423=CARTESIAN_POINT('',(-61.7621866940374,42.9166888629332,7.56368642431941E-15));
#424=UNCERTAINTY_MEASURE_WITH_UNIT(LENGTH_MEASURE(0.01),#428,
'DISTANCE_ACCURACY_VALUE',
'Maximum model space distance between geometric entities at asserted c
onnectivities');
#425=UNCERTAINTY_MEASURE_WITH_UNIT(LENGTH_MEASURE(0.01),#428,
'DISTANCE_ACCURACY_VALUE',
'Maximum model space distance between geometric entities at asserted c
onnectivities');
#426=(
GEOMETRIC_REPRESENTATION_CONTEXT(3)
GLOBAL_UNCERTAINTY_ASSIGNED_CONTEXT((#424))
GLOBAL_UNIT_ASSIGNED_CONTEXT((#428,#430,#431))
REPRESENTATION_CONTEXT('','3D')
);
#427=(
GEOMETRIC_REPRESENTATION_CONTEXT(3)
GLOBAL_UNCERTAINTY_ASSIGNED_CONTEXT((#425))
GLOBAL_UNIT_ASSIGNED_CONTEXT((#428,#430,#431))
REPRESENTATION_CONTEXT('','3D')
);
#428=(
LENGTH_UNIT()
NAMED_UNIT(*)
SI_UNIT(.MILLI.,.METRE.)
);
#429=(
LENGTH_UNIT()
NAMED_UNIT(*)
SI_UNIT($,.METRE.)
);
#430=(
NAMED_UNIT(*)
PLANE_ANGLE_UNIT()
SI_UNIT($,.RADIAN.)
);
#431=(
NAMED_UNIT(*)
SI_UNIT($,.STERADIAN.)
SOLID_ANGLE_UNIT()
);
#432=SHAPE_DEFINITION_REPRESENTATION(#433,#434);
#433=PRODUCT_DEFINITION_SHAPE('',$,#436);
#434=SHAPE_REPRESENTATION('',(#242),#426);
#435=PRODUCT_DEFINITION_CONTEXT('part definition',#440,'design');
#436=PRODUCT_DEFINITION('6116 - DN100','6116 - DN100 v1',#437,#435);
#437=PRODUCT_DEFINITION_FORMATION('',$,#442);
#438=PRODUCT_RELATED_PRODUCT_CATEGORY('6116 - DN100 v1',
'6116 - DN100 v1',(#442));
#439=APPLICATION_PROTOCOL_DEFINITION('international standard',
'automotive_design',2009,#440);
#440=APPLICATION_CONTEXT(
'Core Data for Automotive Mechanical Design Process');
#441=PRODUCT_CONTEXT('part definition',#440,'mechanical');
#442=PRODUCT('6116 - DN100','6116 - DN100 v1',$,(#441));
#443=PRESENTATION_STYLE_ASSIGNMENT((#445));
#444=PRESENTATION_STYLE_ASSIGNMENT((#446));
#445=SURFACE_STYLE_USAGE(.BOTH.,#447);
#446=SURFACE_STYLE_USAGE(.BOTH.,#448);
#447=SURFACE_SIDE_STYLE('',(#449));
#448=SURFACE_SIDE_STYLE('',(#450));
#449=SURFACE_STYLE_FILL_AREA(#451);
#450=SURFACE_STYLE_FILL_AREA(#452);
#451=FILL_AREA_STYLE('Steel - Satin',(#453));
#452=FILL_AREA_STYLE('Opaque(191,191,191)',(#454));
#453=FILL_AREA_STYLE_COLOUR('Steel - Satin',#455);
#454=FILL_AREA_STYLE_COLOUR('Opaque(191,191,191)',#456);
#455=COLOUR_RGB('Steel - Satin',0.627450980392157,0.627450980392157,0.627450980392157);
#456=COLOUR_RGB('Opaque(191,191,191)',0.749019607843137,0.749019607843137,
0.749019607843137);
ENDSEC;
END-ISO-10303-21;
