ISO-10303-21;
HEADER;
/* Generated by software containing ST-Developer
 * from STEP Tools, Inc. (www.steptools.com) 
 */

FILE_DESCRIPTION(
/* description */ (''),
/* implementation_level */ '2;1');

FILE_NAME(
/* name */ '6116 - DN32.step',
/* time_stamp */ '2022-12-20T09:04:34+01:00',
/* author */ (''),
/* organization */ (''),
/* preprocessor_version */ 'ST-DEVELOPER v19.2',
/* originating_system */ 'Autodesk Translation Framework v11.17.0.187',

/* authorisation */ '');

FILE_SCHEMA (('AUTOMOTIVE_DESIGN { 1 0 10303 214 3 1 1 }'));
ENDSEC;

DATA;
#10=MECHANICAL_DESIGN_GEOMETRIC_PRESENTATION_REPRESENTATION('',(#13),#452);
#11=SHAPE_REPRESENTATION_RELATIONSHIP('SRR','None',#459,#12);
#12=ADVANCED_BREP_SHAPE_REPRESENTATION('',(#14),#451);
#13=STYLED_ITEM('',(#469),#14);
#14=MANIFOLD_SOLID_BREP('Body1',#243);
#15=CYLINDRICAL_SURFACE('',#268,16.);
#16=CYLINDRICAL_SURFACE('',#272,18.5998140000002);
#17=CYLINDRICAL_SURFACE('',#276,19.799802);
#18=CYLINDRICAL_SURFACE('',#286,26.1997380000003);
#19=CYLINDRICAL_SURFACE('',#292,34.9996500000002);
#20=TOROIDAL_SURFACE('',#264,16.9999900000003,0.999990000000253);
#21=TOROIDAL_SURFACE('',#280,20.8812950490838,4.499955);
#22=LINE('',#390,#31);
#23=LINE('',#404,#32);
#24=LINE('',#411,#33);
#25=LINE('',#418,#34);
#26=LINE('',#430,#35);
#27=LINE('',#435,#36);
#28=LINE('',#442,#37);
#29=LINE('',#446,#38);
#30=LINE('',#448,#39);
#31=VECTOR('',#305,30.4965803500298);
#32=VECTOR('',#324,16.);
#33=VECTOR('',#333,18.5998140000002);
#34=VECTOR('',#342,19.799802);
#35=VECTOR('',#357,25.7874105085753);
#36=VECTOR('',#364,26.1997380000003);
#37=VECTOR('',#373,34.4996550000003);
#38=VECTOR('',#378,34.9996500000002);
#39=VECTOR('',#381,34.1336332564697);
#40=CONICAL_SURFACE('',#260,30.4965803500297,0.0523598775598305);
#41=CONICAL_SURFACE('',#284,25.7874105085753,0.0523598775598346);
#42=CONICAL_SURFACE('',#290,34.4996550000003,0.785398163397444);
#43=CONICAL_SURFACE('',#294,34.1336332564697,1.04719755119655);
#44=FACE_BOUND('',#68,.T.);
#45=FACE_BOUND('',#71,.T.);
#46=FACE_BOUND('',#75,.T.);
#47=FACE_BOUND('',#78,.T.);
#48=FACE_BOUND('',#81,.T.);
#49=FACE_BOUND('',#86,.T.);
#50=FACE_OUTER_BOUND('',#67,.T.);
#51=FACE_OUTER_BOUND('',#69,.T.);
#52=FACE_OUTER_BOUND('',#70,.T.);
#53=FACE_OUTER_BOUND('',#72,.T.);
#54=FACE_OUTER_BOUND('',#73,.T.);
#55=FACE_OUTER_BOUND('',#74,.T.);
#56=FACE_OUTER_BOUND('',#76,.T.);
#57=FACE_OUTER_BOUND('',#77,.T.);
#58=FACE_OUTER_BOUND('',#79,.T.);
#59=FACE_OUTER_BOUND('',#80,.T.);
#60=FACE_OUTER_BOUND('',#82,.T.);
#61=FACE_OUTER_BOUND('',#83,.T.);
#62=FACE_OUTER_BOUND('',#84,.T.);
#63=FACE_OUTER_BOUND('',#85,.T.);
#64=FACE_OUTER_BOUND('',#87,.T.);
#65=FACE_OUTER_BOUND('',#88,.T.);
#66=FACE_OUTER_BOUND('',#89,.T.);
#67=EDGE_LOOP('',(#160));
#68=EDGE_LOOP('',(#161));
#69=EDGE_LOOP('',(#162,#163,#164,#165));
#70=EDGE_LOOP('',(#166));
#71=EDGE_LOOP('',(#167));
#72=EDGE_LOOP('',(#168,#169,#170,#171,#172));
#73=EDGE_LOOP('',(#173,#174,#175,#176,#177));
#74=EDGE_LOOP('',(#178));
#75=EDGE_LOOP('',(#179));
#76=EDGE_LOOP('',(#180,#181,#182,#183));
#77=EDGE_LOOP('',(#184));
#78=EDGE_LOOP('',(#185));
#79=EDGE_LOOP('',(#186,#187,#188,#189));
#80=EDGE_LOOP('',(#190));
#81=EDGE_LOOP('',(#191));
#82=EDGE_LOOP('',(#192,#193,#194,#195,#196));
#83=EDGE_LOOP('',(#197,#198,#199,#200,#201));
#84=EDGE_LOOP('',(#202,#203,#204,#205));
#85=EDGE_LOOP('',(#206));
#86=EDGE_LOOP('',(#207));
#87=EDGE_LOOP('',(#208,#209,#210,#211));
#88=EDGE_LOOP('',(#212,#213,#214,#215));
#89=EDGE_LOOP('',(#216,#217,#218,#219));
#90=CIRCLE('',#258,33.2676165129392);
#91=CIRCLE('',#259,30.9996900000001);
#92=CIRCLE('',#261,29.9934707000594);
#93=CIRCLE('',#263,16.9999900000003);
#94=CIRCLE('',#265,16.);
#95=CIRCLE('',#266,16.);
#96=CIRCLE('',#267,0.999990000000253);
#97=CIRCLE('',#269,16.);
#98=CIRCLE('',#271,18.5998140000002);
#99=CIRCLE('',#273,18.5998140000002);
#100=CIRCLE('',#275,19.799802);
#101=CIRCLE('',#277,19.799802);
#102=CIRCLE('',#279,20.8812950490838);
#103=CIRCLE('',#281,25.3750830171503);
#104=CIRCLE('',#282,25.3750830171503);
#105=CIRCLE('',#283,4.499955);
#106=CIRCLE('',#285,26.1997380000003);
#107=CIRCLE('',#287,26.1997380000003);
#108=CIRCLE('',#289,33.9996600000004);
#109=CIRCLE('',#291,34.9996500000002);
#110=CIRCLE('',#293,34.9996500000002);
#111=VERTEX_POINT('',#384);
#112=VERTEX_POINT('',#386);
#113=VERTEX_POINT('',#389);
#114=VERTEX_POINT('',#393);
#115=VERTEX_POINT('',#396);
#116=VERTEX_POINT('',#397);
#117=VERTEX_POINT('',#402);
#118=VERTEX_POINT('',#406);
#119=VERTEX_POINT('',#409);
#120=VERTEX_POINT('',#413);
#121=VERTEX_POINT('',#416);
#122=VERTEX_POINT('',#420);
#123=VERTEX_POINT('',#423);
#124=VERTEX_POINT('',#424);
#125=VERTEX_POINT('',#429);
#126=VERTEX_POINT('',#433);
#127=VERTEX_POINT('',#437);
#128=VERTEX_POINT('',#440);
#129=VERTEX_POINT('',#444);
#130=EDGE_CURVE('',#111,#111,#90,.T.);
#131=EDGE_CURVE('',#112,#112,#91,.T.);
#132=EDGE_CURVE('',#112,#113,#22,.T.);
#133=EDGE_CURVE('',#113,#113,#92,.T.);
#134=EDGE_CURVE('',#114,#114,#93,.T.);
#135=EDGE_CURVE('',#115,#116,#94,.T.);
#136=EDGE_CURVE('',#116,#115,#95,.T.);
#137=EDGE_CURVE('',#116,#114,#96,.T.);
#138=EDGE_CURVE('',#117,#117,#97,.T.);
#139=EDGE_CURVE('',#117,#115,#23,.T.);
#140=EDGE_CURVE('',#118,#118,#98,.T.);
#141=EDGE_CURVE('',#119,#119,#99,.T.);
#142=EDGE_CURVE('',#119,#118,#24,.T.);
#143=EDGE_CURVE('',#120,#120,#100,.T.);
#144=EDGE_CURVE('',#121,#121,#101,.T.);
#145=EDGE_CURVE('',#121,#120,#25,.T.);
#146=EDGE_CURVE('',#122,#122,#102,.T.);
#147=EDGE_CURVE('',#123,#124,#103,.T.);
#148=EDGE_CURVE('',#124,#123,#104,.T.);
#149=EDGE_CURVE('',#124,#122,#105,.T.);
#150=EDGE_CURVE('',#123,#125,#26,.T.);
#151=EDGE_CURVE('',#125,#125,#106,.T.);
#152=EDGE_CURVE('',#126,#126,#107,.T.);
#153=EDGE_CURVE('',#126,#125,#27,.T.);
#154=EDGE_CURVE('',#127,#127,#108,.T.);
#155=EDGE_CURVE('',#128,#128,#109,.T.);
#156=EDGE_CURVE('',#128,#127,#28,.T.);
#157=EDGE_CURVE('',#129,#129,#110,.T.);
#158=EDGE_CURVE('',#129,#128,#29,.T.);
#159=EDGE_CURVE('',#129,#111,#30,.T.);
#160=ORIENTED_EDGE('',*,*,#130,.T.);
#161=ORIENTED_EDGE('',*,*,#131,.F.);
#162=ORIENTED_EDGE('',*,*,#131,.T.);
#163=ORIENTED_EDGE('',*,*,#132,.T.);
#164=ORIENTED_EDGE('',*,*,#133,.F.);
#165=ORIENTED_EDGE('',*,*,#132,.F.);
#166=ORIENTED_EDGE('',*,*,#133,.T.);
#167=ORIENTED_EDGE('',*,*,#134,.F.);
#168=ORIENTED_EDGE('',*,*,#135,.F.);
#169=ORIENTED_EDGE('',*,*,#136,.F.);
#170=ORIENTED_EDGE('',*,*,#137,.T.);
#171=ORIENTED_EDGE('',*,*,#134,.T.);
#172=ORIENTED_EDGE('',*,*,#137,.F.);
#173=ORIENTED_EDGE('',*,*,#138,.F.);
#174=ORIENTED_EDGE('',*,*,#139,.T.);
#175=ORIENTED_EDGE('',*,*,#135,.T.);
#176=ORIENTED_EDGE('',*,*,#136,.T.);
#177=ORIENTED_EDGE('',*,*,#139,.F.);
#178=ORIENTED_EDGE('',*,*,#140,.F.);
#179=ORIENTED_EDGE('',*,*,#138,.T.);
#180=ORIENTED_EDGE('',*,*,#141,.F.);
#181=ORIENTED_EDGE('',*,*,#142,.T.);
#182=ORIENTED_EDGE('',*,*,#140,.T.);
#183=ORIENTED_EDGE('',*,*,#142,.F.);
#184=ORIENTED_EDGE('',*,*,#143,.F.);
#185=ORIENTED_EDGE('',*,*,#141,.T.);
#186=ORIENTED_EDGE('',*,*,#144,.F.);
#187=ORIENTED_EDGE('',*,*,#145,.T.);
#188=ORIENTED_EDGE('',*,*,#143,.T.);
#189=ORIENTED_EDGE('',*,*,#145,.F.);
#190=ORIENTED_EDGE('',*,*,#146,.F.);
#191=ORIENTED_EDGE('',*,*,#144,.T.);
#192=ORIENTED_EDGE('',*,*,#147,.F.);
#193=ORIENTED_EDGE('',*,*,#148,.F.);
#194=ORIENTED_EDGE('',*,*,#149,.T.);
#195=ORIENTED_EDGE('',*,*,#146,.T.);
#196=ORIENTED_EDGE('',*,*,#149,.F.);
#197=ORIENTED_EDGE('',*,*,#147,.T.);
#198=ORIENTED_EDGE('',*,*,#148,.T.);
#199=ORIENTED_EDGE('',*,*,#150,.T.);
#200=ORIENTED_EDGE('',*,*,#151,.F.);
#201=ORIENTED_EDGE('',*,*,#150,.F.);
#202=ORIENTED_EDGE('',*,*,#152,.F.);
#203=ORIENTED_EDGE('',*,*,#153,.T.);
#204=ORIENTED_EDGE('',*,*,#151,.T.);
#205=ORIENTED_EDGE('',*,*,#153,.F.);
#206=ORIENTED_EDGE('',*,*,#154,.F.);
#207=ORIENTED_EDGE('',*,*,#152,.T.);
#208=ORIENTED_EDGE('',*,*,#155,.F.);
#209=ORIENTED_EDGE('',*,*,#156,.T.);
#210=ORIENTED_EDGE('',*,*,#154,.T.);
#211=ORIENTED_EDGE('',*,*,#156,.F.);
#212=ORIENTED_EDGE('',*,*,#157,.F.);
#213=ORIENTED_EDGE('',*,*,#158,.T.);
#214=ORIENTED_EDGE('',*,*,#155,.T.);
#215=ORIENTED_EDGE('',*,*,#158,.F.);
#216=ORIENTED_EDGE('',*,*,#157,.T.);
#217=ORIENTED_EDGE('',*,*,#159,.T.);
#218=ORIENTED_EDGE('',*,*,#130,.F.);
#219=ORIENTED_EDGE('',*,*,#159,.F.);
#220=PLANE('',#257);
#221=PLANE('',#262);
#222=PLANE('',#270);
#223=PLANE('',#274);
#224=PLANE('',#278);
#225=PLANE('',#288);
#226=ADVANCED_FACE('',(#50,#44),#220,.T.);
#227=ADVANCED_FACE('',(#51),#40,.T.);
#228=ADVANCED_FACE('',(#52,#45),#221,.T.);
#229=ADVANCED_FACE('',(#53),#20,.T.);
#230=ADVANCED_FACE('',(#54),#15,.F.);
#231=ADVANCED_FACE('',(#55,#46),#222,.T.);
#232=ADVANCED_FACE('',(#56),#16,.T.);
#233=ADVANCED_FACE('',(#57,#47),#223,.T.);
#234=ADVANCED_FACE('',(#58),#17,.F.);
#235=ADVANCED_FACE('',(#59,#48),#224,.T.);
#236=ADVANCED_FACE('',(#60),#21,.F.);
#237=ADVANCED_FACE('',(#61),#41,.F.);
#238=ADVANCED_FACE('',(#62),#18,.F.);
#239=ADVANCED_FACE('',(#63,#49),#225,.T.);
#240=ADVANCED_FACE('',(#64),#42,.T.);
#241=ADVANCED_FACE('',(#65),#19,.T.);
#242=ADVANCED_FACE('',(#66),#43,.T.);
#243=CLOSED_SHELL('',(#226,#227,#228,#229,#230,#231,#232,#233,#234,#235,
#236,#237,#238,#239,#240,#241,#242));
#244=DERIVED_UNIT_ELEMENT(#246,1.);
#245=DERIVED_UNIT_ELEMENT(#454,-3.);
#246=(
MASS_UNIT()
NAMED_UNIT(*)
SI_UNIT(.KILO.,.GRAM.)
);
#247=DERIVED_UNIT((#244,#245));
#248=MEASURE_REPRESENTATION_ITEM('density measure',
POSITIVE_RATIO_MEASURE(7850.),#247);
#249=PROPERTY_DEFINITION_REPRESENTATION(#254,#251);
#250=PROPERTY_DEFINITION_REPRESENTATION(#255,#252);
#251=REPRESENTATION('material name',(#253),#451);
#252=REPRESENTATION('density',(#248),#451);
#253=DESCRIPTIVE_REPRESENTATION_ITEM('Steel','Steel');
#254=PROPERTY_DEFINITION('material property','material name',#461);
#255=PROPERTY_DEFINITION('material property','density of part',#461);
#256=AXIS2_PLACEMENT_3D('placement',#382,#295,#296);
#257=AXIS2_PLACEMENT_3D('',#383,#297,#298);
#258=AXIS2_PLACEMENT_3D('',#385,#299,#300);
#259=AXIS2_PLACEMENT_3D('',#387,#301,#302);
#260=AXIS2_PLACEMENT_3D('',#388,#303,#304);
#261=AXIS2_PLACEMENT_3D('',#391,#306,#307);
#262=AXIS2_PLACEMENT_3D('',#392,#308,#309);
#263=AXIS2_PLACEMENT_3D('',#394,#310,#311);
#264=AXIS2_PLACEMENT_3D('',#395,#312,#313);
#265=AXIS2_PLACEMENT_3D('',#398,#314,#315);
#266=AXIS2_PLACEMENT_3D('',#399,#316,#317);
#267=AXIS2_PLACEMENT_3D('',#400,#318,#319);
#268=AXIS2_PLACEMENT_3D('',#401,#320,#321);
#269=AXIS2_PLACEMENT_3D('',#403,#322,#323);
#270=AXIS2_PLACEMENT_3D('',#405,#325,#326);
#271=AXIS2_PLACEMENT_3D('',#407,#327,#328);
#272=AXIS2_PLACEMENT_3D('',#408,#329,#330);
#273=AXIS2_PLACEMENT_3D('',#410,#331,#332);
#274=AXIS2_PLACEMENT_3D('',#412,#334,#335);
#275=AXIS2_PLACEMENT_3D('',#414,#336,#337);
#276=AXIS2_PLACEMENT_3D('',#415,#338,#339);
#277=AXIS2_PLACEMENT_3D('',#417,#340,#341);
#278=AXIS2_PLACEMENT_3D('',#419,#343,#344);
#279=AXIS2_PLACEMENT_3D('',#421,#345,#346);
#280=AXIS2_PLACEMENT_3D('',#422,#347,#348);
#281=AXIS2_PLACEMENT_3D('',#425,#349,#350);
#282=AXIS2_PLACEMENT_3D('',#426,#351,#352);
#283=AXIS2_PLACEMENT_3D('',#427,#353,#354);
#284=AXIS2_PLACEMENT_3D('',#428,#355,#356);
#285=AXIS2_PLACEMENT_3D('',#431,#358,#359);
#286=AXIS2_PLACEMENT_3D('',#432,#360,#361);
#287=AXIS2_PLACEMENT_3D('',#434,#362,#363);
#288=AXIS2_PLACEMENT_3D('',#436,#365,#366);
#289=AXIS2_PLACEMENT_3D('',#438,#367,#368);
#290=AXIS2_PLACEMENT_3D('',#439,#369,#370);
#291=AXIS2_PLACEMENT_3D('',#441,#371,#372);
#292=AXIS2_PLACEMENT_3D('',#443,#374,#375);
#293=AXIS2_PLACEMENT_3D('',#445,#376,#377);
#294=AXIS2_PLACEMENT_3D('',#447,#379,#380);
#295=DIRECTION('axis',(0.,0.,1.));
#296=DIRECTION('refdir',(1.,0.,0.));
#297=DIRECTION('center_axis',(0.,-1.,0.));
#298=DIRECTION('ref_axis',(0.,0.,-1.));
#299=DIRECTION('center_axis',(0.,-1.,0.));
#300=DIRECTION('ref_axis',(1.,0.,0.));
#301=DIRECTION('center_axis',(0.,-1.,0.));
#302=DIRECTION('ref_axis',(1.,0.,0.));
#303=DIRECTION('center_axis',(-2.406364E-16,1.,0.));
#304=DIRECTION('ref_axis',(1.,2.406364E-16,0.));
#305=DIRECTION('',(0.0523359562429446,-0.998629534754574,-6.40930612932378E-18));
#306=DIRECTION('center_axis',(0.,-1.,0.));
#307=DIRECTION('ref_axis',(1.,0.,0.));
#308=DIRECTION('center_axis',(0.,-1.,0.));
#309=DIRECTION('ref_axis',(0.,0.,-1.));
#310=DIRECTION('center_axis',(0.,-1.,0.));
#311=DIRECTION('ref_axis',(1.,0.,0.));
#312=DIRECTION('center_axis',(2.406364E-16,-1.,0.));
#313=DIRECTION('ref_axis',(0.,0.,-1.));
#314=DIRECTION('center_axis',(0.,-1.,0.));
#315=DIRECTION('ref_axis',(1.,0.,0.));
#316=DIRECTION('center_axis',(0.,-1.,0.));
#317=DIRECTION('ref_axis',(1.,0.,0.));
#318=DIRECTION('center_axis',(-1.,-2.406364E-16,-1.22464679914735E-16));
#319=DIRECTION('ref_axis',(-1.22464679914735E-16,0.,1.));
#320=DIRECTION('center_axis',(2.406364E-16,-1.,0.));
#321=DIRECTION('ref_axis',(1.,2.406364E-16,0.));
#322=DIRECTION('center_axis',(0.,-1.,0.));
#323=DIRECTION('ref_axis',(1.,0.,0.));
#324=DIRECTION('',(2.406364E-16,-1.,0.));
#325=DIRECTION('center_axis',(0.,1.,0.));
#326=DIRECTION('ref_axis',(0.,0.,1.));
#327=DIRECTION('center_axis',(0.,-1.,0.));
#328=DIRECTION('ref_axis',(1.,0.,0.));
#329=DIRECTION('center_axis',(2.406364E-16,-1.,0.));
#330=DIRECTION('ref_axis',(1.,2.406364E-16,0.));
#331=DIRECTION('center_axis',(0.,-1.,0.));
#332=DIRECTION('ref_axis',(1.,0.,0.));
#333=DIRECTION('',(-2.406364E-16,1.,0.));
#334=DIRECTION('center_axis',(0.,1.,0.));
#335=DIRECTION('ref_axis',(0.,0.,1.));
#336=DIRECTION('center_axis',(0.,-1.,0.));
#337=DIRECTION('ref_axis',(1.,0.,0.));
#338=DIRECTION('center_axis',(2.406364E-16,-1.,0.));
#339=DIRECTION('ref_axis',(1.,2.406364E-16,0.));
#340=DIRECTION('center_axis',(0.,-1.,0.));
#341=DIRECTION('ref_axis',(1.,0.,0.));
#342=DIRECTION('',(2.406364E-16,-1.,0.));
#343=DIRECTION('center_axis',(0.,1.,0.));
#344=DIRECTION('ref_axis',(0.,0.,1.));
#345=DIRECTION('center_axis',(0.,-1.,0.));
#346=DIRECTION('ref_axis',(1.,0.,0.));
#347=DIRECTION('center_axis',(2.406364E-16,-1.,0.));
#348=DIRECTION('ref_axis',(0.,0.,-1.));
#349=DIRECTION('center_axis',(0.,-1.,0.));
#350=DIRECTION('ref_axis',(1.,0.,0.));
#351=DIRECTION('center_axis',(0.,-1.,0.));
#352=DIRECTION('ref_axis',(1.,0.,0.));
#353=DIRECTION('center_axis',(1.,2.406364E-16,1.22464679914735E-16));
#354=DIRECTION('ref_axis',(-1.22464679914735E-16,0.,1.));
#355=DIRECTION('center_axis',(-2.406364E-16,1.,0.));
#356=DIRECTION('ref_axis',(1.,2.406364E-16,0.));
#357=DIRECTION('',(-0.0523359562429488,0.998629534754574,6.40930612932429E-18));
#358=DIRECTION('center_axis',(0.,-1.,0.));
#359=DIRECTION('ref_axis',(1.,0.,0.));
#360=DIRECTION('center_axis',(2.406364E-16,-1.,0.));
#361=DIRECTION('ref_axis',(1.,2.406364E-16,0.));
#362=DIRECTION('center_axis',(0.,-1.,0.));
#363=DIRECTION('ref_axis',(1.,0.,0.));
#364=DIRECTION('',(2.406364E-16,-1.,0.));
#365=DIRECTION('center_axis',(0.,1.,0.));
#366=DIRECTION('ref_axis',(0.,0.,1.));
#367=DIRECTION('center_axis',(0.,-1.,0.));
#368=DIRECTION('ref_axis',(1.,0.,0.));
#369=DIRECTION('center_axis',(2.406364E-16,-1.,0.));
#370=DIRECTION('ref_axis',(1.,2.406364E-16,0.));
#371=DIRECTION('center_axis',(0.,-1.,0.));
#372=DIRECTION('ref_axis',(1.,0.,0.));
#373=DIRECTION('',(0.707106781186544,0.707106781186551,8.65956056235489E-17));
#374=DIRECTION('center_axis',(2.406364E-16,-1.,0.));
#375=DIRECTION('ref_axis',(1.,2.406364E-16,0.));
#376=DIRECTION('center_axis',(0.,-1.,0.));
#377=DIRECTION('ref_axis',(1.,0.,0.));
#378=DIRECTION('',(-2.406364E-16,1.,0.));
#379=DIRECTION('center_axis',(-2.406364E-16,1.,0.));
#380=DIRECTION('ref_axis',(1.,2.406364E-16,0.));
#381=DIRECTION('',(0.866025403784413,-0.500000000000045,-1.06057523872488E-16));
#382=CARTESIAN_POINT('',(0.,0.,0.));
#383=CARTESIAN_POINT('Origin',(32.1336532564696,26.999437230033,0.));
#384=CARTESIAN_POINT('',(-33.2676165129392,26.999437230033,4.07410800778326E-15));
#385=CARTESIAN_POINT('Origin',(-6.497047E-15,26.999437230033,0.));
#386=CARTESIAN_POINT('',(-30.9996900000001,26.999437230033,3.79636711330604E-15));
#387=CARTESIAN_POINT('Origin',(-6.497047E-15,26.999437230033,0.));
#388=CARTESIAN_POINT('Origin',(-4.186961E-15,17.3995332300331,0.));
#389=CARTESIAN_POINT('',(-29.9934707000594,7.79962923003311,3.67314078881476E-15));
#390=CARTESIAN_POINT('',(-30.4965803500297,17.399533230033,3.7347539510604E-15));
#391=CARTESIAN_POINT('Origin',(-1.876875E-15,7.79962923003312,0.));
#392=CARTESIAN_POINT('Origin',(23.4967303500298,7.79962923003313,0.));
#393=CARTESIAN_POINT('',(-4.06171034026767E-15,7.79962923003313,16.9999900000003));
#394=CARTESIAN_POINT('Origin',(-1.876875E-15,7.79962923003313,0.));
#395=CARTESIAN_POINT('Origin',(-2.220446E-15,8.79961923003338,0.));
#396=CARTESIAN_POINT('',(-16.,8.79961923003337,-1.95943487863577E-15));
#397=CARTESIAN_POINT('',(-4.17988087863577E-15,8.79961923003338,16.));
#398=CARTESIAN_POINT('Origin',(-2.117508E-15,8.79961923003338,0.));
#399=CARTESIAN_POINT('Origin',(-2.117508E-15,8.79961923003338,0.));
#400=CARTESIAN_POINT('Origin',(-4.30234433390373E-15,8.79961923003338,16.9999900000003));
#401=CARTESIAN_POINT('Origin',(-2.502523E-15,10.3996032300333,0.));
#402=CARTESIAN_POINT('',(-16.,11.9995872300333,-1.95943487863577E-15));
#403=CARTESIAN_POINT('Origin',(-2.887537E-15,11.9995872300333,0.));
#404=CARTESIAN_POINT('',(-16.,10.3996032300333,-1.95943487863577E-15));
#405=CARTESIAN_POINT('Origin',(17.2999070000001,11.9995872300333,0.));
#406=CARTESIAN_POINT('',(-18.5998140000002,11.9995872300333,-2.27782026798363E-15));
#407=CARTESIAN_POINT('Origin',(-2.887537E-15,11.9995872300333,0.));
#408=CARTESIAN_POINT('Origin',(-2.851442E-15,11.8495887300332,0.));
#409=CARTESIAN_POINT('',(-18.5998140000002,11.6995902300332,-2.27782026798363E-15));
#410=CARTESIAN_POINT('Origin',(-2.815347E-15,11.6995902300332,0.));
#411=CARTESIAN_POINT('',(-18.5998140000002,11.8495887300332,-2.27782026798363E-15));
#412=CARTESIAN_POINT('Origin',(19.1998080000001,11.6995902300332,0.));
#413=CARTESIAN_POINT('',(-19.799802,11.6995902300332,-2.42477641430514E-15));
#414=CARTESIAN_POINT('Origin',(-2.815347E-15,11.6995902300332,0.));
#415=CARTESIAN_POINT('Origin',(-2.971759E-15,12.3495837300331,0.));
#416=CARTESIAN_POINT('',(-19.799802,12.9995772300331,-2.42477641430514E-15));
#417=CARTESIAN_POINT('Origin',(-3.128171E-15,12.9995772300331,0.));
#418=CARTESIAN_POINT('',(-19.799802,12.3495837300331,-2.42477641430514E-15));
#419=CARTESIAN_POINT('Origin',(20.3405485245419,12.9995772300332,0.));
#420=CARTESIAN_POINT('',(-5.91526014302919E-15,12.9995772300333,20.8812950490838));
#421=CARTESIAN_POINT('Origin',(-3.128171E-15,12.9995772300333,0.));
#422=CARTESIAN_POINT('Origin',(-4.440892E-15,17.4995322300333,0.));
#423=CARTESIAN_POINT('',(-25.3750830171503,17.2640227820575,3.10755141950514E-15));
#424=CARTESIAN_POINT('',(-7.49177127377825E-15,17.2640227820575,25.3750830171503));
#425=CARTESIAN_POINT('Origin',(-4.154352E-15,17.2640227820575,0.));
#426=CARTESIAN_POINT('Origin',(-4.154352E-15,17.2640227820575,0.));
#427=CARTESIAN_POINT('Origin',(-6.99811311439119E-15,17.4995322300333,20.8812950490838));
#428=CARTESIAN_POINT('Origin',(-6.047601E-15,25.1317000060453,0.));
#429=CARTESIAN_POINT('',(-26.1997380000003,32.9993772300331,3.20854252801996E-15));
#430=CARTESIAN_POINT('',(-25.7874105085753,25.1317000060453,3.15804697376255E-15));
#431=CARTESIAN_POINT('Origin',(-7.940851E-15,32.9993772300331,0.));
#432=CARTESIAN_POINT('Origin',(-8.181485E-15,33.9993672300332,0.));
#433=CARTESIAN_POINT('',(-26.1997380000003,34.9993572300332,-3.20854252801996E-15));
#434=CARTESIAN_POINT('Origin',(-8.422119E-15,34.9993572300332,0.));
#435=CARTESIAN_POINT('',(-26.1997380000003,33.9993672300332,-3.20854252801996E-15));
#436=CARTESIAN_POINT('Origin',(30.0996990000003,34.9993572300332,0.));
#437=CARTESIAN_POINT('',(-33.9996600000004,34.9993572300332,-4.16375747910988E-15));
#438=CARTESIAN_POINT('Origin',(-8.422119E-15,34.9993572300332,0.));
#439=CARTESIAN_POINT('Origin',(-8.301802E-15,34.4993622300333,0.));
#440=CARTESIAN_POINT('',(-34.9996500000002,33.9993672300334,-4.28622093437779E-15));
#441=CARTESIAN_POINT('Origin',(-8.181485E-15,33.9993672300334,0.));
#442=CARTESIAN_POINT('',(-34.4996550000003,34.4993622300333,-4.22498920674384E-15));
#443=CARTESIAN_POINT('Origin',(-7.459583E-15,30.9993972300333,0.));
#444=CARTESIAN_POINT('',(-34.9996500000002,27.9994272300332,-4.28622093437779E-15));
#445=CARTESIAN_POINT('Origin',(-6.737681E-15,27.9994272300332,0.));
#446=CARTESIAN_POINT('',(-34.9996500000002,30.9993972300333,-4.28622093437779E-15));
#447=CARTESIAN_POINT('Origin',(-6.617364E-15,27.4994322300331,0.));
#448=CARTESIAN_POINT('',(-34.1336332564697,27.4994322300331,4.18016447108053E-15));
#449=UNCERTAINTY_MEASURE_WITH_UNIT(LENGTH_MEASURE(0.01),#453,
'DISTANCE_ACCURACY_VALUE',
'Maximum model space distance between geometric entities at asserted c
onnectivities');
#450=UNCERTAINTY_MEASURE_WITH_UNIT(LENGTH_MEASURE(0.01),#453,
'DISTANCE_ACCURACY_VALUE',
'Maximum model space distance between geometric entities at asserted c
onnectivities');
#451=(
GEOMETRIC_REPRESENTATION_CONTEXT(3)
GLOBAL_UNCERTAINTY_ASSIGNED_CONTEXT((#449))
GLOBAL_UNIT_ASSIGNED_CONTEXT((#453,#455,#456))
REPRESENTATION_CONTEXT('','3D')
);
#452=(
GEOMETRIC_REPRESENTATION_CONTEXT(3)
GLOBAL_UNCERTAINTY_ASSIGNED_CONTEXT((#450))
GLOBAL_UNIT_ASSIGNED_CONTEXT((#453,#455,#456))
REPRESENTATION_CONTEXT('','3D')
);
#453=(
LENGTH_UNIT()
NAMED_UNIT(*)
SI_UNIT(.MILLI.,.METRE.)
);
#454=(
LENGTH_UNIT()
NAMED_UNIT(*)
SI_UNIT($,.METRE.)
);
#455=(
NAMED_UNIT(*)
PLANE_ANGLE_UNIT()
SI_UNIT($,.RADIAN.)
);
#456=(
NAMED_UNIT(*)
SI_UNIT($,.STERADIAN.)
SOLID_ANGLE_UNIT()
);
#457=SHAPE_DEFINITION_REPRESENTATION(#458,#459);
#458=PRODUCT_DEFINITION_SHAPE('',$,#461);
#459=SHAPE_REPRESENTATION('',(#256),#451);
#460=PRODUCT_DEFINITION_CONTEXT('part definition',#465,'design');
#461=PRODUCT_DEFINITION('6116 - DN32','6116 - DN32 v1',#462,#460);
#462=PRODUCT_DEFINITION_FORMATION('',$,#467);
#463=PRODUCT_RELATED_PRODUCT_CATEGORY('6116 - DN32 v1','6116 - DN32 v1',
(#467));
#464=APPLICATION_PROTOCOL_DEFINITION('international standard',
'automotive_design',2009,#465);
#465=APPLICATION_CONTEXT(
'Core Data for Automotive Mechanical Design Process');
#466=PRODUCT_CONTEXT('part definition',#465,'mechanical');
#467=PRODUCT('6116 - DN32','6116 - DN32 v1',$,(#466));
#468=PRESENTATION_STYLE_ASSIGNMENT((#470));
#469=PRESENTATION_STYLE_ASSIGNMENT((#471));
#470=SURFACE_STYLE_USAGE(.BOTH.,#472);
#471=SURFACE_STYLE_USAGE(.BOTH.,#473);
#472=SURFACE_SIDE_STYLE('',(#474));
#473=SURFACE_SIDE_STYLE('',(#475));
#474=SURFACE_STYLE_FILL_AREA(#476);
#475=SURFACE_STYLE_FILL_AREA(#477);
#476=FILL_AREA_STYLE('Steel - Satin',(#478));
#477=FILL_AREA_STYLE('Opaque(224,223,219)',(#479));
#478=FILL_AREA_STYLE_COLOUR('Steel - Satin',#480);
#479=FILL_AREA_STYLE_COLOUR('Opaque(224,223,219)',#481);
#480=COLOUR_RGB('Steel - Satin',0.627450980392157,0.627450980392157,0.627450980392157);
#481=COLOUR_RGB('Opaque(224,223,219)',0.87843137254902,0.874509803921569,
0.858823529411765);
ENDSEC;
END-ISO-10303-21;
