ISO-10303-21;
HEADER;
/* Generated by software containing ST-Developer
 * from STEP Tools, Inc. (www.steptools.com) 
 */

FILE_DESCRIPTION(
/* description */ (''),
/* implementation_level */ '2;1');

FILE_NAME(
/* name */ '6116 - DN15.step',
/* time_stamp */ '2022-12-20T09:04:09+01:00',
/* author */ (''),
/* organization */ (''),
/* preprocessor_version */ 'ST-DEVELOPER v19.2',
/* originating_system */ 'Autodesk Translation Framework v11.17.0.187',

/* authorisation */ '');

FILE_SCHEMA (('AUTOMOTIVE_DESIGN { 1 0 10303 214 3 1 1 }'));
ENDSEC;

DATA;
#10=MECHANICAL_DESIGN_GEOMETRIC_PRESENTATION_REPRESENTATION('',(#13),#416);
#11=SHAPE_REPRESENTATION_RELATIONSHIP('SRR','None',#423,#12);
#12=ADVANCED_BREP_SHAPE_REPRESENTATION('',(#14),#415);
#13=STYLED_ITEM('',(#433),#14);
#14=MANIFOLD_SOLID_BREP('Body1',#225);
#15=TOROIDAL_SURFACE('',#258,11.1486952318164,2.5);
#16=CYLINDRICAL_SURFACE('',#246,7.5);
#17=CYLINDRICAL_SURFACE('',#250,9.75);
#18=CYLINDRICAL_SURFACE('',#254,10.9500000000003);
#19=CYLINDRICAL_SURFACE('',#270,19.5);
#20=LINE('',#360,#29);
#21=LINE('',#368,#30);
#22=LINE('',#375,#31);
#23=LINE('',#382,#32);
#24=LINE('',#394,#33);
#25=LINE('',#398,#34);
#26=LINE('',#406,#35);
#27=LINE('',#410,#36);
#28=LINE('',#412,#37);
#29=VECTOR('',#283,16.8034708276887);
#30=VECTOR('',#294,7.5);
#31=VECTOR('',#303,9.75);
#32=VECTOR('',#312,10.9500000000003);
#33=VECTOR('',#327,13.8845505452909);
#34=VECTOR('',#332,14.5234894055675);
#35=VECTOR('',#343,19.25);
#36=VECTOR('',#348,19.5);
#37=VECTOR('',#351,18.6339745962157);
#38=CONICAL_SURFACE('',#242,16.8034708276887,0.0523598775598102);
#39=CONICAL_SURFACE('',#262,13.8845505452909,0.0541350855884665);
#40=CONICAL_SURFACE('',#264,14.5234894055675,0.785398163397304);
#41=CONICAL_SURFACE('',#268,19.25,0.785398163397453);
#42=CONICAL_SURFACE('',#272,18.6339745962157,1.04719755119653);
#43=FACE_BOUND('',#66,.T.);
#44=FACE_BOUND('',#69,.T.);
#45=FACE_BOUND('',#72,.T.);
#46=FACE_BOUND('',#75,.T.);
#47=FACE_BOUND('',#78,.T.);
#48=FACE_BOUND('',#83,.T.);
#49=FACE_OUTER_BOUND('',#65,.T.);
#50=FACE_OUTER_BOUND('',#67,.T.);
#51=FACE_OUTER_BOUND('',#68,.T.);
#52=FACE_OUTER_BOUND('',#70,.T.);
#53=FACE_OUTER_BOUND('',#71,.T.);
#54=FACE_OUTER_BOUND('',#73,.T.);
#55=FACE_OUTER_BOUND('',#74,.T.);
#56=FACE_OUTER_BOUND('',#76,.T.);
#57=FACE_OUTER_BOUND('',#77,.T.);
#58=FACE_OUTER_BOUND('',#79,.T.);
#59=FACE_OUTER_BOUND('',#80,.T.);
#60=FACE_OUTER_BOUND('',#81,.T.);
#61=FACE_OUTER_BOUND('',#82,.T.);
#62=FACE_OUTER_BOUND('',#84,.T.);
#63=FACE_OUTER_BOUND('',#85,.T.);
#64=FACE_OUTER_BOUND('',#86,.T.);
#65=EDGE_LOOP('',(#149));
#66=EDGE_LOOP('',(#150));
#67=EDGE_LOOP('',(#151,#152,#153,#154));
#68=EDGE_LOOP('',(#155));
#69=EDGE_LOOP('',(#156));
#70=EDGE_LOOP('',(#157,#158,#159,#160));
#71=EDGE_LOOP('',(#161));
#72=EDGE_LOOP('',(#162));
#73=EDGE_LOOP('',(#163,#164,#165,#166));
#74=EDGE_LOOP('',(#167));
#75=EDGE_LOOP('',(#168));
#76=EDGE_LOOP('',(#169,#170,#171,#172));
#77=EDGE_LOOP('',(#173));
#78=EDGE_LOOP('',(#174));
#79=EDGE_LOOP('',(#175,#176,#177,#178,#179));
#80=EDGE_LOOP('',(#180,#181,#182,#183,#184));
#81=EDGE_LOOP('',(#185,#186,#187,#188));
#82=EDGE_LOOP('',(#189));
#83=EDGE_LOOP('',(#190));
#84=EDGE_LOOP('',(#191,#192,#193,#194));
#85=EDGE_LOOP('',(#195,#196,#197,#198));
#86=EDGE_LOOP('',(#199,#200,#201,#202));
#87=CIRCLE('',#240,17.7679491924314);
#88=CIRCLE('',#241,17.);
#89=CIRCLE('',#243,16.6069416553773);
#90=CIRCLE('',#245,7.5);
#91=CIRCLE('',#247,7.5);
#92=CIRCLE('',#249,9.75);
#93=CIRCLE('',#251,9.75);
#94=CIRCLE('',#253,10.9500000000003);
#95=CIRCLE('',#255,10.9500000000003);
#96=CIRCLE('',#257,11.1486952318164);
#97=CIRCLE('',#259,13.6452690687028);
#98=CIRCLE('',#260,13.6452690687028);
#99=CIRCLE('',#261,2.5);
#100=CIRCLE('',#263,14.123832021879);
#101=CIRCLE('',#265,14.923146789256);
#102=CIRCLE('',#267,19.);
#103=CIRCLE('',#269,19.5);
#104=CIRCLE('',#271,19.5);
#105=VERTEX_POINT('',#354);
#106=VERTEX_POINT('',#356);
#107=VERTEX_POINT('',#359);
#108=VERTEX_POINT('',#363);
#109=VERTEX_POINT('',#366);
#110=VERTEX_POINT('',#370);
#111=VERTEX_POINT('',#373);
#112=VERTEX_POINT('',#377);
#113=VERTEX_POINT('',#380);
#114=VERTEX_POINT('',#384);
#115=VERTEX_POINT('',#387);
#116=VERTEX_POINT('',#388);
#117=VERTEX_POINT('',#393);
#118=VERTEX_POINT('',#397);
#119=VERTEX_POINT('',#401);
#120=VERTEX_POINT('',#404);
#121=VERTEX_POINT('',#408);
#122=EDGE_CURVE('',#105,#105,#87,.T.);
#123=EDGE_CURVE('',#106,#106,#88,.T.);
#124=EDGE_CURVE('',#106,#107,#20,.T.);
#125=EDGE_CURVE('',#107,#107,#89,.T.);
#126=EDGE_CURVE('',#108,#108,#90,.T.);
#127=EDGE_CURVE('',#109,#109,#91,.T.);
#128=EDGE_CURVE('',#109,#108,#21,.T.);
#129=EDGE_CURVE('',#110,#110,#92,.T.);
#130=EDGE_CURVE('',#111,#111,#93,.T.);
#131=EDGE_CURVE('',#111,#110,#22,.T.);
#132=EDGE_CURVE('',#112,#112,#94,.T.);
#133=EDGE_CURVE('',#113,#113,#95,.T.);
#134=EDGE_CURVE('',#113,#112,#23,.T.);
#135=EDGE_CURVE('',#114,#114,#96,.T.);
#136=EDGE_CURVE('',#115,#116,#97,.T.);
#137=EDGE_CURVE('',#116,#115,#98,.T.);
#138=EDGE_CURVE('',#116,#114,#99,.T.);
#139=EDGE_CURVE('',#115,#117,#24,.T.);
#140=EDGE_CURVE('',#117,#117,#100,.T.);
#141=EDGE_CURVE('',#117,#118,#25,.T.);
#142=EDGE_CURVE('',#118,#118,#101,.T.);
#143=EDGE_CURVE('',#119,#119,#102,.T.);
#144=EDGE_CURVE('',#120,#120,#103,.T.);
#145=EDGE_CURVE('',#120,#119,#26,.T.);
#146=EDGE_CURVE('',#121,#121,#104,.T.);
#147=EDGE_CURVE('',#121,#120,#27,.T.);
#148=EDGE_CURVE('',#121,#105,#28,.T.);
#149=ORIENTED_EDGE('',*,*,#122,.T.);
#150=ORIENTED_EDGE('',*,*,#123,.F.);
#151=ORIENTED_EDGE('',*,*,#123,.T.);
#152=ORIENTED_EDGE('',*,*,#124,.T.);
#153=ORIENTED_EDGE('',*,*,#125,.F.);
#154=ORIENTED_EDGE('',*,*,#124,.F.);
#155=ORIENTED_EDGE('',*,*,#125,.T.);
#156=ORIENTED_EDGE('',*,*,#126,.F.);
#157=ORIENTED_EDGE('',*,*,#127,.F.);
#158=ORIENTED_EDGE('',*,*,#128,.T.);
#159=ORIENTED_EDGE('',*,*,#126,.T.);
#160=ORIENTED_EDGE('',*,*,#128,.F.);
#161=ORIENTED_EDGE('',*,*,#129,.F.);
#162=ORIENTED_EDGE('',*,*,#127,.T.);
#163=ORIENTED_EDGE('',*,*,#130,.F.);
#164=ORIENTED_EDGE('',*,*,#131,.T.);
#165=ORIENTED_EDGE('',*,*,#129,.T.);
#166=ORIENTED_EDGE('',*,*,#131,.F.);
#167=ORIENTED_EDGE('',*,*,#132,.F.);
#168=ORIENTED_EDGE('',*,*,#130,.T.);
#169=ORIENTED_EDGE('',*,*,#133,.F.);
#170=ORIENTED_EDGE('',*,*,#134,.T.);
#171=ORIENTED_EDGE('',*,*,#132,.T.);
#172=ORIENTED_EDGE('',*,*,#134,.F.);
#173=ORIENTED_EDGE('',*,*,#135,.F.);
#174=ORIENTED_EDGE('',*,*,#133,.T.);
#175=ORIENTED_EDGE('',*,*,#136,.F.);
#176=ORIENTED_EDGE('',*,*,#137,.F.);
#177=ORIENTED_EDGE('',*,*,#138,.T.);
#178=ORIENTED_EDGE('',*,*,#135,.T.);
#179=ORIENTED_EDGE('',*,*,#138,.F.);
#180=ORIENTED_EDGE('',*,*,#136,.T.);
#181=ORIENTED_EDGE('',*,*,#137,.T.);
#182=ORIENTED_EDGE('',*,*,#139,.T.);
#183=ORIENTED_EDGE('',*,*,#140,.F.);
#184=ORIENTED_EDGE('',*,*,#139,.F.);
#185=ORIENTED_EDGE('',*,*,#140,.T.);
#186=ORIENTED_EDGE('',*,*,#141,.T.);
#187=ORIENTED_EDGE('',*,*,#142,.F.);
#188=ORIENTED_EDGE('',*,*,#141,.F.);
#189=ORIENTED_EDGE('',*,*,#143,.F.);
#190=ORIENTED_EDGE('',*,*,#142,.T.);
#191=ORIENTED_EDGE('',*,*,#144,.F.);
#192=ORIENTED_EDGE('',*,*,#145,.T.);
#193=ORIENTED_EDGE('',*,*,#143,.T.);
#194=ORIENTED_EDGE('',*,*,#145,.F.);
#195=ORIENTED_EDGE('',*,*,#146,.F.);
#196=ORIENTED_EDGE('',*,*,#147,.T.);
#197=ORIENTED_EDGE('',*,*,#144,.T.);
#198=ORIENTED_EDGE('',*,*,#147,.F.);
#199=ORIENTED_EDGE('',*,*,#146,.T.);
#200=ORIENTED_EDGE('',*,*,#148,.T.);
#201=ORIENTED_EDGE('',*,*,#122,.F.);
#202=ORIENTED_EDGE('',*,*,#148,.F.);
#203=PLANE('',#239);
#204=PLANE('',#244);
#205=PLANE('',#248);
#206=PLANE('',#252);
#207=PLANE('',#256);
#208=PLANE('',#266);
#209=ADVANCED_FACE('',(#49,#43),#203,.T.);
#210=ADVANCED_FACE('',(#50),#38,.T.);
#211=ADVANCED_FACE('',(#51,#44),#204,.T.);
#212=ADVANCED_FACE('',(#52),#16,.F.);
#213=ADVANCED_FACE('',(#53,#45),#205,.T.);
#214=ADVANCED_FACE('',(#54),#17,.T.);
#215=ADVANCED_FACE('',(#55,#46),#206,.T.);
#216=ADVANCED_FACE('',(#56),#18,.F.);
#217=ADVANCED_FACE('',(#57,#47),#207,.T.);
#218=ADVANCED_FACE('',(#58),#15,.F.);
#219=ADVANCED_FACE('',(#59),#39,.F.);
#220=ADVANCED_FACE('',(#60),#40,.F.);
#221=ADVANCED_FACE('',(#61,#48),#208,.T.);
#222=ADVANCED_FACE('',(#62),#41,.T.);
#223=ADVANCED_FACE('',(#63),#19,.T.);
#224=ADVANCED_FACE('',(#64),#42,.T.);
#225=CLOSED_SHELL('',(#209,#210,#211,#212,#213,#214,#215,#216,#217,#218,
#219,#220,#221,#222,#223,#224));
#226=DERIVED_UNIT_ELEMENT(#228,1.);
#227=DERIVED_UNIT_ELEMENT(#418,-3.);
#228=(
MASS_UNIT()
NAMED_UNIT(*)
SI_UNIT(.KILO.,.GRAM.)
);
#229=DERIVED_UNIT((#226,#227));
#230=MEASURE_REPRESENTATION_ITEM('density measure',
POSITIVE_RATIO_MEASURE(7850.),#229);
#231=PROPERTY_DEFINITION_REPRESENTATION(#236,#233);
#232=PROPERTY_DEFINITION_REPRESENTATION(#237,#234);
#233=REPRESENTATION('material name',(#235),#415);
#234=REPRESENTATION('density',(#230),#415);
#235=DESCRIPTIVE_REPRESENTATION_ITEM('Steel','Steel');
#236=PROPERTY_DEFINITION('material property','material name',#425);
#237=PROPERTY_DEFINITION('material property','density of part',#425);
#238=AXIS2_PLACEMENT_3D('placement',#352,#273,#274);
#239=AXIS2_PLACEMENT_3D('',#353,#275,#276);
#240=AXIS2_PLACEMENT_3D('',#355,#277,#278);
#241=AXIS2_PLACEMENT_3D('',#357,#279,#280);
#242=AXIS2_PLACEMENT_3D('',#358,#281,#282);
#243=AXIS2_PLACEMENT_3D('',#361,#284,#285);
#244=AXIS2_PLACEMENT_3D('',#362,#286,#287);
#245=AXIS2_PLACEMENT_3D('',#364,#288,#289);
#246=AXIS2_PLACEMENT_3D('',#365,#290,#291);
#247=AXIS2_PLACEMENT_3D('',#367,#292,#293);
#248=AXIS2_PLACEMENT_3D('',#369,#295,#296);
#249=AXIS2_PLACEMENT_3D('',#371,#297,#298);
#250=AXIS2_PLACEMENT_3D('',#372,#299,#300);
#251=AXIS2_PLACEMENT_3D('',#374,#301,#302);
#252=AXIS2_PLACEMENT_3D('',#376,#304,#305);
#253=AXIS2_PLACEMENT_3D('',#378,#306,#307);
#254=AXIS2_PLACEMENT_3D('',#379,#308,#309);
#255=AXIS2_PLACEMENT_3D('',#381,#310,#311);
#256=AXIS2_PLACEMENT_3D('',#383,#313,#314);
#257=AXIS2_PLACEMENT_3D('',#385,#315,#316);
#258=AXIS2_PLACEMENT_3D('',#386,#317,#318);
#259=AXIS2_PLACEMENT_3D('',#389,#319,#320);
#260=AXIS2_PLACEMENT_3D('',#390,#321,#322);
#261=AXIS2_PLACEMENT_3D('',#391,#323,#324);
#262=AXIS2_PLACEMENT_3D('',#392,#325,#326);
#263=AXIS2_PLACEMENT_3D('',#395,#328,#329);
#264=AXIS2_PLACEMENT_3D('',#396,#330,#331);
#265=AXIS2_PLACEMENT_3D('',#399,#333,#334);
#266=AXIS2_PLACEMENT_3D('',#400,#335,#336);
#267=AXIS2_PLACEMENT_3D('',#402,#337,#338);
#268=AXIS2_PLACEMENT_3D('',#403,#339,#340);
#269=AXIS2_PLACEMENT_3D('',#405,#341,#342);
#270=AXIS2_PLACEMENT_3D('',#407,#344,#345);
#271=AXIS2_PLACEMENT_3D('',#409,#346,#347);
#272=AXIS2_PLACEMENT_3D('',#411,#349,#350);
#273=DIRECTION('axis',(0.,0.,1.));
#274=DIRECTION('refdir',(1.,0.,0.));
#275=DIRECTION('center_axis',(0.,-1.,0.));
#276=DIRECTION('ref_axis',(0.,0.,-1.));
#277=DIRECTION('center_axis',(0.,-1.,0.));
#278=DIRECTION('ref_axis',(1.,0.,0.));
#279=DIRECTION('center_axis',(0.,-1.,0.));
#280=DIRECTION('ref_axis',(1.,0.,0.));
#281=DIRECTION('center_axis',(0.,1.,0.));
#282=DIRECTION('ref_axis',(1.,0.,0.));
#283=DIRECTION('',(0.0523359562429242,-0.998629534754575,-6.4093061293213E-18));
#284=DIRECTION('center_axis',(0.,-1.,0.));
#285=DIRECTION('ref_axis',(1.,0.,0.));
#286=DIRECTION('center_axis',(0.,-1.,0.));
#287=DIRECTION('ref_axis',(0.,0.,-1.));
#288=DIRECTION('center_axis',(0.,-1.,0.));
#289=DIRECTION('ref_axis',(1.,0.,0.));
#290=DIRECTION('center_axis',(0.,-1.,0.));
#291=DIRECTION('ref_axis',(1.,0.,0.));
#292=DIRECTION('center_axis',(0.,-1.,0.));
#293=DIRECTION('ref_axis',(1.,0.,0.));
#294=DIRECTION('',(0.,-1.,0.));
#295=DIRECTION('center_axis',(0.,1.,0.));
#296=DIRECTION('ref_axis',(0.,0.,1.));
#297=DIRECTION('center_axis',(0.,-1.,0.));
#298=DIRECTION('ref_axis',(1.,0.,0.));
#299=DIRECTION('center_axis',(0.,-1.,0.));
#300=DIRECTION('ref_axis',(1.,0.,0.));
#301=DIRECTION('center_axis',(0.,-1.,0.));
#302=DIRECTION('ref_axis',(1.,0.,0.));
#303=DIRECTION('',(0.,1.,0.));
#304=DIRECTION('center_axis',(0.,1.,0.));
#305=DIRECTION('ref_axis',(0.,0.,1.));
#306=DIRECTION('center_axis',(0.,-1.,0.));
#307=DIRECTION('ref_axis',(1.,0.,0.));
#308=DIRECTION('center_axis',(0.,-1.,0.));
#309=DIRECTION('ref_axis',(1.,0.,0.));
#310=DIRECTION('center_axis',(0.,-1.,0.));
#311=DIRECTION('ref_axis',(1.,0.,0.));
#312=DIRECTION('',(0.,-1.,0.));
#313=DIRECTION('center_axis',(0.,1.,0.));
#314=DIRECTION('ref_axis',(0.,0.,1.));
#315=DIRECTION('center_axis',(0.,-1.,0.));
#316=DIRECTION('ref_axis',(1.,0.,0.));
#317=DIRECTION('center_axis',(0.,-1.,0.));
#318=DIRECTION('ref_axis',(0.,0.,-1.));
#319=DIRECTION('center_axis',(0.,-1.,0.));
#320=DIRECTION('ref_axis',(1.,0.,0.));
#321=DIRECTION('center_axis',(0.,-1.,0.));
#322=DIRECTION('ref_axis',(1.,0.,0.));
#323=DIRECTION('center_axis',(1.,0.,1.22464679914735E-16));
#324=DIRECTION('ref_axis',(-1.22464679914735E-16,0.,1.));
#325=DIRECTION('center_axis',(0.,1.,0.));
#326=DIRECTION('ref_axis',(1.,0.,0.));
#327=DIRECTION('',(-0.0541086480147734,0.99853505407172,6.62639825974831E-18));
#328=DIRECTION('center_axis',(0.,-1.,0.));
#329=DIRECTION('ref_axis',(1.,0.,0.));
#330=DIRECTION('center_axis',(0.,1.,0.));
#331=DIRECTION('ref_axis',(1.,0.,0.));
#332=DIRECTION('',(-0.707106781186445,0.70710678118665,8.65956056235369E-17));
#333=DIRECTION('center_axis',(0.,-1.,0.));
#334=DIRECTION('ref_axis',(1.,0.,0.));
#335=DIRECTION('center_axis',(0.,1.,0.));
#336=DIRECTION('ref_axis',(0.,0.,1.));
#337=DIRECTION('center_axis',(0.,-1.,0.));
#338=DIRECTION('ref_axis',(1.,0.,0.));
#339=DIRECTION('center_axis',(0.,-1.,0.));
#340=DIRECTION('ref_axis',(1.,0.,0.));
#341=DIRECTION('center_axis',(0.,-1.,0.));
#342=DIRECTION('ref_axis',(1.,0.,0.));
#343=DIRECTION('',(0.707106781186551,0.707106781186544,8.65956056235497E-17));
#344=DIRECTION('center_axis',(0.,-1.,0.));
#345=DIRECTION('ref_axis',(1.,0.,0.));
#346=DIRECTION('center_axis',(0.,-1.,0.));
#347=DIRECTION('ref_axis',(1.,0.,0.));
#348=DIRECTION('',(0.,1.,0.));
#349=DIRECTION('center_axis',(0.,1.,0.));
#350=DIRECTION('ref_axis',(1.,0.,0.));
#351=DIRECTION('',(0.866025403784406,-0.500000000000057,-1.06057523872487E-16));
#352=CARTESIAN_POINT('',(0.,0.,0.));
#353=CARTESIAN_POINT('Origin',(17.3839745962157,12.208606794492,0.));
#354=CARTESIAN_POINT('',(-17.7679491924314,12.208606794492,2.17594621059239E-15));
#355=CARTESIAN_POINT('Origin',(0.,12.208606794492,0.));
#356=CARTESIAN_POINT('',(-17.,12.208606794492,2.0818995585505E-15));
#357=CARTESIAN_POINT('Origin',(0.,12.208606794492,0.));
#358=CARTESIAN_POINT('Origin',(0.,8.45860679449197,0.));
#359=CARTESIAN_POINT('',(-16.6069416553773,4.70860679449197,2.03376379418847E-15));
#360=CARTESIAN_POINT('',(-16.8034708276887,8.45860679449197,2.05783167636949E-15));
#361=CARTESIAN_POINT('Origin',(0.,4.70860679449197,0.));
#362=CARTESIAN_POINT('Origin',(12.0534708276887,4.70860679449197,0.));
#363=CARTESIAN_POINT('',(-7.5,4.70860679449197,-9.18485099360515E-16));
#364=CARTESIAN_POINT('Origin',(0.,4.70860679449197,0.));
#365=CARTESIAN_POINT('Origin',(0.,6.45860679449197,0.));
#366=CARTESIAN_POINT('',(-7.5,8.20860679449197,-9.18485099360515E-16));
#367=CARTESIAN_POINT('Origin',(0.,8.20860679449197,0.));
#368=CARTESIAN_POINT('',(-7.5,6.45860679449197,-9.18485099360515E-16));
#369=CARTESIAN_POINT('Origin',(8.625,8.20860679449197,0.));
#370=CARTESIAN_POINT('',(-9.75,8.20860679449197,-1.19403062916867E-15));
#371=CARTESIAN_POINT('Origin',(0.,8.20860679449197,0.));
#372=CARTESIAN_POINT('Origin',(0.,8.05860679449199,0.));
#373=CARTESIAN_POINT('',(-9.75,7.90860679449202,-1.19403062916867E-15));
#374=CARTESIAN_POINT('Origin',(0.,7.90860679449202,0.));
#375=CARTESIAN_POINT('',(-9.75,8.05860679449199,-1.19403062916867E-15));
#376=CARTESIAN_POINT('Origin',(10.3500000000001,7.90860679449202,0.));
#377=CARTESIAN_POINT('',(-10.9500000000003,7.90860679449202,-1.34098824506639E-15));
#378=CARTESIAN_POINT('Origin',(0.,7.90860679449202,0.));
#379=CARTESIAN_POINT('Origin',(0.,8.30860679449199,0.));
#380=CARTESIAN_POINT('',(-10.9500000000003,8.70860679449197,-1.34098824506639E-15));
#381=CARTESIAN_POINT('Origin',(0.,8.70860679449197,0.));
#382=CARTESIAN_POINT('',(-10.9500000000003,8.30860679449199,-1.34098824506639E-15));
#383=CARTESIAN_POINT('Origin',(11.0493476159083,8.70860679449197,0.));
#384=CARTESIAN_POINT('',(-1.36532139303133E-15,8.70860679449197,11.1486952318164));
#385=CARTESIAN_POINT('Origin',(0.,8.70860679449197,0.));
#386=CARTESIAN_POINT('Origin',(0.,11.208606794492,0.));
#387=CARTESIAN_POINT('',(-13.6452690687028,11.0777669038843,1.67106350884913E-15));
#388=CARTESIAN_POINT('',(-1.67106350884913E-15,11.0777669038843,13.6452690687028));
#389=CARTESIAN_POINT('Origin',(0.,11.0777669038843,0.));
#390=CARTESIAN_POINT('Origin',(0.,11.0777669038843,0.));
#391=CARTESIAN_POINT('Origin',(-1.36532139303133E-15,11.208606794492,11.1486952318164));
#392=CARTESIAN_POINT('Origin',(0.,15.4935294654996,0.));
#393=CARTESIAN_POINT('',(-14.123832021879,19.9092920271148,1.7296705677289E-15));
#394=CARTESIAN_POINT('',(-13.8845505452909,15.4935294654996,1.70036703828902E-15));
#395=CARTESIAN_POINT('Origin',(0.,19.9092920271148,0.));
#396=CARTESIAN_POINT('Origin',(0.,20.3089494108034,0.));
#397=CARTESIAN_POINT('',(-14.923146789256,20.708606794492,1.82755839486684E-15));
#398=CARTESIAN_POINT('',(-14.5234894055675,20.3089494108034,1.77861448129787E-15));
#399=CARTESIAN_POINT('Origin',(0.,20.708606794492,0.));
#400=CARTESIAN_POINT('Origin',(16.961573394628,20.708606794492,0.));
#401=CARTESIAN_POINT('',(-19.,20.708606794492,-2.32682891837997E-15));
#402=CARTESIAN_POINT('Origin',(0.,20.708606794492,0.));
#403=CARTESIAN_POINT('Origin',(0.,20.458606794492,0.));
#404=CARTESIAN_POINT('',(-19.5,20.208606794492,-2.38806125833734E-15));
#405=CARTESIAN_POINT('Origin',(0.,20.208606794492,0.));
#406=CARTESIAN_POINT('',(-19.25,20.458606794492,-2.35744508835866E-15));
#407=CARTESIAN_POINT('Origin',(0.,16.708606794492,0.));
#408=CARTESIAN_POINT('',(-19.5,13.208606794492,-2.38806125833734E-15));
#409=CARTESIAN_POINT('Origin',(0.,13.208606794492,0.));
#410=CARTESIAN_POINT('',(-19.5,16.708606794492,-2.38806125833734E-15));
#411=CARTESIAN_POINT('Origin',(0.,12.708606794492,0.));
#412=CARTESIAN_POINT('',(-18.6339745962157,12.708606794492,2.28200373446486E-15));
#413=UNCERTAINTY_MEASURE_WITH_UNIT(LENGTH_MEASURE(0.01),#417,
'DISTANCE_ACCURACY_VALUE',
'Maximum model space distance between geometric entities at asserted c
onnectivities');
#414=UNCERTAINTY_MEASURE_WITH_UNIT(LENGTH_MEASURE(0.01),#417,
'DISTANCE_ACCURACY_VALUE',
'Maximum model space distance between geometric entities at asserted c
onnectivities');
#415=(
GEOMETRIC_REPRESENTATION_CONTEXT(3)
GLOBAL_UNCERTAINTY_ASSIGNED_CONTEXT((#413))
GLOBAL_UNIT_ASSIGNED_CONTEXT((#417,#419,#420))
REPRESENTATION_CONTEXT('','3D')
);
#416=(
GEOMETRIC_REPRESENTATION_CONTEXT(3)
GLOBAL_UNCERTAINTY_ASSIGNED_CONTEXT((#414))
GLOBAL_UNIT_ASSIGNED_CONTEXT((#417,#419,#420))
REPRESENTATION_CONTEXT('','3D')
);
#417=(
LENGTH_UNIT()
NAMED_UNIT(*)
SI_UNIT(.MILLI.,.METRE.)
);
#418=(
LENGTH_UNIT()
NAMED_UNIT(*)
SI_UNIT($,.METRE.)
);
#419=(
NAMED_UNIT(*)
PLANE_ANGLE_UNIT()
SI_UNIT($,.RADIAN.)
);
#420=(
NAMED_UNIT(*)
SI_UNIT($,.STERADIAN.)
SOLID_ANGLE_UNIT()
);
#421=SHAPE_DEFINITION_REPRESENTATION(#422,#423);
#422=PRODUCT_DEFINITION_SHAPE('',$,#425);
#423=SHAPE_REPRESENTATION('',(#238),#415);
#424=PRODUCT_DEFINITION_CONTEXT('part definition',#429,'design');
#425=PRODUCT_DEFINITION('6116 - DN15','6116 - DN15 v1',#426,#424);
#426=PRODUCT_DEFINITION_FORMATION('',$,#431);
#427=PRODUCT_RELATED_PRODUCT_CATEGORY('6116 - DN15 v1','6116 - DN15 v1',
(#431));
#428=APPLICATION_PROTOCOL_DEFINITION('international standard',
'automotive_design',2009,#429);
#429=APPLICATION_CONTEXT(
'Core Data for Automotive Mechanical Design Process');
#430=PRODUCT_CONTEXT('part definition',#429,'mechanical');
#431=PRODUCT('6116 - DN15','6116 - DN15 v1',$,(#430));
#432=PRESENTATION_STYLE_ASSIGNMENT((#434));
#433=PRESENTATION_STYLE_ASSIGNMENT((#435));
#434=SURFACE_STYLE_USAGE(.BOTH.,#436);
#435=SURFACE_STYLE_USAGE(.BOTH.,#437);
#436=SURFACE_SIDE_STYLE('',(#438));
#437=SURFACE_SIDE_STYLE('',(#439));
#438=SURFACE_STYLE_FILL_AREA(#440);
#439=SURFACE_STYLE_FILL_AREA(#441);
#440=FILL_AREA_STYLE('Steel - Satin',(#442));
#441=FILL_AREA_STYLE('Opaque(191,191,191)',(#443));
#442=FILL_AREA_STYLE_COLOUR('Steel - Satin',#444);
#443=FILL_AREA_STYLE_COLOUR('Opaque(191,191,191)',#445);
#444=COLOUR_RGB('Steel - Satin',0.627450980392157,0.627450980392157,0.627450980392157);
#445=COLOUR_RGB('Opaque(191,191,191)',0.749019607843137,0.749019607843137,
0.749019607843137);
ENDSEC;
END-ISO-10303-21;
