ISO-10303-21;
HEADER;
/* Generated by software containing ST-Developer
 * from STEP Tools, Inc. (www.steptools.com) 
 */

FILE_DESCRIPTION(
/* description */ (''),
/* implementation_level */ '2;1');

FILE_NAME(
/* name */ '6116 - DN50.step',
/* time_stamp */ '2022-12-20T09:04:57+01:00',
/* author */ (''),
/* organization */ (''),
/* preprocessor_version */ 'ST-DEVELOPER v19.2',
/* originating_system */ 'Autodesk Translation Framework v11.17.0.187',

/* authorisation */ '');

FILE_SCHEMA (('AUTOMOTIVE_DESIGN { 1 0 10303 214 3 1 1 }'));
ENDSEC;

DATA;
#10=MECHANICAL_DESIGN_GEOMETRIC_PRESENTATION_REPRESENTATION('',(#13),#452);
#11=SHAPE_REPRESENTATION_RELATIONSHIP('SRR','None',#459,#12);
#12=ADVANCED_BREP_SHAPE_REPRESENTATION('',(#14),#451);
#13=STYLED_ITEM('',(#469),#14);
#14=MANIFOLD_SOLID_BREP('Body1',#243);
#15=CONICAL_SURFACE('',#275,36.9725360067496,0.0523598775598333);
#16=CONICAL_SURFACE('',#281,46.5,0.785398163397439);
#17=CONICAL_SURFACE('',#285,46.1339745962157,1.04719755119653);
#18=CONICAL_SURFACE('',#289,41.6614755314713,0.0523598775598322);
#19=TOROIDAL_SURFACE('',#271,31.2519243397269,4.99999999999959);
#20=TOROIDAL_SURFACE('',#293,25.5,1.5);
#21=FACE_BOUND('',#52,.T.);
#22=FACE_BOUND('',#55,.T.);
#23=FACE_BOUND('',#58,.T.);
#24=FACE_BOUND('',#63,.T.);
#25=FACE_BOUND('',#68,.T.);
#26=FACE_BOUND('',#71,.T.);
#27=PLANE('',#261);
#28=PLANE('',#265);
#29=PLANE('',#269);
#30=PLANE('',#279);
#31=PLANE('',#287);
#32=PLANE('',#291);
#33=FACE_OUTER_BOUND('',#50,.T.);
#34=FACE_OUTER_BOUND('',#51,.T.);
#35=FACE_OUTER_BOUND('',#53,.T.);
#36=FACE_OUTER_BOUND('',#54,.T.);
#37=FACE_OUTER_BOUND('',#56,.T.);
#38=FACE_OUTER_BOUND('',#57,.T.);
#39=FACE_OUTER_BOUND('',#59,.T.);
#40=FACE_OUTER_BOUND('',#60,.T.);
#41=FACE_OUTER_BOUND('',#61,.T.);
#42=FACE_OUTER_BOUND('',#62,.T.);
#43=FACE_OUTER_BOUND('',#64,.T.);
#44=FACE_OUTER_BOUND('',#65,.T.);
#45=FACE_OUTER_BOUND('',#66,.T.);
#46=FACE_OUTER_BOUND('',#67,.T.);
#47=FACE_OUTER_BOUND('',#69,.T.);
#48=FACE_OUTER_BOUND('',#70,.T.);
#49=FACE_OUTER_BOUND('',#72,.T.);
#50=EDGE_LOOP('',(#161,#162,#163,#164,#165));
#51=EDGE_LOOP('',(#166));
#52=EDGE_LOOP('',(#167));
#53=EDGE_LOOP('',(#168,#169,#170,#171));
#54=EDGE_LOOP('',(#172));
#55=EDGE_LOOP('',(#173));
#56=EDGE_LOOP('',(#174,#175,#176,#177));
#57=EDGE_LOOP('',(#178));
#58=EDGE_LOOP('',(#179));
#59=EDGE_LOOP('',(#180,#181,#182,#183,#184));
#60=EDGE_LOOP('',(#185,#186,#187,#188,#189));
#61=EDGE_LOOP('',(#190,#191,#192,#193));
#62=EDGE_LOOP('',(#194));
#63=EDGE_LOOP('',(#195));
#64=EDGE_LOOP('',(#196,#197,#198,#199));
#65=EDGE_LOOP('',(#200,#201,#202,#203));
#66=EDGE_LOOP('',(#204,#205,#206,#207));
#67=EDGE_LOOP('',(#208));
#68=EDGE_LOOP('',(#209));
#69=EDGE_LOOP('',(#210,#211,#212,#213));
#70=EDGE_LOOP('',(#214));
#71=EDGE_LOOP('',(#215));
#72=EDGE_LOOP('',(#216,#217,#218,#219,#220));
#73=LINE('',#387,#82);
#74=LINE('',#397,#83);
#75=LINE('',#404,#84);
#76=LINE('',#416,#85);
#77=LINE('',#421,#86);
#78=LINE('',#428,#87);
#79=LINE('',#432,#88);
#80=LINE('',#435,#89);
#81=LINE('',#442,#90);
#82=VECTOR('',#301,24.);
#83=VECTOR('',#314,27.3000000000002);
#84=VECTOR('',#323,28.5);
#85=VECTOR('',#338,36.9725360067496);
#86=VECTOR('',#345,37.6999999999998);
#87=VECTOR('',#354,46.5);
#88=VECTOR('',#359,47.);
#89=VECTOR('',#362,46.1339745962157);
#90=VECTOR('',#371,41.6614755314713);
#91=CIRCLE('',#258,24.);
#92=CIRCLE('',#259,24.);
#93=CIRCLE('',#260,24.);
#94=CIRCLE('',#262,27.3000000000002);
#95=CIRCLE('',#264,27.3000000000002);
#96=CIRCLE('',#266,28.5);
#97=CIRCLE('',#268,28.5);
#98=CIRCLE('',#270,31.2519243397269);
#99=CIRCLE('',#272,36.2450720134993);
#100=CIRCLE('',#273,36.2450720134993);
#101=CIRCLE('',#274,4.99999999999959);
#102=CIRCLE('',#276,37.6999999999998);
#103=CIRCLE('',#278,37.6999999999998);
#104=CIRCLE('',#280,46.);
#105=CIRCLE('',#282,47.);
#106=CIRCLE('',#284,47.);
#107=CIRCLE('',#286,45.2679491924314);
#108=CIRCLE('',#288,42.5);
#109=CIRCLE('',#290,40.8229510629426);
#110=CIRCLE('',#292,25.5);
#111=CIRCLE('',#294,1.5);
#112=VERTEX_POINT('',#384);
#113=VERTEX_POINT('',#386);
#114=VERTEX_POINT('',#388);
#115=VERTEX_POINT('',#392);
#116=VERTEX_POINT('',#395);
#117=VERTEX_POINT('',#399);
#118=VERTEX_POINT('',#402);
#119=VERTEX_POINT('',#406);
#120=VERTEX_POINT('',#409);
#121=VERTEX_POINT('',#410);
#122=VERTEX_POINT('',#415);
#123=VERTEX_POINT('',#419);
#124=VERTEX_POINT('',#423);
#125=VERTEX_POINT('',#426);
#126=VERTEX_POINT('',#430);
#127=VERTEX_POINT('',#434);
#128=VERTEX_POINT('',#438);
#129=VERTEX_POINT('',#441);
#130=VERTEX_POINT('',#445);
#131=EDGE_CURVE('',#112,#112,#91,.T.);
#132=EDGE_CURVE('',#112,#113,#73,.T.);
#133=EDGE_CURVE('',#113,#114,#92,.T.);
#134=EDGE_CURVE('',#114,#113,#93,.T.);
#135=EDGE_CURVE('',#115,#115,#94,.T.);
#136=EDGE_CURVE('',#116,#116,#95,.T.);
#137=EDGE_CURVE('',#116,#115,#74,.T.);
#138=EDGE_CURVE('',#117,#117,#96,.T.);
#139=EDGE_CURVE('',#118,#118,#97,.T.);
#140=EDGE_CURVE('',#118,#117,#75,.T.);
#141=EDGE_CURVE('',#119,#119,#98,.T.);
#142=EDGE_CURVE('',#120,#121,#99,.T.);
#143=EDGE_CURVE('',#121,#120,#100,.T.);
#144=EDGE_CURVE('',#121,#119,#101,.T.);
#145=EDGE_CURVE('',#120,#122,#76,.T.);
#146=EDGE_CURVE('',#122,#122,#102,.T.);
#147=EDGE_CURVE('',#123,#123,#103,.T.);
#148=EDGE_CURVE('',#123,#122,#77,.T.);
#149=EDGE_CURVE('',#124,#124,#104,.T.);
#150=EDGE_CURVE('',#125,#125,#105,.T.);
#151=EDGE_CURVE('',#125,#124,#78,.T.);
#152=EDGE_CURVE('',#126,#126,#106,.T.);
#153=EDGE_CURVE('',#126,#125,#79,.T.);
#154=EDGE_CURVE('',#126,#127,#80,.T.);
#155=EDGE_CURVE('',#127,#127,#107,.T.);
#156=EDGE_CURVE('',#128,#128,#108,.T.);
#157=EDGE_CURVE('',#128,#129,#81,.T.);
#158=EDGE_CURVE('',#129,#129,#109,.T.);
#159=EDGE_CURVE('',#130,#130,#110,.T.);
#160=EDGE_CURVE('',#114,#130,#111,.T.);
#161=ORIENTED_EDGE('',*,*,#131,.F.);
#162=ORIENTED_EDGE('',*,*,#132,.T.);
#163=ORIENTED_EDGE('',*,*,#133,.T.);
#164=ORIENTED_EDGE('',*,*,#134,.T.);
#165=ORIENTED_EDGE('',*,*,#132,.F.);
#166=ORIENTED_EDGE('',*,*,#135,.F.);
#167=ORIENTED_EDGE('',*,*,#131,.T.);
#168=ORIENTED_EDGE('',*,*,#136,.F.);
#169=ORIENTED_EDGE('',*,*,#137,.T.);
#170=ORIENTED_EDGE('',*,*,#135,.T.);
#171=ORIENTED_EDGE('',*,*,#137,.F.);
#172=ORIENTED_EDGE('',*,*,#138,.F.);
#173=ORIENTED_EDGE('',*,*,#136,.T.);
#174=ORIENTED_EDGE('',*,*,#139,.F.);
#175=ORIENTED_EDGE('',*,*,#140,.T.);
#176=ORIENTED_EDGE('',*,*,#138,.T.);
#177=ORIENTED_EDGE('',*,*,#140,.F.);
#178=ORIENTED_EDGE('',*,*,#141,.F.);
#179=ORIENTED_EDGE('',*,*,#139,.T.);
#180=ORIENTED_EDGE('',*,*,#142,.F.);
#181=ORIENTED_EDGE('',*,*,#143,.F.);
#182=ORIENTED_EDGE('',*,*,#144,.T.);
#183=ORIENTED_EDGE('',*,*,#141,.T.);
#184=ORIENTED_EDGE('',*,*,#144,.F.);
#185=ORIENTED_EDGE('',*,*,#142,.T.);
#186=ORIENTED_EDGE('',*,*,#143,.T.);
#187=ORIENTED_EDGE('',*,*,#145,.T.);
#188=ORIENTED_EDGE('',*,*,#146,.F.);
#189=ORIENTED_EDGE('',*,*,#145,.F.);
#190=ORIENTED_EDGE('',*,*,#147,.F.);
#191=ORIENTED_EDGE('',*,*,#148,.T.);
#192=ORIENTED_EDGE('',*,*,#146,.T.);
#193=ORIENTED_EDGE('',*,*,#148,.F.);
#194=ORIENTED_EDGE('',*,*,#149,.F.);
#195=ORIENTED_EDGE('',*,*,#147,.T.);
#196=ORIENTED_EDGE('',*,*,#150,.F.);
#197=ORIENTED_EDGE('',*,*,#151,.T.);
#198=ORIENTED_EDGE('',*,*,#149,.T.);
#199=ORIENTED_EDGE('',*,*,#151,.F.);
#200=ORIENTED_EDGE('',*,*,#152,.F.);
#201=ORIENTED_EDGE('',*,*,#153,.T.);
#202=ORIENTED_EDGE('',*,*,#150,.T.);
#203=ORIENTED_EDGE('',*,*,#153,.F.);
#204=ORIENTED_EDGE('',*,*,#152,.T.);
#205=ORIENTED_EDGE('',*,*,#154,.T.);
#206=ORIENTED_EDGE('',*,*,#155,.F.);
#207=ORIENTED_EDGE('',*,*,#154,.F.);
#208=ORIENTED_EDGE('',*,*,#155,.T.);
#209=ORIENTED_EDGE('',*,*,#156,.F.);
#210=ORIENTED_EDGE('',*,*,#156,.T.);
#211=ORIENTED_EDGE('',*,*,#157,.T.);
#212=ORIENTED_EDGE('',*,*,#158,.F.);
#213=ORIENTED_EDGE('',*,*,#157,.F.);
#214=ORIENTED_EDGE('',*,*,#158,.T.);
#215=ORIENTED_EDGE('',*,*,#159,.F.);
#216=ORIENTED_EDGE('',*,*,#133,.F.);
#217=ORIENTED_EDGE('',*,*,#134,.F.);
#218=ORIENTED_EDGE('',*,*,#160,.T.);
#219=ORIENTED_EDGE('',*,*,#159,.T.);
#220=ORIENTED_EDGE('',*,*,#160,.F.);
#221=CYLINDRICAL_SURFACE('',#257,24.);
#222=CYLINDRICAL_SURFACE('',#263,27.3000000000002);
#223=CYLINDRICAL_SURFACE('',#267,28.5);
#224=CYLINDRICAL_SURFACE('',#277,37.6999999999998);
#225=CYLINDRICAL_SURFACE('',#283,47.);
#226=ADVANCED_FACE('',(#33),#221,.F.);
#227=ADVANCED_FACE('',(#34,#21),#27,.T.);
#228=ADVANCED_FACE('',(#35),#222,.T.);
#229=ADVANCED_FACE('',(#36,#22),#28,.T.);
#230=ADVANCED_FACE('',(#37),#223,.F.);
#231=ADVANCED_FACE('',(#38,#23),#29,.T.);
#232=ADVANCED_FACE('',(#39),#19,.F.);
#233=ADVANCED_FACE('',(#40),#15,.F.);
#234=ADVANCED_FACE('',(#41),#224,.F.);
#235=ADVANCED_FACE('',(#42,#24),#30,.T.);
#236=ADVANCED_FACE('',(#43),#16,.T.);
#237=ADVANCED_FACE('',(#44),#225,.T.);
#238=ADVANCED_FACE('',(#45),#17,.T.);
#239=ADVANCED_FACE('',(#46,#25),#31,.T.);
#240=ADVANCED_FACE('',(#47),#18,.T.);
#241=ADVANCED_FACE('',(#48,#26),#32,.T.);
#242=ADVANCED_FACE('',(#49),#20,.T.);
#243=CLOSED_SHELL('',(#226,#227,#228,#229,#230,#231,#232,#233,#234,#235,
#236,#237,#238,#239,#240,#241,#242));
#244=DERIVED_UNIT_ELEMENT(#246,1.);
#245=DERIVED_UNIT_ELEMENT(#454,-3.);
#246=(
MASS_UNIT()
NAMED_UNIT(*)
SI_UNIT(.KILO.,.GRAM.)
);
#247=DERIVED_UNIT((#244,#245));
#248=MEASURE_REPRESENTATION_ITEM('density measure',
POSITIVE_RATIO_MEASURE(7850.),#247);
#249=PROPERTY_DEFINITION_REPRESENTATION(#254,#251);
#250=PROPERTY_DEFINITION_REPRESENTATION(#255,#252);
#251=REPRESENTATION('material name',(#253),#451);
#252=REPRESENTATION('density',(#248),#451);
#253=DESCRIPTIVE_REPRESENTATION_ITEM('Steel','Steel');
#254=PROPERTY_DEFINITION('material property','material name',#461);
#255=PROPERTY_DEFINITION('material property','density of part',#461);
#256=AXIS2_PLACEMENT_3D('placement',#382,#295,#296);
#257=AXIS2_PLACEMENT_3D('',#383,#297,#298);
#258=AXIS2_PLACEMENT_3D('',#385,#299,#300);
#259=AXIS2_PLACEMENT_3D('',#389,#302,#303);
#260=AXIS2_PLACEMENT_3D('',#390,#304,#305);
#261=AXIS2_PLACEMENT_3D('',#391,#306,#307);
#262=AXIS2_PLACEMENT_3D('',#393,#308,#309);
#263=AXIS2_PLACEMENT_3D('',#394,#310,#311);
#264=AXIS2_PLACEMENT_3D('',#396,#312,#313);
#265=AXIS2_PLACEMENT_3D('',#398,#315,#316);
#266=AXIS2_PLACEMENT_3D('',#400,#317,#318);
#267=AXIS2_PLACEMENT_3D('',#401,#319,#320);
#268=AXIS2_PLACEMENT_3D('',#403,#321,#322);
#269=AXIS2_PLACEMENT_3D('',#405,#324,#325);
#270=AXIS2_PLACEMENT_3D('',#407,#326,#327);
#271=AXIS2_PLACEMENT_3D('',#408,#328,#329);
#272=AXIS2_PLACEMENT_3D('',#411,#330,#331);
#273=AXIS2_PLACEMENT_3D('',#412,#332,#333);
#274=AXIS2_PLACEMENT_3D('',#413,#334,#335);
#275=AXIS2_PLACEMENT_3D('',#414,#336,#337);
#276=AXIS2_PLACEMENT_3D('',#417,#339,#340);
#277=AXIS2_PLACEMENT_3D('',#418,#341,#342);
#278=AXIS2_PLACEMENT_3D('',#420,#343,#344);
#279=AXIS2_PLACEMENT_3D('',#422,#346,#347);
#280=AXIS2_PLACEMENT_3D('',#424,#348,#349);
#281=AXIS2_PLACEMENT_3D('',#425,#350,#351);
#282=AXIS2_PLACEMENT_3D('',#427,#352,#353);
#283=AXIS2_PLACEMENT_3D('',#429,#355,#356);
#284=AXIS2_PLACEMENT_3D('',#431,#357,#358);
#285=AXIS2_PLACEMENT_3D('',#433,#360,#361);
#286=AXIS2_PLACEMENT_3D('',#436,#363,#364);
#287=AXIS2_PLACEMENT_3D('',#437,#365,#366);
#288=AXIS2_PLACEMENT_3D('',#439,#367,#368);
#289=AXIS2_PLACEMENT_3D('',#440,#369,#370);
#290=AXIS2_PLACEMENT_3D('',#443,#372,#373);
#291=AXIS2_PLACEMENT_3D('',#444,#374,#375);
#292=AXIS2_PLACEMENT_3D('',#446,#376,#377);
#293=AXIS2_PLACEMENT_3D('',#447,#378,#379);
#294=AXIS2_PLACEMENT_3D('',#448,#380,#381);
#295=DIRECTION('axis',(0.,0.,1.));
#296=DIRECTION('refdir',(1.,0.,0.));
#297=DIRECTION('center_axis',(0.,-1.,0.));
#298=DIRECTION('ref_axis',(1.,0.,0.));
#299=DIRECTION('center_axis',(0.,-1.,0.));
#300=DIRECTION('ref_axis',(1.,0.,0.));
#301=DIRECTION('',(0.,-1.,0.));
#302=DIRECTION('center_axis',(0.,-1.,0.));
#303=DIRECTION('ref_axis',(1.,0.,0.));
#304=DIRECTION('center_axis',(0.,-1.,0.));
#305=DIRECTION('ref_axis',(1.,0.,0.));
#306=DIRECTION('center_axis',(0.,1.,0.));
#307=DIRECTION('ref_axis',(0.,0.,1.));
#308=DIRECTION('center_axis',(0.,-1.,0.));
#309=DIRECTION('ref_axis',(1.,0.,0.));
#310=DIRECTION('center_axis',(0.,-1.,0.));
#311=DIRECTION('ref_axis',(1.,0.,0.));
#312=DIRECTION('center_axis',(0.,-1.,0.));
#313=DIRECTION('ref_axis',(1.,0.,0.));
#314=DIRECTION('',(0.,1.,0.));
#315=DIRECTION('center_axis',(0.,1.,0.));
#316=DIRECTION('ref_axis',(0.,0.,1.));
#317=DIRECTION('center_axis',(0.,-1.,0.));
#318=DIRECTION('ref_axis',(1.,0.,0.));
#319=DIRECTION('center_axis',(0.,-1.,0.));
#320=DIRECTION('ref_axis',(1.,0.,0.));
#321=DIRECTION('center_axis',(0.,-1.,0.));
#322=DIRECTION('ref_axis',(1.,0.,0.));
#323=DIRECTION('',(0.,-1.,0.));
#324=DIRECTION('center_axis',(0.,1.,0.));
#325=DIRECTION('ref_axis',(0.,0.,1.));
#326=DIRECTION('center_axis',(0.,-1.,0.));
#327=DIRECTION('ref_axis',(1.,0.,0.));
#328=DIRECTION('center_axis',(0.,-1.,0.));
#329=DIRECTION('ref_axis',(0.,0.,-1.));
#330=DIRECTION('center_axis',(0.,-1.,0.));
#331=DIRECTION('ref_axis',(1.,0.,0.));
#332=DIRECTION('center_axis',(0.,-1.,0.));
#333=DIRECTION('ref_axis',(1.,0.,0.));
#334=DIRECTION('center_axis',(1.,0.,1.22464679914735E-16));
#335=DIRECTION('ref_axis',(-1.22464679914735E-16,0.,1.));
#336=DIRECTION('center_axis',(0.,1.,0.));
#337=DIRECTION('ref_axis',(1.,0.,0.));
#338=DIRECTION('',(-0.0523359562429472,0.998629534754574,6.40930612932413E-18));
#339=DIRECTION('center_axis',(0.,-1.,0.));
#340=DIRECTION('ref_axis',(1.,0.,0.));
#341=DIRECTION('center_axis',(0.,-1.,0.));
#342=DIRECTION('ref_axis',(1.,0.,0.));
#343=DIRECTION('center_axis',(0.,-1.,0.));
#344=DIRECTION('ref_axis',(1.,0.,0.));
#345=DIRECTION('',(0.,-1.,0.));
#346=DIRECTION('center_axis',(0.,1.,0.));
#347=DIRECTION('ref_axis',(0.,0.,1.));
#348=DIRECTION('center_axis',(0.,-1.,0.));
#349=DIRECTION('ref_axis',(1.,0.,0.));
#350=DIRECTION('center_axis',(0.,-1.,0.));
#351=DIRECTION('ref_axis',(1.,0.,0.));
#352=DIRECTION('center_axis',(0.,-1.,0.));
#353=DIRECTION('ref_axis',(1.,0.,0.));
#354=DIRECTION('',(0.707106781186541,0.707106781186554,8.65956056235486E-17));
#355=DIRECTION('center_axis',(0.,-1.,0.));
#356=DIRECTION('ref_axis',(1.,0.,0.));
#357=DIRECTION('center_axis',(0.,-1.,0.));
#358=DIRECTION('ref_axis',(1.,0.,0.));
#359=DIRECTION('',(0.,1.,0.));
#360=DIRECTION('center_axis',(0.,1.,0.));
#361=DIRECTION('ref_axis',(1.,0.,0.));
#362=DIRECTION('',(0.866025403784403,-0.500000000000062,-1.06057523872486E-16));
#363=DIRECTION('center_axis',(0.,-1.,0.));
#364=DIRECTION('ref_axis',(1.,0.,0.));
#365=DIRECTION('center_axis',(0.,-1.,0.));
#366=DIRECTION('ref_axis',(0.,0.,-1.));
#367=DIRECTION('center_axis',(0.,-1.,0.));
#368=DIRECTION('ref_axis',(1.,0.,0.));
#369=DIRECTION('center_axis',(0.,1.,0.));
#370=DIRECTION('ref_axis',(1.,0.,0.));
#371=DIRECTION('',(0.0523359562429462,-0.998629534754574,-6.409306129324E-18));
#372=DIRECTION('center_axis',(0.,-1.,0.));
#373=DIRECTION('ref_axis',(1.,0.,0.));
#374=DIRECTION('center_axis',(0.,-1.,0.));
#375=DIRECTION('ref_axis',(0.,0.,-1.));
#376=DIRECTION('center_axis',(0.,-1.,0.));
#377=DIRECTION('ref_axis',(1.,0.,0.));
#378=DIRECTION('center_axis',(0.,-1.,0.));
#379=DIRECTION('ref_axis',(0.,0.,-1.));
#380=DIRECTION('center_axis',(-1.,0.,-1.22464679914735E-16));
#381=DIRECTION('ref_axis',(-1.22464679914735E-16,0.,1.));
#382=CARTESIAN_POINT('',(0.,0.,0.));
#383=CARTESIAN_POINT('Origin',(0.,10.5579394876381,0.));
#384=CARTESIAN_POINT('',(-24.,12.8079394876381,-2.93915231795365E-15));
#385=CARTESIAN_POINT('Origin',(0.,12.8079394876381,0.));
#386=CARTESIAN_POINT('',(-24.,8.30793948763812,-2.93915231795365E-15));
#387=CARTESIAN_POINT('',(-24.,10.5579394876381,-2.93915231795365E-15));
#388=CARTESIAN_POINT('',(-2.93915231795365E-15,8.30793948763812,24.));
#389=CARTESIAN_POINT('Origin',(0.,8.30793948763812,0.));
#390=CARTESIAN_POINT('Origin',(0.,8.30793948763812,0.));
#391=CARTESIAN_POINT('Origin',(25.6500000000001,12.8079394876381,0.));
#392=CARTESIAN_POINT('',(-27.3000000000002,12.8079394876381,-3.3432857616723E-15));
#393=CARTESIAN_POINT('Origin',(0.,12.8079394876381,0.));
#394=CARTESIAN_POINT('Origin',(0.,12.657939487638,0.));
#395=CARTESIAN_POINT('',(-27.3000000000002,12.5079394876379,-3.3432857616723E-15));
#396=CARTESIAN_POINT('Origin',(0.,12.5079394876379,0.));
#397=CARTESIAN_POINT('',(-27.3000000000002,12.657939487638,-3.3432857616723E-15));
#398=CARTESIAN_POINT('Origin',(27.9000000000001,12.5079394876379,0.));
#399=CARTESIAN_POINT('',(-28.5,12.5079394876379,-3.49024337756996E-15));
#400=CARTESIAN_POINT('Origin',(0.,12.5079394876379,0.));
#401=CARTESIAN_POINT('Origin',(0.,12.9079394876378,0.));
#402=CARTESIAN_POINT('',(-28.5,13.3079394876377,-3.49024337756996E-15));
#403=CARTESIAN_POINT('Origin',(0.,13.3079394876377,0.));
#404=CARTESIAN_POINT('',(-28.5,12.9079394876378,-3.49024337756996E-15));
#405=CARTESIAN_POINT('Origin',(29.8759621698634,13.3079394876381,0.));
#406=CARTESIAN_POINT('',(-3.82725691098418E-15,13.3079394876385,31.2519243397269));
#407=CARTESIAN_POINT('Origin',(0.,13.3079394876385,0.));
#408=CARTESIAN_POINT('Origin',(0.,18.3079394876381,0.));
#409=CARTESIAN_POINT('',(-36.2450720134993,18.0462597064234,4.43874114261973E-15));
#410=CARTESIAN_POINT('',(-4.43874114261973E-15,18.0462597064234,36.2450720134993));
#411=CARTESIAN_POINT('Origin',(0.,18.0462597064234,0.));
#412=CARTESIAN_POINT('Origin',(0.,18.0462597064234,0.));
#413=CARTESIAN_POINT('Origin',(-3.82725691098418E-15,18.3079394876381,31.2519243397269));
#414=CARTESIAN_POINT('Origin',(0.,31.9270995970308,0.));
#415=CARTESIAN_POINT('',(-37.6999999999998,45.8079394876381,4.6169184327855E-15));
#416=CARTESIAN_POINT('',(-36.9725360067496,31.9270995970308,4.52782978770261E-15));
#417=CARTESIAN_POINT('Origin',(0.,45.8079394876381,0.));
#418=CARTESIAN_POINT('Origin',(0.,46.3079394876381,0.));
#419=CARTESIAN_POINT('',(-37.6999999999998,46.8079394876381,-4.6169184327855E-15));
#420=CARTESIAN_POINT('Origin',(0.,46.8079394876381,0.));
#421=CARTESIAN_POINT('',(-37.6999999999998,46.3079394876381,-4.6169184327855E-15));
#422=CARTESIAN_POINT('Origin',(41.8499999999999,46.8079394876381,0.));
#423=CARTESIAN_POINT('',(-46.,46.8079394876381,-5.63337527607782E-15));
#424=CARTESIAN_POINT('Origin',(0.,46.8079394876381,0.));
#425=CARTESIAN_POINT('Origin',(0.,46.3079394876381,0.));
#426=CARTESIAN_POINT('',(-47.,45.8079394876381,-5.75583995599256E-15));
#427=CARTESIAN_POINT('Origin',(0.,45.8079394876381,0.));
#428=CARTESIAN_POINT('',(-46.5,46.3079394876381,-5.69460761603519E-15));
#429=CARTESIAN_POINT('Origin',(0.,42.8079394876379,0.));
#430=CARTESIAN_POINT('',(-47.,39.8079394876377,-5.75583995599256E-15));
#431=CARTESIAN_POINT('Origin',(0.,39.8079394876377,0.));
#432=CARTESIAN_POINT('',(-47.,42.8079394876379,-5.75583995599256E-15));
#433=CARTESIAN_POINT('Origin',(0.,39.3079394876377,0.));
#434=CARTESIAN_POINT('',(-45.2679491924314,38.8079394876377,5.54372490824761E-15));
#435=CARTESIAN_POINT('',(-46.1339745962157,39.3079394876377,5.64978243212009E-15));
#436=CARTESIAN_POINT('Origin',(0.,38.8079394876377,0.));
#437=CARTESIAN_POINT('Origin',(43.8839745962157,38.8079394876379,0.));
#438=CARTESIAN_POINT('',(-42.5,38.8079394876381,5.20474889637625E-15));
#439=CARTESIAN_POINT('Origin',(0.,38.8079394876381,0.));
#440=CARTESIAN_POINT('Origin',(0.,22.8079394876381,0.));
#441=CARTESIAN_POINT('',(-40.8229510629426,6.80793948763812,4.99936963509817E-15));
#442=CARTESIAN_POINT('',(-41.6614755314713,22.8079394876381,5.10205926573721E-15));
#443=CARTESIAN_POINT('Origin',(0.,6.80793948763812,0.));
#444=CARTESIAN_POINT('Origin',(33.1614755314713,6.80793948763813,0.));
#445=CARTESIAN_POINT('',(-3.12284933782575E-15,6.80793948763814,25.5));
#446=CARTESIAN_POINT('Origin',(0.,6.80793948763814,0.));
#447=CARTESIAN_POINT('Origin',(0.,8.30793948763812,0.));
#448=CARTESIAN_POINT('Origin',(-3.12284933782575E-15,8.30793948763812,25.5));
#449=UNCERTAINTY_MEASURE_WITH_UNIT(LENGTH_MEASURE(0.01),#453,
'DISTANCE_ACCURACY_VALUE',
'Maximum model space distance between geometric entities at asserted c
onnectivities');
#450=UNCERTAINTY_MEASURE_WITH_UNIT(LENGTH_MEASURE(0.01),#453,
'DISTANCE_ACCURACY_VALUE',
'Maximum model space distance between geometric entities at asserted c
onnectivities');
#451=(
GEOMETRIC_REPRESENTATION_CONTEXT(3)
GLOBAL_UNCERTAINTY_ASSIGNED_CONTEXT((#449))
GLOBAL_UNIT_ASSIGNED_CONTEXT((#453,#455,#456))
REPRESENTATION_CONTEXT('','3D')
);
#452=(
GEOMETRIC_REPRESENTATION_CONTEXT(3)
GLOBAL_UNCERTAINTY_ASSIGNED_CONTEXT((#450))
GLOBAL_UNIT_ASSIGNED_CONTEXT((#453,#455,#456))
REPRESENTATION_CONTEXT('','3D')
);
#453=(
LENGTH_UNIT()
NAMED_UNIT(*)
SI_UNIT(.MILLI.,.METRE.)
);
#454=(
LENGTH_UNIT()
NAMED_UNIT(*)
SI_UNIT($,.METRE.)
);
#455=(
NAMED_UNIT(*)
PLANE_ANGLE_UNIT()
SI_UNIT($,.RADIAN.)
);
#456=(
NAMED_UNIT(*)
SI_UNIT($,.STERADIAN.)
SOLID_ANGLE_UNIT()
);
#457=SHAPE_DEFINITION_REPRESENTATION(#458,#459);
#458=PRODUCT_DEFINITION_SHAPE('',$,#461);
#459=SHAPE_REPRESENTATION('',(#256),#451);
#460=PRODUCT_DEFINITION_CONTEXT('part definition',#465,'design');
#461=PRODUCT_DEFINITION('6116 - DN50','6116 - DN50 v1',#462,#460);
#462=PRODUCT_DEFINITION_FORMATION('',$,#467);
#463=PRODUCT_RELATED_PRODUCT_CATEGORY('6116 - DN50 v1','6116 - DN50 v1',
(#467));
#464=APPLICATION_PROTOCOL_DEFINITION('international standard',
'automotive_design',2009,#465);
#465=APPLICATION_CONTEXT(
'Core Data for Automotive Mechanical Design Process');
#466=PRODUCT_CONTEXT('part definition',#465,'mechanical');
#467=PRODUCT('6116 - DN50','6116 - DN50 v1',$,(#466));
#468=PRESENTATION_STYLE_ASSIGNMENT((#470));
#469=PRESENTATION_STYLE_ASSIGNMENT((#471));
#470=SURFACE_STYLE_USAGE(.BOTH.,#472);
#471=SURFACE_STYLE_USAGE(.BOTH.,#473);
#472=SURFACE_SIDE_STYLE('',(#474));
#473=SURFACE_SIDE_STYLE('',(#475));
#474=SURFACE_STYLE_FILL_AREA(#476);
#475=SURFACE_STYLE_FILL_AREA(#477);
#476=FILL_AREA_STYLE('Steel - Satin',(#478));
#477=FILL_AREA_STYLE('Opaque(224,223,219)',(#479));
#478=FILL_AREA_STYLE_COLOUR('Steel - Satin',#480);
#479=FILL_AREA_STYLE_COLOUR('Opaque(224,223,219)',#481);
#480=COLOUR_RGB('Steel - Satin',0.627450980392157,0.627450980392157,0.627450980392157);
#481=COLOUR_RGB('Opaque(224,223,219)',0.87843137254902,0.874509803921569,
0.858823529411765);
ENDSEC;
END-ISO-10303-21;
