999
DXF file: C:\Users\64ciro\Desktop\FILE 3D-2D\ARMATEC\SINGOLI\h36fll022_3082.dxf
999
Pro/ENGINEER 2017260 by Parametric Technology Corporation
  0
SECTION
  2
HEADER
  9
$ACADVER
  1
AC1014
  9
$DWGCODEPAGE
  3
ANSI_1252
  9
$EXTMAX
 10
297.0
 20
210.0
 30
0.0
  9
$EXTMIN
 10
0.0
 20
0.0
 30
0.0
  9
$LIMMIN
 10
0.0
 20
0.0
  9
$LIMMAX
 10
297.0
 20
210.0
  9
$VIEWCTR
 10
148.5
 20
105.0
  9
$VIEWSIZE
 40
210.0
  9
$CLAYER
  8
0
  9
$LTSCALE
 40
16.335
  9
$CELTYPE
  6
BYLAYER
  9
$DIMSCALE
 40
1.0
  9
$DIMASZ
 40
2.5
  9
$DIMEXO
 40
0.0625
  9
$DIMDLI
 40
11.286
  9
$DIMEXE
 40
0.125
  9
$DIMCEN
 40
2.673
  9
$DIMLFAC
 40
1.0
  9
$DIMBLK
  1
_CLOSED
  9
$DIMALT
 70
0
  9
$DIMALTF
 40
25.4
  9
$DIMTXT
 40
2.5
  9
$DIMTOL
 70
1
  9
$DIMLIM
 70
0
  9
$DIMTFAC
 40
1.0
  9
$DIMTP
 40
0.01
  9
$DIMTM
 40
0.01
  9
$DIMGAP
 40
0.625
  9
$AUNITS
 70
0
  9
$PDMODE
 70
3
  9
$PDSIZE
 40
0.3125
  9
$HANDSEED
  5
55D
  9
$TILEMODE
 70
1
  9
$MEASUREMENT
 70
1
  0
ENDSEC
  0
SECTION
  2
CLASSES
  0
ENDSEC
  0
SECTION
  2
TABLES
  0
TABLE
  2
VPORT
  5
8
100
AcDbSymbolTable
 70
2
  0
VPORT
  5
1F4
100
AcDbSymbolTableRecord
100
AcDbViewportTableRecord
  2
*ACTIVE
 70
0
 10
0.0
 20
0.0
 11
1.0
 21
1.0
 12
148.5
 22
105.0
 13
0.0
 23
0.0
 14
1.0
 24
1.0
 15
0.0
 25
0.0
 16
0.0
 26
0.0
 36
1.0
 17
0.0
 27
0.0
 37
0.0
 40
210.0
 41
1.4142857143
 42
50.0
 43
0.0
 44
0.0
 50
0.0
 51
0.0
 71
0
 72
100
 73
1
 74
1
 75
0
 76
0
 77
0
 78
0
  0
ENDTAB
  0
TABLE
  2
LTYPE
  5
5
100
AcDbSymbolTable
 70
6
  0
LTYPE
  5
14
100
AcDbSymbolTableRecord
100
AcDbLinetypeTableRecord
  2
BYBLOCK
 70
0
  3

 72
65
 73
0
 40
0.0
  0
LTYPE
  5
15
100
AcDbSymbolTableRecord
100
AcDbLinetypeTableRecord
  2
BYLAYER
 70
0
  3

 72
65
 73
0
 40
0.0
  0
LTYPE
  5
16
100
AcDbSymbolTableRecord
100
AcDbLinetypeTableRecord
  2
CONTINUOUS
 70
64
  3
Solid line
 72
65
 73
0
 40
0.0
  0
LTYPE
  5
1F5
100
AcDbSymbolTableRecord
100
AcDbLinetypeTableRecord
  2
CENTER
 70
64
  3
____ _ ____ _ ____ _ ____ _ ____ _ ____ _ ____
 72
65
 73
4
 40
0.6
 49
0.375
 74
0
 49
-0.075
 74
0
 49
0.075
 74
0
 49
-0.075
 74
0
  0
LTYPE
  5
1F6
100
AcDbSymbolTableRecord
100
AcDbLinetypeTableRecord
  2
HIDDEN
 70
64
  3
- - - - - - - - - - - - - - - - - - - -
 72
65
 73
2
 40
0.2
 49
0.1
 74
0
 49
-0.1
 74
0
  0
LTYPE
  5
1F7
100
AcDbSymbolTableRecord
100
AcDbLinetypeTableRecord
  2
PHANTOM
 70
64
  3
_____ _ _ _____ _ _ _____ _ _ _____
 72
65
 73
6
 40
0.8
 49
0.45
 74
0
 49
-0.05
 74
0
 49
0.1
 74
0
 49
-0.05
 74
0
 49
0.1
 74
0
 49
-0.05
 74
0
  0
LTYPE
  5
1F8
100
AcDbSymbolTableRecord
100
AcDbLinetypeTableRecord
  2
DOT
 70
64
  3
. . . . . . . . . . . . . . . . . . . .
 72
65
 73
2
 40
0.2
 49
0.1
 74
0
 49
-0.1
 74
0
  0
LTYPE
  5
1F9
100
AcDbSymbolTableRecord
100
AcDbLinetypeTableRecord
  2
DASHED
 70
64
  3
- - - - - - - - - - - - - - - - - - - -
 72
65
 73
2
 40
0.2
 49
0.1
 74
0
 49
-0.1
 74
0
  0
ENDTAB
  0
TABLE
  2
LAYER
  5
2
100
AcDbSymbolTable
 70
36
  0
LAYER
  5
10
100
AcDbSymbolTableRecord
100
AcDbLayerTableRecord
  2
0
 70
0
 62
7
  6
CONTINUOUS
  0
LAYER
  5
1FA
100
AcDbSymbolTableRecord
100
AcDbLayerTableRecord
  2
DEFAULT_1
 70
0
 62
7
  6
CENTER
  0
LAYER
  5
1FB
100
AcDbSymbolTableRecord
100
AcDbLayerTableRecord
  2
DEFAULT_2
 70
0
 62
8
  6
HIDDEN
  0
LAYER
  5
1FC
100
AcDbSymbolTableRecord
100
AcDbLayerTableRecord
  2
DEFAULT_3
 70
0
 62
7
  6
PHANTOM
  0
LAYER
  5
1FD
100
AcDbSymbolTableRecord
100
AcDbLayerTableRecord
  2
ASSI
 70
0
 62
7
  6
CONTINUOUS
  0
LAYER
  5
1FE
100
AcDbSymbolTableRecord
100
AcDbLayerTableRecord
  2
COSMETICA
 70
0
 62
7
  6
CONTINUOUS
  0
LAYER
  5
1FF
100
AcDbSymbolTableRecord
100
AcDbLayerTableRecord
  2
CSYS
 70
0
 62
7
  6
CONTINUOUS
  0
LAYER
  5
200
100
AcDbSymbolTableRecord
100
AcDbLayerTableRecord
  2
CURVE
 70
0
 62
7
  6
CONTINUOUS
  0
LAYER
  5
201
100
AcDbSymbolTableRecord
100
AcDbLayerTableRecord
  2
DETTAGLI
 70
0
 62
7
  6
CONTINUOUS
  0
LAYER
  5
202
100
AcDbSymbolTableRecord
100
AcDbLayerTableRecord
  2
GEOM
 70
0
 62
7
  6
CONTINUOUS
  0
LAYER
  5
203
100
AcDbSymbolTableRecord
100
AcDbLayerTableRecord
  2
GEOMETRIA_SOLIDA
 70
0
 62
7
  6
CONTINUOUS
  0
LAYER
  5
204
100
AcDbSymbolTableRecord
100
AcDbLayerTableRecord
  2
LAY0001
 70
0
 62
7
  6
CONTINUOUS
  0
LAYER
  5
205
100
AcDbSymbolTableRecord
100
AcDbLayerTableRecord
  2
LAY0002
 70
0
 62
7
  6
CONTINUOUS
  0
LAYER
  5
206
100
AcDbSymbolTableRecord
100
AcDbLayerTableRecord
  2
LAY0003
 70
0
 62
7
  6
CONTINUOUS
  0
LAYER
  5
207
100
AcDbSymbolTableRecord
100
AcDbLayerTableRecord
  2
NOGEOM
 70
0
 62
7
  6
CONTINUOUS
  0
LAYER
  5
208
100
AcDbSymbolTableRecord
100
AcDbLayerTableRecord
  2
PIANI
 70
0
 62
7
  6
CONTINUOUS
  0
LAYER
  5
209
100
AcDbSymbolTableRecord
100
AcDbLayerTableRecord
  2
QUOTE
 70
0
 62
7
  6
CONTINUOUS
  0
LAYER
  5
20A
100
AcDbSymbolTableRecord
100
AcDbLayerTableRecord
  2
RACCORDI
 70
0
 62
7
  6
CONTINUOUS
  0
LAYER
  5
20B
100
AcDbSymbolTableRecord
100
AcDbLayerTableRecord
  2
TABELLE
 70
0
 62
7
  6
CONTINUOUS
  0
ENDTAB
  0
TABLE
  2
STYLE
  5
3
100
AcDbSymbolTable
 70
1
  0
STYLE
  5
11
100
AcDbSymbolTableRecord
100
AcDbTextStyleTableRecord
  2
STANDARD
 70
0
 40
0.0
 41
1.0
 50
0.0
 71
0
 42
0.2
  3
trium.ttf
  4

  0
STYLE
  5
20C
100
AcDbSymbolTableRecord
100
AcDbTextStyleTableRecord
  2
TEXTSTYLE_1
 70
0
 40
0.0
 41
0.8
 50
0.0
 71
0
 42
0.2
  3
gdt
  4

  0
ENDTAB
  0
TABLE
  2
VIEW
  5
6
100
AcDbSymbolTable
 70
0
  0
ENDTAB
  0
TABLE
  2
UCS
  5
7
100
AcDbSymbolTable
 70
0
  0
ENDTAB
  0
TABLE
  2
APPID
  5
9
100
AcDbSymbolTable
 70
1
  0
APPID
  5
20D
100
AcDbSymbolTableRecord
100
AcDbRegAppTableRecord
  2
ACAD
 70
0
  0
ENDTAB
  0
TABLE
  2
BLOCK_RECORD
  5
1
100
AcDbSymbolTable
 70
0
  0
BLOCK_RECORD
  5
1F
100
AcDbSymbolTableRecord
100
AcDbBlockTableRecord
  2
*MODEL_SPACE
  0
BLOCK_RECORD
  5
1B
100
AcDbSymbolTableRecord
100
AcDbBlockTableRecord
  2
*PAPER_SPACE
  0
ENDTAB
  0
TABLE
  2
DIMSTYLE
  5
A
100
AcDbSymbolTable
 70
1
  0
DIMSTYLE
105
20E
100
AcDbSymbolTableRecord
100
AcDbDimStyleTableRecord
  2
STANDARD
 70
0
  3

  4

  5
_CLOSED
  6
_CLOSED
  7
_CLOSED
 40
1.0
 41
2.5
 42
0.0625
 43
0.38
 44
0.125
 45
0.0
 46
0.0
 47
0.01
 48
0.01
140
2.5
141
0.09
142
0.0
143
25.4
144
1.0
145
0.0
146
1.0
147
0.625
 71
1.0
 72
0.0
 73
0
 74
0
 75
0
 76
0
 77
1
 78
8
 79
2
170
0
171
1
172
0
173
0
174
0
175
0
176
0
177
0
178
0
270
2
179
2
271
2
272
2
273
2
274
2
275
0
280
0
281
0
282
0
283
1
284
8
285
0
286
0
287
3
288
0
340
11
  0
ENDTAB
  0
ENDSEC
  0
SECTION
  2
BLOCKS
  0
BLOCK
  5
20
100
AcDbEntity
  8
0
100
AcDbBlockBegin
  2
*MODEL_SPACE
 70
0
 10
0.0
 20
0.0
 30
0.0
  3
*MODEL_SPACE
  1

  0
ENDBLK
  5
21
100
AcDbEntity
  8
0
100
AcDbBlockEnd
  0
BLOCK
  5
1C
100
AcDbEntity
  8
0
100
AcDbBlockBegin
  2
*PAPER_SPACE
 70
0
 10
0.0
 20
0.0
 30
0.0
  3
*PAPER_SPACE
  1

  0
ENDBLK
  5
1D
100
AcDbEntity
  8
0
100
AcDbBlockEnd
  0
ENDSEC
  0
SECTION
  2
ENTITIES
  0
LINE
  5
20F
100
AcDbEntity
  8
0
100
AcDbLine
 62
7
  6
CONTINUOUS
 10
0.0
 20
0.0
 11
0.0
 21
210.0
  0
LINE
  5
210
100
AcDbEntity
  8
0
100
AcDbLine
 62
7
  6
CONTINUOUS
 10
0.0
 20
0.0
 11
297.0
 21
0.0
  0
LINE
  5
211
100
AcDbEntity
  8
0
100
AcDbLine
 62
7
  6
CONTINUOUS
 10
0.0
 20
210.0
 11
297.0
 21
210.0
  0
LINE
  5
212
100
AcDbEntity
  8
0
100
AcDbLine
 62
7
  6
CONTINUOUS
 10
297.0
 20
0.0
 11
297.0
 21
210.0
  0
LINE
  5
213
100
AcDbEntity
  8
0
100
AcDbLine
 62
7
  6
CONTINUOUS
 10
84.3110685875
 20
81.4633748277
 11
82.9831629683
 21
83.7633748277
  0
LINE
  5
214
100
AcDbEntity
  8
GEOM
100
AcDbLine
 62
7
  6
CONTINUOUS
 10
79.896560428
 20
84.6133748277
 11
79.896560428
 21
113.2133748277
  0
LINE
  5
215
100
AcDbEntity
  8
GEOM
100
AcDbLine
 62
7
  6
CONTINUOUS
 10
80.596560428
 20
83.9133748277
 11
80.596560428
 21
113.9133748277
  0
LINE
  5
216
100
AcDbEntity
  8
0
100
AcDbLine
 62
7
  6
CONTINUOUS
 10
82.7233553472
 20
113.9133748277
 11
82.7233553472
 21
83.9133748277
  0
LINE
  5
217
100
AcDbEntity
  8
0
100
AcDbLine
 62
7
  6
CONTINUOUS
 10
82.9831629683
 20
114.0633748277
 11
82.9831629683
 21
83.7633748277
  0
LINE
  5
218
100
AcDbEntity
  8
0
100
AcDbLine
 62
7
  6
CONTINUOUS
 10
84.3110685875
 20
81.4633748277
 11
84.3110685875
 21
81.4889419288
  0
LINE
  5
219
100
AcDbEntity
  8
0
100
AcDbLine
 62
7
  6
CONTINUOUS
 10
84.3110685875
 20
89.3834000934
 11
84.3110685875
 21
91.0189166631
  0
LINE
  5
21A
100
AcDbEntity
  8
0
100
AcDbLine
 62
7
  6
CONTINUOUS
 10
84.3110685875
 20
106.8078329923
 11
84.3110685875
 21
108.4433495621
  0
LINE
  5
21B
100
AcDbEntity
  8
0
100
AcDbLine
 62
7
  6
CONTINUOUS
 10
84.3110685875
 20
116.3378077267
 11
84.3110685875
 21
116.3633748277
  0
LINE
  5
21C
100
AcDbEntity
  8
0
100
AcDbLine
 62
7
  6
CONTINUOUS
 10
84.5708762086
 20
116.5133748277
 11
84.5708762086
 21
116.4875879522
  0
LINE
  5
21D
100
AcDbEntity
  8
0
100
AcDbLine
 62
7
  6
CONTINUOUS
 10
84.5708762086
 20
81.3391617033
 11
84.5708762086
 21
81.3133748277
  0
LINE
  5
21E
100
AcDbEntity
  8
0
100
AcDbLine
 62
7
  6
CONTINUOUS
 10
84.5708762086
 20
89.3014805398
 11
84.5708762086
 21
90.9510559912
  0
LINE
  5
21F
100
AcDbEntity
  8
0
100
AcDbLine
 62
7
  6
CONTINUOUS
 10
84.5708762086
 20
106.8756936642
 11
84.5708762086
 21
108.5252691156
  0
LINE
  5
220
100
AcDbEntity
  8
0
100
AcDbLine
 62
7
  6
CONTINUOUS
 10
93.896560428
 20
84.7622800654
 11
93.9424688122
 21
84.6741583136
  0
LINE
  5
221
100
AcDbEntity
  8
0
100
AcDbLine
 62
7
  6
CONTINUOUS
 10
95.7567544032
 20
84.6741583439
 11
95.7679885784
 21
84.6633748277
  0
LINE
  5
222
100
AcDbEntity
  8
0
100
AcDbLine
 62
7
  6
CONTINUOUS
 10
97.5710411671
 20
84.674158341
 11
97.5822753391
 21
84.6633748277
  0
LINE
  5
223
100
AcDbEntity
  8
0
100
AcDbLine
 62
7
  6
CONTINUOUS
 10
99.3853262938
 20
84.6741583047
 11
99.396560428
 21
84.6633748277
  0
LINE
  5
224
100
AcDbEntity
  8
0
100
AcDbLine
 62
7
  6
CONTINUOUS
 10
99.896560428
 20
82.9133748277
 11
100.4739106972
 21
81.9133748277
  0
LINE
  5
225
100
AcDbEntity
  8
0
100
AcDbLine
 62
7
  6
CONTINUOUS
 10
95.1571171747
 20
85.8251026266
 11
95.7567544032
 21
84.6741583439
  0
LINE
  5
226
100
AcDbEntity
  8
0
100
AcDbLine
 62
7
  6
CONTINUOUS
 10
96.9714039616
 20
85.8251025832
 11
97.5710411671
 21
84.674158341
  0
LINE
  5
227
100
AcDbEntity
  8
0
100
AcDbLine
 62
7
  6
CONTINUOUS
 10
98.7856891117
 20
85.8251025083
 11
99.3853262938
 21
84.6741583047
  0
LINE
  5
228
100
AcDbEntity
  8
0
100
AcDbLine
 62
7
  6
CONTINUOUS
 10
93.9171907485
 20
98.9095208871
 11
93.896560428
 21
99.9264278552
  0
LINE
  5
229
100
AcDbEntity
  8
0
100
AcDbLine
 62
7
  6
CONTINUOUS
 10
92.82846243
 20
108.5252691156
 11
92.82846243
 21
106.8756936642
  0
LINE
  5
22A
100
AcDbEntity
  8
0
100
AcDbLine
 62
7
  6
CONTINUOUS
 10
92.82846243
 20
90.9510559912
 11
92.82846243
 21
89.3014805398
  0
LINE
  5
22B
100
AcDbEntity
  8
0
100
AcDbLine
 62
7
  6
CONTINUOUS
 10
92.82846243
 20
81.3133748277
 11
92.82846243
 21
81.3391617033
  0
LINE
  5
22C
100
AcDbEntity
  8
0
100
AcDbLine
 62
7
  6
CONTINUOUS
 10
92.82846243
 20
116.4875879522
 11
92.82846243
 21
116.5133748277
  0
LINE
  5
22D
100
AcDbEntity
  8
0
100
AcDbLine
 62
7
  6
CONTINUOUS
 10
93.896560428
 20
83.1633748277
 11
93.896560428
 21
114.6633748277
  0
LINE
  5
22E
100
AcDbEntity
  8
0
100
AcDbLine
 62
7
  6
CONTINUOUS
 10
84.3110685875
 20
116.3633748277
 11
82.9831629683
 21
114.0633748277
  0
LINE
  5
22F
100
AcDbEntity
  8
0
100
AcDbLine
 62
7
  6
CONTINUOUS
 10
99.896560428
 20
82.9136049479
 11
99.896560428
 21
114.9131447076
  0
LINE
  5
230
100
AcDbEntity
  8
0
100
AcDbLine
 62
7
  6
CONTINUOUS
 10
100.4739106972
 20
115.9133748277
 11
100.4739106972
 21
115.8937962989
  0
LINE
  5
231
100
AcDbEntity
  8
0
100
AcDbLine
 62
7
  6
CONTINUOUS
 10
100.4739106972
 20
81.9329533565
 11
100.4739106972
 21
81.9133748277
  0
LINE
  5
232
100
AcDbEntity
  8
0
100
AcDbLine
 62
7
  6
CONTINUOUS
 10
100.4739106972
 20
86.3296512586
 11
100.4739106972
 21
87.4831560575
  0
LINE
  5
233
100
AcDbEntity
  8
0
100
AcDbLine
 62
7
  6
CONTINUOUS
 10
100.4739106972
 20
98.0977237622
 11
100.4739106972
 21
99.7290258932
  0
LINE
  5
234
100
AcDbEntity
  8
0
100
AcDbLine
 62
7
  6
CONTINUOUS
 10
100.4739106972
 20
110.3435935979
 11
100.4739106972
 21
111.4970983969
  0
LINE
  5
235
100
AcDbEntity
  8
0
100
AcDbLine
 62
7
  6
CONTINUOUS
 10
111.9823468656
 20
82.8275883901
 11
113.8107739903
 21
80.9991612654
  0
LINE
  5
236
100
AcDbEntity
  8
0
100
AcDbLine
 62
7
  6
CONTINUOUS
 10
93.896560428
 20
114.6633748277
 11
92.82846243
 21
116.5133748277
  0
LINE
  5
237
100
AcDbEntity
  8
0
100
AcDbLine
 62
7
  6
CONTINUOUS
 10
94.0744125427
 20
112.001647049
 11
93.896560428
 21
112.3429998053
  0
LINE
  5
238
100
AcDbEntity
  8
0
100
AcDbLine
 62
7
  6
CONTINUOUS
 10
95.8886991057
 20
112.0016470408
 11
95.2890618858
 21
113.152591308
  0
LINE
  5
239
100
AcDbEntity
  8
0
100
AcDbLine
 62
7
  6
CONTINUOUS
 10
97.7029853873
 20
112.0016471126
 11
97.1033481975
 21
113.1525913281
  0
LINE
  5
23A
100
AcDbEntity
  8
0
100
AcDbLine
 62
7
  6
CONTINUOUS
 10
105.7418598896
 20
111.4965025783
 11
105.7418598896
 21
110.34424951
  0
LINE
  5
23B
100
AcDbEntity
  8
0
100
AcDbLine
 62
7
  6
CONTINUOUS
 10
105.7418598896
 20
99.7281407862
 11
105.7418598896
 21
98.0986088689
  0
LINE
  5
23C
100
AcDbEntity
  8
0
100
AcDbLine
 62
7
  6
CONTINUOUS
 10
105.7418598896
 20
87.482500145
 11
105.7418598896
 21
86.3302470767
  0
LINE
  5
23D
100
AcDbEntity
  8
0
100
AcDbLine
 62
7
  6
CONTINUOUS
 10
105.7418598896
 20
81.9133748277
 11
105.7418598896
 21
81.9329108637
  0
LINE
  5
23E
100
AcDbEntity
  8
0
100
AcDbLine
 62
7
  6
CONTINUOUS
 10
105.7418598896
 20
115.8938387917
 11
105.7418598896
 21
115.9133748277
  0
LINE
  5
23F
100
AcDbEntity
  8
0
100
AcDbLine
 62
7
  6
CONTINUOUS
 10
106.1748725915
 20
115.6633748277
 11
106.1748725915
 21
115.6480634184
  0
LINE
  5
240
100
AcDbEntity
  8
0
100
AcDbLine
 62
7
  6
CONTINUOUS
 10
106.1748725915
 20
111.2528957163
 11
106.1748725915
 21
110.2402775144
  0
LINE
  5
241
100
AcDbEntity
  8
0
100
AcDbLine
 62
7
  6
CONTINUOUS
 10
106.1748725915
 20
99.629404005
 11
106.1748725915
 21
98.197345658
  0
LINE
  5
242
100
AcDbEntity
  8
0
100
AcDbLine
 62
7
  6
CONTINUOUS
 10
106.1748725915
 20
87.586472151
 11
106.1748725915
 21
86.5738539483
  0
LINE
  5
243
100
AcDbEntity
  8
0
100
AcDbLine
 62
7
  6
CONTINUOUS
 10
106.1748725915
 20
82.1786862374
 11
106.1748725915
 21
82.1633748277
  0
LINE
  5
244
100
AcDbEntity
  8
0
100
AcDbLine
 62
7
  6
CONTINUOUS
 10
106.7522228607
 20
114.6633748277
 11
106.7522228607
 21
83.1633748277
  0
LINE
  5
245
100
AcDbEntity
  8
0
100
AcDbLine
 62
7
  6
CONTINUOUS
 10
94.8496112855
 20
113.1525913226
 11
94.257388861
 21
112.0158780287
  0
LINE
  5
246
100
AcDbEntity
  8
0
100
AcDbLine
 62
7
  6
CONTINUOUS
 10
96.6638978142
 20
113.1525913088
 11
96.0716754018
 21
112.015878039
  0
LINE
  5
247
100
AcDbEntity
  8
0
100
AcDbLine
 62
7
  6
CONTINUOUS
 10
98.4781841107
 20
113.1525913284
 11
97.8859617149
 21
112.0158780843
  0
LINE
  5
248
100
AcDbEntity
  8
0
100
AcDbLine
 62
7
  6
CONTINUOUS
 10
107.1852355626
 20
114.4133748277
 11
107.1852355626
 21
83.4133748277
  0
LINE
  5
249
100
AcDbEntity
  8
0
100
AcDbLine
 62
7
  6
CONTINUOUS
 10
109.896560428
 20
123.4133748277
 11
109.896560428
 21
121.0443149354
  0
LINE
  5
24A
100
AcDbEntity
  8
0
100
AcDbLine
 62
7
  6
CONTINUOUS
 10
110.296560428
 20
121.0443149354
 11
110.296560428
 21
123.8133748277
  0
LINE
  5
24B
100
AcDbEntity
  8
0
100
AcDbLine
 62
7
  6
CONTINUOUS
 10
110.396560428
 20
119.9133748277
 11
110.396560428
 21
120.5246996931
  0
LINE
  5
24C
100
AcDbEntity
  8
0
100
AcDbLine
 62
7
  6
CONTINUOUS
 10
110.396560428
 20
123.8133748277
 11
110.396560428
 21
133.9133748277
  0
LINE
  5
24D
100
AcDbEntity
  8
0
100
AcDbLine
 62
7
  6
CONTINUOUS
 10
110.5681333032
 20
83.4133748277
 11
110.5681333032
 21
114.4133748277
  0
LINE
  5
24E
100
AcDbEntity
  8
0
100
AcDbLine
 62
7
  6
CONTINUOUS
 10
99.896560428
 20
114.9133748277
 11
100.4654329455
 21
115.8986909311
  0
LINE
  5
24F
100
AcDbEntity
  8
0
100
AcDbLine
 62
7
  6
CONTINUOUS
 10
111.6134424362
 20
133.9133748277
 11
110.396560428
 21
132.6084286383
  0
LINE
  5
250
100
AcDbEntity
  8
0
100
AcDbLine
 62
7
  6
CONTINUOUS
 10
112.2849827065
 20
133.9133748277
 11
110.396560428
 21
131.8882898649
  0
LINE
  5
251
100
AcDbEntity
  8
0
100
AcDbLine
 62
7
  6
CONTINUOUS
 10
138.696560428
 20
79.4133748277
 11
137.0697655087
 21
79.4133748277
  0
LINE
  5
252
100
AcDbEntity
  8
0
100
AcDbLine
 62
7
  6
CONTINUOUS
 10
138.896560428
 20
79.4133748277
 11
140.5292147204
 21
79.4133748277
  0
LINE
  5
253
100
AcDbEntity
  8
0
100
AcDbLine
 62
7
  6
CONTINUOUS
 10
131.0107739903
 20
79.7133748277
 11
136.5501502665
 21
79.7133748277
  0
LINE
  5
254
100
AcDbEntity
  8
0
100
AcDbLine
 62
7
  6
CONTINUOUS
 10
129.4823468656
 20
80.4133748277
 11
115.2249875527
 21
80.4133748277
  0
LINE
  5
255
100
AcDbEntity
  8
0
100
AcDbLine
 62
7
  6
CONTINUOUS
 10
163.2222446473
 20
81.3133748277
 11
154.964658426
 21
81.3133748277
  0
LINE
  5
256
100
AcDbEntity
  8
0
100
AcDbLine
 62
7
  6
CONTINUOUS
 10
84.5708762086
 20
81.3133748277
 11
92.82846243
 21
81.3133748277
  0
LINE
  5
257
100
AcDbEntity
  8
0
100
AcDbLine
 62
7
  6
CONTINUOUS
 10
92.82846243
 20
81.3391617033
 11
84.5708762086
 21
81.3391617033
  0
LINE
  5
258
100
AcDbEntity
  8
0
100
AcDbLine
 62
7
  6
CONTINUOUS
 10
154.964658426
 20
81.3391617033
 11
163.2222446473
 21
81.3391617033
  0
LINE
  5
259
100
AcDbEntity
  8
0
100
AcDbLine
 62
7
  6
CONTINUOUS
 10
92.8588515648
 20
81.4054164197
 11
84.5585206128
 21
81.4054164197
  0
LINE
  5
25A
100
AcDbEntity
  8
0
100
AcDbLine
 62
7
  6
CONTINUOUS
 10
154.9342692911
 20
81.4054164197
 11
163.2346002431
 21
81.4054164197
  0
LINE
  5
25B
100
AcDbEntity
  8
0
100
AcDbLine
 62
7
  6
CONTINUOUS
 10
105.7418598896
 20
81.9133748277
 11
100.4739106972
 21
81.9133748277
  0
LINE
  5
25C
100
AcDbEntity
  8
0
100
AcDbLine
 62
7
  6
CONTINUOUS
 10
105.7243804631
 20
81.9329533565
 11
100.4739106972
 21
81.9329533565
  0
LINE
  5
25D
100
AcDbEntity
  8
0
100
AcDbLine
 62
7
  6
CONTINUOUS
 10
95.2890618858
 20
113.152591308
 11
95.2778277071
 21
113.1633748277
  0
LINE
  5
25E
100
AcDbEntity
  8
0
100
AcDbLine
 62
7
  6
CONTINUOUS
 10
97.1033481975
 20
113.1525913281
 11
97.0921140397
 21
113.1633748277
  0
LINE
  5
25F
100
AcDbEntity
  8
0
100
AcDbLine
 62
7
  6
CONTINUOUS
 10
130.3036672092
 20
80.0062680465
 11
130.1894536468
 21
80.1204816089
  0
LINE
  5
260
100
AcDbEntity
  8
0
100
AcDbLine
 62
7
  6
CONTINUOUS
 10
106.1748725915
 20
115.6633748277
 11
106.7522228607
 21
114.6633748277
  0
LINE
  5
261
100
AcDbEntity
  8
0
100
AcDbLine
 62
7
  6
CONTINUOUS
 10
119.179999579
 20
91.250092091
 11
117.746560428
 21
94.0633748277
  0
LINE
  5
262
100
AcDbEntity
  8
0
100
AcDbLine
 62
7
  6
CONTINUOUS
 10
119.5447556062
 20
91.965966102
 11
118.4760724824
 21
94.0633748277
  0
LINE
  5
263
100
AcDbEntity
  8
0
100
AcDbLine
 62
7
  6
CONTINUOUS
 10
111.9823468656
 20
82.8275883901
 11
111.9823468656
 21
114.9991612654
  0
LINE
  5
264
100
AcDbEntity
  8
0
100
AcDbLine
 62
7
  6
CONTINUOUS
 10
113.396560428
 20
123.8133748277
 11
113.396560428
 21
133.4133748277
  0
LINE
  5
265
100
AcDbEntity
  8
0
100
AcDbLine
 62
7
  6
CONTINUOUS
 10
113.8107739903
 20
116.8275883901
 11
113.8107739903
 21
80.9991612654
  0
LINE
  5
266
100
AcDbEntity
  8
0
100
AcDbLine
 62
7
  6
CONTINUOUS
 10
114.146560428
 20
125.0633748277
 11
114.146560428
 21
127.5633748277
  0
LINE
  5
267
100
AcDbEntity
  8
0
100
AcDbLine
 62
7
  6
CONTINUOUS
 10
114.396560428
 20
124.2133748277
 11
114.396560428
 21
124.6062680465
  0
LINE
  5
268
100
AcDbEntity
  8
0
100
AcDbLine
 62
7
  6
CONTINUOUS
 10
114.430832775
 20
123.4133748277
 11
114.430832775
 21
121.3119029651
  0
LINE
  5
269
100
AcDbEntity
  8
0
100
AcDbLine
 62
7
  6
CONTINUOUS
 10
114.8132864176
 20
123.4133748277
 11
114.8132864176
 21
121.3119029651
  0
LINE
  5
26A
100
AcDbEntity
  8
0
100
AcDbLine
 62
7
  6
CONTINUOUS
 10
115.2182829491
 20
120.0648466903
 11
115.2182829491
 21
118.2027571129
  0
LINE
  5
26B
100
AcDbEntity
  8
0
100
AcDbLine
 62
7
  6
CONTINUOUS
 10
115.2249875527
 20
117.0115273225
 11
115.2249875527
 21
80.4133748277
  0
LINE
  5
26C
100
AcDbEntity
  8
0
100
AcDbLine
 62
7
  6
CONTINUOUS
 10
115.5976611996
 20
120.0648466903
 11
115.5976611996
 21
118.2027571129
  0
LINE
  5
26D
100
AcDbEntity
  8
0
100
AcDbLine
 62
7
  6
CONTINUOUS
 10
116.186560428
 20
89.1233748277
 11
116.186560428
 21
96.9233748277
  0
LINE
  5
26E
100
AcDbEntity
  8
0
100
AcDbLine
 62
7
  6
CONTINUOUS
 10
116.646560428
 20
131.3803621258
 11
116.646560428
 21
128.8133748277
  0
LINE
  5
26F
100
AcDbEntity
  8
0
100
AcDbLine
 62
7
  6
CONTINUOUS
 10
116.661741231
 20
131.3803621258
 11
116.661741231
 21
128.8133748277
  0
LINE
  5
270
100
AcDbEntity
  8
0
100
AcDbLine
 62
7
  6
CONTINUOUS
 10
116.836560428
 20
89.7733748277
 11
116.836560428
 21
96.2733748277
  0
LWPOLYLINE
  5
271
100
AcDbEntity
  8
0
100
AcDbPolyline
 62
7
  6
CONTINUOUS
 90
6
 70
0
 10
116.5920062928
 20
127.95946279
 10
116.5842513023
 20
127.9419296024
 10
116.5758824284
 20
127.929534895
 10
116.567877908
 20
127.9207730473
 10
116.5610605558
 20
127.9149847741
 10
116.5590836368
 20
127.9135592342
  0
LINE
  5
272
100
AcDbEntity
  8
0
100
AcDbLine
 62
7
  6
CONTINUOUS
 10
94.3819184521
 20
84.6741583445
 11
94.9741408697
 21
85.8108716327
  0
LINE
  5
273
100
AcDbEntity
  8
0
100
AcDbLine
 62
7
  6
CONTINUOUS
 10
110.296560428
 20
121.0443149354
 11
110.096560428
 21
120.6979047739
  0
LINE
  5
274
100
AcDbEntity
  8
0
100
AcDbLine
 62
7
  6
CONTINUOUS
 10
119.8827576265
 20
133.8995720262
 11
119.396560428
 21
133.4133748277
  0
LINE
  5
275
100
AcDbEntity
  8
0
100
AcDbLine
 62
7
  6
CONTINUOUS
 10
114.146560428
 20
127.5633748277
 11
114.396560428
 21
127.8133748277
  0
LINE
  5
276
100
AcDbEntity
  8
0
100
AcDbLine
 62
7
  6
CONTINUOUS
 10
94.8496112855
 20
113.1525913226
 11
94.8608454492
 21
113.1633748277
  0
LINE
  5
277
100
AcDbEntity
  8
0
100
AcDbLine
 62
7
  6
CONTINUOUS
 10
96.6638978142
 20
113.1525913088
 11
96.6751319921
 21
113.1633748277
  0
LINE
  5
278
100
AcDbEntity
  8
0
100
AcDbLine
 62
7
  6
CONTINUOUS
 10
98.4781841107
 20
113.1525913284
 11
98.4894182682
 21
113.1633748277
  0
LINE
  5
279
100
AcDbEntity
  8
0
100
AcDbLine
 62
7
  6
CONTINUOUS
 10
119.2777582745
 20
141.5561092378
 11
119.896560428
 21
141.9133748277
  0
LINE
  5
27A
100
AcDbEntity
  8
0
100
AcDbLine
 62
7
  6
CONTINUOUS
 10
119.2777582745
 20
138.7108097762
 11
118.196560428
 21
138.0865799085
  0
LINE
  5
27B
100
AcDbEntity
  8
GEOM
100
AcDbLine
 62
7
  6
CONTINUOUS
 10
141.6963018003
 20
82.5843848994
 11
141.3323315661
 21
82.5746128953
  0
LINE
  5
27C
100
AcDbEntity
  8
0
100
AcDbLine
 62
7
  6
CONTINUOUS
 10
141.8127381002
 20
82.9133748277
 11
147.896560428
 21
82.9133748277
  0
LINE
  5
27D
100
AcDbEntity
  8
0
100
AcDbLine
 62
7
  6
CONTINUOUS
 10
107.1852355626
 20
83.4133748277
 11
110.5681333032
 21
83.4133748277
  0
LINE
  5
27E
100
AcDbEntity
  8
0
100
AcDbLine
 62
7
  6
CONTINUOUS
 10
141.8125855291
 20
83.5376471271
 11
147.3192101588
 21
83.5376471264
  0
LINE
  5
27F
100
AcDbEntity
  8
0
100
AcDbLine
 62
7
  6
CONTINUOUS
 10
82.7233553472
 20
83.9133748277
 11
80.596560428
 21
83.9133748277
  0
LINE
  5
280
100
AcDbEntity
  8
0
100
AcDbLine
 62
7
  6
CONTINUOUS
 10
165.0697655087
 20
83.9133748277
 11
167.196560428
 21
83.9133748277
  0
LINE
  5
281
100
AcDbEntity
  8
0
100
AcDbLine
 62
7
  6
CONTINUOUS
 10
96.1849710831
 20
84.6633748277
 11
95.7679885784
 21
84.6633748277
  0
LINE
  5
282
100
AcDbEntity
  8
0
100
AcDbLine
 62
7
  6
CONTINUOUS
 10
94.3706842765
 20
84.6633748277
 11
93.9537029558
 21
84.6633748277
  0
LINE
  5
283
100
AcDbEntity
  8
0
100
AcDbLine
 62
7
  6
CONTINUOUS
 10
97.5822753391
 20
84.6633748277
 11
99.896560428
 21
84.6633748277
  0
LINE
  5
284
100
AcDbEntity
  8
0
100
AcDbLine
 62
7
  6
CONTINUOUS
 10
147.896560428
 20
84.6633748277
 11
149.3037025878
 21
84.6633748277
  0
LINE
  5
285
100
AcDbEntity
  8
0
100
AcDbLine
 62
7
  6
CONTINUOUS
 10
150.7010068163
 20
84.6633748277
 11
151.1179888638
 21
84.6633748277
  0
LINE
  5
286
100
AcDbEntity
  8
0
100
AcDbLine
 62
7
  6
CONTINUOUS
 10
152.5152931489
 20
84.6633748277
 11
152.9322754067
 21
84.6633748277
  0
LINE
  5
287
100
AcDbEntity
  8
0
100
AcDbLine
 62
7
  6
CONTINUOUS
 10
98.7979083198
 20
85.8133748277
 11
98.5979083198
 21
85.8133748277
  0
LINE
  5
288
100
AcDbEntity
  8
0
100
AcDbLine
 62
7
  6
CONTINUOUS
 10
94.9693364275
 20
85.8133749034
 11
95.1693364275
 21
85.8133749034
  0
LINE
  5
289
100
AcDbEntity
  8
0
100
AcDbLine
 62
7
  6
CONTINUOUS
 10
96.7836232113
 20
85.8133748628
 11
96.9836232113
 21
85.8133748628
  0
LINE
  5
28A
100
AcDbEntity
  8
0
100
AcDbLine
 62
7
  6
CONTINUOUS
 10
149.9023547019
 20
85.8133748385
 11
150.0901354679
 21
85.8133748385
  0
LINE
  5
28B
100
AcDbEntity
  8
0
100
AcDbLine
 62
7
  6
CONTINUOUS
 10
151.7166410062
 20
85.8133748885
 11
151.9166410062
 21
85.8133748885
  0
LINE
  5
28C
100
AcDbEntity
  8
0
100
AcDbLine
 62
7
  6
CONTINUOUS
 10
153.5309275533
 20
85.8133748954
 11
153.7309275533
 21
85.8133748954
  0
LINE
  5
28D
100
AcDbEntity
  8
0
100
AcDbLine
 62
7
  6
CONTINUOUS
 10
105.7243804631
 20
86.3296512586
 11
100.4739106972
 21
86.3296512586
  0
LWPOLYLINE
  5
28E
100
AcDbEntity
  8
GEOM
100
AcDbPolyline
 62
7
  6
CONTINUOUS
 90
15
 70
0
 10
141.6895485212
 20
82.5841928066
 10
141.6773923597
 20
82.5842045306
 10
141.6684045928
 20
82.5835941724
 10
141.6573378165
 20
82.5831567807
 10
141.6441608344
 20
82.5831514541
 10
141.6282688132
 20
82.5824692713
 10
141.609712584
 20
82.5818177756
 10
141.5884413157
 20
82.5816776499
 10
141.5636976805
 20
82.5806903935
 10
141.5355429377
 20
82.5797580538
 10
141.5039158279
 20
82.579467345
 10
141.4678752464
 20
82.5781184956
 10
141.4271074914
 20
82.575783469
 10
141.3819262646
 20
82.574271455
 10
141.3323315661
 20
82.5746128953
  0
LWPOLYLINE
  5
28F
100
AcDbEntity
  8
GEOM
100
AcDbPolyline
 62
7
  6
CONTINUOUS
 90
4
 70
0
 10
141.6963018003
 20
82.5843848994
 10
141.6956496683
 20
82.5845918107
 10
141.6933985752
 20
82.5844849997
 10
141.6895485212
 20
82.5841928066
  0
LINE
  5
290
100
AcDbEntity
  8
0
100
AcDbLine
 62
7
  6
CONTINUOUS
 10
114.6423139571
 20
117.2968144804
 11
114.6380130148
 21
117.313789763
  0
LINE
  5
291
100
AcDbEntity
  8
0
100
AcDbLine
 62
7
  6
CONTINUOUS
 10
114.6423139571
 20
117.2968144804
 11
114.6352628285
 21
117.3256123925
  0
LWPOLYLINE
  5
292
100
AcDbEntity
  8
0
100
AcDbPolyline
 62
7
  6
CONTINUOUS
 90
5
 70
0
 10
114.6370472631
 20
117.3177022017
 10
114.6363111036
 20
117.3207971627
 10
114.635787082
 20
117.3231121581
 10
114.6354460418
 20
117.3246984025
 10
114.6352625247
 20
117.3256112519
  0
LINE
  5
293
100
AcDbEntity
  8
0
100
AcDbLine
 62
7
  6
CONTINUOUS
 10
114.6352628285
 20
117.3256123925
 11
114.6352111456
 21
117.325904213
  0
LINE
  5
294
100
AcDbEntity
  8
0
100
AcDbLine
 62
7
  6
CONTINUOUS
 10
117.246560428
 20
98.9133748277
 11
117.246560428
 21
99.8933748277
  0
LINE
  5
295
100
AcDbEntity
  8
0
100
AcDbLine
 62
7
  6
CONTINUOUS
 10
117.246560428
 20
101.9933748277
 11
117.246560428
 21
106.0633748277
  0
LINE
  5
296
100
AcDbEntity
  8
0
100
AcDbLine
 62
7
  6
CONTINUOUS
 10
117.896560428
 20
137.5669646662
 11
117.896560428
 21
136.9133748277
  0
LINE
  5
297
100
AcDbEntity
  8
0
100
AcDbLine
 62
7
  6
CONTINUOUS
 10
118.226560428
 20
102.9733748277
 11
118.226560428
 21
105.0833748277
  0
LINE
  5
298
100
AcDbEntity
  8
0
100
AcDbLine
 62
7
  6
CONTINUOUS
 10
118.876560428
 20
107.3633748277
 11
118.876560428
 21
108.6633748277
  0
LINE
  5
299
100
AcDbEntity
  8
0
100
AcDbLine
 62
7
  6
CONTINUOUS
 10
119.2777582745
 20
138.7108097762
 11
119.2777582745
 21
141.5561092378
  0
LINE
  5
29A
100
AcDbEntity
  8
0
100
AcDbLine
 62
7
  6
CONTINUOUS
 10
119.396560428
 20
133.4133748277
 11
119.396560428
 21
131.8133748277
  0
LINE
  5
29B
100
AcDbEntity
  8
0
100
AcDbLine
 62
7
  6
CONTINUOUS
 10
119.516560428
 20
99.8933748277
 11
119.516560428
 21
101.9933748277
  0
LINE
  5
29C
100
AcDbEntity
  8
0
100
AcDbLine
 62
7
  6
CONTINUOUS
 10
119.8730493757
 20
131.3803621258
 11
119.8730493757
 21
128.8133748277
  0
LINE
  5
29D
100
AcDbEntity
  8
0
100
AcDbLine
 62
7
  6
CONTINUOUS
 10
120.496560428
 20
98.9133748277
 11
120.496560428
 21
102.9733748277
  0
LINE
  5
29E
100
AcDbEntity
  8
0
100
AcDbLine
 62
7
  6
CONTINUOUS
 10
120.496560428
 20
105.0833748277
 11
120.496560428
 21
106.0633748277
  0
LINE
  5
29F
100
AcDbEntity
  8
0
100
AcDbLine
 62
7
  6
CONTINUOUS
 10
120.6852522833
 20
131.3803621258
 11
120.6852522833
 21
128.8133748277
  0
LINE
  5
2A0
100
AcDbEntity
  8
0
100
AcDbLine
 62
7
  6
CONTINUOUS
 10
121.4159471732
 20
133.9133748277
 11
121.4159471732
 21
132.9624286378
  0
LINE
  5
2A1
100
AcDbEntity
  8
0
100
AcDbLine
 62
7
  6
CONTINUOUS
 10
121.5871593512
 20
138.7108097762
 11
121.5871593512
 21
141.5561092378
  0
LINE
  5
2A2
100
AcDbEntity
  8
0
100
AcDbLine
 62
7
  6
CONTINUOUS
 10
121.796560428
 20
119.7248466903
 11
121.796560428
 21
116.1248466903
  0
LINE
  5
2A3
100
AcDbEntity
  8
0
100
AcDbLine
 62
7
  6
CONTINUOUS
 10
121.796560428
 20
98.9133748277
 11
121.796560428
 21
107.3633748277
  0
LINE
  5
2A4
100
AcDbEntity
  8
0
100
AcDbLine
 62
7
  6
CONTINUOUS
 10
122.216560428
 20
119.3048466903
 11
122.216560428
 21
116.1248466903
  0
LINE
  5
2A5
100
AcDbEntity
  8
0
100
AcDbLine
 62
7
  6
CONTINUOUS
 10
122.266560428
 20
116.5448466903
 11
122.266560428
 21
116.1248466903
  0
LINE
  5
2A6
100
AcDbEntity
  8
0
100
AcDbLine
 62
7
  6
CONTINUOUS
 10
98.5979083198
 20
85.8133748277
 11
97.9992562117
 21
84.6633748277
  0
LINE
  5
2A7
100
AcDbEntity
  8
0
100
AcDbLine
 62
7
  6
CONTINUOUS
 10
96.1962052559
 20
84.6741583418
 11
96.7884276522
 21
85.8108715929
  0
LINE
  5
2A8
100
AcDbEntity
  8
0
100
AcDbLine
 62
7
  6
CONTINUOUS
 10
93.896560428
 20
83.1633748277
 11
92.82846243
 21
81.3133748277
  0
LINE
  5
2A9
100
AcDbEntity
  8
0
100
AcDbLine
 62
7
  6
CONTINUOUS
 10
114.7376030252
 20
120.604796184
 11
115.0072517774
 21
120.8876388964
  0
LINE
  5
2AA
100
AcDbEntity
  8
0
100
AcDbLine
 62
7
  6
CONTINUOUS
 10
116.596560428
 20
128.8133748277
 11
116.0932497569
 21
128.3100641567
  0
LWPOLYLINE
  5
2AB
100
AcDbEntity
  8
0
100
AcDbPolyline
 62
7
  6
CONTINUOUS
 90
3
 70
0
 10
116.5590836368
 20
127.9135592342
 10
116.5564762302
 20
127.9118545898
 10
116.5542524108
 20
127.9105777287
  0
LINE
  5
2AC
100
AcDbEntity
  8
0
100
AcDbLine
 62
7
  6
CONTINUOUS
 10
117.396560428
 20
131.8133748277
 11
116.646560428
 21
131.3803621258
  0
LINE
  5
2AD
100
AcDbEntity
  8
0
100
AcDbLine
 62
7
  6
CONTINUOUS
 10
105.7243804631
 20
87.4831560575
 11
100.4739106972
 21
87.4831560575
  0
LINE
  5
2AE
100
AcDbEntity
  8
0
100
AcDbLine
 62
7
  6
CONTINUOUS
 10
129.186560428
 20
89.1233748277
 11
116.186560428
 21
89.1233748277
  0
LINE
  5
2AF
100
AcDbEntity
  8
0
100
AcDbLine
 62
7
  6
CONTINUOUS
 10
92.8588515648
 20
89.1415330165
 11
84.5585206128
 21
89.1415330165
  0
LINE
  5
2B0
100
AcDbEntity
  8
0
100
AcDbLine
 62
7
  6
CONTINUOUS
 10
154.9342692911
 20
89.1415330165
 11
163.2346002431
 21
89.1415330165
  0
LINE
  5
2B1
100
AcDbEntity
  8
0
100
AcDbLine
 62
7
  6
CONTINUOUS
 10
92.82846243
 20
89.3014805398
 11
84.5708762086
 21
89.3014805398
  0
LINE
  5
2B2
100
AcDbEntity
  8
0
100
AcDbLine
 62
7
  6
CONTINUOUS
 10
154.964658426
 20
89.3014805398
 11
163.2222446473
 21
89.3014805398
  0
LINE
  5
2B3
100
AcDbEntity
  8
0
100
AcDbLine
 62
7
  6
CONTINUOUS
 10
128.536560428
 20
89.7733748277
 11
116.836560428
 21
89.7733748277
  0
LINE
  5
2B4
100
AcDbEntity
  8
0
100
AcDbLine
 62
7
  6
CONTINUOUS
 10
125.046560428
 20
90.7533748277
 11
124.396560428
 21
90.7533748277
  0
LINE
  5
2B5
100
AcDbEntity
  8
0
100
AcDbLine
 62
7
  6
CONTINUOUS
 10
123.486560428
 20
90.7533748277
 11
122.836560428
 21
90.7533748277
  0
LINE
  5
2B6
100
AcDbEntity
  8
0
100
AcDbLine
 62
7
  6
CONTINUOUS
 10
120.2400311901
 20
90.7533748277
 11
119.5105191357
 21
90.7533748277
  0
LINE
  5
2B7
100
AcDbEntity
  8
0
100
AcDbLine
 62
7
  6
CONTINUOUS
 10
92.82846243
 20
90.9510559912
 11
84.5708762086
 21
90.9510559912
  0
LINE
  5
2B8
100
AcDbEntity
  8
0
100
AcDbLine
 62
7
  6
CONTINUOUS
 10
154.964658426
 20
90.9510559912
 11
163.2222446473
 21
90.9510559912
  0
LINE
  5
2B9
100
AcDbEntity
  8
0
100
AcDbLine
 62
7
  6
CONTINUOUS
 10
92.8588515648
 20
91.1772582309
 11
84.5585206128
 21
91.1772582309
  0
LINE
  5
2BA
100
AcDbEntity
  8
0
100
AcDbLine
 62
7
  6
CONTINUOUS
 10
154.9342692911
 20
91.1772582309
 11
163.2346002431
 21
91.1772582309
  0
LINE
  5
2BB
100
AcDbEntity
  8
0
100
AcDbLine
 62
7
  6
CONTINUOUS
 10
141.8125855402
 20
91.6616854553
 11
147.3192101588
 21
91.6616855311
  0
LINE
  5
2BC
100
AcDbEntity
  8
0
100
AcDbLine
 62
7
  6
CONTINUOUS
 10
84.2987129923
 20
106.7166506575
 11
84.5585206128
 21
106.6494914246
  0
LINE
  5
2BD
100
AcDbEntity
  8
0
100
AcDbLine
 62
7
  6
CONTINUOUS
 10
122.836560428
 20
90.7533748277
 11
122.836560428
 21
94.0633748277
  0
LINE
  5
2BE
100
AcDbEntity
  8
0
100
AcDbLine
 62
7
  6
CONTINUOUS
 10
122.836560428
 20
94.7133748277
 11
122.836560428
 21
95.3633748277
  0
LINE
  5
2BF
100
AcDbEntity
  8
0
100
AcDbLine
 62
7
  6
CONTINUOUS
 10
123.096560428
 20
98.9133748277
 11
123.096560428
 21
107.3633748277
  0
LINE
  5
2C0
100
AcDbEntity
  8
0
100
AcDbLine
 62
7
  6
CONTINUOUS
 10
123.476560428
 20
118.7048466903
 11
123.476560428
 21
117.1448466903
  0
LINE
  5
2C1
100
AcDbEntity
  8
0
100
AcDbLine
 62
7
  6
CONTINUOUS
 10
123.486560428
 20
90.7533748277
 11
123.486560428
 21
94.0633748277
  0
LINE
  5
2C2
100
AcDbEntity
  8
0
100
AcDbLine
 62
7
  6
CONTINUOUS
 10
123.486560428
 20
94.7133748277
 11
123.486560428
 21
95.3633748277
  0
LINE
  5
2C3
100
AcDbEntity
  8
0
100
AcDbLine
 62
7
  6
CONTINUOUS
 10
123.896560428
 20
118.8248466903
 11
123.896560428
 21
117.0248466903
  0
LINE
  5
2C4
100
AcDbEntity
  8
0
100
AcDbLine
 62
7
  6
CONTINUOUS
 10
123.996560428
 20
119.7248466903
 11
123.996560428
 21
116.1248466903
  0
LINE
  5
2C5
100
AcDbEntity
  8
0
100
AcDbLine
 62
7
  6
CONTINUOUS
 10
124.396560428
 20
90.7533748277
 11
124.396560428
 21
90.9233748277
  0
LINE
  5
2C6
100
AcDbEntity
  8
0
100
AcDbLine
 62
7
  6
CONTINUOUS
 10
124.396560428
 20
92.7715863073
 11
124.396560428
 21
94.0633748277
  0
LINE
  5
2C7
100
AcDbEntity
  8
0
100
AcDbLine
 62
7
  6
CONTINUOUS
 10
124.396560428
 20
98.9133748277
 11
124.396560428
 21
106.0633748277
  0
LINE
  5
2C8
100
AcDbEntity
  8
0
100
AcDbLine
 62
7
  6
CONTINUOUS
 10
124.416560428
 20
119.3048466903
 11
124.416560428
 21
118.1048466903
  0
LINE
  5
2C9
100
AcDbEntity
  8
0
100
AcDbLine
 62
7
  6
CONTINUOUS
 10
124.416560428
 20
117.6367548479
 11
124.416560428
 21
116.1248466903
  0
LINE
  5
2CA
100
AcDbEntity
  8
0
100
AcDbLine
 62
7
  6
CONTINUOUS
 10
125.046560428
 20
93.4133748277
 11
125.046560428
 21
94.0633748277
  0
LINE
  5
2CB
100
AcDbEntity
  8
0
100
AcDbLine
 62
7
  6
CONTINUOUS
 10
125.376560428
 20
98.9133748277
 11
125.376560428
 21
101.9933748277
  0
LINE
  5
2CC
100
AcDbEntity
  8
0
100
AcDbLine
 62
7
  6
CONTINUOUS
 10
125.376560428
 20
102.9733748277
 11
125.376560428
 21
105.0833748277
  0
LINE
  5
2CD
100
AcDbEntity
  8
0
100
AcDbLine
 62
7
  6
CONTINUOUS
 10
126.026560428
 20
107.3633748277
 11
126.026560428
 21
108.6633748277
  0
LINE
  5
2CE
100
AcDbEntity
  8
0
100
AcDbLine
 62
7
  6
CONTINUOUS
 10
126.2059615047
 20
138.7108097762
 11
126.2059615047
 21
141.5561092378
  0
LINE
  5
2CF
100
AcDbEntity
  8
0
100
AcDbLine
 62
7
  6
CONTINUOUS
 10
126.396560428
 20
119.9133748277
 11
126.396560428
 21
126.9133748277
  0
LINE
  5
2D0
100
AcDbEntity
  8
0
100
AcDbLine
 62
7
  6
CONTINUOUS
 10
126.866560428
 20
93.0033748277
 11
126.866560428
 21
93.6733748277
  0
LINE
  5
2D1
100
AcDbEntity
  8
0
100
AcDbLine
 62
7
  6
CONTINUOUS
 10
127.516560428
 20
92.8085390547
 11
127.516560428
 21
93.6733748277
  0
LINE
  5
2D2
100
AcDbEntity
  8
0
100
AcDbLine
 62
7
  6
CONTINUOUS
 10
115.1565420848
 20
120.2062680465
 11
115.4249929003
 21
120.4891107534
  0
LINE
  5
2D3
100
AcDbEntity
  8
0
100
AcDbLine
 62
7
  6
CONTINUOUS
 10
111.9823468656
 20
114.9991612654
 11
113.8107739903
 21
116.8275883901
  0
LINE
  5
2D4
100
AcDbEntity
  8
0
100
AcDbLine
 62
7
  6
CONTINUOUS
 10
116.5542524108
 20
127.9105777287
 11
116.3678092515
 21
127.8133748277
  0
LINE
  5
2D5
100
AcDbEntity
  8
0
100
AcDbLine
 62
7
  6
CONTINUOUS
 10
126.866560428
 20
93.0033748277
 11
126.476560428
 21
93.0033748277
  0
LINE
  5
2D6
100
AcDbEntity
  8
0
100
AcDbLine
 62
7
  6
CONTINUOUS
 10
141.812585529
 20
93.1688121817
 11
147.3192101588
 21
93.1688121812
  0
LINE
  5
2D7
100
AcDbEntity
  8
0
100
AcDbLine
 62
7
  6
CONTINUOUS
 10
127.516560428
 20
93.6733748277
 11
126.866560428
 21
93.6733748277
  0
LINE
  5
2D8
100
AcDbEntity
  8
0
100
AcDbLine
 62
7
  6
CONTINUOUS
 10
125.046560428
 20
94.0633748277
 11
124.396560428
 21
94.0633748277
  0
LINE
  5
2D9
100
AcDbEntity
  8
0
100
AcDbLine
 62
7
  6
CONTINUOUS
 10
123.486560428
 20
94.0633748277
 11
122.836560428
 21
94.0633748277
  0
LINE
  5
2DA
100
AcDbEntity
  8
0
100
AcDbLine
 62
7
  6
CONTINUOUS
 10
121.926560428
 20
94.0633748277
 11
121.1970483735
 21
94.0633748277
  0
LINE
  5
2DB
100
AcDbEntity
  8
0
100
AcDbLine
 62
7
  6
CONTINUOUS
 10
118.4760724824
 20
94.0633748277
 11
117.746560428
 21
94.0633748277
  0
LINE
  5
2DC
100
AcDbEntity
  8
0
100
AcDbLine
 62
7
  6
CONTINUOUS
 10
123.486560428
 20
94.7133748277
 11
122.836560428
 21
94.7133748277
  0
LINE
  5
2DD
100
AcDbEntity
  8
0
100
AcDbLine
 62
7
  6
CONTINUOUS
 10
123.486560428
 20
95.3633748277
 11
122.836560428
 21
95.3633748277
  0
LINE
  5
2DE
100
AcDbEntity
  8
0
100
AcDbLine
 62
7
  6
CONTINUOUS
 10
128.536560428
 20
96.2733748277
 11
116.836560428
 21
96.2733748277
  0
LINE
  5
2DF
100
AcDbEntity
  8
0
100
AcDbLine
 62
7
  6
CONTINUOUS
 10
129.186560428
 20
96.9233748277
 11
116.186560428
 21
96.9233748277
  0
LINE
  5
2E0
100
AcDbEntity
  8
0
100
AcDbLine
 62
7
  6
CONTINUOUS
 10
163.4944078636
 20
91.110098998
 11
163.2346002431
 21
91.1772582309
  0
LINE
  5
2E1
100
AcDbEntity
  8
0
100
AcDbLine
 62
7
  6
CONTINUOUS
 10
150.6897726576
 20
84.674158329
 11
150.7010068163
 21
84.6633748277
  0
LINE
  5
2E2
100
AcDbEntity
  8
0
100
AcDbLine
 62
7
  6
CONTINUOUS
 10
152.5040589693
 20
84.6741583491
 11
152.5152931489
 21
84.6633748277
  0
LINE
  5
2E3
100
AcDbEntity
  8
0
100
AcDbLine
 62
7
  6
CONTINUOUS
 10
127.646560428
 20
101.9933748277
 11
127.646560428
 21
102.9733748277
  0
LINE
  5
2E4
100
AcDbEntity
  8
0
100
AcDbLine
 62
7
  6
CONTINUOUS
 10
127.646560428
 20
105.0833748277
 11
127.646560428
 21
106.0633748277
  0
LINE
  5
2E5
100
AcDbEntity
  8
0
100
AcDbLine
 62
7
  6
CONTINUOUS
 10
128.5153625815
 20
138.7108097762
 11
128.5153625815
 21
141.5561092378
  0
LINE
  5
2E6
100
AcDbEntity
  8
0
100
AcDbLine
 62
7
  6
CONTINUOUS
 10
128.536560428
 20
89.7733748277
 11
128.536560428
 21
96.2733748277
  0
LINE
  5
2E7
100
AcDbEntity
  8
0
100
AcDbLine
 62
7
  6
CONTINUOUS
 10
129.186560428
 20
89.1233748277
 11
129.186560428
 21
96.9233748277
  0
LINE
  5
2E8
100
AcDbEntity
  8
0
100
AcDbLine
 62
7
  6
CONTINUOUS
 10
129.4823468656
 20
80.4133748277
 11
129.4823468656
 21
115.8579797015
  0
LINE
  5
2E9
100
AcDbEntity
  8
0
100
AcDbLine
 62
7
  6
CONTINUOUS
 10
129.896560428
 20
137.5669646662
 11
129.896560428
 21
136.9133748277
  0
LINE
  5
2EA
100
AcDbEntity
  8
0
100
AcDbLine
 62
7
  6
CONTINUOUS
 10
130.1894536468
 20
116.179947517
 11
130.1894536468
 21
80.1204816089
  0
LINE
  5
2EB
100
AcDbEntity
  8
0
100
AcDbLine
 62
7
  6
CONTINUOUS
 10
130.3036672092
 20
80.0062680465
 11
130.3036672092
 21
116.3394067897
  0
LINE
  5
2EC
100
AcDbEntity
  8
0
100
AcDbLine
 62
7
  6
CONTINUOUS
 10
131.0107739903
 20
117.1131502961
 11
131.0107739903
 21
79.7133748277
  0
LINE
  5
2ED
100
AcDbEntity
  8
0
100
AcDbLine
 62
7
  6
CONTINUOUS
 10
132.646560428
 20
120.0648466903
 11
132.646560428
 21
118.913374411
  0
LINE
  5
2EE
100
AcDbEntity
  8
0
100
AcDbLine
 62
7
  6
CONTINUOUS
 10
136.9803009072
 20
133.3752639822
 11
135.7853082353
 21
130.5713015934
  0
LINE
  5
2EF
100
AcDbEntity
  8
0
100
AcDbLine
 62
7
  6
CONTINUOUS
 10
136.7856950408
 20
132.5585827164
 11
131.396560428
 21
119.9133748277
  0
LINE
  5
2F0
100
AcDbEntity
  8
0
100
AcDbLine
 62
7
  6
CONTINUOUS
 10
106.1748725915
 20
82.1633748277
 11
106.7522228607
 21
83.1633748277
  0
LINE
  5
2F1
100
AcDbEntity
  8
0
100
AcDbLine
 62
7
  6
CONTINUOUS
 10
156.7677143075
 20
153.4845252665
 11
143.1626048711
 21
137.270587218
  0
LINE
  5
2F2
100
AcDbEntity
  8
0
100
AcDbLine
 62
7
  6
CONTINUOUS
 10
133.5504100079
 20
124.9672244076
 11
133.646560428
 21
125.0633748277
  0
LINE
  5
2F3
100
AcDbEntity
  8
0
100
AcDbLine
 62
7
  6
CONTINUOUS
 10
105.7243804631
 20
98.0977237622
 11
100.4739106972
 21
98.0977237622
  0
LINE
  5
2F4
100
AcDbEntity
  8
0
100
AcDbLine
 62
7
  6
CONTINUOUS
 10
125.376560428
 20
98.9133748277
 11
124.396560428
 21
98.9133748277
  0
LINE
  5
2F5
100
AcDbEntity
  8
0
100
AcDbLine
 62
7
  6
CONTINUOUS
 10
123.096560428
 20
98.9133748277
 11
121.796560428
 21
98.9133748277
  0
LINE
  5
2F6
100
AcDbEntity
  8
0
100
AcDbLine
 62
7
  6
CONTINUOUS
 10
120.496560428
 20
98.9133748277
 11
117.246560428
 21
98.9133748277
  0
LINE
  5
2F7
100
AcDbEntity
  8
0
100
AcDbLine
 62
7
  6
CONTINUOUS
 10
105.7243804631
 20
99.7290258932
 11
100.4739106972
 21
99.7290258932
  0
LINE
  5
2F8
100
AcDbEntity
  8
0
100
AcDbLine
 62
7
  6
CONTINUOUS
 10
119.516560428
 20
99.8933748277
 11
117.246560428
 21
99.8933748277
  0
LINE
  5
2F9
100
AcDbEntity
  8
0
100
AcDbLine
 62
7
  6
CONTINUOUS
 10
127.646560428
 20
101.9933748277
 11
125.376560428
 21
101.9933748277
  0
LINE
  5
2FA
100
AcDbEntity
  8
0
100
AcDbLine
 62
7
  6
CONTINUOUS
 10
119.516560428
 20
101.9933748277
 11
117.246560428
 21
101.9933748277
  0
LINE
  5
2FB
100
AcDbEntity
  8
0
100
AcDbLine
 62
7
  6
CONTINUOUS
 10
127.646560428
 20
102.9733748277
 11
125.376560428
 21
102.9733748277
  0
LINE
  5
2FC
100
AcDbEntity
  8
0
100
AcDbLine
 62
7
  6
CONTINUOUS
 10
120.496560428
 20
102.9733748277
 11
118.226560428
 21
102.9733748277
  0
LINE
  5
2FD
100
AcDbEntity
  8
0
100
AcDbLine
 62
7
  6
CONTINUOUS
 10
110.096560428
 20
120.6979047739
 11
114.8272308558
 21
117.966650929
  0
LINE
  5
2FE
100
AcDbEntity
  8
0
100
AcDbLine
 62
7
  6
CONTINUOUS
 10
110.296560428
 20
121.0443149354
 11
115.2182829491
 21
118.2027571129
  0
LINE
  5
2FF
100
AcDbEntity
  8
0
100
AcDbLine
 62
7
  6
CONTINUOUS
 10
114.7268569719
 20
117.2352642152
 11
114.64232812
 21
117.2967404631
  0
LINE
  5
300
100
AcDbEntity
  8
0
100
AcDbLine
 62
7
  6
CONTINUOUS
 10
114.6927614413
 20
117.2599584487
 11
114.6527369687
 21
117.2891839226
  0
LINE
  5
301
100
AcDbEntity
  8
0
100
AcDbLine
 62
7
  6
CONTINUOUS
 10
114.2501138186
 20
124.9598214371
 11
114.146560428
 21
125.0633748277
  0
LINE
  5
302
100
AcDbEntity
  8
0
100
AcDbLine
 62
7
  6
CONTINUOUS
 10
126.0213054986
 20
116.1248466903
 11
125.076560428
 21
117.6367548479
  0
LINE
  5
303
100
AcDbEntity
  8
0
100
AcDbLine
 62
7
  6
CONTINUOUS
 10
126.516560428
 20
116.1248466903
 11
125.5279292113
 21
117.7069873628
  0
LINE
  5
304
100
AcDbEntity
  8
0
100
AcDbLine
 62
7
  6
CONTINUOUS
 10
133.396560428
 20
121.3119029651
 11
133.396560428
 21
124.6062680465
  0
LINE
  5
305
100
AcDbEntity
  8
0
100
AcDbLine
 62
7
  6
CONTINUOUS
 10
133.646560428
 20
125.0633748277
 11
133.646560428
 21
125.1928342945
  0
LINE
  5
306
100
AcDbEntity
  8
0
100
AcDbLine
 62
7
  6
CONTINUOUS
 10
135.7853082353
 20
133.9133748277
 11
135.7853082353
 21
130.5713015934
  0
LINE
  5
307
100
AcDbEntity
  8
0
100
AcDbLine
 62
7
  6
CONTINUOUS
 10
136.5501502665
 20
79.7133748277
 11
136.5501502665
 21
118.1133748277
  0
LINE
  5
308
100
AcDbEntity
  8
0
100
AcDbLine
 62
7
  6
CONTINUOUS
 10
137.0697655087
 20
118.4133748277
 11
137.0697655087
 21
79.4133748277
  0
LINE
  5
309
100
AcDbEntity
  8
0
100
AcDbLine
 62
7
  6
CONTINUOUS
 10
137.773410694
 20
136.9133748277
 11
137.773410694
 21
133.9133748277
  0
LINE
  5
30A
100
AcDbEntity
  8
0
100
AcDbLine
 62
7
  6
CONTINUOUS
 10
119.179999579
 20
91.250092091
 11
119.5447556062
 21
91.965966102
  0
LINE
  5
30B
100
AcDbEntity
  8
0
100
AcDbLine
 62
7
  6
CONTINUOUS
 10
119.5105191357
 20
90.7533748277
 11
121.1970483735
 21
94.0633748277
  0
LINE
  5
30C
100
AcDbEntity
  8
0
100
AcDbLine
 62
7
  6
CONTINUOUS
 10
120.2400311901
 20
90.7533748277
 11
121.926560428
 21
94.0633748277
  0
LINE
  5
30D
100
AcDbEntity
  8
0
100
AcDbLine
 62
7
  6
CONTINUOUS
 10
145.4607382004
 20
135.342224389
 11
158.7661108519
 21
151.1989500471
  0
LINE
  5
30E
100
AcDbEntity
  8
0
100
AcDbLine
 62
7
  6
CONTINUOUS
 10
133.2208244967
 20
120.8876388964
 11
132.8222963593
 21
120.489110759
  0
LINE
  5
30F
100
AcDbEntity
  8
0
100
AcDbLine
 62
7
  6
CONTINUOUS
 10
94.3819184521
 20
84.6741583445
 11
94.3706842765
 21
84.6633748277
  0
LINE
  5
310
100
AcDbEntity
  8
0
100
AcDbLine
 62
7
  6
CONTINUOUS
 10
96.1962052559
 20
84.6741583418
 11
96.1849710831
 21
84.6633748277
  0
LINE
  5
311
100
AcDbEntity
  8
0
100
AcDbLine
 62
7
  6
CONTINUOUS
 10
163.4944076455
 20
106.7166506011
 11
163.2346002431
 21
106.6494914246
  0
LINE
  5
312
100
AcDbEntity
  8
0
100
AcDbLine
 62
7
  6
CONTINUOUS
 10
84.2987132104
 20
91.1100990544
 11
84.5585206128
 21
91.1772582309
  0
LINE
  5
313
100
AcDbEntity
  8
0
100
AcDbLine
 62
7
  6
CONTINUOUS
 10
141.812585529
 20
104.6579374744
 11
147.3192101588
 21
104.6579374743
  0
LINE
  5
314
100
AcDbEntity
  8
0
100
AcDbLine
 62
7
  6
CONTINUOUS
 10
127.646560428
 20
105.0833748277
 11
125.376560428
 21
105.0833748277
  0
LINE
  5
315
100
AcDbEntity
  8
0
100
AcDbLine
 62
7
  6
CONTINUOUS
 10
120.496560428
 20
105.0833748277
 11
118.226560428
 21
105.0833748277
  0
LINE
  5
316
100
AcDbEntity
  8
0
100
AcDbLine
 62
7
  6
CONTINUOUS
 10
127.646560428
 20
106.0633748277
 11
124.396560428
 21
106.0633748277
  0
LINE
  5
317
100
AcDbEntity
  8
0
100
AcDbLine
 62
7
  6
CONTINUOUS
 10
120.496560428
 20
106.0633748277
 11
117.246560428
 21
106.0633748277
  0
LINE
  5
318
100
AcDbEntity
  8
0
100
AcDbLine
 62
7
  6
CONTINUOUS
 10
141.8125855291
 20
106.1650641249
 11
147.3192101588
 21
106.1650641244
  0
LINE
  5
319
100
AcDbEntity
  8
0
100
AcDbLine
 62
7
  6
CONTINUOUS
 10
92.8588515648
 20
106.6494914246
 11
84.5585206128
 21
106.6494914246
  0
LINE
  5
31A
100
AcDbEntity
  8
0
100
AcDbLine
 62
7
  6
CONTINUOUS
 10
154.9342692911
 20
106.6494914246
 11
163.2346002431
 21
106.6494914246
  0
LINE
  5
31B
100
AcDbEntity
  8
0
100
AcDbLine
 62
7
  6
CONTINUOUS
 10
92.82846243
 20
106.8756936642
 11
84.5708762086
 21
106.8756936642
  0
LINE
  5
31C
100
AcDbEntity
  8
0
100
AcDbLine
 62
7
  6
CONTINUOUS
 10
154.964658426
 20
106.8756936642
 11
163.2222446473
 21
106.8756936642
  0
LINE
  5
31D
100
AcDbEntity
  8
0
100
AcDbLine
 62
7
  6
CONTINUOUS
 10
126.026560428
 20
107.3633748277
 11
123.096560428
 21
107.3633748277
  0
LINE
  5
31E
100
AcDbEntity
  8
0
100
AcDbLine
 62
7
  6
CONTINUOUS
 10
121.796560428
 20
107.3633748277
 11
118.876560428
 21
107.3633748277
  0
LINE
  5
31F
100
AcDbEntity
  8
0
100
AcDbLine
 62
7
  6
CONTINUOUS
 10
114.5975396065
 20
117.3124032832
 11
114.6289286427
 21
117.3015473587
  0
LINE
  5
320
100
AcDbEntity
  8
0
100
AcDbLine
 62
7
  6
CONTINUOUS
 10
114.6028208465
 20
117.3106875477
 11
114.6288092212
 21
117.3014961457
  0
LINE
  5
321
100
AcDbEntity
  8
0
100
AcDbLine
 62
7
  6
CONTINUOUS
 10
153.896560428
 20
83.1633748277
 11
154.964658426
 21
81.3133748277
  0
LINE
  5
322
100
AcDbEntity
  8
0
100
AcDbLine
 62
7
  6
CONTINUOUS
 10
150.0901354679
 20
85.8251025443
 11
150.6897726576
 21
84.674158329
  0
LINE
  5
323
100
AcDbEntity
  8
0
100
AcDbLine
 62
7
  6
CONTINUOUS
 10
151.9044217495
 20
85.8251026161
 11
152.5040589693
 21
84.6741583491
  0
LINE
  5
324
100
AcDbEntity
  8
0
100
AcDbLine
 62
7
  6
CONTINUOUS
 10
138.2402009073
 20
136.9133748277
 11
138.2402009073
 21
133.9133748277
  0
LINE
  5
325
100
AcDbEntity
  8
0
100
AcDbLine
 62
7
  6
CONTINUOUS
 10
138.696560428
 20
79.4133748277
 11
138.696560428
 21
118.4133748277
  0
LINE
  5
326
100
AcDbEntity
  8
0
100
AcDbLine
 62
7
  6
CONTINUOUS
 10
138.896560428
 20
118.4133748277
 11
138.896560428
 21
79.4133748277
  0
LINE
  5
327
100
AcDbEntity
  8
0
100
AcDbLine
 62
7
  6
CONTINUOUS
 10
140.5292147204
 20
79.4133748277
 11
140.5292147204
 21
118.4133748277
  0
LINE
  5
328
100
AcDbEntity
  8
0
100
AcDbLine
 62
7
  6
CONTINUOUS
 10
140.588148494
 20
79.5397587131
 11
140.588148494
 21
118.2869909424
  0
LINE
  5
329
100
AcDbEntity
  8
GEOM
100
AcDbLine
 62
7
  6
CONTINUOUS
 10
141.3323315661
 20
115.2521367602
 11
141.3323315661
 21
114.5494388069
  0
LINE
  5
32A
100
AcDbEntity
  8
GEOM
100
AcDbLine
 62
7
  6
CONTINUOUS
 10
141.3323315661
 20
106.3838095658
 11
141.3323315661
 21
104.6873466368
  0
LINE
  5
32B
100
AcDbEntity
  8
GEOM
100
AcDbLine
 62
7
  6
CONTINUOUS
 10
141.3323315661
 20
93.1394030187
 11
141.3323315661
 21
91.4429400897
  0
LINE
  5
32C
100
AcDbEntity
  8
GEOM
100
AcDbLine
 62
7
  6
CONTINUOUS
 10
141.3323315661
 20
83.2773108485
 11
141.3323315661
 21
82.5746128953
  0
LINE
  5
32D
100
AcDbEntity
  8
GEOM
100
AcDbLine
 62
7
  6
CONTINUOUS
 10
141.8021778764
 20
114.9134823768
 11
141.8021778764
 21
114.2889667624
  0
LINE
  5
32E
100
AcDbEntity
  8
GEOM
100
AcDbLine
 62
7
  6
CONTINUOUS
 10
141.8021778764
 20
106.1653519641
 11
141.8021778764
 21
104.6576379475
  0
LINE
  5
32F
100
AcDbEntity
  8
GEOM
100
AcDbLine
 62
7
  6
CONTINUOUS
 10
141.8021778764
 20
93.16911171
 11
141.8021778764
 21
91.661397591
  0
LINE
  5
330
100
AcDbEntity
  8
GEOM
100
AcDbLine
 62
7
  6
CONTINUOUS
 10
141.8021778764
 20
83.5377828844
 11
141.8021778764
 21
82.9132672695
  0
LINE
  5
331
100
AcDbEntity
  8
0
100
AcDbLine
 62
7
  6
CONTINUOUS
 10
92.82846243
 20
108.5252691156
 11
84.5708762086
 21
108.5252691156
  0
LINE
  5
332
100
AcDbEntity
  8
0
100
AcDbLine
 62
7
  6
CONTINUOUS
 10
154.964658426
 20
108.5252691156
 11
163.2222446473
 21
108.5252691156
  0
LINE
  5
333
100
AcDbEntity
  8
0
100
AcDbLine
 62
7
  6
CONTINUOUS
 10
126.026560428
 20
108.6633748277
 11
118.876560428
 21
108.6633748277
  0
LINE
  5
334
100
AcDbEntity
  8
0
100
AcDbLine
 62
7
  6
CONTINUOUS
 10
92.8588515648
 20
108.6852166389
 11
84.5585206128
 21
108.6852166389
  0
LINE
  5
335
100
AcDbEntity
  8
0
100
AcDbLine
 62
7
  6
CONTINUOUS
 10
154.9342692911
 20
108.6852166389
 11
163.2346002431
 21
108.6852166389
  0
LINE
  5
336
100
AcDbEntity
  8
0
100
AcDbLine
 62
7
  6
CONTINUOUS
 10
105.7243804631
 20
110.3435935979
 11
100.4739106972
 21
110.3435935979
  0
LINE
  5
337
100
AcDbEntity
  8
0
100
AcDbLine
 62
7
  6
CONTINUOUS
 10
105.7243804631
 20
111.4970983969
 11
100.4739106972
 21
111.4970983969
  0
LINE
  5
338
100
AcDbEntity
  8
0
100
AcDbLine
 62
7
  6
CONTINUOUS
 10
152.8237844284
 20
112.0133747521
 11
152.6237844284
 21
112.0133747521
  0
LINE
  5
339
100
AcDbEntity
  8
0
100
AcDbLine
 62
7
  6
CONTINUOUS
 10
151.0094976446
 20
112.0133747926
 11
150.8094976446
 21
112.0133747926
  0
LINE
  5
33A
100
AcDbEntity
  8
0
100
AcDbLine
 62
7
  6
CONTINUOUS
 10
97.8907661541
 20
112.0133748169
 11
97.6907661541
 21
112.0133748169
  0
LINE
  5
33B
100
AcDbEntity
  8
0
100
AcDbLine
 62
7
  6
CONTINUOUS
 10
96.0764798498
 20
112.013374767
 11
95.8764798498
 21
112.013374767
  0
LINE
  5
33C
100
AcDbEntity
  8
0
100
AcDbLine
 62
7
  6
CONTINUOUS
 10
94.2621933026
 20
112.0133747601
 11
94.0621933026
 21
112.0133747601
  0
LINE
  5
33D
100
AcDbEntity
  8
0
100
AcDbLine
 62
7
  6
CONTINUOUS
 10
148.9952125361
 20
112.0133748277
 11
149.1952125361
 21
112.0133748277
  0
LINE
  5
33E
100
AcDbEntity
  8
0
100
AcDbLine
 62
7
  6
CONTINUOUS
 10
99.896560428
 20
113.1633748277
 11
98.4894182682
 21
113.1633748277
  0
LINE
  5
33F
100
AcDbEntity
  8
0
100
AcDbLine
 62
7
  6
CONTINUOUS
 10
97.0921140397
 20
113.1633748277
 11
96.6751319921
 21
113.1633748277
  0
LINE
  5
340
100
AcDbEntity
  8
0
100
AcDbLine
 62
7
  6
CONTINUOUS
 10
95.2778277071
 20
113.1633748277
 11
94.8608454492
 21
113.1633748277
  0
LINE
  5
341
100
AcDbEntity
  8
0
100
AcDbLine
 62
7
  6
CONTINUOUS
 10
147.896560428
 20
113.1633748277
 11
150.2108455168
 21
113.1633748277
  0
LINE
  5
342
100
AcDbEntity
  8
0
100
AcDbLine
 62
7
  6
CONTINUOUS
 10
151.6081497728
 20
113.1633748277
 11
152.0251322775
 21
113.1633748277
  0
LINE
  5
343
100
AcDbEntity
  8
0
100
AcDbLine
 62
7
  6
CONTINUOUS
 10
153.4224365795
 20
113.1633748277
 11
153.8394179001
 21
113.1633748277
  0
LINE
  5
344
100
AcDbEntity
  8
0
100
AcDbLine
 62
7
  6
CONTINUOUS
 10
114.5975396065
 20
117.3124032832
 11
114.5989799079
 21
117.312006983
  0
LINE
  5
345
100
AcDbEntity
  8
0
100
AcDbLine
 62
7
  6
CONTINUOUS
 10
116.0966020507
 20
128.3027579762
 11
116.5540529406
 21
128.0642785097
  0
LWPOLYLINE
  5
346
100
AcDbEntity
  8
0
100
AcDbPolyline
 62
7
  6
CONTINUOUS
 90
10
 70
0
 10
116.5539184603
 20
128.064348833
 10
116.5547706356
 20
128.0638924785
 10
116.5582137675
 20
128.0617832965
 10
116.5632908533
 20
128.0580237324
 10
116.5708215624
 20
128.0510279104
 10
116.5806013487
 20
128.0387521878
 10
116.5897129242
 20
128.0215444573
 10
116.5952919403
 20
128.0020845339
 10
116.5963171808
 20
127.9809612874
 10
116.5920062928
 20
127.95946279
  0
LINE
  5
347
100
AcDbEntity
  8
0
100
AcDbLine
 62
7
  6
CONTINUOUS
 10
138.696560428
 20
118.4133748277
 11
138.896560428
 21
118.2133748277
  0
LINE
  5
348
100
AcDbEntity
  8
0
100
AcDbLine
 62
7
  6
CONTINUOUS
 10
126.396560428
 20
126.9133748277
 11
119.868954825
 21
133.9133748277
  0
LINE
  5
349
100
AcDbEntity
  8
0
100
AcDbLine
 62
7
  6
CONTINUOUS
 10
121.4159471732
 20
132.9624286378
 11
120.5291755049
 21
133.9133748277
  0
LINE
  5
34A
100
AcDbEntity
  8
0
100
AcDbLine
 62
7
  6
CONTINUOUS
 10
153.7187083124
 20
85.8251026079
 11
153.896560428
 21
85.4837499446
  0
LINE
  5
34B
100
AcDbEntity
  8
GEOM
100
AcDbLine
 62
7
  6
CONTINUOUS
 10
141.6963018003
 20
115.2423647561
 11
140.588148494
 21
118.2869909424
  0
LINE
  5
34C
100
AcDbEntity
  8
0
100
AcDbLine
 62
7
  6
CONTINUOUS
 10
147.3192101588
 20
114.9133748277
 11
147.3192101588
 21
114.289102529
  0
LINE
  5
34D
100
AcDbEntity
  8
0
100
AcDbLine
 62
7
  6
CONTINUOUS
 10
147.3192101588
 20
106.1650641244
 11
147.3192101588
 21
104.6579374743
  0
LINE
  5
34E
100
AcDbEntity
  8
0
100
AcDbLine
 62
7
  6
CONTINUOUS
 10
147.3192101588
 20
93.1688121812
 11
147.3192101588
 21
91.6616855311
  0
LINE
  5
34F
100
AcDbEntity
  8
0
100
AcDbLine
 62
7
  6
CONTINUOUS
 10
147.3192101588
 20
83.5376471264
 11
147.3192101588
 21
82.9133748277
  0
LINE
  5
350
100
AcDbEntity
  8
0
100
AcDbLine
 62
7
  6
CONTINUOUS
 10
147.896560428
 20
114.9133748277
 11
147.896560428
 21
82.9133748277
  0
LWPOLYLINE
  5
351
100
AcDbEntity
  8
GEOM
100
AcDbPolyline
 62
7
  6
CONTINUOUS
 90
8
 70
0
 10
141.6419144805
 20
115.2435283969
 10
141.6550385327
 20
115.2435317538
 10
141.6667250606
 20
115.2430368955
 10
141.6767132399
 20
115.242414763
 10
141.6846957369
 20
115.2426946298
 10
141.690570107
 20
115.2435402039
 10
141.6944387948
 20
115.2437000563
 10
141.6963018003
 20
115.2423647561
  0
LINE
  5
352
100
AcDbEntity
  8
0
100
AcDbLine
 62
7
  6
CONTINUOUS
 10
82.7233553472
 20
113.9133748277
 11
80.596560428
 21
113.9133748277
  0
LINE
  5
353
100
AcDbEntity
  8
0
100
AcDbLine
 62
7
  6
CONTINUOUS
 10
165.0697655087
 20
113.9133748277
 11
167.196560428
 21
113.9133748277
  0
LINE
  5
354
100
AcDbEntity
  8
0
100
AcDbLine
 62
7
  6
CONTINUOUS
 10
141.8125855309
 20
114.2891025165
 11
147.3192101588
 21
114.289102529
  0
LINE
  5
355
100
AcDbEntity
  8
0
100
AcDbLine
 62
7
  6
CONTINUOUS
 10
107.1852355626
 20
114.4133748277
 11
110.5681333032
 21
114.4133748277
  0
LINE
  5
356
100
AcDbEntity
  8
0
100
AcDbLine
 62
7
  6
CONTINUOUS
 10
141.8126724279
 20
114.9133748277
 11
147.896560428
 21
114.9133748277
  0
LINE
  5
357
100
AcDbEntity
  8
0
100
AcDbLine
 62
7
  6
CONTINUOUS
 10
105.7243804631
 20
115.8937962989
 11
100.4739106972
 21
115.8937962989
  0
LINE
  5
358
100
AcDbEntity
  8
0
100
AcDbLine
 62
7
  6
CONTINUOUS
 10
105.7418598896
 20
115.9133748277
 11
100.4739106972
 21
115.9133748277
  0
LINE
  5
359
100
AcDbEntity
  8
0
100
AcDbLine
 62
7
  6
CONTINUOUS
 10
126.516560428
 20
116.1248466903
 11
126.0213054986
 21
116.1248466903
  0
LINE
  5
35A
100
AcDbEntity
  8
0
100
AcDbLine
 62
7
  6
CONTINUOUS
 10
124.416560428
 20
116.1248466903
 11
123.996560428
 21
116.1248466903
  0
LINE
  5
35B
100
AcDbEntity
  8
0
100
AcDbLine
 62
7
  6
CONTINUOUS
 10
122.996560428
 20
116.1248466903
 11
122.266560428
 21
116.1248466903
  0
LINE
  5
35C
100
AcDbEntity
  8
0
100
AcDbLine
 62
7
  6
CONTINUOUS
 10
122.216560428
 20
116.1248466903
 11
121.796560428
 21
116.1248466903
  0
LINE
  5
35D
100
AcDbEntity
  8
0
100
AcDbLine
 62
7
  6
CONTINUOUS
 10
92.8588515648
 20
116.4213332358
 11
84.5585206128
 21
116.4213332358
  0
LINE
  5
35E
100
AcDbEntity
  8
0
100
AcDbLine
 62
7
  6
CONTINUOUS
 10
154.9342692911
 20
116.4213332358
 11
163.2346002431
 21
116.4213332358
  0
LINE
  5
35F
100
AcDbEntity
  8
0
100
AcDbLine
 62
7
  6
CONTINUOUS
 10
92.82846243
 20
116.4875879522
 11
84.5708762086
 21
116.4875879522
  0
LINE
  5
360
100
AcDbEntity
  8
0
100
AcDbLine
 62
7
  6
CONTINUOUS
 10
154.964658426
 20
116.4875879522
 11
163.2222446473
 21
116.4875879522
  0
LINE
  5
361
100
AcDbEntity
  8
0
100
AcDbLine
 62
7
  6
CONTINUOUS
 10
163.2222446473
 20
116.5133748277
 11
154.964658426
 21
116.5133748277
  0
LINE
  5
362
100
AcDbEntity
  8
0
100
AcDbLine
 62
7
  6
CONTINUOUS
 10
84.5708762086
 20
116.5133748277
 11
92.82846243
 21
116.5133748277
  0
LINE
  5
363
100
AcDbEntity
  8
0
100
AcDbLine
 62
7
  6
CONTINUOUS
 10
122.876560428
 20
116.5448466903
 11
122.266560428
 21
116.5448466903
  0
LINE
  5
364
100
AcDbEntity
  8
0
100
AcDbLine
 62
7
  6
CONTINUOUS
 10
125.076560428
 20
117.6367548479
 11
124.416560428
 21
117.6367548479
  0
LINE
  5
365
100
AcDbEntity
  8
0
100
AcDbLine
 62
7
  6
CONTINUOUS
 10
125.316560428
 20
118.1048466903
 11
124.416560428
 21
118.1048466903
  0
LINE
  5
366
100
AcDbEntity
  8
0
100
AcDbLine
 62
7
  6
CONTINUOUS
 10
133.446560428
 20
118.1133748277
 11
136.5501502665
 21
118.1133748277
  0
LINE
  5
367
100
AcDbEntity
  8
0
100
AcDbLine
 62
7
  6
CONTINUOUS
 10
115.2182829491
 20
118.2027571129
 11
115.5976611996
 21
118.2027571129
  0
LINE
  5
368
100
AcDbEntity
  8
0
100
AcDbLine
 62
7
  6
CONTINUOUS
 10
138.696560428
 20
118.4133748277
 11
137.0697655087
 21
118.4133748277
  0
LINE
  5
369
100
AcDbEntity
  8
0
100
AcDbLine
 62
7
  6
CONTINUOUS
 10
138.896560428
 20
118.4133748277
 11
140.5292147204
 21
118.4133748277
  0
LWPOLYLINE
  5
36A
100
AcDbEntity
  8
GEOM
100
AcDbPolyline
 62
7
  6
CONTINUOUS
 90
9
 70
0
 10
141.3323315661
 20
115.2521367602
 10
141.3766691632
 20
115.252090005
 10
141.4174891141
 20
115.2508064525
 10
141.4547914187
 20
115.2489761266
 10
141.4883775022
 20
115.247853866
 10
141.5184459394
 20
115.2474476025
 10
141.5455924545
 20
115.2465512853
 10
141.5697661441
 20
115.2455470142
 10
141.5910179115
 20
115.2452367818
  0
LINE
  5
36B
100
AcDbEntity
  8
GEOM
100
AcDbLine
 62
7
  6
CONTINUOUS
 10
141.3323315661
 20
115.2521367602
 11
141.6963018003
 21
115.2423647561
  0
LINE
  5
36C
100
AcDbEntity
  8
GEOM
100
AcDbLine
 62
7
  6
CONTINUOUS
 10
141.6100961907
 20
115.2447848048
 11
141.6270920798
 21
115.2439460524
  0
LINE
  5
36D
100
AcDbEntity
  8
0
100
AcDbLine
 62
7
  6
CONTINUOUS
 10
148.407794563
 20
113.152591349
 11
148.396560428
 21
113.1633748277
  0
LINE
  5
36E
100
AcDbEntity
  8
0
100
AcDbLine
 62
7
  6
CONTINUOUS
 10
150.2220796897
 20
113.1525913128
 11
150.2108455168
 21
113.1633748277
  0
LINE
  5
36F
100
AcDbEntity
  8
0
100
AcDbLine
 62
7
  6
CONTINUOUS
 10
152.0363664536
 20
113.1525913099
 11
152.0251322775
 21
113.1633748277
  0
LINE
  5
370
100
AcDbEntity
  8
0
100
AcDbLine
 62
7
  6
CONTINUOUS
 10
149.0074317449
 20
112.0016471458
 11
148.407794563
 21
113.152591349
  0
LINE
  5
371
100
AcDbEntity
  8
0
100
AcDbLine
 62
7
  6
CONTINUOUS
 10
150.8217168951
 20
112.0016470708
 11
150.2220796897
 21
113.1525913128
  0
LINE
  5
372
100
AcDbEntity
  8
0
100
AcDbLine
 62
7
  6
CONTINUOUS
 10
153.8760168526
 20
98.9129585012
 11
153.896560428
 21
97.900100488
  0
LINE
  5
373
100
AcDbEntity
  8
0
100
AcDbLine
 62
7
  6
CONTINUOUS
 10
149.1952125361
 20
112.0133748277
 11
149.7938646442
 21
113.1633748277
  0
LINE
  5
374
100
AcDbEntity
  8
0
100
AcDbLine
 62
7
  6
CONTINUOUS
 10
151.5969155992
 20
113.152591312
 11
151.0033889093
 21
112.0133747926
  0
LINE
  5
375
100
AcDbEntity
  8
0
100
AcDbLine
 62
7
  6
CONTINUOUS
 10
125.316560428
 20
119.3048466903
 11
124.416560428
 21
119.3048466903
  0
LINE
  5
376
100
AcDbEntity
  8
0
100
AcDbLine
 62
7
  6
CONTINUOUS
 10
122.876560428
 20
119.3048466903
 11
122.216560428
 21
119.3048466903
  0
LINE
  5
377
100
AcDbEntity
  8
0
100
AcDbLine
 62
7
  6
CONTINUOUS
 10
125.316560428
 20
119.7248466903
 11
123.996560428
 21
119.7248466903
  0
LINE
  5
378
100
AcDbEntity
  8
0
100
AcDbLine
 62
7
  6
CONTINUOUS
 10
122.996560428
 20
119.7248466903
 11
121.796560428
 21
119.7248466903
  0
LINE
  5
379
100
AcDbEntity
  8
0
100
AcDbLine
 62
7
  6
CONTINUOUS
 10
110.396560428
 20
119.9133748277
 11
111.4554061548
 21
119.9133748277
  0
LINE
  5
37A
100
AcDbEntity
  8
0
100
AcDbLine
 62
7
  6
CONTINUOUS
 10
126.396560428
 20
119.9133748277
 11
131.396560428
 21
119.9133748277
  0
LINE
  5
37B
100
AcDbEntity
  8
0
100
AcDbLine
 62
7
  6
CONTINUOUS
 10
132.646560428
 20
120.0648466903
 11
131.4611147053
 21
120.0648466903
  0
LINE
  5
37C
100
AcDbEntity
  8
0
100
AcDbLine
 62
7
  6
CONTINUOUS
 10
115.2182829491
 20
120.0648466903
 11
126.396560428
 21
120.0648466903
  0
LINE
  5
37D
100
AcDbEntity
  8
0
100
AcDbLine
 62
7
  6
CONTINUOUS
 10
115.4249929056
 20
120.489110759
 11
126.396560428
 21
120.489110759
  0
LINE
  5
37E
100
AcDbEntity
  8
0
100
AcDbLine
 62
7
  6
CONTINUOUS
 10
131.6419275633
 20
120.489110759
 11
132.8222963593
 21
120.489110759
  0
LINE
  5
37F
100
AcDbEntity
  8
0
100
AcDbLine
 62
7
  6
CONTINUOUS
 10
133.2208244967
 20
120.8876388964
 11
131.8117722822
 21
120.8876388964
  0
LINE
  5
380
100
AcDbEntity
  8
0
100
AcDbLine
 62
7
  6
CONTINUOUS
 10
126.396560428
 20
120.8876388964
 11
115.0072517774
 21
120.8876388964
  0
LINE
  5
381
100
AcDbEntity
  8
0
100
AcDbLine
 62
7
  6
CONTINUOUS
 10
110.296560428
 20
121.0443149354
 11
109.896560428
 21
121.0443149354
  0
LINE
  5
382
100
AcDbEntity
  8
0
100
AcDbLine
 62
7
  6
CONTINUOUS
 10
114.430832775
 20
121.3119029651
 11
126.396560428
 21
121.3119029651
  0
LINE
  5
383
100
AcDbEntity
  8
0
100
AcDbLine
 62
7
  6
CONTINUOUS
 10
131.9925851402
 20
121.3119029651
 11
133.396560428
 21
121.3119029651
  0
LINE
  5
384
100
AcDbEntity
  8
0
100
AcDbLine
 62
7
  6
CONTINUOUS
 10
109.896560428
 20
123.4133748277
 11
114.8132864176
 21
123.4133748277
  0
LINE
  5
385
100
AcDbEntity
  8
0
100
AcDbLine
 62
7
  6
CONTINUOUS
 10
114.22185113
 20
123.8133748277
 11
110.296560428
 21
123.8133748277
  0
LINE
  5
386
100
AcDbEntity
  8
0
100
AcDbLine
 62
7
  6
CONTINUOUS
 10
152.636003682
 20
112.0016470274
 11
152.0363664536
 21
113.1525913099
  0
LINE
  5
387
100
AcDbEntity
  8
0
100
AcDbLine
 62
7
  6
CONTINUOUS
 10
153.896560428
 20
113.0644694808
 11
153.8506520446
 21
113.1525913402
  0
LINE
  5
388
100
AcDbEntity
  8
0
100
AcDbLine
 62
7
  6
CONTINUOUS
 10
153.896560428
 20
83.1633748277
 11
153.896560428
 21
114.6633748277
  0
LINE
  5
389
100
AcDbEntity
  8
0
100
AcDbLine
 62
7
  6
CONTINUOUS
 10
154.964658426
 20
116.5133748277
 11
154.964658426
 21
116.4875879522
  0
LINE
  5
38A
100
AcDbEntity
  8
0
100
AcDbLine
 62
7
  6
CONTINUOUS
 10
154.964658426
 20
81.3391617033
 11
154.964658426
 21
81.3133748277
  0
LINE
  5
38B
100
AcDbEntity
  8
0
100
AcDbLine
 62
7
  6
CONTINUOUS
 10
154.964658426
 20
89.3014805398
 11
154.964658426
 21
90.9510559912
  0
LINE
  5
38C
100
AcDbEntity
  8
0
100
AcDbLine
 62
7
  6
CONTINUOUS
 10
154.964658426
 20
106.8756936642
 11
154.964658426
 21
108.5252691156
  0
LINE
  5
38D
100
AcDbEntity
  8
0
100
AcDbLine
 62
7
  6
CONTINUOUS
 10
158.396560428
 20
152.2500498697
 11
158.396560428
 21
154.5766997858
  0
LINE
  5
38E
100
AcDbEntity
  8
0
100
AcDbLine
 62
7
  6
CONTINUOUS
 10
158.396560428
 20
154.9133748277
 11
158.396560428
 21
155.1133748277
  0
LINE
  5
38F
100
AcDbEntity
  8
GEOM
100
AcDbLine
 62
7
  6
CONTINUOUS
 10
141.6963018003
 20
82.5843848994
 11
140.588148494
 21
79.5397587131
  0
LINE
  5
390
100
AcDbEntity
  8
0
100
AcDbLine
 62
7
  6
CONTINUOUS
 10
153.411202403
 20
113.1525913093
 11
152.8176756915
 21
112.0133747521
  0
LINE
  5
391
100
AcDbEntity
  8
0
100
AcDbLine
 62
7
  6
CONTINUOUS
 10
153.896560428
 20
114.6633748277
 11
154.964658426
 21
116.5133748277
  0
LINE
  5
392
100
AcDbEntity
  8
0
100
AcDbLine
 62
7
  6
CONTINUOUS
 10
151.5969155992
 20
113.152591312
 11
151.6081497728
 21
113.1633748277
  0
LINE
  5
393
100
AcDbEntity
  8
0
100
AcDbLine
 62
7
  6
CONTINUOUS
 10
153.411202403
 20
113.1525913093
 11
153.4224365795
 21
113.1633748277
  0
LINE
  5
394
100
AcDbEntity
  8
0
100
AcDbLine
 62
7
  6
CONTINUOUS
 10
114.396560428
 20
124.2133748277
 11
114.6127484754
 21
124.2133748277
  0
LINE
  5
395
100
AcDbEntity
  8
0
100
AcDbLine
 62
7
  6
CONTINUOUS
 10
126.396560428
 20
124.6062680465
 11
114.396560428
 21
124.6062680465
  0
LINE
  5
396
100
AcDbEntity
  8
0
100
AcDbLine
 62
7
  6
CONTINUOUS
 10
126.396560428
 20
124.9598214357
 11
114.2501138186
 21
124.9598214371
  0
LINE
  5
397
100
AcDbEntity
  8
0
100
AcDbLine
 62
7
  6
CONTINUOUS
 10
114.146560428
 20
125.0633748277
 11
126.396560428
 21
125.0633748277
  0
LINE
  5
398
100
AcDbEntity
  8
0
100
AcDbLine
 62
7
  6
CONTINUOUS
 10
133.5913873933
 20
125.0633748277
 11
133.646560428
 21
125.0633748277
  0
LINE
  5
399
100
AcDbEntity
  8
0
100
AcDbLine
 62
7
  6
CONTINUOUS
 10
110.396560428
 20
126.9133748277
 11
113.396560428
 21
126.9133748277
  0
LINE
  5
39A
100
AcDbEntity
  8
0
100
AcDbLine
 62
7
  6
CONTINUOUS
 10
114.146560428
 20
127.5633748277
 11
125.790425622
 21
127.5633748277
  0
LINE
  5
39B
100
AcDbEntity
  8
0
100
AcDbLine
 62
7
  6
CONTINUOUS
 10
114.3968193701
 20
127.8133748277
 11
125.5572968504
 21
127.8133748277
  0
LINE
  5
39C
100
AcDbEntity
  8
0
100
AcDbLine
 62
7
  6
CONTINUOUS
 10
116.5965929867
 20
128.8133748277
 11
124.6247817643
 21
128.8133748277
  0
LINE
  5
39D
100
AcDbEntity
  8
0
100
AcDbLine
 62
7
  6
CONTINUOUS
 10
128.5153625815
 20
138.7108097762
 11
129.596560428
 21
138.0865799085
  0
LINE
  5
39E
100
AcDbEntity
  8
0
100
AcDbLine
 62
7
  6
CONTINUOUS
 10
128.5153625815
 20
141.5561092378
 11
127.896560428
 21
141.9133748277
  0
LINE
  5
39F
100
AcDbEntity
  8
0
100
AcDbLine
 62
7
  6
CONTINUOUS
 10
159.696560428
 20
150.4133748277
 11
159.696560428
 21
156.4133748277
  0
LINE
  5
3A0
100
AcDbEntity
  8
GEOM
100
AcDbLine
 62
7
  6
CONTINUOUS
 10
160.844321598
 20
156.4133748277
 11
160.844321598
 21
156.4297927382
  0
LINE
  5
3A1
100
AcDbEntity
  8
GEOM
100
AcDbLine
 62
7
  6
CONTINUOUS
 10
161.7089191569
 20
156.4133748277
 11
161.7089191569
 21
156.4297927382
  0
LINE
  5
3A2
100
AcDbEntity
  8
GEOM
100
AcDbLine
 62
7
  6
CONTINUOUS
 10
162.344321598
 20
156.4133748277
 11
162.344321598
 21
156.4297927382
  0
LINE
  5
3A3
100
AcDbEntity
  8
GEOM
100
AcDbLine
 62
7
  6
CONTINUOUS
 10
162.9410736744
 20
156.4133748277
 11
162.9410736744
 21
156.4297927382
  0
LINE
  5
3A4
100
AcDbEntity
  8
0
100
AcDbLine
 62
7
  6
CONTINUOUS
 10
163.2222446473
 20
108.5252691156
 11
163.2222446473
 21
106.8756936642
  0
LINE
  5
3A5
100
AcDbEntity
  8
0
100
AcDbLine
 62
7
  6
CONTINUOUS
 10
163.2222446473
 20
90.9510559912
 11
163.2222446473
 21
89.3014805398
  0
LINE
  5
3A6
100
AcDbEntity
  8
0
100
AcDbLine
 62
7
  6
CONTINUOUS
 10
163.2222446473
 20
81.3133748277
 11
163.2222446473
 21
81.3391617033
  0
LINE
  5
3A7
100
AcDbEntity
  8
0
100
AcDbLine
 62
7
  6
CONTINUOUS
 10
163.2222446473
 20
116.4875879522
 11
163.2222446473
 21
116.5133748277
  0
LINE
  5
3A8
100
AcDbEntity
  8
0
100
AcDbLine
 62
7
  6
CONTINUOUS
 10
163.4820522685
 20
116.3633748277
 11
163.4820522685
 21
116.3378077267
  0
LINE
  5
3A9
100
AcDbEntity
  8
0
100
AcDbLine
 62
7
  6
CONTINUOUS
 10
163.4820522685
 20
108.4433495621
 11
163.4820522685
 21
106.8078329923
  0
LINE
  5
3AA
100
AcDbEntity
  8
0
100
AcDbLine
 62
7
  6
CONTINUOUS
 10
163.4820522685
 20
91.0189166631
 11
163.4820522685
 21
89.3834000934
  0
LINE
  5
3AB
100
AcDbEntity
  8
0
100
AcDbLine
 62
7
  6
CONTINUOUS
 10
163.4820522685
 20
81.4889419288
 11
163.4820522685
 21
81.4633748277
  0
LINE
  5
3AC
100
AcDbEntity
  8
0
100
AcDbLine
 62
7
  6
CONTINUOUS
 10
116.646560428
 20
131.3803621258
 11
116.661741231
 21
131.3803621258
  0
LINE
  5
3AD
100
AcDbEntity
  8
0
100
AcDbLine
 62
7
  6
CONTINUOUS
 10
119.8730493757
 20
131.3803621258
 11
120.6852522833
 21
131.3803621258
  0
LINE
  5
3AE
100
AcDbEntity
  8
0
100
AcDbLine
 62
7
  6
CONTINUOUS
 10
121.8272365059
 20
131.8133748277
 11
117.396560428
 21
131.8133748277
  0
LINE
  5
3AF
100
AcDbEntity
  8
0
100
AcDbLine
 62
7
  6
CONTINUOUS
 10
120.3352123681
 20
133.4133748277
 11
119.396560428
 21
133.4133748277
  0
LINE
  5
3B0
100
AcDbEntity
  8
0
100
AcDbLine
 62
7
  6
CONTINUOUS
 10
111.6134424362
 20
133.9133748277
 11
120.5291755049
 21
133.9133748277
  0
LINE
  5
3B1
100
AcDbEntity
  8
0
100
AcDbLine
 62
7
  6
CONTINUOUS
 10
121.4159471732
 20
133.9133748277
 11
135.7853082353
 21
133.9133748277
  0
LINE
  5
3B2
100
AcDbEntity
  8
0
100
AcDbLine
 62
7
  6
CONTINUOUS
 10
137.3207643754
 20
133.9133748277
 11
142.396560428
 21
133.9133748277
  0
LINE
  5
3B3
100
AcDbEntity
  8
0
100
AcDbLine
 62
7
  6
CONTINUOUS
 10
163.4820522685
 20
116.3633748277
 11
164.8099578876
 21
114.0633748277
  0
LINE
  5
3B4
100
AcDbEntity
  8
GEOM
100
AcDbLine
 62
7
  6
CONTINUOUS
 10
164.1433124785
 20
156.4133748277
 11
164.1433124785
 21
156.4297927382
  0
LINE
  5
3B5
100
AcDbEntity
  8
0
100
AcDbLine
 62
7
  6
CONTINUOUS
 10
164.8099578876
 20
83.7633748277
 11
164.8099578876
 21
114.0633748277
  0
LINE
  5
3B6
100
AcDbEntity
  8
GEOM
100
AcDbLine
 62
7
  6
CONTINUOUS
 10
164.8644302184
 20
156.4133748277
 11
164.8644302184
 21
156.4297927382
  0
LINE
  5
3B7
100
AcDbEntity
  8
0
100
AcDbLine
 62
7
  6
CONTINUOUS
 10
165.0697655087
 20
83.9133748277
 11
165.0697655087
 21
113.9133748277
  0
LINE
  5
3B8
100
AcDbEntity
  8
GEOM
100
AcDbLine
 62
7
  6
CONTINUOUS
 10
167.196560428
 20
113.9133748277
 11
167.196560428
 21
83.9133748277
  0
LINE
  5
3B9
100
AcDbEntity
  8
GEOM
100
AcDbLine
 62
7
  6
CONTINUOUS
 10
167.7390570796
 20
156.4133748277
 11
167.7390570796
 21
156.4297927382
  0
LINE
  5
3BA
100
AcDbEntity
  8
GEOM
100
AcDbLine
 62
7
  6
CONTINUOUS
 10
167.896560428
 20
113.2133748277
 11
167.896560428
 21
84.6133748277
  0
LINE
  5
3BB
100
AcDbEntity
  8
GEOM
100
AcDbLine
 62
7
  6
CONTINUOUS
 10
168.4722838631
 20
156.4133748277
 11
168.4722838631
 21
156.4297927382
  0
LINE
  5
3BC
100
AcDbEntity
  8
0
100
AcDbLine
 62
7
  6
CONTINUOUS
 10
149.3149367461
 20
84.6741583287
 11
149.9084634323
 21
85.8133748385
  0
LINE
  5
3BD
100
AcDbEntity
  8
0
100
AcDbLine
 62
7
  6
CONTINUOUS
 10
151.1292230426
 20
84.6741583483
 11
151.7227497478
 21
85.8133748885
  0
LINE
  5
3BE
100
AcDbEntity
  8
0
100
AcDbLine
 62
7
  6
CONTINUOUS
 10
152.9435095713
 20
84.6741583346
 11
153.5370362869
 21
85.8133748954
  0
LINE
  5
3BF
100
AcDbEntity
  8
0
100
AcDbLine
 62
7
  6
CONTINUOUS
 10
138.696560428
 20
79.4133748277
 11
138.896560428
 21
79.6133748277
  0
LINE
  5
3C0
100
AcDbEntity
  8
0
100
AcDbLine
 62
7
  6
CONTINUOUS
 10
113.396560428
 20
136.9133748277
 11
142.396560428
 21
136.9133748277
  0
LINE
  5
3C1
100
AcDbEntity
  8
0
100
AcDbLine
 62
7
  6
CONTINUOUS
 10
117.896560428
 20
137.5669646662
 11
129.896560428
 21
137.5669646662
  0
LINE
  5
3C2
100
AcDbEntity
  8
0
100
AcDbLine
 62
7
  6
CONTINUOUS
 10
118.196560428
 20
138.0865799085
 11
129.596560428
 21
138.0865799085
  0
LINE
  5
3C3
100
AcDbEntity
  8
GEOM
100
AcDbLine
 62
7
  6
CONTINUOUS
 10
169.7685525178
 20
156.4133748277
 11
169.7685525178
 21
156.4297927382
  0
LINE
  5
3C4
100
AcDbEntity
  8
GEOM
100
AcDbLine
 62
7
  6
CONTINUOUS
 10
170.3327316214
 20
156.4133748277
 11
170.3327316214
 21
156.4297927382
  0
LINE
  5
3C5
100
AcDbEntity
  8
GEOM
100
AcDbLine
 62
7
  6
CONTINUOUS
 10
170.4334778899
 20
156.4133748277
 11
170.4334778899
 21
156.4297927382
  0
LINE
  5
3C6
100
AcDbEntity
  8
GEOM
100
AcDbLine
 62
7
  6
CONTINUOUS
 10
170.6081047553
 20
156.4133748277
 11
170.6081047553
 21
156.4297927382
  0
LINE
  5
3C7
100
AcDbEntity
  8
GEOM
100
AcDbLine
 62
7
  6
CONTINUOUS
 10
171.3052689334
 20
156.4133748277
 11
171.3052689334
 21
156.4297927382
  0
LINE
  5
3C8
100
AcDbEntity
  8
GEOM
100
AcDbLine
 62
7
  6
CONTINUOUS
 10
171.8220972908
 20
156.4133748277
 11
171.8220972908
 21
156.4297927382
  0
LINE
  5
3C9
100
AcDbEntity
  8
GEOM
100
AcDbLine
 62
7
  6
CONTINUOUS
 10
172.3678062451
 20
156.4133748277
 11
172.3678062451
 21
156.4297927382
  0
LINE
  5
3CA
100
AcDbEntity
  8
GEOM
100
AcDbLine
 62
7
  6
CONTINUOUS
 10
172.911836095
 20
156.4133748277
 11
172.911836095
 21
156.4297927382
  0
LINE
  5
3CB
100
AcDbEntity
  8
GEOM
100
AcDbLine
 62
7
  6
CONTINUOUS
 10
173.2409405721
 20
156.4133748277
 11
173.2409405721
 21
156.4297927382
  0
LINE
  5
3CC
100
AcDbEntity
  8
GEOM
100
AcDbLine
 62
7
  6
CONTINUOUS
 10
174.0133286306
 20
156.4133748277
 11
174.0133286306
 21
156.4297927382
  0
LINE
  5
3CD
100
AcDbEntity
  8
0
100
AcDbLine
 62
7
  6
CONTINUOUS
 10
149.3149367461
 20
84.6741583287
 11
149.3037025878
 21
84.6633748277
  0
LINE
  5
3CE
100
AcDbEntity
  8
0
100
AcDbLine
 62
7
  6
CONTINUOUS
 10
151.1292230426
 20
84.6741583483
 11
151.1179888638
 21
84.6633748277
  0
LINE
  5
3CF
100
AcDbEntity
  8
0
100
AcDbLine
 62
7
  6
CONTINUOUS
 10
119.8966075038
 20
141.9133748277
 11
127.8965133521
 21
141.9133748277
  0
LINE
  5
3D0
100
AcDbEntity
  8
GEOM
100
AcDbLine
 62
7
  6
CONTINUOUS
 10
174.8327316144
 20
156.4133748277
 11
174.8327316144
 21
156.4297927382
  0
LINE
  5
3D1
100
AcDbEntity
  8
GEOM
100
AcDbLine
 62
7
  6
CONTINUOUS
 10
174.8425770567
 20
156.4133748277
 11
174.8425770567
 21
156.4297927382
  0
LINE
  5
3D2
100
AcDbEntity
  8
GEOM
100
AcDbLine
 62
7
  6
CONTINUOUS
 10
175.3095972853
 20
156.4133748277
 11
175.3095972853
 21
156.4297927382
  0
LINE
  5
3D3
100
AcDbEntity
  8
GEOM
100
AcDbLine
 62
7
  6
CONTINUOUS
 10
175.6051196729
 20
156.4133748277
 11
175.6051196729
 21
156.4297927382
  0
LINE
  5
3D4
100
AcDbEntity
  8
GEOM
100
AcDbLine
 62
7
  6
CONTINUOUS
 10
177.6267614608
 20
156.4133748277
 11
177.6267614608
 21
156.4297927382
  0
LINE
  5
3D5
100
AcDbEntity
  8
GEOM
100
AcDbLine
 62
7
  6
CONTINUOUS
 10
179.1872455708
 20
156.4133748277
 11
179.1872455708
 21
156.4297927382
  0
LINE
  5
3D6
100
AcDbEntity
  8
GEOM
100
AcDbLine
 62
7
  6
CONTINUOUS
 10
179.2857166821
 20
156.4133748277
 11
179.2857166821
 21
156.4297927382
  0
LINE
  5
3D7
100
AcDbEntity
  8
0
100
AcDbLine
 62
7
  6
CONTINUOUS
 10
152.9435095713
 20
84.6741583346
 11
152.9322754067
 21
84.6633748277
  0
LINE
  5
3D8
100
AcDbEntity
  8
GEOM
100
AcDbLine
 62
7
  6
CONTINUOUS
 10
180.1252689196
 20
156.4133748277
 11
180.1252689196
 21
156.4297927382
  0
LINE
  5
3D9
100
AcDbEntity
  8
GEOM
100
AcDbLine
 62
7
  6
CONTINUOUS
 10
180.2730282009
 20
156.4297927382
 11
180.2730282009
 21
156.4133748277
  0
LINE
  5
3DA
100
AcDbEntity
  8
GEOM
100
AcDbLine
 62
7
  6
CONTINUOUS
 10
180.7095972769
 20
156.4133748277
 11
180.7095972769
 21
156.4297927382
  0
LINE
  5
3DB
100
AcDbEntity
  8
GEOM
100
AcDbLine
 62
7
  6
CONTINUOUS
 10
182.1603435433
 20
156.4133748277
 11
182.1603435433
 21
156.4297927382
  0
LINE
  5
3DC
100
AcDbEntity
  8
GEOM
100
AcDbLine
 62
7
  6
CONTINUOUS
 10
183.3443215942
 20
156.4133748277
 11
183.3443215942
 21
156.4297927382
  0
LINE
  5
3DD
100
AcDbEntity
  8
GEOM
100
AcDbLine
 62
7
  6
CONTINUOUS
 10
183.9925480767
 20
156.4133748277
 11
183.9925480767
 21
156.4297927382
  0
LINE
  5
3DE
100
AcDbEntity
  8
GEOM
100
AcDbLine
 62
7
  6
CONTINUOUS
 10
184.2662179035
 20
156.4133748277
 11
184.2662179035
 21
156.4297927382
  0
LINE
  5
3DF
100
AcDbEntity
  8
GEOM
100
AcDbLine
 62
7
  6
CONTINUOUS
 10
184.4527058069
 20
156.4133748277
 11
184.4527058069
 21
156.4297927382
  0
LINE
  5
3E0
100
AcDbEntity
  8
GEOM
100
AcDbLine
 62
7
  6
CONTINUOUS
 10
184.5769955211
 20
156.4133748277
 11
184.5769955211
 21
156.4297927382
  0
LINE
  5
3E1
100
AcDbEntity
  8
GEOM
100
AcDbLine
 62
7
  6
CONTINUOUS
 10
184.6280187829
 20
156.4133748277
 11
184.6280187829
 21
156.4297927382
  0
LINE
  5
3E2
100
AcDbEntity
  8
0
100
AcDbLine
 62
7
  6
CONTINUOUS
 10
163.4820522685
 20
81.4633748277
 11
164.8099578876
 21
83.7633748277
  0
LINE
  5
3E3
100
AcDbEntity
  8
0
100
AcDbLine
 62
7
  6
CONTINUOUS
 10
159.696560428
 20
150.4133748277
 11
212.896560428
 21
150.4133748277
  0
LINE
  5
3E4
100
AcDbEntity
  8
0
100
AcDbLine
 62
7
  6
CONTINUOUS
 10
158.396560428
 20
152.9133748277
 11
215.396560428
 21
152.9133748277
  0
LINE
  5
3E5
100
AcDbEntity
  8
0
100
AcDbLine
 62
7
  6
CONTINUOUS
 10
158.396560428
 20
153.9133748277
 11
215.396560428
 21
153.9133748277
  0
LINE
  5
3E6
100
AcDbEntity
  8
0
100
AcDbLine
 62
7
  6
CONTINUOUS
 10
158.396560428
 20
154.9133748277
 11
158.414330905
 21
154.9133748277
  0
LINE
  5
3E7
100
AcDbEntity
  8
GEOM
100
AcDbLine
 62
7
  6
CONTINUOUS
 10
184.7192987632
 20
156.4133748277
 11
184.7192987632
 21
156.4297927382
  0
LINE
  5
3E8
100
AcDbEntity
  8
GEOM
100
AcDbLine
 62
7
  6
CONTINUOUS
 10
184.9063269956
 20
156.4133748277
 11
184.9063269956
 21
156.4297927382
  0
LINE
  5
3E9
100
AcDbEntity
  8
GEOM
100
AcDbLine
 62
7
  6
CONTINUOUS
 10
185.1150582059
 20
156.4133748277
 11
185.1150582059
 21
156.4297927382
  0
LINE
  5
3EA
100
AcDbEntity
  8
GEOM
100
AcDbLine
 62
7
  6
CONTINUOUS
 10
185.3203106268
 20
156.4133748277
 11
185.3203106268
 21
156.4297927382
  0
LINE
  5
3EB
100
AcDbEntity
  8
GEOM
100
AcDbLine
 62
7
  6
CONTINUOUS
 10
185.4061223848
 20
156.4133748277
 11
185.4061223848
 21
156.4297927382
  0
LINE
  5
3EC
100
AcDbEntity
  8
GEOM
100
AcDbLine
 62
7
  6
CONTINUOUS
 10
185.429314719
 20
156.4133748277
 11
185.429314719
 21
156.4297927382
  0
LINE
  5
3ED
100
AcDbEntity
  8
GEOM
100
AcDbLine
 62
7
  6
CONTINUOUS
 10
185.5638305409
 20
156.4133748277
 11
185.5638305409
 21
156.4297927382
  0
LINE
  5
3EE
100
AcDbEntity
  8
GEOM
100
AcDbLine
 62
7
  6
CONTINUOUS
 10
185.7352717404
 20
156.4133748277
 11
185.7352717404
 21
156.4297927382
  0
LINE
  5
3EF
100
AcDbEntity
  8
GEOM
100
AcDbLine
 62
7
  6
CONTINUOUS
 10
185.8630814606
 20
156.4133748277
 11
185.8630814606
 21
156.4297927382
  0
LINE
  5
3F0
100
AcDbEntity
  8
GEOM
100
AcDbLine
 62
7
  6
CONTINUOUS
 10
185.9801333649
 20
156.4133748277
 11
185.9801333649
 21
156.4297927382
  0
LINE
  5
3F1
100
AcDbEntity
  8
GEOM
100
AcDbLine
 62
7
  6
CONTINUOUS
 10
186.4486190422
 20
156.4133748277
 11
186.4486190422
 21
156.4297927382
  0
LINE
  5
3F2
100
AcDbEntity
  8
GEOM
100
AcDbLine
 62
7
  6
CONTINUOUS
 10
186.4915249212
 20
156.4133748277
 11
186.4915249212
 21
156.4297927382
  0
LINE
  5
3F3
100
AcDbEntity
  8
GEOM
100
AcDbLine
 62
7
  6
CONTINUOUS
 10
186.6759042008
 20
156.4133748277
 11
186.6759042008
 21
156.4297927382
  0
LINE
  5
3F4
100
AcDbEntity
  8
GEOM
100
AcDbLine
 62
7
  6
CONTINUOUS
 10
186.883475612
 20
156.4133748277
 11
186.883475612
 21
156.4297927382
  0
LINE
  5
3F5
100
AcDbEntity
  8
GEOM
100
AcDbLine
 62
7
  6
CONTINUOUS
 10
187.1235165341
 20
156.4133748277
 11
187.1235165341
 21
156.4297927382
  0
LINE
  5
3F6
100
AcDbEntity
  8
GEOM
100
AcDbLine
 62
7
  6
CONTINUOUS
 10
187.1803379758
 20
156.4133748277
 11
187.1803379758
 21
156.4297927382
  0
LINE
  5
3F7
100
AcDbEntity
  8
GEOM
100
AcDbLine
 62
7
  6
CONTINUOUS
 10
187.2116474851
 20
156.4133748277
 11
187.2116474851
 21
156.4297927382
  0
LINE
  5
3F8
100
AcDbEntity
  8
GEOM
100
AcDbLine
 62
7
  6
CONTINUOUS
 10
187.2527315951
 20
156.4133748277
 11
187.2527315951
 21
156.4297927382
  0
LINE
  5
3F9
100
AcDbEntity
  8
GEOM
100
AcDbLine
 62
7
  6
CONTINUOUS
 10
187.2835440858
 20
156.4133748277
 11
187.2835440858
 21
156.4297927382
  0
LINE
  5
3FA
100
AcDbEntity
  8
GEOM
100
AcDbLine
 62
7
  6
CONTINUOUS
 10
187.4922750934
 20
156.4133748277
 11
187.4922750934
 21
156.4297927382
  0
LINE
  5
3FB
100
AcDbEntity
  8
GEOM
100
AcDbLine
 62
7
  6
CONTINUOUS
 10
187.5269840672
 20
156.4133748277
 11
187.5269840672
 21
156.4297927382
  0
LINE
  5
3FC
100
AcDbEntity
  8
GEOM
100
AcDbLine
 62
7
  6
CONTINUOUS
 10
187.6045440164
 20
156.4133748277
 11
187.6045440164
 21
156.4297927382
  0
LINE
  5
3FD
100
AcDbEntity
  8
GEOM
100
AcDbLine
 62
7
  6
CONTINUOUS
 10
187.7276776297
 20
156.4133748277
 11
187.7276776297
 21
156.4297927382
  0
LINE
  5
3FE
100
AcDbEntity
  8
GEOM
100
AcDbLine
 62
7
  6
CONTINUOUS
 10
187.8807471974
 20
156.4133748277
 11
187.8807471974
 21
156.4297927382
  0
LINE
  5
3FF
100
AcDbEntity
  8
GEOM
100
AcDbLine
 62
7
  6
CONTINUOUS
 10
187.9526433928
 20
156.4133748277
 11
187.9526433928
 21
156.4297927382
  0
LINE
  5
400
100
AcDbEntity
  8
GEOM
100
AcDbLine
 62
7
  6
CONTINUOUS
 10
188.0778822406
 20
156.4133748277
 11
188.0778822406
 21
156.4297927382
  0
LINE
  5
401
100
AcDbEntity
  8
GEOM
100
AcDbLine
 62
7
  6
CONTINUOUS
 10
188.2866136535
 20
156.4133748277
 11
188.2866136535
 21
156.4297927382
  0
LINE
  5
402
100
AcDbEntity
  8
0
100
AcDbLine
 62
7
  6
CONTINUOUS
 10
159.696560428
 20
156.4133748277
 11
212.896560428
 21
156.4133748277
  0
LINE
  5
403
100
AcDbEntity
  8
GEOM
100
AcDbLine
 62
7
  6
CONTINUOUS
 10
160.844321598
 20
156.4297927382
 11
162.344321598
 21
156.4297927382
  0
LINE
  5
404
100
AcDbEntity
  8
GEOM
100
AcDbLine
 62
7
  6
CONTINUOUS
 10
162.9410736744
 20
156.4297927382
 11
169.7685525178
 21
156.4297927382
  0
LINE
  5
405
100
AcDbEntity
  8
GEOM
100
AcDbLine
 62
7
  6
CONTINUOUS
 10
169.7804051151
 20
156.4297927382
 11
175.3095972853
 21
156.4297927382
  0
LINE
  5
406
100
AcDbEntity
  8
GEOM
100
AcDbLine
 62
7
  6
CONTINUOUS
 10
175.6051196729
 20
156.4297927382
 11
179.2857166821
 21
156.4297927382
  0
LINE
  5
407
100
AcDbEntity
  8
GEOM
100
AcDbLine
 62
7
  6
CONTINUOUS
 10
179.2962007061
 20
156.4297927382
 11
180.1252689196
 21
156.4297927382
  0
LINE
  5
408
100
AcDbEntity
  8
GEOM
100
AcDbLine
 62
7
  6
CONTINUOUS
 10
180.2730764456
 20
156.4297927382
 11
186.4877104649
 21
156.4297927382
  0
LINE
  5
409
100
AcDbEntity
  8
GEOM
100
AcDbLine
 62
7
  6
CONTINUOUS
 10
186.4915249212
 20
156.4297927382
 11
188.2866136535
 21
156.4297927382
  0
LINE
  5
40A
100
AcDbEntity
  8
GEOM
100
AcDbLine
 62
7
  6
CONTINUOUS
 10
197.9259051004
 20
156.4297927382
 11
199.0607315624
 21
156.4297927382
  0
LINE
  5
40B
100
AcDbEntity
  8
GEOM
100
AcDbLine
 62
7
  6
CONTINUOUS
 10
199.2557162212
 20
156.4297927382
 11
200.2232966024
 21
156.4297927382
  0
LINE
  5
40C
100
AcDbEntity
  8
GEOM
100
AcDbLine
 62
7
  6
CONTINUOUS
 10
200.282036611
 20
156.4297927382
 11
201.1264259001
 21
156.4297927382
  0
LINE
  5
40D
100
AcDbEntity
  8
GEOM
100
AcDbLine
 62
7
  6
CONTINUOUS
 10
202.216089091
 20
156.4297927382
 11
205.3788631744
 21
156.4297927382
  0
LINE
  5
40E
100
AcDbEntity
  8
GEOM
100
AcDbLine
 62
7
  6
CONTINUOUS
 10
197.9259051004
 20
156.4133748277
 11
197.9259051004
 21
156.4297927382
  0
LINE
  5
40F
100
AcDbEntity
  8
GEOM
100
AcDbLine
 62
7
  6
CONTINUOUS
 10
198.0823420568
 20
156.4133748277
 11
198.0823420568
 21
156.4297927382
  0
LINE
  5
410
100
AcDbEntity
  8
GEOM
100
AcDbLine
 62
7
  6
CONTINUOUS
 10
198.4961737704
 20
156.4133748277
 11
198.4961737704
 21
156.4297927382
  0
LINE
  5
411
100
AcDbEntity
  8
GEOM
100
AcDbLine
 62
7
  6
CONTINUOUS
 10
198.9073546399
 20
156.4133748277
 11
198.9073546399
 21
156.4297927382
  0
LINE
  5
412
100
AcDbEntity
  8
GEOM
100
AcDbLine
 62
7
  6
CONTINUOUS
 10
199.0607315624
 20
156.4133748277
 11
199.0607315624
 21
156.4297927382
  0
LINE
  5
413
100
AcDbEntity
  8
GEOM
100
AcDbLine
 62
7
  6
CONTINUOUS
 10
199.2557162212
 20
156.4133748277
 11
199.2557162212
 21
156.4297927382
  0
LINE
  5
414
100
AcDbEntity
  8
GEOM
100
AcDbLine
 62
7
  6
CONTINUOUS
 10
199.2655062465
 20
156.4133748277
 11
199.2655062465
 21
156.4297927382
  0
LINE
  5
415
100
AcDbEntity
  8
GEOM
100
AcDbLine
 62
7
  6
CONTINUOUS
 10
199.510256736
 20
156.4133748277
 11
199.510256736
 21
156.4297927382
  0
LINE
  5
416
100
AcDbEntity
  8
GEOM
100
AcDbLine
 62
7
  6
CONTINUOUS
 10
200.0348387226
 20
156.4133748277
 11
200.0348387226
 21
156.4297927382
  0
LINE
  5
417
100
AcDbEntity
  8
GEOM
100
AcDbLine
 62
7
  6
CONTINUOUS
 10
200.1098955356
 20
156.4133748277
 11
200.1098955356
 21
156.4297927382
  0
LINE
  5
418
100
AcDbEntity
  8
GEOM
100
AcDbLine
 62
7
  6
CONTINUOUS
 10
200.2232966024
 20
156.4133748277
 11
200.2232966024
 21
156.4297927382
  0
LINE
  5
419
100
AcDbEntity
  8
GEOM
100
AcDbLine
 62
7
  6
CONTINUOUS
 10
200.282036611
 20
156.4133748277
 11
200.282036611
 21
156.4297927382
  0
LINE
  5
41A
100
AcDbEntity
  8
GEOM
100
AcDbLine
 62
7
  6
CONTINUOUS
 10
200.5267871006
 20
156.4133748277
 11
200.5267871006
 21
156.4297927382
  0
LINE
  5
41B
100
AcDbEntity
  8
GEOM
100
AcDbLine
 62
7
  6
CONTINUOUS
 10
201.0513690872
 20
156.4133748277
 11
201.0513690872
 21
156.4297927382
  0
LINE
  5
41C
100
AcDbEntity
  8
GEOM
100
AcDbLine
 62
7
  6
CONTINUOUS
 10
201.1264259001
 20
156.4133748277
 11
201.1264259001
 21
156.4297927382
  0
LINE
  5
41D
100
AcDbEntity
  8
GEOM
100
AcDbLine
 62
7
  6
CONTINUOUS
 10
202.216089091
 20
156.4133748277
 11
202.216089091
 21
156.4297927382
  0
LINE
  5
41E
100
AcDbEntity
  8
GEOM
100
AcDbLine
 62
7
  6
CONTINUOUS
 10
203.5608765888
 20
156.4133748277
 11
203.5608765888
 21
156.4297927382
  0
LINE
  5
41F
100
AcDbEntity
  8
GEOM
100
AcDbLine
 62
7
  6
CONTINUOUS
 10
205.3789465858
 20
156.4133748277
 11
205.3789465858
 21
156.4297927382
  0
LINE
  5
420
100
AcDbEntity
  8
0
100
AcDbLine
 62
7
  6
CONTINUOUS
 10
205.896560428
 20
150.4133748277
 11
205.896560428
 21
156.4133748277
  0
LINE
  5
421
100
AcDbEntity
  8
0
100
AcDbLine
 62
7
  6
CONTINUOUS
 10
215.396560428
 20
152.9133748277
 11
215.396560428
 21
153.9133748277
  0
ARC
  5
422
100
AcDbEntity
  8
0
100
AcDbCircle
 62
7
  6
CONTINUOUS
 10
105.7244611255
 20
78.3710297916
 40
3.5619235659
100
AcDbArc
 50
89.7201288296
 51
90.0012989414
  0
ARC
  5
423
100
AcDbEntity
  8
0
100
AcDbCircle
 62
7
  6
CONTINUOUS
 10
113.9164330444
 20
115.2943486545
 40
2.1299053067
100
AcDbArc
 50
70.0737100775
 51
70.4566572309
  0
ARC
  5
424
100
AcDbEntity
  8
0
100
AcDbCircle
 62
7
  6
CONTINUOUS
 10
115.2249875527
 20
82.4133748277
 40
2.0
100
AcDbArc
 50
225.0
 51
270.0
  0
ARC
  5
425
100
AcDbEntity
  8
0
100
AcDbCircle
 62
7
  6
CONTINUOUS
 10
115.2249875527
 20
115.4133748277
 40
2.0
100
AcDbArc
 50
108.2837983969
 51
135.0
  0
ARC
  5
426
100
AcDbEntity
  8
0
100
AcDbCircle
 62
7
  6
CONTINUOUS
 10
110.5681333032
 20
116.4133748277
 40
2.0
100
AcDbArc
 50
270.0
 51
315.0
  0
ARC
  5
427
100
AcDbEntity
  8
0
100
AcDbCircle
 62
7
  6
CONTINUOUS
 10
110.5681333032
 20
81.4133748277
 40
2.0
100
AcDbArc
 50
45.0
 51
90.0
  0
ARC
  5
428
100
AcDbEntity
  8
GEOM
100
AcDbCircle
 62
7
  6
CONTINUOUS
 10
80.596560428
 20
113.2133748277
 40
0.7
100
AcDbArc
 50
90.0
 51
180.0
  0
ARC
  5
429
100
AcDbEntity
  8
GEOM
100
AcDbCircle
 62
7
  6
CONTINUOUS
 10
80.596560428
 20
84.6133748277
 40
0.7
100
AcDbArc
 50
180.0
 51
270.0
  0
ARC
  5
42A
100
AcDbEntity
  8
0
100
AcDbCircle
 62
7
  6
CONTINUOUS
 10
105.7418598896
 20
82.4133748277
 40
0.5
100
AcDbArc
 50
270.0
 51
330.0
  0
ARC
  5
42B
100
AcDbEntity
  8
0
100
AcDbCircle
 62
7
  6
CONTINUOUS
 10
105.7418598896
 20
115.4133748277
 40
0.5
100
AcDbArc
 50
30.0
 51
90.0
  0
ARC
  5
42C
100
AcDbEntity
  8
0
100
AcDbCircle
 62
7
  6
CONTINUOUS
 10
107.1852355626
 20
82.9133748277
 40
0.5
100
AcDbArc
 50
90.0
 51
150.0000000002
  0
ARC
  5
42D
100
AcDbEntity
  8
0
100
AcDbCircle
 62
7
  6
CONTINUOUS
 10
107.1852355626
 20
114.9133748277
 40
0.5
100
AcDbArc
 50
209.9999999998
 51
270.0
  0
ARC
  5
42E
100
AcDbEntity
  8
0
100
AcDbCircle
 62
7
  6
CONTINUOUS
 10
84.5707592978
 20
116.1875704865
 40
0.3000174884
100
AcDbArc
 50
89.9776729826
 51
149.9495995658
  0
ARC
  5
42F
100
AcDbEntity
  8
0
100
AcDbCircle
 62
7
  6
CONTINUOUS
 10
84.5707592968
 20
81.6391791672
 40
0.3000174867
100
AcDbArc
 50
210.0504002382
 51
270.0223272133
  0
ARC
  5
430
100
AcDbEntity
  8
0
100
AcDbCircle
 62
7
  6
CONTINUOUS
 10
84.5708762086
 20
116.2133748277
 40
0.3
100
AcDbArc
 50
90.0
 51
150.0
  0
ARC
  5
431
100
AcDbEntity
  8
0
100
AcDbCircle
 62
7
  6
CONTINUOUS
 10
84.5708762086
 20
81.6133748277
 40
0.3
100
AcDbArc
 50
210.0
 51
270.0
  0
ARC
  5
432
100
AcDbEntity
  8
0
100
AcDbCircle
 62
7
  6
CONTINUOUS
 10
82.7233553472
 20
114.2133748277
 40
0.3
100
AcDbArc
 50
270.0
 51
330.0000000001
  0
ARC
  5
433
100
AcDbEntity
  8
0
100
AcDbCircle
 62
7
  6
CONTINUOUS
 10
82.7233553472
 20
83.6133748277
 40
0.3
100
AcDbArc
 50
29.9999999999
 51
90.0
  0
ARC
  5
434
100
AcDbEntity
  8
0
100
AcDbCircle
 62
7
  6
CONTINUOUS
 10
105.7244533283
 20
111.2425426703
 40
0.2545557371
100
AcDbArc
 50
86.0790459196
 51
90.0164212241
  0
ARC
  5
435
100
AcDbEntity
  8
0
100
AcDbCircle
 62
7
  6
CONTINUOUS
 10
105.7244533348
 20
86.5842069554
 40
0.2545557073
100
AcDbArc
 50
269.9835778152
 51
273.9209530739
  0
ARC
  5
436
100
AcDbEntity
  8
0
100
AcDbCircle
 62
7
  6
CONTINUOUS
 10
105.7244501669
 20
87.2517808371
 40
0.231375231
100
AcDbArc
 50
85.6847269281
 51
90.0172835119
  0
ARC
  5
437
100
AcDbEntity
  8
0
100
AcDbCircle
 62
7
  6
CONTINUOUS
 10
105.7244501735
 20
110.574968791
 40
0.2313752036
100
AcDbArc
 50
269.9827154218
 51
274.3152719559
  0
ARC
  5
438
100
AcDbEntity
  8
0
100
AcDbCircle
 62
7
  6
CONTINUOUS
 10
105.7244376859
 20
99.5571182447
 40
0.171907658
100
AcDbArc
 50
84.1832987866
 51
90.0191017982
  0
ARC
  5
439
100
AcDbEntity
  8
0
100
AcDbCircle
 62
7
  6
CONTINUOUS
 10
105.7244376895
 20
98.2696313994
 40
0.1719076467
100
AcDbArc
 50
269.9808974085
 51
275.8167003826
  0
ARC
  5
43A
100
AcDbEntity
  8
0
100
AcDbCircle
 62
7
  6
CONTINUOUS
 10
105.7244611293
 20
119.4557196238
 40
3.5619233258
100
AcDbArc
 50
269.9987010187
 51
270.2798711281
  0
ARC
  5
43B
100
AcDbEntity
  8
0
100
AcDbCircle
 62
7
  6
CONTINUOUS
 10
113.396560428
 20
133.9133748277
 40
3.0
100
AcDbArc
 50
90.0
 51
180.0
  0
ARC
  5
43C
100
AcDbEntity
  8
0
100
AcDbCircle
 62
7
  6
CONTINUOUS
 10
122.996560428
 20
118.8248466903
 40
0.9
100
AcDbArc
 50
0.0
 51
90.0
  0
ARC
  5
43D
100
AcDbEntity
  8
0
100
AcDbCircle
 62
7
  6
CONTINUOUS
 10
122.996560428
 20
117.0248466903
 40
0.9
100
AcDbArc
 50
270.0
 51
360.0
  0
ARC
  5
43E
100
AcDbEntity
  8
0
100
AcDbCircle
 62
7
  6
CONTINUOUS
 10
114.3465608769
 20
118.0720149858
 40
0.7999999624
100
AcDbArc
 50
288.2837606672
 51
291.1501198545
  0
ARC
  5
43F
100
AcDbEntity
  8
0
100
AcDbCircle
 62
7
  6
CONTINUOUS
 10
118.496560428
 20
137.5669646662
 40
0.6
100
AcDbArc
 50
120.0
 51
180.0
  0
ARC
  5
440
100
AcDbEntity
  8
0
100
AcDbCircle
 62
7
  6
CONTINUOUS
 10
122.876560428
 20
117.1448466903
 40
0.6
100
AcDbArc
 50
270.0
 51
360.0
  0
ARC
  5
441
100
AcDbEntity
  8
0
100
AcDbCircle
 62
7
  6
CONTINUOUS
 10
122.876560428
 20
118.7048466903
 40
0.6
100
AcDbArc
 50
0.0
 51
90.0
  0
ARC
  5
442
100
AcDbEntity
  8
0
100
AcDbCircle
 62
7
  6
CONTINUOUS
 10
113.896560428
 20
124.6062680465
 40
0.5
100
AcDbArc
 50
0.0
 51
45.0000000001
  0
ARC
  5
443
100
AcDbEntity
  8
0
100
AcDbCircle
 62
7
  6
CONTINUOUS
 10
113.896560428
 20
133.4133748277
 40
0.5
100
AcDbArc
 50
90.0
 51
180.0
  0
ARC
  5
444
100
AcDbEntity
  8
0
100
AcDbCircle
 62
7
  6
CONTINUOUS
 10
113.996560428
 20
124.2133748277
 40
0.4
100
AcDbArc
 50
277.5
 51
360.0
  0
ARC
  5
445
100
AcDbEntity
  8
0
100
AcDbCircle
 62
7
  6
CONTINUOUS
 10
110.296560428
 20
123.4133748277
 40
0.4
100
AcDbArc
 50
90.0
 51
180.0
  0
ARC
  5
446
100
AcDbEntity
  8
0
100
AcDbCircle
 62
7
  6
CONTINUOUS
 10
110.296560428
 20
121.0443149354
 40
0.4
100
AcDbArc
 50
180.0
 51
240.0
  0
ARC
  5
447
100
AcDbEntity
  8
0
100
AcDbCircle
 62
7
  6
CONTINUOUS
 10
114.4908859708
 20
117.6989595235
 40
0.3999999985
100
AcDbArc
 50
291.1501216736
 51
60.0000048331
  0
ARC
  5
448
100
AcDbEntity
  8
0
100
AcDbCircle
 62
7
  6
CONTINUOUS
 10
127.136560428
 20
90.7533748277
 40
2.09
100
AcDbArc
 50
79.5243183036
 51
180.0
  0
ARC
  5
449
100
AcDbEntity
  8
0
100
AcDbCircle
 62
7
  6
CONTINUOUS
 10
126.476560428
 20
90.9233748277
 40
2.08
100
AcDbArc
 50
90.0
 51
180.0
  0
ARC
  5
44A
100
AcDbEntity
  8
0
100
AcDbCircle
 62
7
  6
CONTINUOUS
 10
125.6290550631
 20
92.1733748277
 40
1.37
100
AcDbArc
 50
115.1619665684
 51
154.1096219644
  0
ARC
  5
44B
100
AcDbEntity
  8
0
100
AcDbCircle
 62
7
  6
CONTINUOUS
 10
131.0107739903
 20
80.7133748277
 40
1.0
100
AcDbArc
 50
225.0
 51
270.0
  0
ARC
  5
44C
100
AcDbEntity
  8
0
100
AcDbCircle
 62
7
  6
CONTINUOUS
 10
129.4823468656
 20
79.4133748277
 40
1.0
100
AcDbArc
 50
45.0
 51
90.0
  0
ARC
  5
44D
100
AcDbEntity
  8
0
100
AcDbCircle
 62
7
  6
CONTINUOUS
 10
139.8363943974
 20
79.8133748277
 40
0.8
100
AcDbArc
 50
330.0
 51
340.0
  0
ARC
  5
44E
100
AcDbEntity
  8
GEOM
100
AcDbCircle
 62
7
  6
CONTINUOUS
 10
167.196560428
 20
84.6133748277
 40
0.7
100
AcDbArc
 50
270.0
 51
360.0
  0
ARC
  5
44F
100
AcDbEntity
  8
GEOM
100
AcDbCircle
 62
7
  6
CONTINUOUS
 10
167.196560428
 20
113.2133748277
 40
0.7
100
AcDbArc
 50
0.0
 51
90.0
  0
ARC
  5
450
100
AcDbEntity
  8
0
100
AcDbCircle
 62
7
  6
CONTINUOUS
 10
136.5501502665
 20
79.1133748277
 40
0.6
100
AcDbArc
 50
30.0
 51
90.0
  0
ARC
  5
451
100
AcDbEntity
  8
GEOM
100
AcDbCircle
 62
7
  6
CONTINUOUS
 10
141.8125668787
 20
115.4152473023
 40
0.5018724657
100
AcDbArc
 50
268.8138649899
 51
270.0019263952
  0
ARC
  5
452
100
AcDbEntity
  8
GEOM
100
AcDbCircle
 62
7
  6
CONTINUOUS
 10
141.8125663684
 20
82.4115603873
 40
0.5018144242
100
AcDbArc
 50
89.9981757726
 51
91.1862139497
  0
ARC
  5
453
100
AcDbEntity
  8
GEOM
100
AcDbCircle
 62
7
  6
CONTINUOUS
 10
141.812677259
 20
82.4130768673
 40
0.5003005852
100
AcDbArc
 50
91.2025060354
 51
96.9710118959
  0
ARC
  5
454
100
AcDbEntity
  8
GEOM
100
AcDbCircle
 62
7
  6
CONTINUOUS
 10
141.8126776
 20
115.4136720659
 40
0.5002998793
100
AcDbArc
 50
263.0289822502
 51
268.7974532077
  0
ARC
  5
455
100
AcDbEntity
  8
GEOM
100
AcDbCircle
 62
7
  6
CONTINUOUS
 10
142.1661481107
 20
82.4133748277
 40
0.5
100
AcDbArc
 50
90.0
 51
160.0
  0
ARC
  5
456
100
AcDbEntity
  8
GEOM
100
AcDbCircle
 62
7
  6
CONTINUOUS
 10
142.1661481107
 20
115.4133748277
 40
0.5
100
AcDbArc
 50
200.0
 51
270.0
  0
ARC
  5
457
100
AcDbEntity
  8
GEOM
100
AcDbCircle
 62
7
  6
CONTINUOUS
 10
141.8125678845
 20
83.9353057822
 40
0.3976586558
100
AcDbArc
 50
268.5028079817
 51
270.0025336248
  0
ARC
  5
458
100
AcDbEntity
  8
GEOM
100
AcDbCircle
 62
7
  6
CONTINUOUS
 10
141.8125674336
 20
113.8914836282
 40
0.397618894
100
AcDbArc
 50
89.9975505559
 51
91.4972767786
  0
ARC
  5
459
100
AcDbEntity
  8
0
100
AcDbCircle
 62
7
  6
CONTINUOUS
 10
163.2223615581
 20
81.6391791689
 40
0.3000174884
100
AcDbArc
 50
269.9776729826
 51
329.9495995659
  0
ARC
  5
45A
100
AcDbEntity
  8
0
100
AcDbCircle
 62
7
  6
CONTINUOUS
 10
163.2223615591
 20
116.1875704883
 40
0.3000174867
100
AcDbArc
 50
30.0504002382
 51
90.0223272132
  0
ARC
  5
45B
100
AcDbEntity
  8
0
100
AcDbCircle
 62
7
  6
CONTINUOUS
 10
163.2222446473
 20
81.6133748277
 40
0.3
100
AcDbArc
 50
270.0
 51
330.0
  0
ARC
  5
45C
100
AcDbEntity
  8
0
100
AcDbCircle
 62
7
  6
CONTINUOUS
 10
163.2222446473
 20
116.2133748277
 40
0.3
100
AcDbArc
 50
30.0
 51
90.0
  0
ARC
  5
45D
100
AcDbEntity
  8
0
100
AcDbCircle
 62
7
  6
CONTINUOUS
 10
165.0697655087
 20
83.6133748277
 40
0.3
100
AcDbArc
 50
90.0
 51
150.0000000001
  0
ARC
  5
45E
100
AcDbEntity
  8
0
100
AcDbCircle
 62
7
  6
CONTINUOUS
 10
165.0697655087
 20
114.2133748277
 40
0.3
100
AcDbArc
 50
209.9999999999
 51
270.0
  0
ARC
  5
45F
100
AcDbEntity
  8
GEOM
100
AcDbCircle
 62
7
  6
CONTINUOUS
 10
141.8125718916
 20
106.3528742806
 40
0.187810156
100
AcDbArc
 50
266.8274472373
 51
270.0041462815
  0
ARC
  5
460
100
AcDbEntity
  8
GEOM
100
AcDbCircle
 62
7
  6
CONTINUOUS
 10
141.8125687974
 20
91.4739932183
 40
0.1876922218
100
AcDbArc
 50
89.9969057844
 51
93.1736022336
  0
ARC
  5
461
100
AcDbEntity
  8
GEOM
100
AcDbCircle
 62
7
  6
CONTINUOUS
 10
141.8125722711
 20
104.477431149
 40
0.1805063258
100
AcDbArc
 50
89.9957892146
 51
93.3011839227
  0
ARC
  5
462
100
AcDbEntity
  8
GEOM
100
AcDbCircle
 62
7
  6
CONTINUOUS
 10
141.8125722785
 20
93.349317852
 40
0.1805056708
100
AcDbArc
 50
266.698801741
 51
270.0041967867
  0
ARC
  5
463
100
AcDbEntity
  8
0
100
AcDbCircle
 62
7
  6
CONTINUOUS
 10
159.8318920799
 20
150.9133748277
 40
4.0
100
AcDbArc
 50
111.0331393818
 51
140.0
  0
ARC
  5
464
100
AcDbEntity
  8
0
100
AcDbCircle
 62
7
  6
CONTINUOUS
 10
142.396560428
 20
137.9133748277
 40
4.0
100
AcDbArc
 50
270.0
 51
320.0
  0
ARC
  5
465
100
AcDbEntity
  8
0
100
AcDbCircle
 62
7
  6
CONTINUOUS
 10
162.2519118723
 20
154.5776884043
 40
3.855351571
100
AcDbArc
 50
179.023859786
 51
180.0146922186
  0
ARC
  5
466
100
AcDbEntity
  8
0
100
AcDbCircle
 62
7
  6
CONTINUOUS
 10
159.696560428
 20
151.7133748277
 40
1.3
100
AcDbArc
 50
212.8904173777
 51
270.0
  0
ARC
  5
467
100
AcDbEntity
  8
0
100
AcDbCircle
 62
7
  6
CONTINUOUS
 10
159.696560428
 20
155.1133748277
 40
1.3
100
AcDbArc
 50
90.0
 51
180.0
  0
ARC
  5
468
100
AcDbEntity
  8
0
100
AcDbCircle
 62
7
  6
CONTINUOUS
 10
125.316560428
 20
118.7048466903
 40
1.02
100
AcDbArc
 50
281.9597383823
 51
90.0
  0
ARC
  5
469
100
AcDbEntity
  8
0
100
AcDbCircle
 62
7
  6
CONTINUOUS
 10
142.396560428
 20
137.9133748277
 40
1.0
100
AcDbArc
 50
270.0
 51
320.0
  0
ARC
  5
46A
100
AcDbEntity
  8
0
100
AcDbCircle
 62
7
  6
CONTINUOUS
 10
139.8363943974
 20
118.0133748277
 40
0.8
100
AcDbArc
 50
20.0
 51
30.0
  0
ARC
  5
46B
100
AcDbEntity
  8
0
100
AcDbCircle
 62
7
  6
CONTINUOUS
 10
133.4465597189
 20
118.9133744132
 40
0.7999999406
100
AcDbArc
 50
179.9999703089
 51
270.0000507809
  0
ARC
  5
46C
100
AcDbEntity
  8
0
100
AcDbCircle
 62
7
  6
CONTINUOUS
 10
129.296560428
 20
137.5669646662
 40
0.6
100
AcDbArc
 50
0.0
 51
60.0
  0
ARC
  5
46D
100
AcDbEntity
  8
0
100
AcDbCircle
 62
7
  6
CONTINUOUS
 10
125.316560428
 20
118.7048466903
 40
0.6
100
AcDbArc
 50
270.0
 51
90.0
  0
ARC
  5
46E
100
AcDbEntity
  8
0
100
AcDbCircle
 62
7
  6
CONTINUOUS
 10
132.796560428
 20
121.3119029651
 40
0.6
100
AcDbArc
 50
315.0
 51
360.0
  0
ARC
  5
46F
100
AcDbEntity
  8
0
100
AcDbCircle
 62
7
  6
CONTINUOUS
 10
133.246560428
 20
120.0648466903
 40
0.6
100
AcDbArc
 50
135.0
 51
180.0
  0
ARC
  5
470
100
AcDbEntity
  8
0
100
AcDbCircle
 62
7
  6
CONTINUOUS
 10
136.5501502665
 20
118.7133748277
 40
0.6
100
AcDbArc
 50
270.0
 51
330.0
  0
ARC
  5
471
100
AcDbEntity
  8
0
100
AcDbCircle
 62
7
  6
CONTINUOUS
 10
212.896560428
 20
153.9133748277
 40
2.5
100
AcDbArc
 50
0.0
 51
90.0
  0
ARC
  5
472
100
AcDbEntity
  8
0
100
AcDbCircle
 62
7
  6
CONTINUOUS
 10
212.896560428
 20
152.9133748277
 40
2.5
100
AcDbArc
 50
270.0
 51
360.0
  0
ARC
  5
473
100
AcDbEntity
  8
0
100
AcDbCircle
 62
7
  6
CONTINUOUS
 10
310.4157008941
 20
325.29850024
 40
282.7866019128
100
AcDbArc
 50
226.2898653776
 51
226.4068429476
  0
ARC
  5
474
100
AcDbEntity
  8
0
100
AcDbCircle
 62
7
  6
CONTINUOUS
 10
294.1858110164
 20
308.8241191191
 40
260.0541729667
100
AcDbArc
 50
226.3665948787
 51
226.4939890519
  0
SPLINE
  5
475
100
AcDbEntity
  8
0
100
AcDbSpline
 62
7
  6
CONTINUOUS
 70
0
 71
3
 72
11
 73
7
 74
0
 42
0.0000001
 43
0.0000001
 44
0.0000000001
 40
0.0
 40
0.0
 40
0.0
 40
0.0
 40
0.2222577893
 40
0.4105852687
 40
0.6535694726
 40
1.0
 40
1.0
 40
1.0
 40
1.0
 10
116.0932511067
 20
128.3100641597
 30
0.0
 10
116.092740443
 20
128.3095540118
 30
0.0
 10
116.0918525943
 20
128.3084209236
 30
0.0
 10
116.0921217758
 20
128.3061266523
 30
0.0
 10
116.0939755059
 20
128.3042636989
 30
0.0
 10
116.0956087143
 20
128.3032777859
 30
0.0
 10
116.0966065267
 20
128.3027579659
 30
0.0
  0
LINE
  5
476
100
AcDbEntity
  8
0
100
AcDbLine
 62
7
  6
CONTINUOUS
 10
125.4417781824
 20
127.9376271668
 11
123.896560428
 21
127.8962972462
  0
SPLINE
  5
477
100
AcDbEntity
  8
0
100
AcDbSpline
 62
7
  6
CONTINUOUS
 70
0
 71
3
 72
8
 73
4
 74
0
 42
0.0000001
 43
0.0000001
 44
0.0000000001
 40
0.0
 40
0.0
 40
0.0
 40
0.0
 40
1.0
 40
1.0
 40
1.0
 40
1.0
 10
121.9769765418
 20
131.6531445629
 30
0.0
 10
121.5426744924
 20
131.5821223546
 30
0.0
 10
121.1116026836
 20
131.4893931325
 30
0.0
 10
120.6852522833
 20
131.3803621258
 30
0.0
  0
SPLINE
  5
478
100
AcDbEntity
  8
0
100
AcDbSpline
 62
7
  6
CONTINUOUS
 70
0
 71
3
 72
36
 73
32
 74
0
 42
0.0000001
 43
0.0000001
 44
0.0000000001
 40
0.0
 40
0.0
 40
0.0
 40
0.0
 40
0.000676644
 40
0.0012171227
 40
0.001986046
 40
0.0027603293
 40
0.0033053094
 40
0.0039866864
 40
0.0057964179
 40
0.0082332191
 40
0.0113113438
 40
0.0150354316
 40
0.0194065891
 40
0.0244242595
 40
0.036391674
 40
0.0509089522
 40
0.0679352314
 40
0.0874236025
 40
0.1093134354
 40
0.1335406147
 40
0.1600316941
 40
0.1887046703
 40
0.2194745388
 40
0.2869174865
 40
0.361537111
 40
0.4424205916
 40
0.5285770934
 40
0.6189514372
 40
0.7124368839
 40
0.8078882478
 40
1.0
 40
1.0
 40
1.0
 40
1.0
 10
116.5539194221
 20
128.0643488269
 30
0.0
 10
116.5522289093
 20
128.0652352193
 30
0.0
 10
116.5492463472
 20
128.0669982045
 30
0.0
 10
116.5448840308
 20
128.0703934161
 30
0.0
 10
116.5414507025
 20
128.0761557151
 30
0.0
 10
116.5449938816
 20
128.0818605497
 30
0.0
 10
116.549402491
 20
128.0852600622
 30
0.0
 10
116.5568573643
 20
128.0895941186
 30
0.0
 10
116.5698557334
 20
128.0946172908
 30
0.0
 10
116.5897174717
 20
128.1003628836
 30
0.0
 10
116.615147038
 20
128.1061232933
 30
0.0
 10
116.6461315578
 20
128.1119315688
 30
0.0
 10
116.6826648601
 20
128.1177574882
 30
0.0
 10
116.7423412773
 20
128.1260405705
 30
0.0
 10
116.8306452043
 20
128.1361320539
 30
0.0
 10
116.9528436548
 20
128.1477291351
 30
0.0
 10
117.0963362973
 20
128.1593684869
 30
0.0
 10
117.260682381
 20
128.1710400093
 30
0.0
 10
117.4453857292
 20
128.1827343686
 30
0.0
 10
117.6498780111
 20
128.194443403
 30
0.0
 10
117.8735332646
 20
128.2061632573
 30
0.0
 10
118.1156680542
 20
128.2178932375
 30
0.0
 10
118.4732470752
 20
128.2340379664
 30
0.0
 10
118.9603981437
 20
128.2539922747
 30
0.0
 10
119.588893742
 20
128.2773157277
 30
0.0
 10
120.2702121365
 20
128.3006711455
 30
0.0
 10
120.9959977188
 20
128.3240508979
 30
0.0
 10
121.7573501787
 20
128.3474465033
 30
0.0
 10
122.54493484
 20
128.3708524946
 30
0.0
 10
123.6194114792
 20
128.4021350327
 30
0.0
 10
124.4302873272
 20
128.4254508736
 30
0.0
 10
124.9720001633
 20
128.4412843784
 30
0.0
  0
SPLINE
  5
479
100
AcDbEntity
  8
0
100
AcDbSpline
 62
7
  6
CONTINUOUS
 70
0
 71
3
 72
9
 73
5
 74
0
 42
0.0000001
 43
0.0000001
 44
0.0000000001
 40
0.0
 40
0.0
 40
0.0
 40
0.0
 40
0.2560145394
 40
1.0
 40
1.0
 40
1.0
 40
1.0
 10
123.896560428
 20
127.8962972462
 30
0.0
 10
123.6370093939
 20
127.889398672
 30
0.0
 10
122.6231960812
 20
127.8624454246
 30
0.0
 10
121.6093934619
 20
127.8350481226
 30
0.0
 10
120.8551758194
 20
127.8133746668
 30
0.0
  0
SPLINE
  5
47A
100
AcDbEntity
  8
0
100
AcDbSpline
 62
7
  6
CONTINUOUS
 70
0
 71
3
 72
11
 73
7
 74
0
 42
0.0000001
 43
0.0000001
 44
0.0000000001
 40
0.0
 40
0.0
 40
0.0
 40
0.0
 40
0.2424504748
 40
0.4884289769
 40
0.7405228275
 40
1.0
 40
1.0
 40
1.0
 40
1.0
 10
118.2673953033
 20
131.8133748277
 30
0.0
 10
118.1317826914
 20
131.8133748216
 30
0.0
 10
117.8582029653
 20
131.7933743868
 30
0.0
 10
117.4521782147
 20
131.7059184106
 30
0.0
 10
117.0510056015
 20
131.5668674629
 30
0.0
 10
116.790957294
 20
131.4464512272
 30
0.0
 10
116.661741231
 20
131.3803621258
 30
0.0
  0
SPLINE
  5
47B
100
AcDbEntity
  8
0
100
AcDbSpline
 62
7
  6
CONTINUOUS
 70
0
 71
3
 72
9
 73
5
 74
0
 42
0.0000001
 43
0.0000001
 44
0.0000000001
 40
0.0
 40
0.0
 40
0.0
 40
0.0
 40
0.2164147945
 40
1.0
 40
1.0
 40
1.0
 40
1.0
 10
116.5540563452
 20
127.9104728226
 30
0.0
 10
116.5551217791
 20
127.9110285365
 30
0.0
 10
116.5601195875
 20
127.9134532623
 30
0.0
 10
116.565333099
 20
127.9154065865
 30
0.0
 10
116.5694530174
 20
127.9168053373
 30
0.0
  0
SPLINE
  5
47C
100
AcDbEntity
  8
0
100
AcDbSpline
 62
7
  6
CONTINUOUS
 70
0
 71
3
 72
9
 73
5
 74
0
 42
0.0000001
 43
0.0000001
 44
0.0000000001
 40
0.0
 40
0.0
 40
0.0
 40
0.0
 40
0.2123460468
 40
1.0
 40
1.0
 40
1.0
 40
1.0
 10
116.5694530174
 20
127.9168053373
 30
0.0
 10
116.572068592
 20
127.9176933494
 30
0.0
 10
116.5844797505
 20
127.9215993956
 30
0.0
 10
116.5971444246
 20
127.9246469732
 30
0.0
 10
116.6071532529
 20
127.926838017
 30
0.0
  0
SPLINE
  5
47D
100
AcDbEntity
  8
0
100
AcDbSpline
 62
7
  6
CONTINUOUS
 70
0
 71
3
 72
20
 73
16
 74
0
 42
0.0000001
 43
0.0000001
 44
0.0000000001
 40
0.0
 40
0.0
 40
0.0
 40
0.0
 40
0.0069045908
 40
0.0159186475
 40
0.0402191456
 40
0.0726962523
 40
0.1130365239
 40
0.1608420968
 40
0.2156355168
 40
0.2768659363
 40
0.3439186528
 40
0.4927424045
 40
0.6561277869
 40
0.8275098191
 40
1.0
 40
1.0
 40
1.0
 40
1.0
 10
116.6071532529
 20
127.926838017
 30
0.0
 10
116.6263413652
 20
127.9310385082
 30
0.0
 10
116.67097399
 20
127.938881935
 30
0.0
 10
116.7843499508
 20
127.9543379617
 30
0.0
 10
116.9706937028
 20
127.9724521411
 30
0.0
 10
117.2461990648
 20
127.9931818317
 30
0.0
 10
117.5887307301
 20
128.0140451592
 30
0.0
 10
117.9948286417
 20
128.0350732547
 30
0.0
 10
118.4604235183
 20
128.0561670002
 30
0.0
 10
118.9808196784
 20
128.0773178283
 30
0.0
 10
119.7686038882
 20
128.1065869511
 30
0.0
 10
120.8469552585
 20
128.142373251
 30
0.0
 10
122.2220636755
 20
128.1841551133
 30
0.0
 10
123.6645266724
 20
128.2260082373
 30
0.0
 10
124.6423838088
 20
128.2542054804
 30
0.0
 10
125.1328809044
 20
128.2685926086
 30
0.0
  0
SPLINE
  5
47E
100
AcDbEntity
  8
0
100
AcDbSpline
 62
7
  6
CONTINUOUS
 70
0
 71
3
 72
11
 73
7
 74
0
 42
0.0000001
 43
0.0000001
 44
0.0000000001
 40
0.0
 40
0.0
 40
0.0
 40
0.0
 40
0.2594721663
 40
0.511565791
 40
0.7575467579
 40
1.0
 40
1.0
 40
1.0
 40
1.0
 10
119.8730493757
 20
131.3803621258
 30
0.0
 10
119.7438357591
 20
131.4464499761
 30
0.0
 10
119.483790394
 20
131.5668656617
 30
0.0
 10
119.0826201691
 20
131.7059192442
 30
0.0
 10
118.6765923759
 20
131.7933761943
 30
0.0
 10
118.4030095121
 20
131.8133748338
 30
0.0
 10
118.2673953033
 20
131.8133748277
 30
0.0
  0
SPLINE
  5
47F
100
AcDbEntity
  8
0
100
AcDbSpline
 62
7
  6
CONTINUOUS
 70
0
 71
3
 72
30
 73
26
 74
0
 42
0.0000001
 43
0.0000001
 44
0.0000000001
 40
0.0
 40
0.0
 40
0.0
 40
0.0
 40
0.1854447285
 40
0.2776930327
 40
0.368205704
 40
0.4559479415
 40
0.5399231812
 40
0.6191832874
 40
0.6928383678
 40
0.760067864
 40
0.8201292789
 40
0.8723644031
 40
0.8953652646
 40
0.9162058263
 40
0.93482837
 40
0.9511849953
 40
0.9652344107
 40
0.9769389869
 40
0.9862738862
 40
0.9900466267
 40
0.993220349
 40
0.9957954854
 40
0.9977751194
 40
0.9991674319
 40
1.0
 40
1.0
 40
1.0
 40
1.0
 10
124.8726284712
 20
128.5478104814
 30
0.0
 10
124.3296593963
 20
128.5376656197
 30
0.0
 10
123.5165887461
 20
128.5227460999
 30
0.0
 10
122.4385046973
 20
128.5028041862
 30
0.0
 10
121.6464922445
 20
128.4879056483
 30
0.0
 10
120.8787106957
 20
128.4730411477
 30
0.0
 10
120.1438872671
 20
128.4582135063
 30
0.0
 10
119.4503251734
 20
128.4434264804
 30
0.0
 10
118.8058128373
 20
128.4286844416
 30
0.0
 10
118.2175371725
 20
128.4139966503
 30
0.0
 10
117.6920085921
 20
128.399369989
 30
0.0
 10
117.2959963846
 20
128.3867812713
 30
0.0
 10
117.0148274228
 20
128.3765526534
 30
0.0
 10
116.832051692
 20
128.3692266225
 30
0.0
 10
116.6687494756
 20
128.3619199812
 30
0.0
 10
116.5253562117
 20
128.354636249
 30
0.0
 10
116.4022481817
 20
128.3473912558
 30
0.0
 10
116.2997445904
 20
128.3401849001
 30
0.0
 10
116.2273462655
 20
128.333895225
 30
0.0
 10
116.1799540617
 20
128.3286882813
 30
0.0
 10
116.1522932241
 20
128.3250854977
 30
0.0
 10
116.1299641824
 20
128.3215072179
 30
0.0
 10
116.1128381671
 20
128.3179981143
 30
0.0
 10
116.1011241813
 20
128.314549324
 30
0.0
 10
116.0949759931
 20
128.3117873038
 30
0.0
 10
116.0932511067
 20
128.3100641597
 30
0.0
  0
SPLINE
  5
480
100
AcDbEntity
  8
0
100
AcDbSpline
 62
7
  6
CONTINUOUS
 70
0
 71
3
 72
11
 73
7
 74
0
 42
0.0000001
 43
0.0000001
 44
0.0000000001
 40
0.0
 40
0.0
 40
0.0
 40
0.0
 40
0.2616427032
 40
0.5144968934
 40
0.7595946658
 40
1.0
 40
1.0
 40
1.0
 40
1.0
 10
119.2777582745
 20
141.5561092378
 30
0.0
 10
119.3700633057
 20
141.6094015724
 30
0.0
 10
119.5557624913
 20
141.7072707505
 30
0.0
 10
119.8436999968
 20
141.8225462337
 30
0.0
 10
120.136380596
 20
141.8963006345
 30
0.0
 10
120.3345255518
 20
141.9133748277
 30
0.0
 10
120.4324588124
 20
141.9133748277
 30
0.0
  0
SPLINE
  5
481
100
AcDbEntity
  8
0
100
AcDbSpline
 62
7
  6
CONTINUOUS
 70
0
 71
3
 72
11
 73
7
 74
0
 42
0.0000001
 43
0.0000001
 44
0.0000000001
 40
0.0
 40
0.0
 40
0.0
 40
0.0
 40
0.2404053342
 40
0.4855030662
 40
0.7383571529
 40
1.0
 40
1.0
 40
1.0
 40
1.0
 10
120.4324588124
 20
141.9133748277
 30
0.0
 10
120.5303920732
 20
141.9133748277
 30
0.0
 10
120.7285370116
 20
141.8963006324
 30
0.0
 10
121.0212175629
 20
141.8225462766
 30
0.0
 10
121.3091550634
 20
141.7072707777
 30
0.0
 10
121.494854269
 20
141.6094016019
 30
0.0
 10
121.5871593512
 20
141.5561092378
 30
0.0
  0
SPLINE
  5
482
100
AcDbEntity
  8
0
100
AcDbSpline
 62
7
  6
CONTINUOUS
 70
0
 71
3
 72
15
 73
11
 74
0
 42
0.0000001
 43
0.0000001
 44
0.0000000001
 40
0.0
 40
0.0
 40
0.0
 40
0.0
 40
0.1308200724
 40
0.2572467341
 40
0.3797970183
 40
0.5000000228
 40
0.620203024
 40
0.7427533002
 40
0.8691799394
 40
1.0
 40
1.0
 40
1.0
 40
1.0
 10
121.5871593512
 20
138.7108097762
 30
0.0
 10
121.4948553042
 20
138.7641015426
 30
0.0
 10
121.309153298
 20
138.8619698156
 30
0.0
 10
121.021235086
 20
138.9772468192
 30
0.0
 10
120.7284888475
 20
139.0509982831
 30
0.0
 10
120.4324587606
 20
139.0765206128
 30
0.0
 10
120.1364286841
 20
139.0509982504
 30
0.0
 10
119.8436824755
 20
138.9772467856
 30
0.0
 10
119.5557642936
 20
138.8619697998
 30
0.0
 10
119.3700623131
 20
138.7641015377
 30
0.0
 10
119.2777582745
 20
138.7108097762
 30
0.0
  0
SPLINE
  5
483
100
AcDbEntity
  8
0
100
AcDbSpline
 62
7
  6
CONTINUOUS
 70
0
 71
3
 72
10
 73
6
 74
0
 42
0.0000001
 43
0.0000001
 44
0.0000000001
 40
0.0
 40
0.0
 40
0.0
 40
0.0
 40
0.4999011814
 40
0.7499517172
 40
1.0
 40
1.0
 40
1.0
 40
1.0
 10
121.5871593512
 20
141.5561092378
 30
0.0
 10
121.9623856298
 20
141.6644277343
 30
0.0
 10
122.5344285848
 20
141.7998405216
 30
0.0
 10
123.3103008474
 20
141.8967033446
 30
0.0
 10
123.7012101593
 20
141.9133748277
 30
0.0
 10
123.8965604278
 20
141.9133748277
 30
0.0
  0
SPLINE
  5
484
100
AcDbEntity
  8
0
100
AcDbSpline
 62
7
  6
CONTINUOUS
 70
0
 71
3
 72
10
 73
6
 74
0
 42
0.0000001
 43
0.0000001
 44
0.0000000001
 40
0.0
 40
0.0
 40
0.0
 40
0.0
 40
0.2500483041
 40
0.5000988454
 40
1.0
 40
1.0
 40
1.0
 40
1.0
 10
123.8965604278
 20
141.9133748277
 30
0.0
 10
124.091910713
 20
141.9133748277
 30
0.0
 10
124.4828200464
 20
141.8967033476
 30
0.0
 10
125.2586923075
 20
141.7998405104
 30
0.0
 10
125.8307352462
 20
141.6644277285
 30
0.0
 10
126.2059615047
 20
141.5561092378
 30
0.0
  0
SPLINE
  5
485
100
AcDbEntity
  8
0
100
AcDbSpline
 62
7
  6
CONTINUOUS
 70
0
 71
3
 72
10
 73
6
 74
0
 42
0.0000001
 43
0.0000001
 44
0.0000000001
 40
0.0
 40
0.0
 40
0.0
 40
0.0
 40
0.4999007856
 40
0.7499513904
 40
1.0
 40
1.0
 40
1.0
 40
1.0
 10
126.2059615047
 20
138.7108097762
 30
0.0
 10
125.8307355224
 20
138.8191281871
 30
0.0
 10
125.2586928183
 20
138.9545408806
 30
0.0
 10
124.48282058
 20
139.0514039347
 30
0.0
 10
124.0919109522
 20
139.0680753661
 30
0.0
 10
123.896560428
 20
139.0680753661
 30
0.0
  0
SPLINE
  5
486
100
AcDbEntity
  8
0
100
AcDbSpline
 62
7
  6
CONTINUOUS
 70
0
 71
3
 72
10
 73
6
 74
0
 42
0.0000001
 43
0.0000001
 44
0.0000000001
 40
0.0
 40
0.0
 40
0.0
 40
0.0
 40
0.2500490219
 40
0.5000997455
 40
1.0
 40
1.0
 40
1.0
 40
1.0
 10
123.896560428
 20
139.0680753661
 30
0.0
 10
123.701209581
 20
139.0680753661
 30
0.0
 10
123.3102995314
 20
139.0514039781
 30
0.0
 10
122.5344273173
 20
138.9545406824
 30
0.0
 10
121.9623849359
 20
138.8191280724
 30
0.0
 10
121.5871593512
 20
138.7108097762
 30
0.0
  0
SPLINE
  5
487
100
AcDbEntity
  8
0
100
AcDbSpline
 62
7
  6
CONTINUOUS
 70
0
 71
3
 72
11
 73
7
 74
0
 42
0.0000001
 43
0.0000001
 44
0.0000000001
 40
0.0
 40
0.0
 40
0.0
 40
0.0
 40
0.2616429466
 40
0.5144970929
 40
0.7595947853
 40
1.0
 40
1.0
 40
1.0
 40
1.0
 10
126.2059615047
 20
141.5561092378
 30
0.0
 10
126.2982666218
 20
141.609401622
 30
0.0
 10
126.4839658896
 20
141.7072708168
 30
0.0
 10
126.7719034362
 20
141.8225463368
 30
0.0
 10
127.0645839627
 20
141.8963006161
 30
0.0
 10
127.2627288316
 20
141.9133748277
 30
0.0
 10
127.3606620435
 20
141.9133748277
 30
0.0
  0
SPLINE
  5
488
100
AcDbEntity
  8
0
100
AcDbSpline
 62
7
  6
CONTINUOUS
 70
0
 71
3
 72
11
 73
7
 74
0
 42
0.0000001
 43
0.0000001
 44
0.0000000001
 40
0.0
 40
0.0
 40
0.0
 40
0.0
 40
0.2404052601
 40
0.485503008
 40
0.7383572234
 40
1.0
 40
1.0
 40
1.0
 40
1.0
 10
127.3606620435
 20
141.9133748277
 30
0.0
 10
127.4585952738
 20
141.9133748277
 30
0.0
 10
127.6567401868
 20
141.8963006265
 30
0.0
 10
127.9494207651
 20
141.8225462701
 30
0.0
 10
128.2373583007
 20
141.7072707781
 30
0.0
 10
128.4230575245
 20
141.6094015873
 30
0.0
 10
128.5153625815
 20
141.5561092378
 30
0.0
  0
SPLINE
  5
489
100
AcDbEntity
  8
0
100
AcDbSpline
 62
7
  6
CONTINUOUS
 70
0
 71
3
 72
15
 73
11
 74
0
 42
0.0000001
 43
0.0000001
 44
0.0000000001
 40
0.0
 40
0.0
 40
0.0
 40
0.0
 40
0.1308200724
 40
0.2572467341
 40
0.3797970183
 40
0.5000000228
 40
0.620203024
 40
0.7427533002
 40
0.8691799394
 40
1.0
 40
1.0
 40
1.0
 40
1.0
 10
128.5153625815
 20
138.7108097762
 30
0.0
 10
128.4230585345
 20
138.7641015426
 30
0.0
 10
128.2373565283
 20
138.8619698156
 30
0.0
 10
127.9494383163
 20
138.9772468192
 30
0.0
 10
127.6566920778
 20
139.0509982831
 30
0.0
 10
127.3606619909
 20
139.0765206128
 30
0.0
 10
127.0646319144
 20
139.0509982504
 30
0.0
 10
126.7718857058
 20
138.9772467856
 30
0.0
 10
126.4839675239
 20
138.8619697998
 30
0.0
 10
126.2982655434
 20
138.7641015377
 30
0.0
 10
126.2059615047
 20
138.7108097762
 30
0.0
  0
SPLINE
  5
48A
100
AcDbEntity
  8
0
100
AcDbSpline
 62
7
  6
CONTINUOUS
 70
0
 71
3
 72
8
 73
4
 74
0
 42
0.0000001
 43
0.0000001
 44
0.0000000001
 40
0.0
 40
0.0
 40
0.0
 40
0.0
 40
1.0
 40
1.0
 40
1.0
 40
1.0
 10
158.396560428
 20
152.2500498697
 30
0.0
 10
158.396560428
 20
152.1376686367
 30
0.0
 10
158.4011468007
 20
152.0249800289
 30
0.0
 10
158.414330905
 20
151.9133748277
 30
0.0
  0
SPLINE
  5
48B
100
AcDbEntity
  8
0
100
AcDbSpline
 62
7
  6
CONTINUOUS
 70
0
 71
3
 72
8
 73
4
 74
0
 42
0.0000001
 43
0.0000001
 44
0.0000000001
 40
0.0
 40
0.0
 40
0.0
 40
0.0
 40
1.0
 40
1.0
 40
1.0
 40
1.0
 10
158.414330905
 20
154.9133748277
 30
0.0
 10
158.4037507909
 20
154.8238127513
 30
0.0
 10
158.3986793483
 20
154.7335396635
 30
0.0
 10
158.3971198045
 20
154.6433683145
 30
0.0
  0
SPLINE
  5
48C
100
AcDbEntity
  8
0
100
AcDbSpline
 62
7
  6
CONTINUOUS
 70
0
 71
3
 72
10
 73
6
 74
0
 42
0.0000001
 43
0.0000001
 44
0.0000000001
 40
0.0
 40
0.0
 40
0.0
 40
0.0
 40
0.4999061397
 40
0.7499530973
 40
1.0
 40
1.0
 40
1.0
 40
1.0
 10
92.8588515648
 20
91.1772582309
 30
0.0
 10
93.1804227514
 20
92.4406168445
 30
0.0
 10
93.57369476
 20
94.3619845877
 30
0.0
 10
93.849499502
 20
96.9567040447
 30
0.0
 10
93.8965604279
 20
98.2613520992
 30
0.0
 10
93.8965604279
 20
98.9134178998
 30
0.0
  0
SPLINE
  5
48D
100
AcDbEntity
  8
0
100
AcDbSpline
 62
7
  6
CONTINUOUS
 70
0
 71
3
 72
10
 73
6
 74
0
 42
0.0000001
 43
0.0000001
 44
0.0000000001
 40
0.0
 40
0.0
 40
0.0
 40
0.0
 40
0.2500469099
 40
0.5000938735
 40
1.0
 40
1.0
 40
1.0
 40
1.0
 10
93.8965604279
 20
98.9134178998
 30
0.0
 10
93.8965604279
 20
99.5654765474
 30
0.0
 10
93.8494933587
 20
100.870110121
 30
0.0
 10
93.5736885077
 20
103.4648005004
 30
0.0
 10
93.1804192062
 20
105.386146739
 30
0.0
 10
92.8588515648
 20
106.6494914246
 30
0.0
  0
SPLINE
  5
48E
100
AcDbEntity
  8
0
100
AcDbSpline
 62
7
  6
CONTINUOUS
 70
0
 71
3
 72
11
 73
7
 74
0
 42
0.0000001
 43
0.0000001
 44
0.0000000001
 40
0.0
 40
0.0
 40
0.0
 40
0.0
 40
0.2593954391
 40
0.5114645637
 40
0.7574772192
 40
1.0
 40
1.0
 40
1.0
 40
1.0
 10
92.8588515648
 20
81.4054164197
 30
0.0
 10
93.0173552092
 20
81.71677352
 30
0.0
 10
93.3060749715
 20
82.3433879509
 30
0.0
 10
93.6392543374
 20
83.3098737307
 30
0.0
 10
93.8486900699
 20
84.2879236283
 30
0.0
 10
93.8965604279
 20
84.9468417018
 30
0.0
 10
93.8965604279
 20
85.2734962542
 30
0.0
  0
SPLINE
  5
48F
100
AcDbEntity
  8
0
100
AcDbSpline
 62
7
  6
CONTINUOUS
 70
0
 71
3
 72
11
 73
7
 74
0
 42
0.0000001
 43
0.0000001
 44
0.0000000001
 40
0.0
 40
0.0
 40
0.0
 40
0.0
 40
0.2425227716
 40
0.4885354802
 40
0.7406046152
 40
1.0
 40
1.0
 40
1.0
 40
1.0
 10
93.8965604279
 20
85.2734962542
 30
0.0
 10
93.8965604279
 20
85.6001473191
 30
0.0
 10
93.8486838364
 20
86.2590581024
 30
0.0
 10
93.6392482233
 20
87.2370968672
 30
0.0
 10
93.3060703073
 20
88.2035717197
 30
0.0
 10
93.0173534898
 20
88.8301792937
 30
0.0
 10
92.8588515648
 20
89.1415330165
 30
0.0
  0
SPLINE
  5
490
100
AcDbEntity
  8
0
100
AcDbSpline
 62
7
  6
CONTINUOUS
 70
0
 71
3
 72
11
 73
7
 74
0
 42
0.0000001
 43
0.0000001
 44
0.0000000001
 40
0.0
 40
0.0
 40
0.0
 40
0.0
 40
0.2593954391
 40
0.5114645637
 40
0.7574772192
 40
1.0
 40
1.0
 40
1.0
 40
1.0
 10
92.8588515648
 20
108.6852166389
 30
0.0
 10
93.0173552092
 20
108.9965737392
 30
0.0
 10
93.3060749715
 20
109.6231881701
 30
0.0
 10
93.6392543374
 20
110.5896739499
 30
0.0
 10
93.8486900699
 20
111.5677238476
 30
0.0
 10
93.8965604279
 20
112.226641921
 30
0.0
 10
93.8965604279
 20
112.5532964734
 30
0.0
  0
SPLINE
  5
491
100
AcDbEntity
  8
0
100
AcDbSpline
 62
7
  6
CONTINUOUS
 70
0
 71
3
 72
11
 73
7
 74
0
 42
0.0000001
 43
0.0000001
 44
0.0000000001
 40
0.0
 40
0.0
 40
0.0
 40
0.0
 40
0.2425227716
 40
0.4885354802
 40
0.7406046152
 40
1.0
 40
1.0
 40
1.0
 40
1.0
 10
93.8965604279
 20
112.5532964734
 30
0.0
 10
93.8965604279
 20
112.8799475384
 30
0.0
 10
93.8486838364
 20
113.5388583216
 30
0.0
 10
93.6392482233
 20
114.5168970865
 30
0.0
 10
93.3060703073
 20
115.4833719389
 30
0.0
 10
93.0173534898
 20
116.1099795129
 30
0.0
 10
92.8588515648
 20
116.4213332358
 30
0.0
  0
SPLINE
  5
492
100
AcDbEntity
  8
0
100
AcDbSpline
 62
7
  6
CONTINUOUS
 70
0
 71
3
 72
11
 73
7
 74
0
 42
0.0000001
 43
0.0000001
 44
0.0000000001
 40
0.0
 40
0.0
 40
0.0
 40
0.0
 40
0.0957989484
 40
0.2979289133
 40
0.601883564
 40
1.0
 40
1.0
 40
1.0
 40
1.0
 10
84.3110685875
 20
81.4889419288
 30
0.0
 10
84.3110685533
 20
81.4898782255
 30
0.0
 10
84.3097957687
 20
81.4926242627
 30
0.0
 10
84.3075698169
 20
81.4979769227
 30
0.0
 10
84.3035874636
 20
81.505920724
 30
0.0
 10
84.3004986298
 20
81.5120312808
 30
0.0
 10
84.2987129917
 20
81.5154883738
 30
0.0
  0
SPLINE
  5
493
100
AcDbEntity
  8
0
100
AcDbSpline
 62
7
  6
CONTINUOUS
 70
0
 71
3
 72
11
 73
7
 74
0
 42
0.0000001
 43
0.0000001
 44
0.0000000001
 40
0.0
 40
0.0
 40
0.0
 40
0.0
 40
0.098891379
 40
0.300831928
 40
0.6027826149
 40
1.0
 40
1.0
 40
1.0
 40
1.0
 10
84.5708762086
 20
81.3391617033
 30
0.0
 10
84.5708759915
 20
81.3413840018
 30
0.0
 10
84.5696616644
 20
81.3480808556
 30
0.0
 10
84.5674227093
 20
81.3614065125
 30
0.0
 10
84.5634472467
 20
81.3812819124
 30
0.0
 10
84.5603277427
 20
81.396674945
 30
0.0
 10
84.5585206128
 20
81.4054164197
 30
0.0
  0
SPLINE
  5
494
100
AcDbEntity
  8
0
100
AcDbSpline
 62
7
  6
CONTINUOUS
 70
0
 71
3
 72
15
 73
11
 74
0
 42
0.0000001
 43
0.0000001
 44
0.0000000001
 40
0.0
 40
0.0
 40
0.0
 40
0.0
 40
0.1291678258
 40
0.2547093589
 40
0.3773358393
 40
0.4984123928
 40
0.6197401074
 40
0.7430670103
 40
0.8696312407
 40
1.0
 40
1.0
 40
1.0
 40
1.0
 10
84.2987129917
 20
81.5154883738
 30
0.0
 10
84.1375321833
 20
81.8275429571
 30
0.0
 10
83.8438022307
 20
82.4559467036
 30
0.0
 10
83.5047090233
 20
83.4265212083
 30
0.0
 10
83.2915696224
 20
84.4106792729
 30
0.0
 10
83.2187782057
 20
85.4040674331
 30
0.0
 10
83.2918499457
 20
86.3993194527
 30
0.0
 10
83.5050633063
 20
87.3888972845
 30
0.0
 10
83.8440346277
 20
88.367881644
 30
0.0
 10
84.1375660041
 20
89.0030215101
 30
0.0
 10
84.2987129917
 20
89.3187642037
 30
0.0
  0
SPLINE
  5
495
100
AcDbEntity
  8
0
100
AcDbSpline
 62
7
  6
CONTINUOUS
 70
0
 71
3
 72
15
 73
11
 74
0
 42
0.0000001
 43
0.0000001
 44
0.0000000001
 40
0.0
 40
0.0
 40
0.0
 40
0.0
 40
0.1298253766
 40
0.2559011901
 40
0.3788549708
 40
0.4999997997
 40
0.6211449
 40
0.7440986001
 40
0.8701744191
 40
1.0
 40
1.0
 40
1.0
 40
1.0
 10
84.5585206128
 20
81.4054164197
 30
0.0
 10
84.3976843754
 20
81.7165182802
 30
0.0
 10
84.1044367384
 20
82.3426235843
 30
0.0
 10
83.7652613844
 20
83.3088830619
 30
0.0
 10
83.5516647849
 20
84.2873745944
 30
0.0
 10
83.4785163326
 20
85.2734738907
 30
0.0
 10
83.5516639946
 20
86.259573076
 30
0.0
 10
83.765260569
 20
87.2380651382
 30
0.0
 10
84.1044355643
 20
88.2043251712
 30
0.0
 10
84.3976844641
 20
88.8304304897
 30
0.0
 10
84.5585206128
 20
89.1415330165
 30
0.0
  0
SPLINE
  5
496
100
AcDbEntity
  8
0
100
AcDbSpline
 62
7
  6
CONTINUOUS
 70
0
 71
3
 72
10
 73
6
 74
0
 42
0.0000001
 43
0.0000001
 44
0.0000000001
 40
0.0
 40
0.0
 40
0.0
 40
0.0
 40
0.2360160779
 40
0.4803845336
 40
1.0
 40
1.0
 40
1.0
 40
1.0
 10
84.2987132079
 20
81.5154884984
 30
0.0
 10
84.3107355707
 20
81.4955267971
 30
0.0
 10
84.3423523967
 20
81.4588108336
 30
0.0
 10
84.4278482555
 20
81.4070085012
 30
0.0
 10
84.5076407836
 20
81.3988403476
 30
0.0
 10
84.5585206128
 20
81.4054164197
 30
0.0
  0
SPLINE
  5
497
100
AcDbEntity
  8
0
100
AcDbSpline
 62
7
  6
CONTINUOUS
 70
0
 71
3
 72
9
 73
5
 74
0
 42
0.0000001
 43
0.0000001
 44
0.0000000001
 40
0.0
 40
0.0
 40
0.0
 40
0.0
 40
0.210308983
 40
1.0
 40
1.0
 40
1.0
 40
1.0
 10
84.2987129917
 20
89.3187642037
 30
0.0
 10
84.3008214102
 20
89.322895323
 30
0.0
 10
84.3090347267
 20
89.3434653121
 30
0.0
 10
84.3110684078
 20
89.3659846121
 30
0.0
 10
84.3110685875
 20
89.3834000934
 30
0.0
  0
SPLINE
  5
498
100
AcDbEntity
  8
0
100
AcDbSpline
 62
7
  6
CONTINUOUS
 70
0
 71
3
 72
9
 73
5
 74
0
 42
0.0000001
 43
0.0000001
 44
0.0000000001
 40
0.0
 40
0.0
 40
0.0
 40
0.0
 40
0.4390517103
 40
1.0
 40
1.0
 40
1.0
 40
1.0
 10
84.5585206128
 20
89.1415330165
 30
0.0
 10
84.5632830337
 20
89.1645504314
 30
0.0
 10
84.5693529886
 20
89.217915307
 30
0.0
 10
84.5708753656
 20
89.2714497858
 30
0.0
 10
84.5708762086
 20
89.3014805398
 30
0.0
  0
SPLINE
  5
499
100
AcDbEntity
  8
0
100
AcDbSpline
 62
7
  6
CONTINUOUS
 70
0
 71
3
 72
9
 73
5
 74
0
 42
0.0000001
 43
0.0000001
 44
0.0000000001
 40
0.0
 40
0.0
 40
0.0
 40
0.0
 40
0.4942739266
 40
1.0
 40
1.0
 40
1.0
 40
1.0
 10
84.2987129923
 20
89.3187642039
 30
0.0
 10
84.3233386905
 20
89.2715106197
 30
0.0
 10
84.3997710198
 20
89.1887234673
 30
0.0
 10
84.5044504344
 20
89.1485216119
 30
0.0
 10
84.5585206128
 20
89.1415331505
 30
0.0
  0
SPLINE
  5
49A
100
AcDbEntity
  8
0
100
AcDbSpline
 62
7
  6
CONTINUOUS
 70
0
 71
3
 72
10
 73
6
 74
0
 42
0.0000001
 43
0.0000001
 44
0.0000000001
 40
0.0
 40
0.0
 40
0.0
 40
0.0
 40
0.2108085873
 40
0.453649774
 40
1.0
 40
1.0
 40
1.0
 40
1.0
 10
84.3110685875
 20
89.3834000934
 30
0.0
 10
84.3252337384
 20
89.3700009156
 30
0.0
 10
84.3603730285
 20
89.3460465376
 30
0.0
 10
84.4464158949
 20
89.3111361456
 30
0.0
 10
84.5203423025
 20
89.3014805398
 30
0.0
 10
84.5708762086
 20
89.3014805398
 30
0.0
  0
SPLINE
  5
49B
100
AcDbEntity
  8
0
100
AcDbSpline
 62
7
  6
CONTINUOUS
 70
0
 71
3
 72
9
 73
5
 74
0
 42
0.0000001
 43
0.0000001
 44
0.0000000001
 40
0.0
 40
0.0
 40
0.0
 40
0.0
 40
0.2379054
 40
1.0
 40
1.0
 40
1.0
 40
1.0
 10
84.3110685875
 20
91.0189166631
 30
0.0
 10
84.3110685713
 20
91.0262246425
 30
0.0
 10
84.3098799573
 20
91.0569392055
 30
0.0
 10
84.3045337727
 20
91.0874241696
 30
0.0
 10
84.2987129917
 20
91.1100989978
 30
0.0
  0
SPLINE
  5
49C
100
AcDbEntity
  8
0
100
AcDbSpline
 62
7
  6
CONTINUOUS
 70
0
 71
3
 72
9
 73
5
 74
0
 42
0.0000001
 43
0.0000001
 44
0.0000000001
 40
0.0
 40
0.0
 40
0.0
 40
0.0
 40
0.2377408785
 40
1.0
 40
1.0
 40
1.0
 40
1.0
 10
84.5708762086
 20
90.9510559912
 30
0.0
 10
84.5708761022
 20
90.9690130179
 30
0.0
 10
84.569705597
 20
91.0445428272
 30
0.0
 10
84.5644402155
 20
91.119988453
 30
0.0
 10
84.5585206128
 20
91.1772582309
 30
0.0
  0
SPLINE
  5
49D
100
AcDbEntity
  8
0
100
AcDbSpline
 62
7
  6
CONTINUOUS
 70
0
 71
3
 72
10
 73
6
 74
0
 42
0.0000001
 43
0.0000001
 44
0.0000000001
 40
0.0
 40
0.0
 40
0.0
 40
0.0
 40
0.2032447928
 40
0.4449065796
 40
1.0
 40
1.0
 40
1.0
 40
1.0
 10
84.3110685875
 20
91.0189166631
 30
0.0
 10
84.3255847099
 20
91.0075420086
 30
0.0
 10
84.3612415306
 20
90.9876283846
 30
0.0
 10
84.4475259621
 20
90.9587980588
 30
0.0
 10
84.5205087155
 20
90.951055988
 30
0.0
 10
84.5708762086
 20
90.9510559912
 30
0.0
  0
SPLINE
  5
49E
100
AcDbEntity
  8
0
100
AcDbSpline
 62
7
  6
CONTINUOUS
 70
0
 71
3
 72
13
 73
9
 74
0
 42
0.0000001
 43
0.0000001
 44
0.0000000001
 40
0.0
 40
0.0
 40
0.0
 40
0.0
 40
0.2499524158
 40
0.3749764843
 40
0.4999999981
 40
0.625023512
 40
0.7500475813
 40
1.0
 40
1.0
 40
1.0
 40
1.0
 10
84.2987129917
 20
91.1100989978
 30
0.0
 10
83.9716873282
 20
92.3839931722
 30
0.0
 10
83.5715487691
 20
94.3217519118
 30
0.0
 10
83.2908716484
 20
96.9393646009
 30
0.0
 10
83.2190201468
 20
98.9133748088
 30
0.0
 10
83.2908715556
 20
100.8873850163
 30
0.0
 10
83.5715484826
 20
103.5049977713
 30
0.0
 10
83.9716877849
 20
105.44275635
 30
0.0
 10
84.2987129917
 20
106.7166506576
 30
0.0
  0
SPLINE
  5
49F
100
AcDbEntity
  8
0
100
AcDbSpline
 62
7
  6
CONTINUOUS
 70
0
 71
3
 72
13
 73
9
 74
0
 42
0.0000001
 43
0.0000001
 44
0.0000000001
 40
0.0
 40
0.0
 40
0.0
 40
0.0
 40
0.2499526532
 40
0.3749767102
 40
0.5000000013
 40
0.625023292
 40
0.7500473493
 40
1.0
 40
1.0
 40
1.0
 40
1.0
 10
84.5585206128
 20
91.1772582309
 30
0.0
 10
84.2321382414
 20
92.4398863558
 30
0.0
 10
83.8319983995
 20
94.3606735962
 30
0.0
 10
83.5508044474
 20
96.9559763194
 30
0.0
 10
83.4787652951
 20
98.9133748831
 30
0.0
 10
83.5508040877
 20
100.8707734489
 30
0.0
 10
83.8319975591
 20
103.4660762605
 30
0.0
 10
84.2321389094
 20
105.3868631403
 30
0.0
 10
84.5585206128
 20
106.6494914246
 30
0.0
  0
SPLINE
  5
4A0
100
AcDbEntity
  8
0
100
AcDbSpline
 62
7
  6
CONTINUOUS
 70
0
 71
3
 72
9
 73
5
 74
0
 42
0.0000001
 43
0.0000001
 44
0.0000000001
 40
0.0
 40
0.0
 40
0.0
 40
0.0
 40
0.2590401723
 40
1.0
 40
1.0
 40
1.0
 40
1.0
 10
84.2987129917
 20
106.7166506576
 30
0.0
 10
84.3006913085
 20
106.7243569806
 30
0.0
 10
84.307503731
 20
106.7543000633
 30
0.0
 10
84.3110683667
 20
106.7850750316
 30
0.0
 10
84.3110685875
 20
106.8078329923
 30
0.0
  0
SPLINE
  5
4A1
100
AcDbEntity
  8
0
100
AcDbSpline
 62
7
  6
CONTINUOUS
 70
0
 71
3
 72
9
 73
5
 74
0
 42
0.0000001
 43
0.0000001
 44
0.0000000001
 40
0.0
 40
0.0
 40
0.0
 40
0.0
 40
0.2588604451
 40
1.0
 40
1.0
 40
1.0
 40
1.0
 10
84.5585206128
 20
106.6494914246
 30
0.0
 10
84.5605325951
 20
106.6689395644
 30
0.0
 10
84.5673985325
 20
106.7441561928
 30
0.0
 10
84.5708747319
 20
106.8197148012
 30
0.0
 10
84.5708762086
 20
106.8756936642
 30
0.0
  0
SPLINE
  5
4A2
100
AcDbEntity
  8
0
100
AcDbSpline
 62
7
  6
CONTINUOUS
 70
0
 71
3
 72
10
 73
6
 74
0
 42
0.0000001
 43
0.0000001
 44
0.0000000001
 40
0.0
 40
0.0
 40
0.0
 40
0.0
 40
0.2032447879
 40
0.4449065759
 40
1.0
 40
1.0
 40
1.0
 40
1.0
 10
84.3110685875
 20
106.8078329923
 30
0.0
 10
84.3255847104
 20
106.8192076454
 30
0.0
 10
84.3612415316
 20
106.8391212669
 30
0.0
 10
84.4475259629
 20
106.8679515911
 30
0.0
 10
84.5205087155
 20
106.8756936642
 30
0.0
 10
84.5708762086
 20
106.8756936642
 30
0.0
  0
SPLINE
  5
4A3
100
AcDbEntity
  8
0
100
AcDbSpline
 62
7
  6
CONTINUOUS
 70
0
 71
3
 72
9
 73
5
 74
0
 42
0.0000001
 43
0.0000001
 44
0.0000000001
 40
0.0
 40
0.0
 40
0.0
 40
0.0
 40
0.2909817592
 40
1.0
 40
1.0
 40
1.0
 40
1.0
 10
84.3110685875
 20
108.4433495621
 30
0.0
 10
84.3110685724
 20
108.449760793
 30
0.0
 10
84.3102058294
 20
108.4717034177
 30
0.0
 10
84.3058142756
 20
108.494070904
 30
0.0
 10
84.2987129917
 20
108.5079854517
 30
0.0
  0
SPLINE
  5
4A4
100
AcDbEntity
  8
0
100
AcDbSpline
 62
7
  6
CONTINUOUS
 70
0
 71
3
 72
9
 73
5
 74
0
 42
0.0000001
 43
0.0000001
 44
0.0000000001
 40
0.0
 40
0.0
 40
0.0
 40
0.0
 40
0.560948867
 40
1.0
 40
1.0
 40
1.0
 40
1.0
 10
84.5708762086
 20
108.5252691156
 30
0.0
 10
84.5708760192
 20
108.5552999239
 30
0.0
 10
84.5693579119
 20
108.6088351454
 30
0.0
 10
84.563279018
 20
108.6621984065
 30
0.0
 10
84.5585206128
 20
108.6852166389
 30
0.0
  0
SPLINE
  5
4A5
100
AcDbEntity
  8
0
100
AcDbSpline
 62
7
  6
CONTINUOUS
 70
0
 71
3
 72
10
 73
6
 74
0
 42
0.0000001
 43
0.0000001
 44
0.0000000001
 40
0.0
 40
0.0
 40
0.0
 40
0.0
 40
0.2108085805
 40
0.453649766
 40
1.0
 40
1.0
 40
1.0
 40
1.0
 10
84.3110685875
 20
108.4433495621
 30
0.0
 10
84.3252337387
 20
108.4567487385
 30
0.0
 10
84.360373029
 20
108.4807031141
 30
0.0
 10
84.4464158953
 20
108.5156135045
 30
0.0
 10
84.5203423021
 20
108.5252691126
 30
0.0
 10
84.5708762086
 20
108.5252691156
 30
0.0
  0
SPLINE
  5
4A6
100
AcDbEntity
  8
0
100
AcDbSpline
 62
7
  6
CONTINUOUS
 70
0
 71
3
 72
15
 73
11
 74
0
 42
0.0000001
 43
0.0000001
 44
0.0000000001
 40
0.0
 40
0.0
 40
0.0
 40
0.0
 40
0.1303687677
 40
0.2569330051
 40
0.3802598994
 40
0.5015875907
 40
0.622664133
 40
0.7452906011
 40
0.870832151
 40
1.0
 40
1.0
 40
1.0
 40
1.0
 10
84.2987129917
 20
108.5079854517
 30
0.0
 10
84.1375657698
 20
108.8237280501
 30
0.0
 10
83.8440348528
 20
109.4588681898
 30
0.0
 10
83.5050634409
 20
110.4378525058
 30
0.0
 10
83.2918501013
 20
111.4274302735
 30
0.0
 10
83.2187781816
 20
112.4226821518
 30
0.0
 10
83.2915695096
 20
113.4160701968
 30
0.0
 10
83.5047088944
 20
114.4002282365
 30
0.0
 10
83.8438020706
 20
115.3708028464
 30
0.0
 10
84.1375323232
 20
115.9992065567
 30
0.0
 10
84.2987129917
 20
116.3112612816
 30
0.0
  0
SPLINE
  5
4A7
100
AcDbEntity
  8
0
100
AcDbSpline
 62
7
  6
CONTINUOUS
 70
0
 71
3
 72
15
 73
11
 74
0
 42
0.0000001
 43
0.0000001
 44
0.0000000001
 40
0.0
 40
0.0
 40
0.0
 40
0.0
 40
0.1298255657
 40
0.2559013832
 40
0.3788550807
 40
0.5000001809
 40
0.6211450128
 40
0.7440987854
 40
0.870174609
 40
1.0
 40
1.0
 40
1.0
 40
1.0
 10
84.5585206128
 20
108.6852166389
 30
0.0
 10
84.3976842059
 20
108.9963189859
 30
0.0
 10
84.1044361272
 20
109.6224246623
 30
0.0
 10
83.7652610469
 20
110.5886845677
 30
0.0
 10
83.5516644796
 20
111.5671766179
 30
0.0
 10
83.4785162618
 20
112.5532757477
 30
0.0
 10
83.5516644018
 20
113.539375074
 30
0.0
 10
83.765260844
 20
114.517866646
 30
0.0
 10
84.1044361786
 20
115.4841262313
 30
0.0
 10
84.3976846502
 20
116.1102311894
 30
0.0
 10
84.5585206128
 20
116.4213332358
 30
0.0
  0
SPLINE
  5
4A8
100
AcDbEntity
  8
0
100
AcDbSpline
 62
7
  6
CONTINUOUS
 70
0
 71
3
 72
9
 73
5
 74
0
 42
0.0000001
 43
0.0000001
 44
0.0000000001
 40
0.0
 40
0.0
 40
0.0
 40
0.0
 40
0.4942739063
 40
1.0
 40
1.0
 40
1.0
 40
1.0
 10
84.2987132199
 20
108.5079853792
 30
0.0
 10
84.3233388682
 20
108.5552389739
 30
0.0
 10
84.3997710895
 20
108.6380261916
 30
0.0
 10
84.5044504501
 20
108.6782281314
 30
0.0
 10
84.5585206128
 20
108.6852166389
 30
0.0
  0
SPLINE
  5
4A9
100
AcDbEntity
  8
0
100
AcDbSpline
 62
7
  6
CONTINUOUS
 70
0
 71
3
 72
11
 73
7
 74
0
 42
0.0000001
 43
0.0000001
 44
0.0000000001
 40
0.0
 40
0.0
 40
0.0
 40
0.0
 40
0.3981140522
 40
0.702071968
 40
0.9042057167
 40
1.0
 40
1.0
 40
1.0
 40
1.0
 10
84.2987129917
 20
116.3112612816
 30
0.0
 10
84.3004986237
 20
116.3147183519
 30
0.0
 10
84.3035874799
 20
116.3208289231
 30
0.0
 10
84.3075697486
 20
116.32877277
 30
0.0
 10
84.3097959491
 20
116.3341254289
 30
0.0
 10
84.3110684373
 20
116.3368714755
 30
0.0
 10
84.3110685875
 20
116.3378077267
 30
0.0
  0
SPLINE
  5
4AA
100
AcDbEntity
  8
0
100
AcDbSpline
 62
7
  6
CONTINUOUS
 70
0
 71
3
 72
11
 73
7
 74
0
 42
0.0000001
 43
0.0000001
 44
0.0000000001
 40
0.0
 40
0.0
 40
0.0
 40
0.0
 40
0.3972162082
 40
0.6991660565
 40
0.9011093959
 40
1.0
 40
1.0
 40
1.0
 40
1.0
 10
84.5585206128
 20
116.4213332358
 30
0.0
 10
84.5603291964
 20
116.4300743785
 30
0.0
 10
84.5634461611
 20
116.4454679264
 30
0.0
 10
84.567420346
 20
116.4653434436
 30
0.0
 10
84.569662588
 20
116.47866874
 30
0.0
 10
84.5708752416
 20
116.4853656724
 30
0.0
 10
84.5708762086
 20
116.4875879522
 30
0.0
  0
SPLINE
  5
4AB
100
AcDbEntity
  8
0
100
AcDbSpline
 62
7
  6
CONTINUOUS
 70
0
 71
3
 72
10
 73
6
 74
0
 42
0.0000001
 43
0.0000001
 44
0.0000000001
 40
0.0
 40
0.0
 40
0.0
 40
0.0
 40
0.2360161396
 40
0.4803846099
 40
1.0
 40
1.0
 40
1.0
 40
1.0
 10
84.2987129923
 20
116.3112612812
 30
0.0
 10
84.3107353749
 20
116.3312229901
 30
0.0
 10
84.3423522465
 20
116.3679389559
 30
0.0
 10
84.4278482008
 20
116.4197412247
 30
0.0
 10
84.507640779
 20
116.42790926
 30
0.0
 10
84.5585206128
 20
116.4213331013
 30
0.0
  0
SPLINE
  5
4AC
100
AcDbEntity
  8
0
100
AcDbSpline
 62
7
  6
CONTINUOUS
 70
0
 71
3
 72
11
 73
7
 74
0
 42
0.0000001
 43
0.0000001
 44
0.0000000001
 40
0.0
 40
0.0
 40
0.0
 40
0.0
 40
0.0957749081
 40
0.297951196
 40
0.6020439815
 40
1.0
 40
1.0
 40
1.0
 40
1.0
 10
92.8284624296
 20
81.3391617033
 30
0.0
 10
92.8284624296
 20
81.3414918355
 30
0.0
 10
92.8315954344
 20
81.3483372683
 30
0.0
 10
92.8370661056
 20
81.3617001992
 30
0.0
 10
92.8468611011
 20
81.3815311961
 30
0.0
 10
92.8544591369
 20
81.396788141
 30
0.0
 10
92.8588515648
 20
81.4054164197
 30
0.0
  0
SPLINE
  5
4AD
100
AcDbEntity
  8
0
100
AcDbSpline
 62
7
  6
CONTINUOUS
 70
0
 71
3
 72
11
 73
7
 74
0
 42
0.0000001
 43
0.0000001
 44
0.0000000001
 40
0.0
 40
0.0
 40
0.0
 40
0.0
 40
0.3979566363
 40
0.7020506239
 40
0.9042268274
 40
1.0
 40
1.0
 40
1.0
 40
1.0
 10
92.8588515648
 20
116.4213332358
 30
0.0
 10
92.85445913
 20
116.429961528
 30
0.0
 10
92.8468610684
 20
116.4452185105
 30
0.0
 10
92.8370660767
 20
116.4650495546
 30
0.0
 10
92.831595377
 20
116.4784124602
 30
0.0
 10
92.8284624303
 20
116.4852578621
 30
0.0
 10
92.8284624303
 20
116.4875879522
 30
0.0
  0
SPLINE
  5
4AE
100
AcDbEntity
  8
0
100
AcDbSpline
 62
7
  6
CONTINUOUS
 70
0
 71
3
 72
9
 73
5
 74
0
 42
0.0000001
 43
0.0000001
 44
0.0000000001
 40
0.0
 40
0.0
 40
0.0
 40
0.0
 40
0.2589629127
 40
1.0
 40
1.0
 40
1.0
 40
1.0
 10
92.8588515648
 20
106.6494914246
 30
0.0
 10
92.8539852029
 20
106.6686099292
 30
0.0
 10
92.837230266
 20
106.7429111604
 30
0.0
 10
92.8284624304
 20
106.8192405296
 30
0.0
 10
92.8284624304
 20
106.8756936642
 30
0.0
  0
SPLINE
  5
4AF
100
AcDbEntity
  8
0
100
AcDbSpline
 62
7
  6
CONTINUOUS
 70
0
 71
3
 72
9
 73
5
 74
0
 42
0.0000001
 43
0.0000001
 44
0.0000000001
 40
0.0
 40
0.0
 40
0.0
 40
0.0
 40
0.5548312283
 40
1.0
 40
1.0
 40
1.0
 40
1.0
 10
92.8284624297
 20
108.5252691156
 30
0.0
 10
92.8284624296
 20
108.5555747284
 30
0.0
 10
92.8322266053
 20
108.6103057454
 30
0.0
 10
92.8478202417
 20
108.6635472269
 30
0.0
 10
92.8588515648
 20
108.6852166389
 30
0.0
  0
SPLINE
  5
4B0
100
AcDbEntity
  8
0
100
AcDbSpline
 62
7
  6
CONTINUOUS
 70
0
 71
3
 72
9
 73
5
 74
0
 42
0.0000001
 43
0.0000001
 44
0.0000000001
 40
0.0
 40
0.0
 40
0.0
 40
0.0
 40
0.2378499264
 40
1.0
 40
1.0
 40
1.0
 40
1.0
 10
92.82846243
 20
90.9510559912
 30
0.0
 10
92.82846243
 20
90.9691779065
 30
0.0
 10
92.8313898506
 20
91.0453596765
 30
0.0
 10
92.8445276977
 20
91.1209839698
 30
0.0
 10
92.8588515648
 20
91.1772582309
 30
0.0
  0
SPLINE
  5
4B1
100
AcDbEntity
  8
0
100
AcDbSpline
 62
7
  6
CONTINUOUS
 70
0
 71
3
 72
9
 73
5
 74
0
 42
0.0000001
 43
0.0000001
 44
0.0000000001
 40
0.0
 40
0.0
 40
0.0
 40
0.0
 40
0.4451711476
 40
1.0
 40
1.0
 40
1.0
 40
1.0
 10
92.8588515648
 20
89.1415330165
 30
0.0
 10
92.8478201832
 20
89.1632025434
 30
0.0
 10
92.8322266327
 20
89.2164440556
 30
0.0
 10
92.8284624304
 20
89.2711750579
 30
0.0
 10
92.8284624304
 20
89.3014805398
 30
0.0
  0
SPLINE
  5
4B2
100
AcDbEntity
  8
0
100
AcDbSpline
 62
7
  6
CONTINUOUS
 70
0
 71
3
 72
10
 73
6
 74
0
 42
0.0000001
 43
0.0000001
 44
0.0000000001
 40
0.0
 40
0.0
 40
0.0
 40
0.0
 40
0.4999061397
 40
0.7499530973
 40
1.0
 40
1.0
 40
1.0
 40
1.0
 10
154.9342692911
 20
106.6494914246
 30
0.0
 10
154.6126981045
 20
105.386132811
 30
0.0
 10
154.2194260959
 20
103.4647650678
 30
0.0
 10
153.943621354
 20
100.8700456108
 30
0.0
 10
153.896560428
 20
99.5653975563
 30
0.0
 10
153.896560428
 20
98.9133317557
 30
0.0
  0
SPLINE
  5
4B3
100
AcDbEntity
  8
0
100
AcDbSpline
 62
7
  6
CONTINUOUS
 70
0
 71
3
 72
10
 73
6
 74
0
 42
0.0000001
 43
0.0000001
 44
0.0000000001
 40
0.0
 40
0.0
 40
0.0
 40
0.0
 40
0.2500469099
 40
0.5000938735
 40
1.0
 40
1.0
 40
1.0
 40
1.0
 10
153.896560428
 20
98.9133317557
 30
0.0
 10
153.896560428
 20
98.261273108
 30
0.0
 10
153.9436274973
 20
96.9566395344
 30
0.0
 10
154.2194323482
 20
94.361949155
 30
0.0
 10
154.6127016497
 20
92.4406029165
 30
0.0
 10
154.9342692911
 20
91.1772582309
 30
0.0
  0
SPLINE
  5
4B4
100
AcDbEntity
  8
0
100
AcDbSpline
 62
7
  6
CONTINUOUS
 70
0
 71
3
 72
11
 73
7
 74
0
 42
0.0000001
 43
0.0000001
 44
0.0000000001
 40
0.0
 40
0.0
 40
0.0
 40
0.0
 40
0.2593954391
 40
0.5114645637
 40
0.7574772192
 40
1.0
 40
1.0
 40
1.0
 40
1.0
 10
154.9342692911
 20
116.4213332358
 30
0.0
 10
154.7757656468
 20
116.1099761354
 30
0.0
 10
154.4870458844
 20
115.4833617045
 30
0.0
 10
154.1538665186
 20
114.5168759248
 30
0.0
 10
153.944430786
 20
113.5388260271
 30
0.0
 10
153.896560428
 20
112.8799079537
 30
0.0
 10
153.896560428
 20
112.5532534013
 30
0.0
  0
SPLINE
  5
4B5
100
AcDbEntity
  8
0
100
AcDbSpline
 62
7
  6
CONTINUOUS
 70
0
 71
3
 72
11
 73
7
 74
0
 42
0.0000001
 43
0.0000001
 44
0.0000000001
 40
0.0
 40
0.0
 40
0.0
 40
0.0
 40
0.2425227716
 40
0.4885354802
 40
0.7406046152
 40
1.0
 40
1.0
 40
1.0
 40
1.0
 10
153.896560428
 20
112.5532534013
 30
0.0
 10
153.896560428
 20
112.2266023363
 30
0.0
 10
153.9444370196
 20
111.5676915531
 30
0.0
 10
154.1538726326
 20
110.5896527882
 30
0.0
 10
154.4870505487
 20
109.6231779357
 30
0.0
 10
154.7757673661
 20
108.9965703618
 30
0.0
 10
154.9342692911
 20
108.6852166389
 30
0.0
  0
SPLINE
  5
4B6
100
AcDbEntity
  8
0
100
AcDbSpline
 62
7
  6
CONTINUOUS
 70
0
 71
3
 72
11
 73
7
 74
0
 42
0.0000001
 43
0.0000001
 44
0.0000000001
 40
0.0
 40
0.0
 40
0.0
 40
0.0
 40
0.2593954391
 40
0.5114645637
 40
0.7574772192
 40
1.0
 40
1.0
 40
1.0
 40
1.0
 10
154.9342692911
 20
89.1415330165
 30
0.0
 10
154.7757656468
 20
88.8301759162
 30
0.0
 10
154.4870458844
 20
88.2035614853
 30
0.0
 10
154.1538665186
 20
87.2370757056
 30
0.0
 10
153.944430786
 20
86.2590258079
 30
0.0
 10
153.896560428
 20
85.6001077345
 30
0.0
 10
153.896560428
 20
85.2734531821
 30
0.0
  0
SPLINE
  5
4B7
100
AcDbEntity
  8
0
100
AcDbSpline
 62
7
  6
CONTINUOUS
 70
0
 71
3
 72
11
 73
7
 74
0
 42
0.0000001
 43
0.0000001
 44
0.0000000001
 40
0.0
 40
0.0
 40
0.0
 40
0.0
 40
0.2425227716
 40
0.4885354802
 40
0.7406046152
 40
1.0
 40
1.0
 40
1.0
 40
1.0
 10
153.896560428
 20
85.2734531821
 30
0.0
 10
153.896560428
 20
84.9468021171
 30
0.0
 10
153.9444370196
 20
84.2878913339
 30
0.0
 10
154.1538726326
 20
83.309852569
 30
0.0
 10
154.4870505487
 20
82.3433777165
 30
0.0
 10
154.7757673661
 20
81.7167701426
 30
0.0
 10
154.9342692911
 20
81.4054164197
 30
0.0
  0
SPLINE
  5
4B8
100
AcDbEntity
  8
0
100
AcDbSpline
 62
7
  6
CONTINUOUS
 70
0
 71
3
 72
11
 73
7
 74
0
 42
0.0000001
 43
0.0000001
 44
0.0000000001
 40
0.0
 40
0.0
 40
0.0
 40
0.0
 40
0.0957989484
 40
0.2979289133
 40
0.601883564
 40
1.0
 40
1.0
 40
1.0
 40
1.0
 10
163.4820522685
 20
116.3378077267
 30
0.0
 10
163.4820523026
 20
116.3368714299
 30
0.0
 10
163.4833250873
 20
116.3341253928
 30
0.0
 10
163.4855510391
 20
116.3287727327
 30
0.0
 10
163.4895333924
 20
116.3208289315
 30
0.0
 10
163.4926222262
 20
116.3147183747
 30
0.0
 10
163.4944078643
 20
116.3112612816
 30
0.0
  0
SPLINE
  5
4B9
100
AcDbEntity
  8
0
100
AcDbSpline
 62
7
  6
CONTINUOUS
 70
0
 71
3
 72
11
 73
7
 74
0
 42
0.0000001
 43
0.0000001
 44
0.0000000001
 40
0.0
 40
0.0
 40
0.0
 40
0.0
 40
0.098891379
 40
0.300831928
 40
0.6027826149
 40
1.0
 40
1.0
 40
1.0
 40
1.0
 10
163.2222446473
 20
116.4875879522
 30
0.0
 10
163.2222448644
 20
116.4853656537
 30
0.0
 10
163.2234591915
 20
116.4786687998
 30
0.0
 10
163.2256981467
 20
116.4653431429
 30
0.0
 10
163.2296736093
 20
116.4454677431
 30
0.0
 10
163.2327931133
 20
116.4300747105
 30
0.0
 10
163.2346002431
 20
116.4213332358
 30
0.0
  0
SPLINE
  5
4BA
100
AcDbEntity
  8
0
100
AcDbSpline
 62
7
  6
CONTINUOUS
 70
0
 71
3
 72
15
 73
11
 74
0
 42
0.0000001
 43
0.0000001
 44
0.0000000001
 40
0.0
 40
0.0
 40
0.0
 40
0.0
 40
0.1291678258
 40
0.2547093589
 40
0.3773358393
 40
0.4984123928
 40
0.6197401074
 40
0.7430670103
 40
0.8696312407
 40
1.0
 40
1.0
 40
1.0
 40
1.0
 10
163.4944078643
 20
116.3112612816
 30
0.0
 10
163.6555886726
 20
115.9992066984
 30
0.0
 10
163.9493186253
 20
115.3708029519
 30
0.0
 10
164.2884118327
 20
114.4002284471
 30
0.0
 10
164.5015512335
 20
113.4160703826
 30
0.0
 10
164.5743426502
 20
112.4226822224
 30
0.0
 10
164.5012709103
 20
111.4274302028
 30
0.0
 10
164.2880575497
 20
110.4378523709
 30
0.0
 10
163.9490862282
 20
109.4588680115
 30
0.0
 10
163.6555548518
 20
108.8237281454
 30
0.0
 10
163.4944078643
 20
108.5079854517
 30
0.0
  0
SPLINE
  5
4BB
100
AcDbEntity
  8
0
100
AcDbSpline
 62
7
  6
CONTINUOUS
 70
0
 71
3
 72
15
 73
11
 74
0
 42
0.0000001
 43
0.0000001
 44
0.0000000001
 40
0.0
 40
0.0
 40
0.0
 40
0.0
 40
0.1298253766
 40
0.2559011901
 40
0.3788549708
 40
0.4999997997
 40
0.6211449
 40
0.7440986001
 40
0.8701744191
 40
1.0
 40
1.0
 40
1.0
 40
1.0
 10
163.2346002431
 20
116.4213332358
 30
0.0
 10
163.3954364806
 20
116.1102313752
 30
0.0
 10
163.6886841175
 20
115.4841260712
 30
0.0
 10
164.0278594715
 20
114.5178665936
 30
0.0
 10
164.241456071
 20
113.5393750611
 30
0.0
 10
164.3146045233
 20
112.5532757648
 30
0.0
 10
164.2414568614
 20
111.5671765794
 30
0.0
 10
164.027860287
 20
110.5886845173
 30
0.0
 10
163.6886852917
 20
109.6224244843
 30
0.0
 10
163.3954363918
 20
108.9963191657
 30
0.0
 10
163.2346002431
 20
108.6852166389
 30
0.0
  0
SPLINE
  5
4BC
100
AcDbEntity
  8
0
100
AcDbSpline
 62
7
  6
CONTINUOUS
 70
0
 71
3
 72
10
 73
6
 74
0
 42
0.0000001
 43
0.0000001
 44
0.0000000001
 40
0.0
 40
0.0
 40
0.0
 40
0.0
 40
0.2360160779
 40
0.4803845336
 40
1.0
 40
1.0
 40
1.0
 40
1.0
 10
163.4944076481
 20
116.311261157
 30
0.0
 10
163.4823852852
 20
116.3312228584
 30
0.0
 10
163.4507684592
 20
116.3679388219
 30
0.0
 10
163.3652726004
 20
116.4197411542
 30
0.0
 10
163.2854800724
 20
116.4279093079
 30
0.0
 10
163.2346002431
 20
116.4213332358
 30
0.0
  0
SPLINE
  5
4BD
100
AcDbEntity
  8
0
100
AcDbSpline
 62
7
  6
CONTINUOUS
 70
0
 71
3
 72
9
 73
5
 74
0
 42
0.0000001
 43
0.0000001
 44
0.0000000001
 40
0.0
 40
0.0
 40
0.0
 40
0.0
 40
0.210308983
 40
1.0
 40
1.0
 40
1.0
 40
1.0
 10
163.4944078643
 20
108.5079854517
 30
0.0
 10
163.4922994458
 20
108.5038543324
 30
0.0
 10
163.4840861293
 20
108.4832843434
 30
0.0
 10
163.4820524481
 20
108.4607650433
 30
0.0
 10
163.4820522685
 20
108.4433495621
 30
0.0
  0
SPLINE
  5
4BE
100
AcDbEntity
  8
0
100
AcDbSpline
 62
7
  6
CONTINUOUS
 70
0
 71
3
 72
9
 73
5
 74
0
 42
0.0000001
 43
0.0000001
 44
0.0000000001
 40
0.0
 40
0.0
 40
0.0
 40
0.0
 40
0.4390517103
 40
1.0
 40
1.0
 40
1.0
 40
1.0
 10
163.2346002431
 20
108.6852166389
 30
0.0
 10
163.2298378223
 20
108.6621992241
 30
0.0
 10
163.2237678674
 20
108.6088343485
 30
0.0
 10
163.2222454904
 20
108.5552998697
 30
0.0
 10
163.2222446473
 20
108.5252691156
 30
0.0
  0
SPLINE
  5
4BF
100
AcDbEntity
  8
0
100
AcDbSpline
 62
7
  6
CONTINUOUS
 70
0
 71
3
 72
9
 73
5
 74
0
 42
0.0000001
 43
0.0000001
 44
0.0000000001
 40
0.0
 40
0.0
 40
0.0
 40
0.0
 40
0.4942739266
 40
1.0
 40
1.0
 40
1.0
 40
1.0
 10
163.4944078636
 20
108.5079854515
 30
0.0
 10
163.4697821655
 20
108.5552390357
 30
0.0
 10
163.3933498361
 20
108.6380261881
 30
0.0
 10
163.2886704215
 20
108.6782280435
 30
0.0
 10
163.2346002431
 20
108.6852165049
 30
0.0
  0
SPLINE
  5
4C0
100
AcDbEntity
  8
0
100
AcDbSpline
 62
7
  6
CONTINUOUS
 70
0
 71
3
 72
10
 73
6
 74
0
 42
0.0000001
 43
0.0000001
 44
0.0000000001
 40
0.0
 40
0.0
 40
0.0
 40
0.0
 40
0.2108085873
 40
0.453649774
 40
1.0
 40
1.0
 40
1.0
 40
1.0
 10
163.4820522685
 20
108.4433495621
 30
0.0
 10
163.4678871176
 20
108.4567487399
 30
0.0
 10
163.4327478274
 20
108.4807031179
 30
0.0
 10
163.346704961
 20
108.5156135099
 30
0.0
 10
163.2727785534
 20
108.5252691156
 30
0.0
 10
163.2222446473
 20
108.5252691156
 30
0.0
  0
SPLINE
  5
4C1
100
AcDbEntity
  8
0
100
AcDbSpline
 62
7
  6
CONTINUOUS
 70
0
 71
3
 72
9
 73
5
 74
0
 42
0.0000001
 43
0.0000001
 44
0.0000000001
 40
0.0
 40
0.0
 40
0.0
 40
0.0
 40
0.2379054
 40
1.0
 40
1.0
 40
1.0
 40
1.0
 10
163.4820522685
 20
106.8078329923
 30
0.0
 10
163.4820522846
 20
106.8005250129
 30
0.0
 10
163.4832408986
 20
106.76981045
 30
0.0
 10
163.4885870832
 20
106.7393254859
 30
0.0
 10
163.4944078643
 20
106.7166506576
 30
0.0
  0
SPLINE
  5
4C2
100
AcDbEntity
  8
0
100
AcDbSpline
 62
7
  6
CONTINUOUS
 70
0
 71
3
 72
9
 73
5
 74
0
 42
0.0000001
 43
0.0000001
 44
0.0000000001
 40
0.0
 40
0.0
 40
0.0
 40
0.0
 40
0.2377408785
 40
1.0
 40
1.0
 40
1.0
 40
1.0
 10
163.2222446473
 20
106.8756936642
 30
0.0
 10
163.2222447537
 20
106.8577366375
 30
0.0
 10
163.2234152589
 20
106.7822068282
 30
0.0
 10
163.2286806404
 20
106.7067612025
 30
0.0
 10
163.2346002431
 20
106.6494914246
 30
0.0
  0
SPLINE
  5
4C3
100
AcDbEntity
  8
0
100
AcDbSpline
 62
7
  6
CONTINUOUS
 70
0
 71
3
 72
10
 73
6
 74
0
 42
0.0000001
 43
0.0000001
 44
0.0000000001
 40
0.0
 40
0.0
 40
0.0
 40
0.0
 40
0.2032447928
 40
0.4449065796
 40
1.0
 40
1.0
 40
1.0
 40
1.0
 10
163.4820522685
 20
106.8078329923
 30
0.0
 10
163.467536146
 20
106.8192076469
 30
0.0
 10
163.4318793254
 20
106.8391212709
 30
0.0
 10
163.3455948938
 20
106.8679515967
 30
0.0
 10
163.2726121405
 20
106.8756936674
 30
0.0
 10
163.2222446473
 20
106.8756936642
 30
0.0
  0
SPLINE
  5
4C4
100
AcDbEntity
  8
0
100
AcDbSpline
 62
7
  6
CONTINUOUS
 70
0
 71
3
 72
13
 73
9
 74
0
 42
0.0000001
 43
0.0000001
 44
0.0000000001
 40
0.0
 40
0.0
 40
0.0
 40
0.0
 40
0.2499524158
 40
0.3749764843
 40
0.4999999981
 40
0.625023512
 40
0.7500475813
 40
1.0
 40
1.0
 40
1.0
 40
1.0
 10
163.4944078643
 20
106.7166506576
 30
0.0
 10
163.8214335277
 20
105.4427564832
 30
0.0
 10
164.2215720868
 20
103.5049977436
 30
0.0
 10
164.5022492076
 20
100.8873850546
 30
0.0
 10
164.5741007092
 20
98.9133748467
 30
0.0
 10
164.5022493003
 20
96.9393646391
 30
0.0
 10
164.2215723733
 20
94.3217518841
 30
0.0
 10
163.821433071
 20
92.3839933054
 30
0.0
 10
163.4944078643
 20
91.1100989978
 30
0.0
  0
SPLINE
  5
4C5
100
AcDbEntity
  8
0
100
AcDbSpline
 62
7
  6
CONTINUOUS
 70
0
 71
3
 72
13
 73
9
 74
0
 42
0.0000001
 43
0.0000001
 44
0.0000000001
 40
0.0
 40
0.0
 40
0.0
 40
0.0
 40
0.2499526532
 40
0.3749767102
 40
0.5000000013
 40
0.625023292
 40
0.7500473493
 40
1.0
 40
1.0
 40
1.0
 40
1.0
 10
163.2346002431
 20
106.6494914246
 30
0.0
 10
163.5609826145
 20
105.3868632996
 30
0.0
 10
163.9611224564
 20
103.4660760592
 30
0.0
 10
164.2423164085
 20
100.870773336
 30
0.0
 10
164.3143555608
 20
98.9133747724
 30
0.0
 10
164.2423167683
 20
96.9559762065
 30
0.0
 10
163.9611232968
 20
94.3606733949
 30
0.0
 10
163.5609819465
 20
92.4398865152
 30
0.0
 10
163.2346002431
 20
91.1772582309
 30
0.0
  0
SPLINE
  5
4C6
100
AcDbEntity
  8
0
100
AcDbSpline
 62
7
  6
CONTINUOUS
 70
0
 71
3
 72
9
 73
5
 74
0
 42
0.0000001
 43
0.0000001
 44
0.0000000001
 40
0.0
 40
0.0
 40
0.0
 40
0.0
 40
0.2590401723
 40
1.0
 40
1.0
 40
1.0
 40
1.0
 10
163.4944078643
 20
91.1100989978
 30
0.0
 10
163.4924295475
 20
91.1023926749
 30
0.0
 10
163.485617125
 20
91.0724495921
 30
0.0
 10
163.4820524892
 20
91.0416746239
 30
0.0
 10
163.4820522685
 20
91.0189166631
 30
0.0
  0
SPLINE
  5
4C7
100
AcDbEntity
  8
0
100
AcDbSpline
 62
7
  6
CONTINUOUS
 70
0
 71
3
 72
9
 73
5
 74
0
 42
0.0000001
 43
0.0000001
 44
0.0000000001
 40
0.0
 40
0.0
 40
0.0
 40
0.0
 40
0.2588604451
 40
1.0
 40
1.0
 40
1.0
 40
1.0
 10
163.2346002431
 20
91.1772582309
 30
0.0
 10
163.2325882608
 20
91.157810091
 30
0.0
 10
163.2257223234
 20
91.0825934627
 30
0.0
 10
163.222246124
 20
91.0070348543
 30
0.0
 10
163.2222446473
 20
90.9510559912
 30
0.0
  0
SPLINE
  5
4C8
100
AcDbEntity
  8
0
100
AcDbSpline
 62
7
  6
CONTINUOUS
 70
0
 71
3
 72
10
 73
6
 74
0
 42
0.0000001
 43
0.0000001
 44
0.0000000001
 40
0.0
 40
0.0
 40
0.0
 40
0.0
 40
0.2032447879
 40
0.4449065759
 40
1.0
 40
1.0
 40
1.0
 40
1.0
 10
163.4820522685
 20
91.0189166631
 30
0.0
 10
163.4675361456
 20
91.00754201
 30
0.0
 10
163.4318793244
 20
90.9876283886
 30
0.0
 10
163.345594893
 20
90.9587980644
 30
0.0
 10
163.2726121405
 20
90.9510559912
 30
0.0
 10
163.2222446473
 20
90.9510559912
 30
0.0
  0
SPLINE
  5
4C9
100
AcDbEntity
  8
0
100
AcDbSpline
 62
7
  6
CONTINUOUS
 70
0
 71
3
 72
9
 73
5
 74
0
 42
0.0000001
 43
0.0000001
 44
0.0000000001
 40
0.0
 40
0.0
 40
0.0
 40
0.0
 40
0.2909817592
 40
1.0
 40
1.0
 40
1.0
 40
1.0
 10
163.4820522685
 20
89.3834000934
 30
0.0
 10
163.4820522836
 20
89.3769888625
 30
0.0
 10
163.4829150265
 20
89.3550462377
 30
0.0
 10
163.4873065803
 20
89.3326787515
 30
0.0
 10
163.4944078643
 20
89.3187642037
 30
0.0
  0
SPLINE
  5
4CA
100
AcDbEntity
  8
0
100
AcDbSpline
 62
7
  6
CONTINUOUS
 70
0
 71
3
 72
9
 73
5
 74
0
 42
0.0000001
 43
0.0000001
 44
0.0000000001
 40
0.0
 40
0.0
 40
0.0
 40
0.0
 40
0.560948867
 40
1.0
 40
1.0
 40
1.0
 40
1.0
 10
163.2222446473
 20
89.3014805398
 30
0.0
 10
163.2222448368
 20
89.2714497316
 30
0.0
 10
163.2237629441
 20
89.21791451
 30
0.0
 10
163.2298418379
 20
89.164551249
 30
0.0
 10
163.2346002431
 20
89.1415330165
 30
0.0
  0
SPLINE
  5
4CB
100
AcDbEntity
  8
0
100
AcDbSpline
 62
7
  6
CONTINUOUS
 70
0
 71
3
 72
10
 73
6
 74
0
 42
0.0000001
 43
0.0000001
 44
0.0000000001
 40
0.0
 40
0.0
 40
0.0
 40
0.0
 40
0.2108085805
 40
0.453649766
 40
1.0
 40
1.0
 40
1.0
 40
1.0
 10
163.4820522685
 20
89.3834000934
 30
0.0
 10
163.4678871173
 20
89.370000917
 30
0.0
 10
163.4327478269
 20
89.3460465414
 30
0.0
 10
163.3467049607
 20
89.311136151
 30
0.0
 10
163.2727785538
 20
89.3014805428
 30
0.0
 10
163.2222446473
 20
89.3014805398
 30
0.0
  0
SPLINE
  5
4CC
100
AcDbEntity
  8
0
100
AcDbSpline
 62
7
  6
CONTINUOUS
 70
0
 71
3
 72
15
 73
11
 74
0
 42
0.0000001
 43
0.0000001
 44
0.0000000001
 40
0.0
 40
0.0
 40
0.0
 40
0.0
 40
0.1303687677
 40
0.2569330051
 40
0.3802598994
 40
0.5015875907
 40
0.622664133
 40
0.7452906011
 40
0.870832151
 40
1.0
 40
1.0
 40
1.0
 40
1.0
 10
163.4944078643
 20
89.3187642037
 30
0.0
 10
163.6555550861
 20
89.0030216054
 30
0.0
 10
163.9490860031
 20
88.3678814657
 30
0.0
 10
164.288057415
 20
87.3888971497
 30
0.0
 10
164.5012707546
 20
86.399319382
 30
0.0
 10
164.5743426743
 20
85.4040675037
 30
0.0
 10
164.5015513464
 20
84.4106794587
 30
0.0
 10
164.2884119615
 20
83.4265214189
 30
0.0
 10
163.9493187853
 20
82.455946809
 30
0.0
 10
163.6555885327
 20
81.8275430988
 30
0.0
 10
163.4944078643
 20
81.5154883738
 30
0.0
  0
SPLINE
  5
4CD
100
AcDbEntity
  8
0
100
AcDbSpline
 62
7
  6
CONTINUOUS
 70
0
 71
3
 72
15
 73
11
 74
0
 42
0.0000001
 43
0.0000001
 44
0.0000000001
 40
0.0
 40
0.0
 40
0.0
 40
0.0
 40
0.1298255657
 40
0.2559013832
 40
0.3788550807
 40
0.5000001809
 40
0.6211450128
 40
0.7440987854
 40
0.870174609
 40
1.0
 40
1.0
 40
1.0
 40
1.0
 10
163.2346002431
 20
89.1415330165
 30
0.0
 10
163.39543665
 20
88.8304306695
 30
0.0
 10
163.6886847287
 20
88.2043249931
 30
0.0
 10
164.027859809
 20
87.2380650878
 30
0.0
 10
164.2414563763
 20
86.2595730376
 30
0.0
 10
164.3146045942
 20
85.2734739077
 30
0.0
 10
164.2414564542
 20
84.2873745815
 30
0.0
 10
164.027860012
 20
83.3088830095
 30
0.0
 10
163.6886846773
 20
82.3426234242
 30
0.0
 10
163.3954362057
 20
81.7165184661
 30
0.0
 10
163.2346002431
 20
81.4054164197
 30
0.0
  0
SPLINE
  5
4CE
100
AcDbEntity
  8
0
100
AcDbSpline
 62
7
  6
CONTINUOUS
 70
0
 71
3
 72
9
 73
5
 74
0
 42
0.0000001
 43
0.0000001
 44
0.0000000001
 40
0.0
 40
0.0
 40
0.0
 40
0.0
 40
0.4942739063
 40
1.0
 40
1.0
 40
1.0
 40
1.0
 10
163.4944076361
 20
89.3187642763
 30
0.0
 10
163.4697819878
 20
89.2715106816
 30
0.0
 10
163.3933497665
 20
89.1887234639
 30
0.0
 10
163.2886704058
 20
89.148521524
 30
0.0
 10
163.2346002431
 20
89.1415330165
 30
0.0
  0
SPLINE
  5
4CF
100
AcDbEntity
  8
0
100
AcDbSpline
 62
7
  6
CONTINUOUS
 70
0
 71
3
 72
11
 73
7
 74
0
 42
0.0000001
 43
0.0000001
 44
0.0000000001
 40
0.0
 40
0.0
 40
0.0
 40
0.0
 40
0.3981140522
 40
0.702071968
 40
0.9042057167
 40
1.0
 40
1.0
 40
1.0
 40
1.0
 10
163.4944078643
 20
81.5154883738
 30
0.0
 10
163.4926222322
 20
81.5120313035
 30
0.0
 10
163.4895333761
 20
81.5059207323
 30
0.0
 10
163.4855511073
 20
81.4979768854
 30
0.0
 10
163.4833249068
 20
81.4926242265
 30
0.0
 10
163.4820524186
 20
81.48987818
 30
0.0
 10
163.4820522685
 20
81.4889419288
 30
0.0
  0
SPLINE
  5
4D0
100
AcDbEntity
  8
0
100
AcDbSpline
 62
7
  6
CONTINUOUS
 70
0
 71
3
 72
11
 73
7
 74
0
 42
0.0000001
 43
0.0000001
 44
0.0000000001
 40
0.0
 40
0.0
 40
0.0
 40
0.0
 40
0.3972162082
 40
0.6991660565
 40
0.9011093959
 40
1.0
 40
1.0
 40
1.0
 40
1.0
 10
163.2346002431
 20
81.4054164197
 30
0.0
 10
163.2327916596
 20
81.3966752769
 30
0.0
 10
163.2296746948
 20
81.381281729
 30
0.0
 10
163.22570051
 20
81.3614062119
 30
0.0
 10
163.223458268
 20
81.3480809154
 30
0.0
 10
163.2222456143
 20
81.3413839831
 30
0.0
 10
163.2222446473
 20
81.3391617033
 30
0.0
  0
SPLINE
  5
4D1
100
AcDbEntity
  8
0
100
AcDbSpline
 62
7
  6
CONTINUOUS
 70
0
 71
3
 72
10
 73
6
 74
0
 42
0.0000001
 43
0.0000001
 44
0.0000000001
 40
0.0
 40
0.0
 40
0.0
 40
0.0
 40
0.2360161396
 40
0.4803846099
 40
1.0
 40
1.0
 40
1.0
 40
1.0
 10
163.4944078636
 20
81.5154883742
 30
0.0
 10
163.482385481
 20
81.4955266653
 30
0.0
 10
163.4507686094
 20
81.4588106996
 30
0.0
 10
163.3652726552
 20
81.4070084307
 30
0.0
 10
163.2854800769
 20
81.3988403954
 30
0.0
 10
163.2346002431
 20
81.4054165542
 30
0.0
  0
SPLINE
  5
4D2
100
AcDbEntity
  8
0
100
AcDbSpline
 62
7
  6
CONTINUOUS
 70
0
 71
3
 72
11
 73
7
 74
0
 42
0.0000001
 43
0.0000001
 44
0.0000000001
 40
0.0
 40
0.0
 40
0.0
 40
0.0
 40
0.0957749081
 40
0.297951196
 40
0.6020439815
 40
1.0
 40
1.0
 40
1.0
 40
1.0
 10
154.9646584263
 20
116.4875879522
 30
0.0
 10
154.9646584263
 20
116.4852578199
 30
0.0
 10
154.9615254215
 20
116.4784123871
 30
0.0
 10
154.9560547504
 20
116.4650494562
 30
0.0
 10
154.9462597549
 20
116.4452184593
 30
0.0
 10
154.9386617191
 20
116.4299615145
 30
0.0
 10
154.9342692911
 20
116.4213332358
 30
0.0
  0
SPLINE
  5
4D3
100
AcDbEntity
  8
0
100
AcDbSpline
 62
7
  6
CONTINUOUS
 70
0
 71
3
 72
11
 73
7
 74
0
 42
0.0000001
 43
0.0000001
 44
0.0000000001
 40
0.0
 40
0.0
 40
0.0
 40
0.0
 40
0.3979566363
 40
0.7020506239
 40
0.9042268274
 40
1.0
 40
1.0
 40
1.0
 40
1.0
 10
154.9342692911
 20
81.4054164197
 30
0.0
 10
154.9386617259
 20
81.3967881275
 30
0.0
 10
154.9462597875
 20
81.381531145
 30
0.0
 10
154.9560547793
 20
81.3617001008
 30
0.0
 10
154.9615254789
 20
81.3483371952
 30
0.0
 10
154.9646584256
 20
81.3414917933
 30
0.0
 10
154.9646584256
 20
81.3391617033
 30
0.0
  0
SPLINE
  5
4D4
100
AcDbEntity
  8
0
100
AcDbSpline
 62
7
  6
CONTINUOUS
 70
0
 71
3
 72
9
 73
5
 74
0
 42
0.0000001
 43
0.0000001
 44
0.0000000001
 40
0.0
 40
0.0
 40
0.0
 40
0.0
 40
0.2589629127
 40
1.0
 40
1.0
 40
1.0
 40
1.0
 10
154.9342692911
 20
91.1772582309
 30
0.0
 10
154.939135653
 20
91.1581397262
 30
0.0
 10
154.95589059
 20
91.0838384951
 30
0.0
 10
154.9646584256
 20
91.0075091259
 30
0.0
 10
154.9646584256
 20
90.9510559912
 30
0.0
  0
SPLINE
  5
4D5
100
AcDbEntity
  8
0
100
AcDbSpline
 62
7
  6
CONTINUOUS
 70
0
 71
3
 72
9
 73
5
 74
0
 42
0.0000001
 43
0.0000001
 44
0.0000000001
 40
0.0
 40
0.0
 40
0.0
 40
0.0
 40
0.5548312283
 40
1.0
 40
1.0
 40
1.0
 40
1.0
 10
154.9646584263
 20
89.3014805398
 30
0.0
 10
154.9646584263
 20
89.271174927
 30
0.0
 10
154.9608942506
 20
89.2164439101
 30
0.0
 10
154.9453006142
 20
89.1632024285
 30
0.0
 10
154.9342692911
 20
89.1415330165
 30
0.0
  0
SPLINE
  5
4D6
100
AcDbEntity
  8
0
100
AcDbSpline
 62
7
  6
CONTINUOUS
 70
0
 71
3
 72
9
 73
5
 74
0
 42
0.0000001
 43
0.0000001
 44
0.0000000001
 40
0.0
 40
0.0
 40
0.0
 40
0.0
 40
0.2378499264
 40
1.0
 40
1.0
 40
1.0
 40
1.0
 10
154.964658426
 20
106.8756936642
 30
0.0
 10
154.964658426
 20
106.857571749
 30
0.0
 10
154.9617310054
 20
106.781389979
 30
0.0
 10
154.9485931583
 20
106.7057656857
 30
0.0
 10
154.9342692911
 20
106.6494914246
 30
0.0
  0
SPLINE
  5
4D7
100
AcDbEntity
  8
0
100
AcDbSpline
 62
7
  6
CONTINUOUS
 70
0
 71
3
 72
9
 73
5
 74
0
 42
0.0000001
 43
0.0000001
 44
0.0000000001
 40
0.0
 40
0.0
 40
0.0
 40
0.0
 40
0.4451711476
 40
1.0
 40
1.0
 40
1.0
 40
1.0
 10
154.9342692911
 20
108.6852166389
 30
0.0
 10
154.9453006727
 20
108.663547112
 30
0.0
 10
154.9608942232
 20
108.6103055998
 30
0.0
 10
154.9646584256
 20
108.5555745976
 30
0.0
 10
154.9646584256
 20
108.5252691156
 30
0.0
  0
SPLINE
  5
4D8
100
AcDbEntity
  8
0
100
AcDbSpline
 62
7
  6
CONTINUOUS
 70
0
 71
3
 72
9
 73
5
 74
0
 42
0.0000001
 43
0.0000001
 44
0.0000000001
 40
0.0
 40
0.0
 40
0.0
 40
0.0
 40
0.3006673158
 40
1.0
 40
1.0
 40
1.0
 40
1.0
 10
153.8506521854
 20
113.1525678927
 30
0.0
 10
153.8501429685
 20
113.1535467941
 30
0.0
 10
153.848359778
 20
113.1567394256
 30
0.0
 10
153.8461677918
 20
113.1598093487
 30
0.0
 10
153.8441791881
 20
113.161431806
 30
0.0
  0
SPLINE
  5
4D9
100
AcDbEntity
  8
0
100
AcDbSpline
 62
7
  6
CONTINUOUS
 70
0
 71
3
 72
8
 73
4
 74
0
 42
0.0000001
 43
0.0000001
 44
0.0000000001
 40
0.0
 40
0.0
 40
0.0
 40
0.0
 40
1.0
 40
1.0
 40
1.0
 40
1.0
 10
153.8441791881
 20
113.161431806
 30
0.0
 10
153.8428510005
 20
113.1625154447
 30
0.0
 10
153.8411320632
 20
113.1633748277
 30
0.0
 10
153.8394179001
 20
113.1633748277
 30
0.0
  0
SPLINE
  5
4DA
100
AcDbEntity
  8
0
100
AcDbSpline
 62
7
  6
CONTINUOUS
 70
0
 71
3
 72
47
 73
43
 74
0
 42
0.0000001
 43
0.0000001
 44
0.0000000001
 40
0.0
 40
0.0
 40
0.0
 40
0.0
 40
0.0003040879
 40
0.0008180071
 40
0.002653704
 40
0.0056237131
 40
0.0097389757
 40
0.0149973392
 40
0.021387692
 40
0.028896467
 40
0.0375086424
 40
0.0472035183
 40
0.0579581361
 40
0.0825484809
 40
0.1110491258
 40
0.1431958311
 40
0.1786871773
 40
0.2171906803
 40
0.2583471592
 40
0.3017698835
 40
0.3470528787
 40
0.3937719573
 40
0.4897576662
 40
0.5861387616
 40
0.679311762
 40
0.723598692
 40
0.7657936556
 40
0.8055026294
 40
0.8423525513
 40
0.8759991983
 40
0.9061284137
 40
0.9324570068
 40
0.9547415887
 40
0.9643003996
 40
0.9727746282
 40
0.9801437353
 40
0.9863912947
 40
0.991505804
 40
0.9954774267
 40
0.998302736
 40
0.9992897392
 40
1.0
 40
1.0
 40
1.0
 40
1.0
 10
152.823784407
 20
112.0133649873
 30
0.0
 10
152.8264419404
 20
112.013368638
 30
0.0
 10
152.8328943295
 20
112.0084894117
 30
0.0
 10
152.8429530246
 20
111.987790012
 30
0.0
 10
152.8548199859
 20
111.9422886918
 30
0.0
 10
152.8678661066
 20
111.8656278346
 30
0.0
 10
152.881383511
 20
111.758478939
 30
0.0
 10
152.8950294513
 20
111.6214199071
 30
0.0
 10
152.9087945974
 20
111.4545425725
 30
0.0
 10
152.92261393
 20
111.2582954659
 30
0.0
 10
152.9364700414
 20
111.03310354
 30
0.0
 10
152.9503538334
 20
110.7795016694
 30
0.0
 10
152.9697694745
 20
110.3863594114
 30
0.0
 10
152.9936059623
 20
109.8288931511
 30
0.0
 10
153.0212127096
 20
109.0844789244
 30
0.0
 10
153.0488846846
 20
108.2447413672
 30
0.0
 10
153.0766113755
 20
107.3175446747
 30
0.0
 10
153.1043732578
 20
106.3115771035
 30
0.0
 10
153.1321592587
 20
105.236270506
 30
0.0
 10
153.1599641573
 20
104.1016973058
 30
0.0
 10
153.1877818145
 20
102.9184969112
 30
0.0
 10
153.2252195246
 20
101.276028921
 30
0.0
 10
153.2713573548
 20
99.1870786028
 30
0.0
 10
153.3262531125
 20
96.6922450154
 30
0.0
 10
153.3726853969
 20
94.6491490452
 30
0.0
 10
153.4104050691
 20
93.079531613
 30
0.0
 10
153.4382014889
 20
91.9770531412
 30
0.0
 10
153.4659743017
 20
90.9395905432
 30
0.0
 10
153.4937173298
 20
89.9768624505
 30
0.0
 10
153.5214186228
 20
89.0978917531
 30
0.0
 10
153.5490497841
 20
88.3109181003
 30
0.0
 10
153.5765994835
 20
87.6233080325
 30
0.0
 10
153.6004691787
 20
87.1154745673
 30
0.0
 10
153.6199906487
 20
86.7636627496
 30
0.0
 10
153.633845431
 20
86.5420951562
 30
0.0
 10
153.6476536845
 20
86.3495234869
 30
0.0
 10
153.6614175014
 20
86.1864045554
 30
0.0
 10
153.6750303818
 20
86.0530650131
 30
0.0
 10
153.6885581442
 20
85.9498669059
 30
0.0
 10
153.7003563766
 20
85.882758018
 30
0.0
 10
153.7106291716
 20
85.844592171
 30
0.0
 10
153.7158414909
 20
85.8306224982
 30
0.0
 10
153.7187082925
 20
85.8251169403
 30
0.0
  0
SPLINE
  5
4DB
100
AcDbEntity
  8
0
100
AcDbSpline
 62
7
  6
CONTINUOUS
 70
0
 71
3
 72
47
 73
43
 74
0
 42
0.0000001
 43
0.0000001
 44
0.0000000001
 40
0.0
 40
0.0
 40
0.0
 40
0.0
 40
0.0003042741
 40
0.0008179937
 40
0.002652578
 40
0.0056233275
 40
0.0097391902
 40
0.0149963727
 40
0.0213870569
 40
0.0288967259
 40
0.0375079561
 40
0.0472026924
 40
0.0579582991
 40
0.0825475633
 40
0.1110490204
 40
0.1431956163
 40
0.1786864359
 40
0.217190784
 40
0.258346684
 40
0.3017695851
 40
0.3470527892
 40
0.393771573
 40
0.489757424
 40
0.5861385154
 40
0.6793117791
 40
0.7235983225
 40
0.7657939401
 40
0.8055023506
 40
0.8423523952
 40
0.8759996361
 40
0.9061278109
 40
0.9324573228
 40
0.9547416601
 40
0.9643009388
 40
0.9727741309
 40
0.9801435093
 40
0.9863919698
 40
0.9915055157
 40
0.9954769228
 40
0.9983033948
 40
0.9992902596
 40
1.0
 40
1.0
 40
1.0
 40
1.0
 10
151.009497658
 20
112.0133566718
 30
0.0
 10
151.0121568196
 20
112.0133546374
 30
0.0
 10
151.0186014588
 20
112.0084716336
 30
0.0
 10
151.0286708188
 20
111.9877893517
 30
0.0
 10
151.0405376568
 20
111.9422898725
 30
0.0
 10
151.0535777045
 20
111.8656278421
 30
0.0
 10
151.0670939737
 20
111.7584767732
 30
0.0
 10
151.0807454982
 20
111.621420824
 30
0.0
 10
151.0945079675
 20
111.4545428037
 30
0.0
 10
151.1083252327
 20
111.2582932444
 30
0.0
 10
151.1221843217
 20
111.0331032587
 30
0.0
 10
151.1360678336
 20
110.7795023164
 30
0.0
 10
151.1554806185
 20
110.3863621139
 30
0.0
 10
151.1793211288
 20
109.8288899724
 30
0.0
 10
151.2069250079
 20
109.084479251
 30
0.0
 10
151.234597873
 20
108.2447405518
 30
0.0
 10
151.2623252932
 20
107.3175424474
 30
0.0
 10
151.2900857611
 20
106.3115775471
 30
0.0
 10
151.317872933
 20
105.2362675699
 30
0.0
 10
151.3456773666
 20
104.1016965345
 30
0.0
 10
151.3734948935
 20
102.9184958512
 30
0.0
 10
151.4109330472
 20
101.2760280861
 30
0.0
 10
151.4570704651
 20
99.1870800271
 30
0.0
 10
151.5119666629
 20
96.6922440138
 30
0.0
 10
151.558398214
 20
94.6491500172
 30
0.0
 10
151.5961188968
 20
93.0795286447
 30
0.0
 10
151.6239142437
 20
91.9770532069
 30
0.0
 10
151.6516879018
 20
90.9395892101
 30
0.0
 10
151.6794311292
 20
89.9768602006
 30
0.0
 10
151.7071307601
 20
89.0978926547
 30
0.0
 10
151.7347647781
 20
88.3109153212
 30
0.0
 10
151.7623114301
 20
87.6233086194
 30
0.0
 10
151.7861841016
 20
87.1154655385
 30
0.0
 10
151.8057024287
 20
86.7636608102
 30
0.0
 10
151.8195600463
 20
86.5420960902
 30
0.0
 10
151.8333683804
 20
86.3495233294
 30
0.0
 10
151.8471282948
 20
86.186402342
 30
0.0
 10
151.8607437211
 20
86.0530653865
 30
0.0
 10
151.8742767106
 20
85.9498684582
 30
0.0
 10
151.8860667537
 20
85.8827508119
 30
0.0
 10
151.8963405467
 20
85.8445806686
 30
0.0
 10
151.9015543009
 20
85.8306173611
 30
0.0
 10
151.9044217691
 20
85.8251172823
 30
0.0
  0
SPLINE
  5
4DC
100
AcDbEntity
  8
0
100
AcDbSpline
 62
7
  6
CONTINUOUS
 70
0
 71
3
 72
9
 73
5
 74
0
 42
0.0000001
 43
0.0000001
 44
0.0000000001
 40
0.0
 40
0.0
 40
0.0
 40
0.0
 40
0.5024010194
 40
1.0
 40
1.0
 40
1.0
 40
1.0
 10
147.3192101588
 20
83.5376471264
 30
0.0
 10
147.5023776757
 20
84.2015217052
 30
0.0
 10
147.7935785726
 20
85.5450381381
 30
0.0
 10
147.8965604279
 20
86.9175691038
 30
0.0
 10
147.896560428
 20
87.5996663279
 30
0.0
  0
SPLINE
  5
4DD
100
AcDbEntity
  8
GEOM
100
AcDbSpline
 62
7
  6
CONTINUOUS
 70
0
 71
3
 72
11
 73
7
 74
0
 42
0.0000001
 43
0.0000001
 44
0.0000000001
 40
0.0
 40
0.0
 40
0.0
 40
0.0
 40
0.2504643749
 40
0.5000050472
 40
0.7495429178
 40
1.0
 40
1.0
 40
1.0
 40
1.0
 10
141.8125855402
 20
91.6616854553
 30
0.0
 10
141.9262958244
 20
90.9898072433
 30
0.0
 10
142.1043485477
 20
89.6394685409
 30
0.0
 10
142.1969892734
 20
87.5996325989
 30
0.0
 10
142.1043459391
 20
85.5598165595
 30
0.0
 10
141.9262928222
 20
84.2095057221
 30
0.0
 10
141.8125855291
 20
83.5376471271
 30
0.0
  0
SPLINE
  5
4DE
100
AcDbEntity
  8
GEOM
100
AcDbSpline
 62
7
  6
CONTINUOUS
 70
0
 71
3
 72
11
 73
7
 74
0
 42
0.0000001
 43
0.0000001
 44
0.0000000001
 40
0.0
 40
0.0
 40
0.0
 40
0.0
 40
0.2508640706
 40
0.5013343167
 40
0.7512179995
 40
1.0
 40
1.0
 40
1.0
 40
1.0
 10
141.7519571972
 20
82.9096790719
 30
0.0
 10
141.7052013894
 20
82.9039711873
 30
0.0
 10
141.6128563234
 20
82.8793196158
 30
0.0
 10
141.4903354374
 20
82.805995808
 30
0.0
 10
141.3924375107
 20
82.7026408149
 30
0.0
 10
141.3482055557
 20
82.6185449612
 30
0.0
 10
141.3323315661
 20
82.5746128953
 30
0.0
  0
SPLINE
  5
4DF
100
AcDbEntity
  8
GEOM
100
AcDbSpline
 62
7
  6
CONTINUOUS
 70
0
 71
3
 72
11
 73
7
 74
0
 42
0.0000001
 43
0.0000001
 44
0.0000000001
 40
0.0
 40
0.0
 40
0.0
 40
0.0
 40
0.2683927396
 40
0.5265545958
 40
0.7702165478
 40
1.0
 40
1.0
 40
1.0
 40
1.0
 10
141.8021778764
 20
83.5377828844
 30
0.0
 10
141.751495112
 20
83.5391098705
 30
0.0
 10
141.651229066
 20
83.529151008
 30
0.0
 10
141.5135061573
 20
83.4770226885
 30
0.0
 10
141.4016157672
 20
83.3924923882
 30
0.0
 10
141.3499609194
 20
83.3169763279
 30
0.0
 10
141.3323315661
 20
83.2773108485
 30
0.0
  0
SPLINE
  5
4E0
100
AcDbEntity
  8
GEOM
100
AcDbSpline
 62
7
  6
CONTINUOUS
 70
0
 71
3
 72
11
 73
7
 74
0
 42
0.0000001
 43
0.0000001
 44
0.0000000001
 40
0.0
 40
0.0
 40
0.0
 40
0.0
 40
0.2857065979
 40
0.5555598011
 40
0.7957154119
 40
1.0
 40
1.0
 40
1.0
 40
1.0
 10
141.8021778764
 20
91.661397591
 30
0.0
 10
141.7512853486
 20
91.6585729946
 30
0.0
 10
141.6525781322
 20
91.6443826941
 30
0.0
 10
141.5171982879
 20
91.5987913144
 30
0.0
 10
141.4066926628
 20
91.5332906353
 30
0.0
 10
141.3511049355
 20
91.4741777939
 30
0.0
 10
141.3323315661
 20
91.4429400897
 30
0.0
  0
SPLINE
  5
4E1
100
AcDbEntity
  8
GEOM
100
AcDbSpline
 62
7
  6
CONTINUOUS
 70
0
 71
3
 72
12
 73
8
 74
0
 42
0.0000001
 43
0.0000001
 44
0.0000000001
 40
0.0
 40
0.0
 40
0.0
 40
0.0
 40
0.3199929312
 40
0.6086872358
 40
0.8412091651
 40
0.9306114986
 40
1.0
 40
1.0
 40
1.0
 40
1.0
 10
141.8021778764
 20
93.16911171
 30
0.0
 10
141.7518016485
 20
93.1720217479
 30
0.0
 10
141.6557997667
 20
93.1751157813
 30
0.0
 10
141.5231527906
 20
93.1718751585
 30
0.0
 10
141.4270745785
 20
93.1628386305
 30
0.0
 10
141.366516142
 20
93.1508317155
 30
0.0
 10
141.342440036
 20
93.1435918012
 30
0.0
 10
141.3323315661
 20
93.1394030187
 30
0.0
  0
SPLINE
  5
4E2
100
AcDbEntity
  8
GEOM
100
AcDbSpline
 62
7
  6
CONTINUOUS
 70
0
 71
3
 72
12
 73
8
 74
0
 42
0.0000001
 43
0.0000001
 44
0.0000000001
 40
0.0
 40
0.0
 40
0.0
 40
0.0
 40
0.3199929651
 40
0.6086873135
 40
0.8412093376
 40
0.9306115866
 40
1.0
 40
1.0
 40
1.0
 40
1.0
 10
141.8021778764
 20
104.6576379475
 30
0.0
 10
141.7518016473
 20
104.6547279137
 30
0.0
 10
141.6557997658
 20
104.6516339217
 30
0.0
 10
141.5231527562
 20
104.6548744577
 30
0.0
 10
141.4270745921
 20
104.6639113746
 30
0.0
 10
141.366516142
 20
104.6759180712
 30
0.0
 10
141.3424400232
 20
104.6831578622
 30
0.0
 10
141.3323315661
 20
104.6873466368
 30
0.0
  0
SPLINE
  5
4E3
100
AcDbEntity
  8
GEOM
100
AcDbSpline
 62
7
  6
CONTINUOUS
 70
0
 71
3
 72
11
 73
7
 74
0
 42
0.0000001
 43
0.0000001
 44
0.0000000001
 40
0.0
 40
0.0
 40
0.0
 40
0.0
 40
0.2857084686
 40
0.555564394
 40
0.7957270205
 40
1.0
 40
1.0
 40
1.0
 40
1.0
 10
141.8021778764
 20
106.1653519641
 30
0.0
 10
141.7512854107
 20
106.1681770717
 30
0.0
 10
141.6525787872
 20
106.1823690007
 30
0.0
 10
141.5171962682
 20
106.2279605788
 30
0.0
 10
141.4067010443
 20
106.2934721374
 30
0.0
 10
141.3511036983
 20
106.3525738408
 30
0.0
 10
141.3323315661
 20
106.3838095658
 30
0.0
  0
SPLINE
  5
4E4
100
AcDbEntity
  8
GEOM
100
AcDbSpline
 62
7
  6
CONTINUOUS
 70
0
 71
3
 72
11
 73
7
 74
0
 42
0.0000001
 43
0.0000001
 44
0.0000000001
 40
0.0
 40
0.0
 40
0.0
 40
0.0
 40
0.2683928957
 40
0.5265549942
 40
0.7702174013
 40
1.0
 40
1.0
 40
1.0
 40
1.0
 10
141.8021778764
 20
114.2889667624
 30
0.0
 10
141.7514950975
 20
114.2876398085
 30
0.0
 10
141.6512290265
 20
114.2975987549
 30
0.0
 10
141.5135059911
 20
114.3497271957
 30
0.0
 10
141.401615973
 20
114.4342577677
 30
0.0
 10
141.3499608424
 20
114.5097734845
 30
0.0
 10
141.3323315661
 20
114.5494388069
 30
0.0
  0
SPLINE
  5
4E5
100
AcDbEntity
  8
0
100
AcDbSpline
 62
7
  6
CONTINUOUS
 70
0
 71
3
 72
9
 73
5
 74
0
 42
0.0000001
 43
0.0000001
 44
0.0000000001
 40
0.0
 40
0.0
 40
0.0
 40
0.0
 40
0.4975989906
 40
1.0
 40
1.0
 40
1.0
 40
1.0
 10
147.896560428
 20
87.5996663279
 30
0.0
 10
147.896560428
 20
88.2817635659
 30
0.0
 10
147.7935785707
 20
89.6542945323
 30
0.0
 10
147.5023776721
 20
90.9978109652
 30
0.0
 10
147.3192101588
 20
91.6616855311
 30
0.0
  0
SPLINE
  5
4E6
100
AcDbEntity
  8
GEOM
100
AcDbSpline
 62
7
  6
CONTINUOUS
 70
0
 71
3
 72
11
 73
7
 74
0
 42
0.0000001
 43
0.0000001
 44
0.0000000001
 40
0.0
 40
0.0
 40
0.0
 40
0.0
 40
0.2508641198
 40
0.5013344633
 40
0.751218371
 40
1.0
 40
1.0
 40
1.0
 40
1.0
 10
141.7519575732
 20
114.9170705681
 30
0.0
 10
141.7052017466
 20
114.9227784593
 30
0.0
 10
141.6128566289
 20
114.9474300088
 30
0.0
 10
141.4903356765
 20
115.0207540058
 30
0.0
 10
141.392438082
 20
115.1241092235
 30
0.0
 10
141.3482055313
 20
115.2082047489
 30
0.0
 10
141.3323315661
 20
115.2521367602
 30
0.0
  0
SPLINE
  5
4E7
100
AcDbEntity
  8
0
100
AcDbSpline
 62
7
  6
CONTINUOUS
 70
0
 71
3
 72
9
 73
5
 74
0
 42
0.0000001
 43
0.0000001
 44
0.0000000001
 40
0.0
 40
0.0
 40
0.0
 40
0.0
 40
0.5000185492
 40
1.0
 40
1.0
 40
1.0
 40
1.0
 10
147.3192101588
 20
93.1688121812
 30
0.0
 10
147.5036913492
 20
94.1144061013
 30
0.0
 10
147.7947978719
 20
96.0219876669
 30
0.0
 10
147.8965604279
 20
97.9500247107
 30
0.0
 10
147.896560428
 20
98.9133748265
 30
0.0
  0
SPLINE
  5
4E8
100
AcDbEntity
  8
GEOM
100
AcDbSpline
 62
7
  6
CONTINUOUS
 70
0
 71
3
 72
11
 73
7
 74
0
 42
0.0000001
 43
0.0000001
 44
0.0000000001
 40
0.0
 40
0.0
 40
0.0
 40
0.0
 40
0.2500032101
 40
0.5000007154
 40
0.7499981341
 40
1.0
 40
1.0
 40
1.0
 40
1.0
 10
141.812585529
 20
104.6579374744
 30
0.0
 10
141.9266199656
 20
103.7050542955
 30
0.0
 10
142.1046246463
 20
101.7927766846
 30
0.0
 10
142.196906616
 20
98.9133669164
 30
0.0
 10
142.1046240628
 20
96.0339623045
 30
0.0
 10
141.9266190654
 20
94.1216902715
 30
0.0
 10
141.812585529
 20
93.1688121817
 30
0.0
  0
SPLINE
  5
4E9
100
AcDbEntity
  8
0
100
AcDbSpline
 62
7
  6
CONTINUOUS
 70
0
 71
3
 72
9
 73
5
 74
0
 42
0.0000001
 43
0.0000001
 44
0.0000000001
 40
0.0
 40
0.0
 40
0.0
 40
0.0
 40
0.4999814608
 40
1.0
 40
1.0
 40
1.0
 40
1.0
 10
147.896560428
 20
98.9133748265
 30
0.0
 10
147.896560428
 20
99.876724962
 30
0.0
 10
147.79479787
 20
101.8047620067
 30
0.0
 10
147.5036913456
 20
103.7123435727
 30
0.0
 10
147.3192101588
 20
104.6579374743
 30
0.0
  0
SPLINE
  5
4EA
100
AcDbEntity
  8
0
100
AcDbSpline
 62
7
  6
CONTINUOUS
 70
0
 71
3
 72
9
 73
5
 74
0
 42
0.0000001
 43
0.0000001
 44
0.0000000001
 40
0.0
 40
0.0
 40
0.0
 40
0.0
 40
0.1929542289
 40
1.0
 40
1.0
 40
1.0
 40
1.0
 10
152.6360036888
 20
112.0016463791
 30
0.0
 10
152.637187144
 20
111.9993743372
 30
0.0
 10
152.6426260535
 20
111.9872413401
 30
0.0
 10
152.6462196979
 20
111.9743853514
 30
0.0
 10
152.6488583875
 20
111.9640004812
 30
0.0
  0
SPLINE
  5
4EB
100
AcDbEntity
  8
0
100
AcDbSpline
 62
7
  6
CONTINUOUS
 70
0
 71
3
 72
42
 73
38
 74
0
 42
0.0000001
 43
0.0000001
 44
0.0000000001
 40
0.0
 40
0.0
 40
0.0
 40
0.0
 40
0.0026905099
 40
0.0064944784
 40
0.0114120515
 40
0.017434141
 40
0.0327396469
 40
0.0522809164
 40
0.075882823
 40
0.1033312391
 40
0.1343793005
 40
0.1687432129
 40
0.2461446491
 40
0.3327258833
 40
0.4253430586
 40
0.5206324028
 40
0.6151325451
 40
0.6610097424
 40
0.7054111663
 40
0.7479335458
 40
0.7881896912
 40
0.8258128575
 40
0.8604622219
 40
0.8918211173
 40
0.9196060155
 40
0.9435649854
 40
0.9540401135
 40
0.9634802732
 40
0.9718654089
 40
0.9791757935
 40
0.9853954557
 40
0.9905132791
 40
0.9945196909
 40
0.9974105138
 40
0.9991982762
 40
0.9997005387
 40
1.0
 40
1.0
 40
1.0
 40
1.0
 10
152.6488583875
 20
111.9640004812
 30
0.0
 10
152.6546400988
 20
111.9412458837
 30
0.0
 10
152.6648408499
 20
111.8854124595
 30
0.0
 10
152.678145483
 20
111.7867314258
 30
0.0
 10
152.6915651229
 20
111.6587557519
 30
0.0
 10
152.7112456912
 20
111.4305825397
 30
0.0
 10
152.7347640272
 20
111.0747022004
 30
0.0
 10
152.7616681677
 20
110.5653808189
 30
0.0
 10
152.7887225311
 20
109.9499785998
 30
0.0
 10
152.8159236862
 20
109.234094745
 30
0.0
 10
152.8431962985
 20
108.4242430739
 30
0.0
 10
152.8811531022
 20
107.1786163277
 30
0.0
 10
152.9275071118
 20
105.4484410569
 30
0.0
 10
152.9814577718
 20
103.2099753934
 30
0.0
 10
153.0355321268
 20
100.8153788926
 30
0.0
 10
153.0896693818
 20
98.3516661592
 30
0.0
 10
153.1352030026
 20
96.2957201077
 30
0.0
 10
153.1721383677
 20
94.6837459164
 30
0.0
 10
153.1995591428
 20
93.5252359879
 30
0.0
 10
153.226966225
 20
92.4157897908
 30
0.0
 10
153.2543552947
 20
91.365509748
 30
0.0
 10
153.2817203516
 20
90.3839544354
 30
0.0
 10
153.3090494247
 20
89.4800687167
 30
0.0
 10
153.3363270017
 20
88.6620734309
 30
0.0
 10
153.3635370793
 20
87.9374190902
 30
0.0
 10
153.3870362334
 20
87.3949935848
 30
0.0
 10
153.4061739827
 20
87.0126195851
 30
0.0
 10
153.4198599857
 20
86.766045885
 30
0.0
 10
153.4335174934
 20
86.5471314296
 30
0.0
 10
153.4471364048
 20
86.3563843135
 30
0.0
 10
153.4607047768
 20
86.1942086567
 30
0.0
 10
153.4741600231
 20
86.0610231865
 30
0.0
 10
153.4874737289
 20
85.9569083787
 30
0.0
 10
153.5003467313
 20
85.8824159799
 30
0.0
 10
153.5120319951
 20
85.8382130761
 30
0.0
 10
153.5219799951
 20
85.8180959112
 30
0.0
 10
153.5283144211
 20
85.8133762398
 30
0.0
 10
153.5309275488
 20
85.8133751859
 30
0.0
  0
SPLINE
  5
4EC
100
AcDbEntity
  8
GEOM
100
AcDbSpline
 62
7
  6
CONTINUOUS
 70
0
 71
3
 72
11
 73
7
 74
0
 42
0.0000001
 43
0.0000001
 44
0.0000000001
 40
0.0
 40
0.0
 40
0.0
 40
0.0
 40
0.2498745257
 40
0.4991680759
 40
0.7489102486
 40
1.0
 40
1.0
 40
1.0
 40
1.0
 10
141.3323315661
 20
91.4429400897
 30
0.0
 10
141.4491971507
 20
90.7695443227
 30
0.0
 10
141.6326417498
 20
89.4148156227
 30
0.0
 10
141.7281494278
 20
87.3657654924
 30
0.0
 10
141.6323215707
 20
85.313419852
 30
0.0
 10
141.4490620293
 20
83.9541032806
 30
0.0
 10
141.3323315661
 20
83.2773108485
 30
0.0
  0
SPLINE
  5
4ED
100
AcDbEntity
  8
0
100
AcDbSpline
 62
7
  6
CONTINUOUS
 70
0
 71
3
 72
47
 73
43
 74
0
 42
0.0000001
 43
0.0000001
 44
0.0000000001
 40
0.0
 40
0.0
 40
0.0
 40
0.0
 40
0.0002859521
 40
0.0007902722
 40
0.0026174022
 40
0.0055863579
 40
0.0097066326
 40
0.0149724391
 40
0.0213733725
 40
0.0288973023
 40
0.0375264274
 40
0.0472401881
 40
0.0580175135
 40
0.0826577704
 40
0.1112171988
 40
0.1434277268
 40
0.1789889219
 40
0.2175662587
 40
0.2587970702
 40
0.302295411
 40
0.3476524001
 40
0.3944424463
 40
0.4905557845
 40
0.5870332585
 40
0.6802600871
 40
0.7245541503
 40
0.7667429349
 40
0.8064303677
 40
0.8432432895
 40
0.8768371824
 40
0.9068959939
 40
0.9331382386
 40
0.9553199721
 40
0.9648210786
 40
0.9732334497
 40
0.9805369355
 40
0.9867147833
 40
0.9917553837
 40
0.9956488026
 40
0.9983913103
 40
0.9993348177
 40
1.0
 40
1.0
 40
1.0
 40
1.0
 10
149.3037025878
 20
84.6633748277
 30
0.0
 10
149.3009844166
 20
84.6633748277
 30
0.0
 10
149.2944278498
 20
84.6689503036
 30
0.0
 10
149.2845572608
 20
84.6913801422
 30
0.0
 10
149.2725651349
 20
84.7410134404
 30
0.0
 10
149.2595856995
 20
84.824480059
 30
0.0
 10
149.2460288946
 20
84.9412955844
 30
0.0
 10
149.2323786838
 20
85.090694966
 30
0.0
 10
149.2185942909
 20
85.27261808
 30
0.0
 10
149.2047649575
 20
85.486559349
 30
0.0
 10
149.1908919372
 20
85.7320536705
 30
0.0
 10
149.1769908737
 20
86.0085127409
 30
0.0
 10
149.1575563442
 20
86.4370783527
 30
0.0
 10
149.1336910323
 20
87.0447602322
 30
0.0
 10
149.1060571441
 20
87.8561747714
 30
0.0
 10
149.0783533281
 20
88.7714511284
 30
0.0
 10
149.050596807
 20
89.7819918664
 30
0.0
 10
149.0228054803
 20
90.8783052211
 30
0.0
 10
148.9949883075
 20
92.0500884152
 30
0.0
 10
148.9671541668
 20
93.2863335471
 30
0.0
 10
148.9393064374
 20
94.575435474
 30
0.0
 10
148.9018306023
 20
96.3645873961
 30
0.0
 10
148.8556475372
 20
98.6395984361
 30
0.0
 10
148.8006943189
 20
101.3559357012
 30
0.0
 10
148.7542095959
 20
103.5797658464
 30
0.0
 10
148.7164439509
 20
105.2876126149
 30
0.0
 10
148.6886187474
 20
106.4866253629
 30
0.0
 10
148.6608165301
 20
107.6145051161
 30
0.0
 10
148.6330441703
 20
108.660658892
 30
0.0
 10
148.6053155353
 20
109.6152523057
 30
0.0
 10
148.5776563511
 20
110.4693202141
 30
0.0
 10
148.5500818475
 20
111.2148461125
 30
0.0
 10
148.526184624
 20
111.7649522716
 30
0.0
 10
148.5066340587
 20
112.1455854502
 30
0.0
 10
148.4927659846
 20
112.384889904
 30
0.0
 10
148.4789485871
 20
112.5925512252
 30
0.0
 10
148.4651756066
 20
112.7680741005
 30
0.0
 10
148.4515660487
 20
112.9111047913
 30
0.0
 10
148.4380309648
 20
113.0212457582
 30
0.0
 10
148.4262575676
 20
113.0924478762
 30
0.0
 10
148.4159386693
 20
113.1324928281
 30
0.0
 10
148.4107126458
 20
113.1469591099
 30
0.0
 10
148.4077945569
 20
113.1525685013
 30
0.0
  0
SPLINE
  5
4EE
100
AcDbEntity
  8
0
100
AcDbSpline
 62
7
  6
CONTINUOUS
 70
0
 71
3
 72
9
 73
5
 74
0
 42
0.0000001
 43
0.0000001
 44
0.0000000001
 40
0.0
 40
0.0
 40
0.0
 40
0.0
 40
0.4131045753
 40
1.0
 40
1.0
 40
1.0
 40
1.0
 10
150.8217168775
 20
112.0016308711
 30
0.0
 10
150.8249088468
 20
111.9955079183
 30
0.0
 10
150.8306155035
 20
111.9796907518
 30
0.0
 10
150.8347951386
 20
111.9635163204
 30
0.0
 10
150.8370094111
 20
111.9539595716
 30
0.0
  0
SPLINE
  5
4EF
100
AcDbEntity
  8
0
100
AcDbSpline
 62
7
  6
CONTINUOUS
 70
0
 71
3
 72
41
 73
37
 74
0
 42
0.0000001
 43
0.0000001
 44
0.0000000001
 40
0.0
 40
0.0
 40
0.0
 40
0.0
 40
0.0028793188
 40
0.0068671011
 40
0.0181505343
 40
0.0337702127
 40
0.0535914739
 40
0.0774362542
 40
0.1050925161
 40
0.1363091966
 40
0.1708048701
 40
0.248359643
 40
0.3349570354
 40
0.4274692584
 40
0.5225548386
 40
0.6167791226
 40
0.6624998365
 40
0.706738277
 40
0.7490940479
 40
0.7891832489
 40
0.8266444711
 40
0.8611374111
 40
0.8923512845
 40
0.920004342
 40
0.9438458183
 40
0.9542700222
 40
0.963663746
 40
0.9720059663
 40
0.9792798396
 40
0.9854690799
 40
0.9905601405
 40
0.994545945
 40
0.9974234366
 40
0.9992019817
 40
0.9997015568
 40
1.0
 40
1.0
 40
1.0
 40
1.0
 10
150.8370094111
 20
111.9539595716
 30
0.0
 10
150.8426783762
 20
111.9294924498
 30
0.0
 10
150.8528439021
 20
111.8703937509
 30
0.0
 10
150.8729566462
 20
111.7133572188
 30
0.0
 10
150.8960809901
 20
111.444803276
 30
0.0
 10
150.9226796632
 20
111.0381266355
 30
0.0
 10
150.9494276302
 20
110.5216684603
 30
0.0
 10
150.9764616131
 20
109.9001369156
 30
0.0
 10
151.0035810302
 20
109.1791248484
 30
0.0
 10
151.0307901002
 20
108.3651569204
 30
0.0
 10
151.0686204243
 20
107.1160595257
 30
0.0
 10
151.1148417494
 20
105.3839369021
 30
0.0
 10
151.1686540907
 20
103.1457902012
 30
0.0
 10
151.2225874771
 20
100.7546902767
 30
0.0
 10
151.2765810788
 20
98.2970491369
 30
0.0
 10
151.3219991936
 20
96.2474636153
 30
0.0
 10
151.3588397123
 20
94.6413190421
 30
0.0
 10
151.3861848609
 20
93.4875066428
 30
0.0
 10
151.413516286
 20
92.3828298888
 30
0.0
 10
151.4408310704
 20
91.3372869301
 30
0.0
 10
151.4681192456
 20
90.3603526834
 30
0.0
 10
151.4953745544
 20
89.4608662442
 30
0.0
 10
151.5225767392
 20
88.646973709
 30
0.0
 10
151.5497103065
 20
87.9260456346
 30
0.0
 10
151.5731479123
 20
87.3864538136
 30
0.0
 10
151.5922319197
 20
87.0061051213
 30
0.0
 10
151.6058785942
 20
86.7608524649
 30
0.0
 10
151.6195009669
 20
86.5431227077
 30
0.0
 10
151.6330826635
 20
86.3534092957
 30
0.0
 10
151.6466094547
 20
86.1921150575
 30
0.0
 10
151.6600304266
 20
86.0596606733
 30
0.0
 10
151.6733110194
 20
85.9561188353
 30
0.0
 10
151.686144637
 20
85.882028702
 30
0.0
 10
151.6977898491
 20
85.8380680801
 30
0.0
 10
151.7077254661
 20
85.818069435
 30
0.0
 10
151.7140377822
 20
85.8133954192
 30
0.0
 10
151.7166409961
 20
85.8133939413
 30
0.0
  0
SPLINE
  5
4F0
100
AcDbEntity
  8
0
100
AcDbSpline
 62
7
  6
CONTINUOUS
 70
0
 71
3
 72
47
 73
43
 74
0
 42
0.0000001
 43
0.0000001
 44
0.0000000001
 40
0.0
 40
0.0
 40
0.0
 40
0.0
 40
0.0002860003
 40
0.0007903273
 40
0.0026174228
 40
0.0055862991
 40
0.0097063947
 40
0.0149719073
 40
0.021372522
 40
0.0288960318
 40
0.037524518
 40
0.0472377344
 40
0.0580146859
 40
0.0826539208
 40
0.1112127948
 40
0.1434229121
 40
0.1789834729
 40
0.2175604108
 40
0.2587908497
 40
0.3022888314
 40
0.347645646
 40
0.3944355138
 40
0.4905486929
 40
0.5870263237
 40
0.6802535032
 40
0.7245478727
 40
0.7667369331
 40
0.8064249103
 40
0.8432383418
 40
0.8768326169
 40
0.9068921229
 40
0.9331350749
 40
0.95531772
 40
0.9648194096
 40
0.9732323964
 40
0.9805362603
 40
0.9867144381
 40
0.9917553121
 40
0.995648834
 40
0.9983913027
 40
0.9993347866
 40
1.0
 40
1.0
 40
1.0
 40
1.0
 10
151.1179888638
 20
84.6633748277
 30
0.0
 10
151.115270235
 20
84.6633748277
 30
0.0
 10
151.1087124464
 20
84.6689493932
 30
0.0
 10
151.0988409659
 20
84.6913799043
 30
0.0
 10
151.0868503066
 20
84.7410118876
 30
0.0
 10
151.0738726968
 20
84.8244762913
 30
0.0
 10
151.060316779
 20
84.9412864531
 30
0.0
 10
151.0466666379
 20
85.0906783285
 30
0.0
 10
151.0328823802
 20
85.2725915703
 30
0.0
 10
151.0190534425
 20
85.4865197293
 30
0.0
 10
151.005180662
 20
85.7319987735
 30
0.0
 10
150.99128019
 20
86.0084430282
 30
0.0
 10
150.9718465472
 20
86.4369901746
 30
0.0
 10
150.9479807954
 20
87.0446534236
 30
0.0
 10
150.9203472758
 20
87.856048999
 30
0.0
 10
150.8926435373
 20
88.7713100584
 30
0.0
 10
150.864886785
 20
89.7818369611
 30
0.0
 10
150.8370956272
 20
90.8781368454
 30
0.0
 10
150.8092784301
 20
92.0499091745
 30
0.0
 10
150.7814441689
 20
93.2861455673
 30
0.0
 10
150.7535964917
 20
94.5752406
 30
0.0
 10
150.7161205255
 20
96.364387477
 30
0.0
 10
150.6699373857
 20
98.6393965765
 30
0.0
 10
150.6149841146
 20
101.3557368909
 30
0.0
 10
150.5684992886
 20
103.5795745561
 30
0.0
 10
150.5307337171
 20
105.2874300302
 30
0.0
 10
150.502908334
 20
106.486453368
 30
0.0
 10
150.4751061579
 20
107.6143456577
 30
0.0
 10
150.4473336927
 20
108.6605129868
 30
0.0
 10
150.4196048145
 20
109.6151213853
 30
0.0
 10
150.3919461228
 20
110.4692061953
 30
0.0
 10
150.3643701909
 20
111.2147539762
 30
0.0
 10
150.3404730088
 20
111.764881027
 30
0.0
 10
150.3209237102
 20
112.1455343191
 30
0.0
 10
150.3070556248
 20
112.3848537663
 30
0.0
 10
150.2932346023
 20
112.5925274602
 30
0.0
 10
150.2794559645
 20
112.7680592141
 30
0.0
 10
150.2658445096
 20
112.9110964885
 30
0.0
 10
150.2523163293
 20
113.0212412186
 30
0.0
 10
150.2405596532
 20
113.0924465548
 30
0.0
 10
150.2302482427
 20
113.1324930074
 30
0.0
 10
150.2250219445
 20
113.1469597197
 30
0.0
 10
150.2221018553
 20
113.1525684028
 30
0.0
  0
SPLINE
  5
4F1
100
AcDbEntity
  8
0
100
AcDbSpline
 62
7
  6
CONTINUOUS
 70
0
 71
3
 72
47
 73
43
 74
0
 42
0.0000001
 43
0.0000001
 44
0.0000000001
 40
0.0
 40
0.0
 40
0.0
 40
0.0
 40
0.0002859401
 40
0.0007902534
 40
0.0026173557
 40
0.0055862419
 40
0.00970634
 40
0.0149718505
 40
0.0213724624
 40
0.0288959702
 40
0.0375244542
 40
0.0472376685
 40
0.0580146177
 40
0.082653846
 40
0.1112127146
 40
0.1434228289
 40
0.1789833918
 40
0.2175603443
 40
0.258790789
 40
0.3022887568
 40
0.3476455592
 40
0.3944354206
 40
0.4905485847
 40
0.5870262019
 40
0.6802533698
 40
0.7245477432
 40
0.766736793
 40
0.806424744
 40
0.8432381614
 40
0.8768324305
 40
0.9068919388
 40
0.9331348939
 40
0.9553175463
 40
0.9648192441
 40
0.9732322373
 40
0.9805360971
 40
0.9867142694
 40
0.9917551503
 40
0.9956487178
 40
0.9983912869
 40
0.9993348095
 40
1.0
 40
1.0
 40
1.0
 40
1.0
 10
149.7938646442
 20
113.1633748277
 30
0.0
 10
149.7965827018
 20
113.1633748277
 30
0.0
 10
149.8031389559
 20
113.1577992246
 30
0.0
 10
149.8130093021
 20
113.1353699394
 30
0.0
 10
149.8250016176
 20
113.0857375806
 30
0.0
 10
149.8379810203
 20
113.0022736498
 30
0.0
 10
149.8515375166
 20
112.8854632535
 30
0.0
 10
149.8651872879
 20
112.7360714221
 30
0.0
 10
149.8789709258
 20
112.5541581611
 30
0.0
 10
149.8927996297
 20
112.3402300467
 30
0.0
 10
149.9066724579
 20
112.0947510424
 30
0.0
 10
149.9205730674
 20
111.8183068341
 30
0.0
 10
149.9400067673
 20
111.3897597576
 30
0.0
 10
149.9638723725
 20
110.7820965881
 30
0.0
 10
149.9915058426
 20
109.9707010866
 30
0.0
 10
150.0192095631
 20
109.0554400111
 30
0.0
 10
150.0469662683
 20
108.0449128936
 30
0.0
 10
150.0747573875
 20
106.9486127037
 30
0.0
 10
150.1025745495
 20
105.7768402156
 30
0.0
 10
150.1304087658
 20
104.5406039122
 30
0.0
 10
150.1582563978
 20
103.2515090813
 30
0.0
 10
150.1957323085
 20
101.4623623742
 30
0.0
 10
150.2419153834
 20
99.1873534182
 30
0.0
 10
150.2968685805
 20
96.4710132596
 30
0.0
 10
150.3433533546
 20
94.2471756119
 30
0.0
 10
150.3811188757
 20
92.5393201694
 30
0.0
 10
150.4089442306
 20
91.3402970445
 30
0.0
 10
150.436746382
 20
90.2124051447
 30
0.0
 10
150.4645187334
 20
89.1662381666
 30
0.0
 10
150.4922476362
 20
88.2116298589
 30
0.0
 10
150.5199066247
 20
87.3575449948
 30
0.0
 10
150.5474814554
 20
86.6119969921
 30
0.0
 10
150.5713792755
 20
86.0618697378
 30
0.0
 10
150.590930422
 20
85.6812163014
 30
0.0
 10
150.6047986862
 20
85.4418967471
 30
0.0
 10
150.618616803
 20
85.2342228951
 30
0.0
 10
150.6323903997
 20
85.0586907377
 30
0.0
 10
150.6460003207
 20
84.9156528859
 30
0.0
 10
150.6595358191
 20
84.8055072747
 30
0.0
 10
150.6713093558
 20
84.7343030104
 30
0.0
 10
150.6816282922
 20
84.6942572386
 30
0.0
 10
150.686854345
 20
84.6797907268
 30
0.0
 10
150.6897724658
 20
84.6741812637
 30
0.0
  0
LINE
  5
4F2
100
AcDbEntity
  8
0
100
AcDbLine
 62
7
  6
CONTINUOUS
 10
149.0074317364
 20
112.0016208117
 11
149.0101864777
 21
111.9957308538
  0
SPLINE
  5
4F3
100
AcDbEntity
  8
0
100
AcDbSpline
 62
7
  6
CONTINUOUS
 70
0
 71
3
 72
44
 73
40
 74
0
 42
0.0000001
 43
0.0000001
 44
0.0000000001
 40
0.0
 40
0.0
 40
0.0
 40
0.0
 40
0.0019079782
 40
0.0049453519
 40
0.0091225921
 40
0.0144344806
 40
0.0208706376
 40
0.0284191326
 40
0.0467809812
 40
0.0693533793
 40
0.0959269202
 40
0.1262574231
 40
0.1600616432
 40
0.1970257163
 40
0.2368065951
 40
0.3233123609
 40
0.4163660113
 40
0.5125103225
 40
0.6081727575
 40
0.6547083551
 40
0.6997991304
 40
0.7430253464
 40
0.783985324
 40
0.8222965388
 40
0.8576038941
 40
0.8895785162
 40
0.9179226196
 40
0.9423749908
 40
0.9530684102
 40
0.9627076584
 40
0.971270231
 40
0.9787354881
 40
0.9850885568
 40
0.9903162672
 40
0.9944075961
 40
0.9973602848
 40
0.9991855926
 40
0.9996969733
 40
1.0
 40
1.0
 40
1.0
 40
1.0
 10
149.0101864777
 20
111.9957308538
 30
0.0
 10
149.0167043189
 20
111.9803874952
 30
0.0
 10
149.0268951687
 20
111.9380692926
 30
0.0
 10
149.0402506945
 20
111.8596185071
 30
0.0
 10
149.0536089828
 20
111.7508965106
 30
0.0
 10
149.067274851
 20
111.6124482022
 30
0.0
 10
149.0809873055
 20
111.4443930583
 30
0.0
 10
149.100671857
 20
111.1624623049
 30
0.0
 10
149.1244948421
 20
110.7395115141
 30
0.0
 10
149.1518306314
 20
110.1503143607
 30
0.0
 10
149.1792891183
 20
109.456452169
 30
0.0
 10
149.2068490736
 20
108.6643947996
 30
0.0
 10
149.2344680416
 20
107.7815062455
 30
0.0
 10
149.2621312192
 20
106.8160129935
 30
0.0
 10
149.3001195039
 20
105.390166345
 30
0.0
 10
149.3467403219
 20
103.4743144995
 30
0.0
 10
149.4014092639
 20
101.0660599244
 30
0.0
 10
149.4561375821
 20
98.5777834171
 30
0.0
 10
149.5021469269
 20
96.4958502417
 30
0.0
 10
149.5394767094
 20
94.8598988351
 30
0.0
 10
149.5672090307
 20
93.6819929601
 30
0.0
 10
149.5949285078
 20
92.5528159676
 30
0.0
 10
149.622629121
 20
91.4828914418
 30
0.0
 10
149.6503057214
 20
90.4821793224
 30
0.0
 10
149.6779470654
 20
89.5600051195
 30
0.0
 10
149.7055340429
 20
88.7249559451
 30
0.0
 10
149.7330558419
 20
87.9848042862
 30
0.0
 10
149.7568194764
 20
87.4305851534
 30
0.0
 10
149.7761757151
 20
87.0397673309
 30
0.0
 10
149.7900168792
 20
86.7876829432
 30
0.0
 10
149.8038300782
 20
86.5638469491
 30
0.0
 10
149.8176067159
 20
86.3687882245
 30
0.0
 10
149.8313295864
 20
86.2029266438
 30
0.0
 10
149.8449338309
 20
86.0667042166
 30
0.0
 10
149.8584083901
 20
85.9602116191
 30
0.0
 10
149.8714167325
 20
85.8840187207
 30
0.0
 10
149.883245718
 20
85.8387982728
 30
0.0
 10
149.8932786186
 20
85.8182221772
 30
0.0
 10
149.899707124
 20
85.813379056
 30
0.0
 10
149.9023547225
 20
85.8133826835
 30
0.0
  0
SPLINE
  5
4F4
100
AcDbEntity
  8
0
100
AcDbSpline
 62
7
  6
CONTINUOUS
 70
0
 71
3
 72
47
 73
43
 74
0
 42
0.0000001
 43
0.0000001
 44
0.0000000001
 40
0.0
 40
0.0
 40
0.0
 40
0.0
 40
0.0002859429
 40
0.0007902573
 40
0.0026173609
 40
0.0055862484
 40
0.0097063491
 40
0.0149718641
 40
0.0213724799
 40
0.0288959918
 40
0.0375244827
 40
0.0472377033
 40
0.0580146585
 40
0.0826539049
 40
0.1112127858
 40
0.1434229
 40
0.1789834381
 40
0.2175603129
 40
0.2587907221
 40
0.3022887443
 40
0.3476455864
 40
0.3944354581
 40
0.4905486566
 40
0.5870263013
 40
0.6802534909
 40
0.7245478324
 40
0.7667369147
 40
0.8064249686
 40
0.8432384365
 40
0.8768327209
 40
0.906892205
 40
0.9331351266
 40
0.9553177363
 40
0.9648193996
 40
0.9732323565
 40
0.9805361983
 40
0.9867143423
 40
0.9917551922
 40
0.9956487434
 40
0.9983912976
 40
0.9993348132
 40
1.0
 40
1.0
 40
1.0
 40
1.0
 10
152.9322754067
 20
84.6633748277
 30
0.0
 10
152.9295573229
 20
84.6633748277
 30
0.0
 10
152.9230009998
 20
84.6689503964
 30
0.0
 10
152.9131305953
 20
84.6913797508
 30
0.0
 10
152.9011383276
 20
84.741012129
 30
0.0
 10
152.8881589693
 20
84.8244761317
 30
0.0
 10
152.8746024717
 20
84.9412866003
 30
0.0
 10
152.8609526673
 20
85.0906785369
 30
0.0
 10
152.8471689821
 20
85.2725919134
 30
0.0
 10
152.8333402468
 20
85.486520169
 30
0.0
 10
152.8194674037
 20
85.7319993379
 30
0.0
 10
152.8055667773
 20
86.008443729
 30
0.0
 10
152.7861330455
 20
86.4369910939
 30
0.0
 10
152.7622674059
 20
87.0446546096
 30
0.0
 10
152.7346338972
 20
87.8560503999
 30
0.0
 10
152.7069301523
 20
88.7713113578
 30
0.0
 10
152.6791734488
 20
89.7818375024
 30
0.0
 10
152.651382322
 20
90.8781363822
 30
0.0
 10
152.6235651475
 20
92.0499083139
 30
0.0
 10
152.5957308839
 20
93.2861451768
 30
0.0
 10
152.5678831969
 20
94.5752410032
 30
0.0
 10
152.5304072312
 20
96.3643885165
 30
0.0
 10
152.4842240914
 20
98.639398163
 30
0.0
 10
152.4292708221
 20
101.3557391217
 30
0.0
 10
152.3827859924
 20
103.5795769387
 30
0.0
 10
152.3450204304
 20
105.2874325978
 30
0.0
 10
152.3171950155
 20
106.4864567085
 30
0.0
 10
152.2893927919
 20
107.6143503775
 30
0.0
 10
152.2616203479
 20
108.6605189604
 30
0.0
 10
152.2338914019
 20
109.6151276659
 30
0.0
 10
152.2062323672
 20
110.4692121265
 30
0.0
 10
152.1786574722
 20
111.2147591737
 30
0.0
 10
152.1547596829
 20
111.7648853773
 30
0.0
 10
152.135208588
 20
112.1455377374
 30
0.0
 10
152.1213403064
 20
112.3848564455
 30
0.0
 10
152.1075221331
 20
112.5925295078
 30
0.0
 10
152.093748392
 20
112.7680609178
 30
0.0
 10
152.0801384157
 20
112.9110980437
 30
0.0
 10
152.0666032174
 20
113.0212430862
 30
0.0
 10
152.0548302641
 20
113.0924470831
 30
0.0
 10
152.0445115764
 20
113.1324926644
 30
0.0
 10
152.0392855192
 20
113.146959081
 30
0.0
 10
152.0363673388
 20
113.1525684729
 30
0.0
  0
SPLINE
  5
4F5
100
AcDbEntity
  8
0
100
AcDbSpline
 62
7
  6
CONTINUOUS
 70
0
 71
3
 72
47
 73
43
 74
0
 42
0.0000001
 43
0.0000001
 44
0.0000000001
 40
0.0
 40
0.0
 40
0.0
 40
0.0
 40
0.0002862123
 40
0.0007905901
 40
0.0026176848
 40
0.0055865896
 40
0.0097068426
 40
0.0149726417
 40
0.021373573
 40
0.0288974989
 40
0.0375266129
 40
0.0472403632
 40
0.0580176823
 40
0.0826579215
 40
0.1112173385
 40
0.1434278575
 40
0.1789890474
 40
0.2175663954
 40
0.2587972117
 40
0.3022955359
 40
0.3476525097
 40
0.3944425472
 40
0.4905558674
 40
0.5870333258
 40
0.680260141
 40
0.7245542068
 40
0.7667429828
 40
0.8064303896
 40
0.8432432944
 40
0.87683718
 40
0.9068959899
 40
0.9331382345
 40
0.9553199693
 40
0.9648210765
 40
0.9732334488
 40
0.9805369356
 40
0.9867147853
 40
0.9917553874
 40
0.9956488054
 40
0.9983913092
 40
0.9993348154
 40
1.0
 40
1.0
 40
1.0
 40
1.0
 10
151.6081497728
 20
113.1633748277
 30
0.0
 10
151.6108704177
 20
113.1633748277
 30
0.0
 10
151.6174336311
 20
113.1578038829
 30
0.0
 10
151.6273091507
 20
113.1353687978
 30
0.0
 10
151.639294033
 20
113.0857372325
 30
0.0
 10
151.6522654804
 20
113.0022687174
 30
0.0
 10
151.6658194559
 20
112.8854544404
 30
0.0
 10
151.6794710716
 20
112.7360551641
 30
0.0
 10
151.6932580686
 20
112.5541324371
 30
0.0
 10
151.707088473
 20
112.3401913082
 30
0.0
 10
151.7209612587
 20
112.0946971704
 30
0.0
 10
151.7348616278
 20
111.8182382632
 30
0.0
 10
151.7542956472
 20
111.3896728617
 30
0.0
 10
151.7781614393
 20
110.7819911998
 30
0.0
 10
151.8057954044
 20
109.9705768403
 30
0.0
 10
151.8334991231
 20
109.0553005159
 30
0.0
 10
151.8612557288
 20
108.0447595803
 30
0.0
 10
151.8890471007
 20
106.9484458755
 30
0.0
 10
151.9168643045
 20
105.7766624229
 30
0.0
 10
151.9446984815
 20
104.540417269
 30
0.0
 10
151.9725462429
 20
103.2513154369
 30
0.0
 10
152.0100221251
 20
101.4621635098
 30
0.0
 10
152.0562052526
 20
99.1871523578
 30
0.0
 10
152.1111585499
 20
96.4708149258
 30
0.0
 10
152.1576433435
 20
94.2469845299
 30
0.0
 10
152.1954090514
 20
92.5391375602
 30
0.0
 10
152.2232342946
 20
91.3401248457
 30
0.0
 10
152.2510365494
 20
90.2122453277
 30
0.0
 10
152.2788089496
 20
89.1660917939
 30
0.0
 10
152.3065376262
 20
88.2114984117
 30
0.0
 10
152.334196836
 20
87.3574303955
 30
0.0
 10
152.3617714448
 20
86.6119043354
 30
0.0
 10
152.3856686926
 20
86.061798034
 30
0.0
 10
152.4052191861
 20
85.6811647361
 30
0.0
 10
152.4190872657
 20
85.4418602007
 30
0.0
 10
152.4329048367
 20
85.234198804
 30
0.0
 10
152.4466781322
 20
85.0586758703
 30
0.0
 10
152.4602878154
 20
84.9156451314
 30
0.0
 10
152.4738225344
 20
84.805504141
 30
0.0
 10
152.4855950028
 20
84.734301907
 30
0.0
 10
152.4959134876
 20
84.6942568726
 30
0.0
 10
152.5011395311
 20
84.679790558
 30
0.0
 10
152.5040577344
 20
84.6741811998
 30
0.0
  0
SPLINE
  5
4F6
100
AcDbEntity
  8
0
100
AcDbSpline
 62
7
  6
CONTINUOUS
 70
0
 71
3
 72
28
 73
24
 74
0
 42
0.0000001
 43
0.0000001
 44
0.0000000001
 40
0.0
 40
0.0
 40
0.0
 40
0.0
 40
0.0005806639
 40
0.0016111511
 40
0.0053521091
 40
0.0114341367
 40
0.0198755378
 40
0.0306635273
 40
0.0437763753
 40
0.0591883639
 40
0.0768615891
 40
0.0967533791
 40
0.1188195353
 40
0.1692526412
 40
0.2276791527
 40
0.2935365269
 40
0.3661939885
 40
0.4449520541
 40
0.5290507954
 40
0.6176826676
 40
0.7099946524
 40
0.8050980027
 40
1.0
 40
1.0
 40
1.0
 40
1.0
 10
153.4224365795
 20
113.1633748277
 30
0.0
 10
153.4251980063
 20
113.1633748277
 30
0.0
 10
153.4318510872
 20
113.1576224414
 30
0.0
 10
153.4418158617
 20
113.1346497993
 30
0.0
 10
153.4539754235
 20
113.0837557098
 30
0.0
 10
153.4671045787
 20
112.9982034758
 30
0.0
 10
153.4808357927
 20
112.8784518083
 30
0.0
 10
153.4946553538
 20
112.7253139496
 30
0.0
 10
153.508613194
 20
112.5388529402
 30
0.0
 10
153.5226156238
 20
112.319602161
 30
0.0
 10
153.53666313
 20
112.0680504342
 30
0.0
 10
153.5507386286
 20
111.7848150746
 30
0.0
 10
153.5704143588
 20
111.3458759118
 30
0.0
 10
153.5945767336
 20
110.723704616
 30
0.0
 10
153.6225561813
 20
109.8932830695
 30
0.0
 10
153.6506064793
 20
108.9571199284
 30
0.0
 10
153.6787105521
 20
107.9242302003
 30
0.0
 10
153.7068491993
 20
106.804562705
 30
0.0
 10
153.7350140442
 20
105.608905113
 30
0.0
 10
153.7631961447
 20
104.348773564
 30
0.0
 10
153.791391313
 20
103.0362959052
 30
0.0
 10
153.8293054776
 20
101.2185286711
 30
0.0
 10
153.8572387675
 20
99.8396513061
 30
0.0
 10
153.8760166426
 20
98.912958358
 30
0.0
  0
SPLINE
  5
4F7
100
AcDbEntity
  8
0
100
AcDbSpline
 62
7
  6
CONTINUOUS
 70
0
 71
3
 72
9
 73
5
 74
0
 42
0.0000001
 43
0.0000001
 44
0.0000000001
 40
0.0
 40
0.0
 40
0.0
 40
0.0
 40
0.5024010194
 40
1.0
 40
1.0
 40
1.0
 40
1.0
 10
147.3192101588
 20
106.1650641244
 30
0.0
 10
147.5023776757
 20
106.8289387032
 30
0.0
 10
147.7935785726
 20
108.1724551361
 30
0.0
 10
147.8965604279
 20
109.5449861018
 30
0.0
 10
147.896560428
 20
110.2270833258
 30
0.0
  0
SPLINE
  5
4F8
100
AcDbEntity
  8
0
100
AcDbSpline
 62
7
  6
CONTINUOUS
 70
0
 71
3
 72
11
 73
7
 74
0
 42
0.0000001
 43
0.0000001
 44
0.0000000001
 40
0.0
 40
0.0
 40
0.0
 40
0.0
 40
0.3712498767
 40
0.6613707034
 40
0.8705198058
 40
1.0
 40
1.0
 40
1.0
 40
1.0
 10
153.89656084
 20
112.8852518889
 30
0.0
 10
153.8931113673
 20
112.9187226138
 30
0.0
 10
153.8864277216
 20
112.9782712512
 30
0.0
 10
153.8754431065
 20
113.0565068187
 30
0.0
 10
153.8644669846
 20
113.112277888
 30
0.0
 10
153.8560679006
 20
113.1421569051
 30
0.0
 10
153.8506521854
 20
113.1525678927
 30
0.0
  0
SPLINE
  5
4F9
100
AcDbEntity
  8
GEOM
100
AcDbSpline
 62
7
  6
CONTINUOUS
 70
0
 71
3
 72
11
 73
7
 74
0
 42
0.0000001
 43
0.0000001
 44
0.0000000001
 40
0.0
 40
0.0
 40
0.0
 40
0.0
 40
0.2504619924
 40
0.5000038209
 40
0.7495425748
 40
1.0
 40
1.0
 40
1.0
 40
1.0
 10
141.8125855309
 20
114.2891025165
 30
0.0
 10
141.9262932861
 20
113.6172304454
 30
0.0
 10
142.1043503866
 20
112.266895731
 30
0.0
 10
142.1969877361
 20
110.2270603832
 30
0.0
 10
142.1043465381
 20
108.1872378829
 30
0.0
 10
141.9262930213
 20
106.8369236382
 30
0.0
 10
141.8125855291
 20
106.1650641249
 30
0.0
  0
SPLINE
  5
4FA
100
AcDbEntity
  8
0
100
AcDbSpline
 62
7
  6
CONTINUOUS
 70
0
 71
3
 72
9
 73
5
 74
0
 42
0.0000001
 43
0.0000001
 44
0.0000000001
 40
0.0
 40
0.0
 40
0.0
 40
0.0
 40
0.4975989906
 40
1.0
 40
1.0
 40
1.0
 40
1.0
 10
147.896560428
 20
110.2270833258
 30
0.0
 10
147.896560428
 20
110.9091805639
 30
0.0
 10
147.7935785707
 20
112.2817115303
 30
0.0
 10
147.5023776721
 20
113.6252279631
 30
0.0
 10
147.3192101588
 20
114.289102529
 30
0.0
  0
SPLINE
  5
4FB
100
AcDbEntity
  8
GEOM
100
AcDbSpline
 62
7
  6
CONTINUOUS
 70
0
 71
3
 72
11
 73
7
 74
0
 42
0.0000001
 43
0.0000001
 44
0.0000000001
 40
0.0
 40
0.0
 40
0.0
 40
0.0
 40
0.2510943044
 40
0.5008404875
 40
0.750132226
 40
1.0
 40
1.0
 40
1.0
 40
1.0
 10
141.3323315661
 20
114.5494388069
 30
0.0
 10
141.4490633621
 20
113.8726339829
 30
0.0
 10
141.6323245632
 20
112.5132939732
 30
0.0
 10
141.7281486023
 20
110.4609296042
 30
0.0
 10
141.6326370347
 20
108.411892264
 30
0.0
 10
141.4491946368
 20
107.0571870106
 30
0.0
 10
141.3323315661
 20
106.3838095658
 30
0.0
  0
SPLINE
  5
4FC
100
AcDbEntity
  8
GEOM
100
AcDbSpline
 62
7
  6
CONTINUOUS
 70
0
 71
3
 72
11
 73
7
 74
0
 42
0.0000001
 43
0.0000001
 44
0.0000000001
 40
0.0
 40
0.0
 40
0.0
 40
0.0
 40
0.2500032725
 40
0.5000007574
 40
0.749998166
 40
1.0
 40
1.0
 40
1.0
 40
1.0
 10
141.3323315661
 20
104.6873466368
 30
0.0
 10
141.449477105
 20
103.7297811992
 30
0.0
 10
141.6327805114
 20
101.8078638237
 30
0.0
 10
141.7280607228
 20
98.9133663464
 30
0.0
 10
141.6327798492
 20
96.0188744241
 30
0.0
 10
141.4494762274
 20
94.0969629712
 30
0.0
 10
141.3323315661
 20
93.1394030187
 30
0.0
  0
SPLINE
  5
4FD
100
AcDbEntity
  8
0
100
AcDbSpline
 62
7
  6
CONTINUOUS
 70
0
 71
3
 72
47
 73
43
 74
0
 42
0.0000001
 43
0.0000001
 44
0.0000000001
 40
0.0
 40
0.0
 40
0.0
 40
0.0
 40
0.0003041677
 40
0.0008183224
 40
0.0026535528
 40
0.0056231521
 40
0.009739295
 40
0.0149974093
 40
0.0213871437
 40
0.0288965899
 40
0.037508842
 40
0.0472030532
 40
0.0579580193
 40
0.0825481472
 40
0.1110493947
 40
0.1431953945
 40
0.1786870987
 40
0.2171907193
 40
0.2583467796
 40
0.3017698752
 40
0.3470526208
 40
0.3937717347
 40
0.4897573897
 40
0.5861383886
 40
0.6793113382
 40
0.7235983811
 40
0.7657934545
 40
0.8055019565
 40
0.8423524752
 40
0.8759987374
 40
0.9061277634
 40
0.9324569671
 40
0.9547407953
 40
0.9643002697
 40
0.9727743739
 40
0.9801428318
 40
0.986391017
 40
0.9915057367
 40
0.9954765002
 40
0.9983022767
 40
0.9992896301
 40
1.0
 40
1.0
 40
1.0
 40
1.0
 10
149.1952125361
 20
112.0133748277
 30
0.0
 10
149.1978707705
 20
112.0133748277
 30
0.0
 10
149.20431396
 20
112.0084777653
 30
0.0
 10
149.2143695891
 20
111.9877869385
 30
0.0
 10
149.2262453387
 20
111.9422870047
 30
0.0
 10
149.2392967188
 20
111.8656304096
 30
0.0
 10
149.2528113291
 20
111.7584775473
 30
0.0
 10
149.26645936
 20
111.6214192197
 30
0.0
 10
149.2802244045
 20
111.4545432812
 30
0.0
 10
149.2940404053
 20
111.2582948141
 30
0.0
 10
149.30789685
 20
111.0331020811
 30
0.0
 10
149.321782496
 20
110.7795023194
 30
0.0
 10
149.3411966724
 20
110.3863645031
 30
0.0
 10
149.3650347528
 20
109.8288916888
 30
0.0
 10
149.3926394349
 20
109.0844799
 30
0.0
 10
149.4203132038
 20
108.2447398616
 30
0.0
 10
149.4480388668
 20
107.3175447993
 30
0.0
 10
149.475800718
 20
106.3115763549
 30
0.0
 10
149.5035872691
 20
105.2362687545
 30
0.0
 10
149.5313914547
 20
104.1016977083
 30
0.0
 10
149.5592095386
 20
102.9184955091
 30
0.0
 10
149.5966469555
 20
101.2760292441
 30
0.0
 10
149.642784839
 20
99.1870791542
 30
0.0
 10
149.697680532
 20
96.6922463935
 30
0.0
 10
149.7441128131
 20
94.6491499615
 30
0.0
 10
149.7818324665
 20
93.0795304408
 30
0.0
 10
149.8096284649
 20
91.9770537239
 30
0.0
 10
149.8374021713
 20
90.9395887098
 30
0.0
 10
149.8651441173
 20
89.9768624978
 30
0.0
 10
149.8928458296
 20
89.0978912835
 30
0.0
 10
149.920477863
 20
88.3109170573
 30
0.0
 10
149.9480251784
 20
87.6233095337
 30
0.0
 10
149.9718980021
 20
87.1154714814
 30
0.0
 10
149.9914172625
 20
86.7636612915
 30
0.0
 10
150.0052718105
 20
86.5420945564
 30
0.0
 10
150.0190824059
 20
86.3495242726
 30
0.0
 10
150.0328447514
 20
86.1864035655
 30
0.0
 10
150.0464547758
 20
86.0530638011
 30
0.0
 10
150.059988142
 20
85.9498679933
 30
0.0
 10
150.0717849222
 20
85.8827592839
 30
0.0
 10
150.0820559679
 20
85.8445847672
 30
0.0
 10
150.0872678297
 20
85.8306104189
 30
0.0
 10
150.0901354571
 20
85.8251042133
 30
0.0
  0
SPLINE
  5
4FE
100
AcDbEntity
  8
0
100
AcDbSpline
 62
7
  6
CONTINUOUS
 70
0
 71
3
 72
9
 73
5
 74
0
 42
0.0000001
 43
0.0000001
 44
0.0000000001
 40
0.0
 40
0.0
 40
0.0
 40
0.0
 40
0.3006702262
 40
1.0
 40
1.0
 40
1.0
 40
1.0
 10
93.9424694419
 20
84.6741817474
 30
0.0
 10
93.9429786428
 20
84.6732028496
 30
0.0
 10
93.9447617572
 20
84.6700102554
 30
0.0
 10
93.9469536104
 20
84.6669403388
 30
0.0
 10
93.9489421098
 20
84.6653178484
 30
0.0
  0
SPLINE
  5
4FF
100
AcDbEntity
  8
0
100
AcDbSpline
 62
7
  6
CONTINUOUS
 70
0
 71
3
 72
8
 73
4
 74
0
 42
0.0000001
 43
0.0000001
 44
0.0000000001
 40
0.0
 40
0.0
 40
0.0
 40
0.0
 40
1.0
 40
1.0
 40
1.0
 40
1.0
 10
93.9489421098
 20
84.6653178484
 30
0.0
 10
93.950270153
 20
84.6642342487
 30
0.0
 10
93.9519889292
 20
84.6633748277
 30
0.0
 10
93.9537029558
 20
84.6633748277
 30
0.0
  0
SPLINE
  5
500
100
AcDbEntity
  8
0
100
AcDbSpline
 62
7
  6
CONTINUOUS
 70
0
 71
3
 72
42
 73
38
 74
0
 42
0.0000001
 43
0.0000001
 44
0.0000000001
 40
0.0
 40
0.0
 40
0.0
 40
0.0
 40
0.0003006585
 40
0.0008063981
 40
0.0026081457
 40
0.0055217015
 40
0.0095595322
 40
0.0147184241
 40
0.0209876357
 40
0.0283549647
 40
0.0368060795
 40
0.0463205344
 40
0.0568763228
 40
0.0810185014
 40
0.1090102469
 40
0.1405985437
 40
0.1754912152
 40
0.2133704686
 40
0.2538876702
 40
0.2966713066
 40
0.3874506987
 40
0.48238333
 40
0.5779912707
 40
0.6707720232
 40
0.7573270001
 40
0.7972672075
 40
0.8344862569
 40
0.8686429239
 40
0.8994250492
 40
0.9265486724
 40
0.9497688046
 40
0.9688708567
 40
0.9836859003
 40
0.9894427169
 40
0.9940845642
 40
0.9976036332
 40
1.0
 40
1.0
 40
1.0
 40
1.0
 10
98.5979083198
 20
85.8133748277
 30
0.0
 10
98.595283316
 20
85.8133748277
 30
0.0
 10
98.5889193295
 20
85.8181500911
 30
0.0
 10
98.5789451367
 20
85.8384366769
 30
0.0
 10
98.5672008063
 20
85.8830217687
 30
0.0
 10
98.5542708294
 20
85.9581449759
 30
0.0
 10
98.5408925089
 20
86.063149364
 30
0.0
 10
98.5273823869
 20
86.1974727453
 30
0.0
 10
98.5137575309
 20
86.3610257095
 30
0.0
 10
98.5000797425
 20
86.5533826251
 30
0.0
 10
98.4863649693
 20
86.7741384799
 30
0.0
 10
98.47262141
 20
87.0227756066
 30
0.0
 10
98.4533996062
 20
87.4083103597
 30
0.0
 10
98.4298026508
 20
87.9551412503
 30
0.0
 10
98.4024739938
 20
88.6855986144
 30
0.0
 10
98.3750827306
 20
89.5099725742
 30
0.0
 10
98.3476341857
 20
90.4207133984
 30
0.0
 10
98.320154088
 20
91.4094425488
 30
0.0
 10
98.292646625
 20
92.4670904041
 30
0.0
 10
98.2552058651
 20
93.9864977392
 30
0.0
 10
98.2091354286
 20
95.9809277248
 30
0.0
 10
98.1547873655
 20
98.4364884734
 30
0.0
 10
98.1004325655
 20
100.9095269949
 30
0.0
 10
98.0461277328
 20
103.3094045487
 30
0.0
 10
97.99985498
 20
105.2233122349
 30
0.0
 10
97.9621709746
 20
106.6521802857
 30
0.0
 10
97.9346957487
 20
107.6236751728
 30
0.0
 10
97.907258297
 20
108.5151788105
 30
0.0
 10
97.8798814811
 20
109.3184978575
 30
0.0
 10
97.8525748566
 20
110.0262710256
 30
0.0
 10
97.8254349723
 20
110.6319933237
 30
0.0
 10
97.7984418936
 20
111.130119757
 30
0.0
 10
97.7748540647
 20
111.4757414625
 30
0.0
 10
97.7550219397
 20
111.6949820129
 30
0.0
 10
97.7416006638
 20
111.8157878228
 30
0.0
 10
97.7282969629
 20
111.9069693058
 30
0.0
 10
97.7180544163
 20
111.9577261189
 30
0.0
 10
97.712053952
 20
111.9777695158
 30
0.0
  0
SPLINE
  5
501
100
AcDbEntity
  8
0
100
AcDbSpline
 62
7
  6
CONTINUOUS
 70
0
 71
3
 72
9
 73
5
 74
0
 42
0.0000001
 43
0.0000001
 44
0.0000000001
 40
0.0
 40
0.0
 40
0.0
 40
0.0
 40
0.2945248357
 40
1.0
 40
1.0
 40
1.0
 40
1.0
 10
97.712053952
 20
111.9777695158
 30
0.0
 10
97.7113350086
 20
111.9801710081
 30
0.0
 10
97.7087732393
 20
111.9882813978
 30
0.0
 10
97.7057597154
 20
111.996295111
 30
0.0
 10
97.7029853911
 20
112.0016202943
 30
0.0
  0
SPLINE
  5
502
100
AcDbEntity
  8
0
100
AcDbSpline
 62
7
  6
CONTINUOUS
 70
0
 71
3
 72
9
 73
5
 74
0
 42
0.0000001
 43
0.0000001
 44
0.0000000001
 40
0.0
 40
0.0
 40
0.0
 40
0.0
 40
0.2036553099
 40
1.0
 40
1.0
 40
1.0
 40
1.0
 10
96.9714039915
 20
85.82511354
 30
0.0
 10
96.9705287195
 20
85.8267919161
 30
0.0
 10
96.9665940186
 20
85.8352220028
 30
0.0
 10
96.9637334348
 20
85.8441068445
 30
0.0
 10
96.9616705197
 20
85.8512152607
 30
0.0
  0
SPLINE
  5
503
100
AcDbEntity
  8
0
100
AcDbSpline
 62
7
  6
CONTINUOUS
 70
0
 71
3
 72
41
 73
37
 74
0
 42
0.0000001
 43
0.0000001
 44
0.0000000001
 40
0.0
 40
0.0
 40
0.0
 40
0.0
 40
0.0024493596
 40
0.0060185957
 40
0.0107078477
 40
0.0165118779
 40
0.031413512
 40
0.0505936611
 40
0.0738800244
 40
0.1010622909
 40
0.13189008
 40
0.166084292
 40
0.2432859485
 40
0.3298454943
 40
0.4225975303
 40
0.5181493505
 40
0.6130055518
 40
0.7036964438
 40
0.7464345174
 40
0.7869051653
 40
0.8247393186
 40
0.8595892505
 40
0.8911362741
 40
0.9190926687
 40
0.943201127
 40
0.953743656
 40
0.9632453292
 40
0.9716834582
 40
0.9790411084
 40
0.9853026596
 40
0.9904534471
 40
0.9944849858
 40
0.9973956257
 40
0.9991951779
 40
0.9996997066
 40
1.0
 40
1.0
 40
1.0
 40
1.0
 10
96.9616705197
 20
85.8512152607
 30
0.0
 10
96.9557108792
 20
85.8717510576
 30
0.0
 10
96.9454803588
 20
85.9234135513
 30
0.0
 10
96.9321717156
 20
86.0159182845
 30
0.0
 10
96.9187461591
 20
86.1379817765
 30
0.0
 10
96.8989462115
 20
86.3587948452
 30
0.0
 10
96.8753661253
 20
86.7062386728
 30
0.0
 10
96.8483921391
 20
87.2063410014
 30
0.0
 10
96.8212626901
 20
87.8137830996
 30
0.0
 10
96.7939793157
 20
88.5229840002
 30
0.0
 10
96.7666150752
 20
89.3274708819
 30
0.0
 10
96.7285020312
 20
90.56850995
 30
0.0
 10
96.6819741073
 20
92.2960534879
 30
0.0
 10
96.6278485392
 20
94.5347791116
 30
0.0
 10
96.5735929089
 20
96.9337433634
 30
0.0
 10
96.5192742071
 20
99.4051539726
 30
0.0
 10
96.4649665238
 20
101.8585665608
 30
0.0
 10
96.4189274364
 20
103.8509814193
 30
0.0
 10
96.3815142136
 20
105.368676743
 30
0.0
 10
96.35402667
 20
106.4250325335
 30
0.0
 10
96.3265667765
 20
107.412500391
 30
0.0
 10
96.2991402949
 20
108.3220330158
 30
0.0
 10
96.271766439
 20
109.1452914086
 30
0.0
 10
96.2444623498
 20
109.8747205621
 30
0.0
 10
96.220878224
 20
110.4207837847
 30
0.0
 10
96.2016740302
 20
110.8057626103
 30
0.0
 10
96.187942249
 20
111.0540369642
 30
0.0
 10
96.1742337377
 20
111.2744634074
 30
0.0
 10
96.160565093
 20
111.4665383931
 30
0.0
 10
96.14695313
 20
111.6298546662
 30
0.0
 10
96.1334504777
 20
111.763973832
 30
0.0
 10
96.1200830799
 20
111.8688160606
 30
0.0
 10
96.1071682712
 20
111.9438374548
 30
0.0
 10
96.0954493912
 20
111.988360517
 30
0.0
 10
96.0854678444
 20
112.0086170942
 30
0.0
 10
96.079101403
 20
112.0133578896
 30
0.0
 10
96.0764798226
 20
112.0133542484
 30
0.0
  0
SPLINE
  5
504
100
AcDbEntity
  8
0
100
AcDbSpline
 62
7
  6
CONTINUOUS
 70
0
 71
3
 72
15
 73
11
 74
0
 42
0.0000001
 43
0.0000001
 44
0.0000000001
 40
0.0
 40
0.0
 40
0.0
 40
0.0
 40
0.0441375464
 40
0.0748523248
 40
0.1124874706
 40
0.2088299139
 40
0.3316804796
 40
0.4773566273
 40
0.641054212
 40
1.0
 40
1.0
 40
1.0
 40
1.0
 10
114.6127484754
 20
124.2133748277
 30
0.0
 10
114.6252736876
 20
124.2133741179
 30
0.0
 10
114.6455569712
 20
124.2011798067
 30
0.0
 10
114.6660766833
 20
124.1771789845
 30
0.0
 10
114.6914825903
 20
124.1376019871
 30
0.0
 10
114.7205241456
 20
124.0704867298
 30
0.0
 10
114.7511098256
 20
123.9714297276
 30
0.0
 10
114.7773415747
 20
123.8514815098
 30
0.0
 10
114.8051987841
 20
123.6637922492
 30
0.0
 10
114.8132830465
 20
123.5152353191
 30
0.0
 10
114.8132864176
 20
123.4133748277
 30
0.0
  0
SPLINE
  5
505
100
AcDbEntity
  8
0
100
AcDbSpline
 62
7
  6
CONTINUOUS
 70
0
 71
3
 72
11
 73
7
 74
0
 42
0.0000001
 43
0.0000001
 44
0.0000000001
 40
0.0
 40
0.0
 40
0.0
 40
0.0
 40
0.2473359643
 40
0.4962408145
 40
0.7473476717
 40
1.0
 40
1.0
 40
1.0
 40
1.0
 10
114.22185113
 20
123.8133748277
 30
0.0
 10
114.2727368861
 20
123.8133748277
 30
0.0
 10
114.3759827556
 20
123.8343613382
 30
0.0
 10
114.5059184788
 20
123.9237295832
 30
0.0
 10
114.5925658339
 20
124.0566554666
 30
0.0
 10
114.6127484754
 20
124.1613953075
 30
0.0
 10
114.6127484754
 20
124.2133748277
 30
0.0
  0
SPLINE
  5
506
100
AcDbEntity
  8
0
100
AcDbSpline
 62
7
  6
CONTINUOUS
 70
0
 71
3
 72
12
 73
8
 74
0
 42
0.0000001
 43
0.0000001
 44
0.0000000001
 40
0.0
 40
0.0
 40
0.0
 40
0.0
 40
0.1549048409
 40
0.2563757648
 40
0.3755452111
 40
0.6637070646
 40
1.0
 40
1.0
 40
1.0
 40
1.0
 10
114.22185113
 20
123.8133748277
 30
0.0
 10
114.2467536616
 20
123.8133741174
 30
0.0
 10
114.2868531875
 20
123.7924382455
 30
0.0
 10
114.3284376653
 20
123.7491901107
 30
0.0
 10
114.374795389
 20
123.6811092636
 30
0.0
 10
114.4183490658
 20
123.5682523126
 30
0.0
 10
114.4308251485
 20
123.4674373432
 30
0.0
 10
114.430832775
 20
123.4133748277
 30
0.0
  0
SPLINE
  5
507
100
AcDbEntity
  8
0
100
AcDbSpline
 62
7
  6
CONTINUOUS
 70
0
 71
3
 72
9
 73
5
 74
0
 42
0.0000001
 43
0.0000001
 44
0.0000000001
 40
0.0
 40
0.0
 40
0.0
 40
0.0
 40
0.5007877022
 40
1.0
 40
1.0
 40
1.0
 40
1.0
 10
114.8132864176
 20
121.3119029651
 30
0.0
 10
114.8132894724
 20
121.2322793644
 30
0.0
 10
114.8493534151
 20
121.071382348
 30
0.0
 10
114.9483400614
 20
120.9408319539
 30
0.0
 10
115.0072517774
 20
120.8876388964
 30
0.0
  0
SPLINE
  5
508
100
AcDbEntity
  8
0
100
AcDbSpline
 62
7
  6
CONTINUOUS
 70
0
 71
3
 72
9
 73
5
 74
0
 42
0.0000001
 43
0.0000001
 44
0.0000000001
 40
0.0
 40
0.0
 40
0.0
 40
0.0
 40
0.499887767
 40
1.0
 40
1.0
 40
1.0
 40
1.0
 10
114.430832775
 20
121.3119029651
 30
0.0
 10
114.4308391013
 20
121.1807803858
 30
0.0
 10
114.4862544166
 20
120.9156220634
 30
0.0
 10
114.6426612048
 20
120.6953203554
 30
0.0
 10
114.7376030252
 20
120.604796184
 30
0.0
  0
SPLINE
  5
509
100
AcDbEntity
  8
0
100
AcDbSpline
 62
7
  6
CONTINUOUS
 70
0
 71
3
 72
9
 73
5
 74
0
 42
0.0000001
 43
0.0000001
 44
0.0000000001
 40
0.0
 40
0.0
 40
0.0
 40
0.0
 40
0.4984566246
 40
1.0
 40
1.0
 40
1.0
 40
1.0
 10
115.4249929056
 20
120.489110759
 30
0.0
 10
115.4793587825
 20
120.4337915468
 30
0.0
 10
115.5673164527
 20
120.300005658
 30
0.0
 10
115.5976605407
 20
120.1428890018
 30
0.0
 10
115.5976611996
 20
120.0648466903
 30
0.0
  0
SPLINE
  5
50A
100
AcDbEntity
  8
0
100
AcDbSpline
 62
7
  6
CONTINUOUS
 70
0
 71
3
 72
9
 73
5
 74
0
 42
0.0000001
 43
0.0000001
 44
0.0000000001
 40
0.0
 40
0.0
 40
0.0
 40
0.0
 40
0.5001397602
 40
1.0
 40
1.0
 40
1.0
 40
1.0
 10
115.1565420848
 20
120.2062680465
 30
0.0
 10
115.1755943498
 20
120.188185637
 30
0.0
 10
115.2070589253
 20
120.1441916493
 30
0.0
 10
115.2182831974
 20
120.0910991442
 30
0.0
 10
115.2182829491
 20
120.0648466903
 30
0.0
  0
SPLINE
  5
50B
100
AcDbEntity
  8
0
100
AcDbSpline
 62
7
  6
CONTINUOUS
 70
0
 71
3
 72
9
 73
5
 74
0
 42
0.0000001
 43
0.0000001
 44
0.0000000001
 40
0.0
 40
0.0
 40
0.0
 40
0.0
 40
0.2522716733
 40
1.0
 40
1.0
 40
1.0
 40
1.0
 10
115.5976611996
 20
118.2027571129
 30
0.0
 10
115.597659816
 20
118.181577892
 30
0.0
 10
115.5968554861
 20
118.0976276341
 30
0.0
 10
115.5927854355
 20
118.0136943285
 30
0.0
 10
115.5875689131
 20
117.9511366493
 30
0.0
  0
SPLINE
  5
50C
100
AcDbEntity
  8
0
100
AcDbSpline
 62
7
  6
CONTINUOUS
 70
0
 71
3
 72
9
 73
5
 74
0
 42
0.0000001
 43
0.0000001
 44
0.0000000001
 40
0.0
 40
0.0
 40
0.0
 40
0.0
 40
0.25156243
 40
1.0
 40
1.0
 40
1.0
 40
1.0
 10
115.2182829491
 20
118.2027571129
 30
0.0
 10
115.2226802951
 20
118.1899492258
 30
0.0
 10
115.2396699429
 20
118.1388736838
 30
0.0
 10
115.2544506563
 20
118.0870245828
 30
0.0
 10
115.2635395714
 20
118.0477743891
 30
0.0
  0
SPLINE
  5
50D
100
AcDbEntity
  8
0
100
AcDbSpline
 62
7
  6
CONTINUOUS
 70
0
 71
3
 72
11
 73
7
 74
0
 42
0.0000001
 43
0.0000001
 44
0.0000000001
 40
0.0
 40
0.0
 40
0.0
 40
0.0
 40
0.261776536
 40
0.5191214677
 40
0.7683842066
 40
1.0
 40
1.0
 40
1.0
 40
1.0
 10
115.5875818604
 20
117.9511380922
 30
0.0
 10
115.5817865765
 20
117.8516283538
 30
0.0
 10
115.5269820146
 20
117.6542993368
 30
0.0
 10
115.3371231358
 20
117.4222816983
 30
0.0
 10
115.0902207673
 20
117.2780155725
 30
0.0
 10
114.9098906315
 20
117.2341993329
 30
0.0
 10
114.8222233696
 20
117.2245761319
 30
0.0
  0
SPLINE
  5
50E
100
AcDbEntity
  8
0
100
AcDbSpline
 62
7
  6
CONTINUOUS
 70
0
 71
3
 72
11
 73
7
 74
0
 42
0.0000001
 43
0.0000001
 44
0.0000000001
 40
0.0
 40
0.0
 40
0.0
 40
0.0
 40
0.3173457714
 40
0.6020684753
 40
0.8338889922
 40
1.0
 40
1.0
 40
1.0
 40
1.0
 10
115.2635396236
 20
118.0477744798
 30
0.0
 10
115.299400367
 20
118.043550341
 30
0.0
 10
115.3671599616
 20
118.033160866
 30
0.0
 10
115.4597480103
 20
118.0114257866
 30
0.0
 10
115.5329677495
 20
117.9856576277
 30
0.0
 10
115.5734457583
 20
117.9636842464
 30
0.0
 10
115.5875818604
 20
117.9511380922
 30
0.0
  0
SPLINE
  5
50F
100
AcDbEntity
  8
0
100
AcDbSpline
 62
7
  6
CONTINUOUS
 70
0
 71
3
 72
16
 73
12
 74
0
 42
0.0000001
 43
0.0000001
 44
0.0000000001
 40
0.0
 40
0.0
 40
0.0
 40
0.0
 40
0.1376877663
 40
0.2031551505
 40
0.2660703613
 40
0.3292741206
 40
0.3922236735
 40
0.5162195357
 40
0.6399716918
 40
0.7626919801
 40
1.0
 40
1.0
 40
1.0
 40
1.0
 10
115.2635395714
 20
118.0477743891
 30
0.0
 10
115.2704561113
 20
118.029875988
 30
0.0
 10
115.2670691111
 20
117.9984896902
 30
0.0
 10
115.2494587105
 20
117.9657180108
 30
0.0
 10
115.2294261279
 20
117.9472496582
 30
0.0
 10
115.2057710162
 20
117.9352774405
 30
0.0
 10
115.1726824617
 20
117.9240794758
 30
0.0
 10
115.1296714505
 20
117.9170921593
 30
0.0
 10
115.0779578378
 20
117.9161657905
 30
0.0
 10
115.0106693145
 20
117.9212837534
 30
0.0
 10
114.9611304381
 20
117.9301012403
 30
0.0
 10
114.9288917838
 20
117.9374763929
 30
0.0
  0
SPLINE
  5
510
100
AcDbEntity
  8
0
100
AcDbSpline
 62
7
  6
CONTINUOUS
 70
0
 71
3
 72
10
 73
6
 74
0
 42
0.0000001
 43
0.0000001
 44
0.0000000001
 40
0.0
 40
0.0
 40
0.0
 40
0.0
 40
0.6491345744
 40
0.8617002145
 40
1.0
 40
1.0
 40
1.0
 40
1.0
 10
114.8222284785
 20
117.2245163341
 30
0.0
 10
114.8013067909
 20
117.2245454423
 30
0.0
 10
114.7733475758
 20
117.2246955494
 30
0.0
 10
114.7415645296
 20
117.2291268198
 30
0.0
 10
114.7304689608
 20
117.2326522886
 30
0.0
 10
114.7268569719
 20
117.2352642152
 30
0.0
  0
SPLINE
  5
511
100
AcDbEntity
  8
0
100
AcDbSpline
 62
7
  6
CONTINUOUS
 70
0
 71
3
 72
13
 73
9
 74
0
 42
0.0000001
 43
0.0000001
 44
0.0000000001
 40
0.0
 40
0.0
 40
0.0
 40
0.0
 40
0.2485463809
 40
0.513192289
 40
0.6441565317
 40
0.7694636878
 40
0.8879175931
 40
1.0
 40
1.0
 40
1.0
 40
1.0
 10
114.9288919858
 20
117.9374767428
 30
0.0
 10
114.9816795816
 20
117.8910449701
 30
0.0
 10
115.061325423
 20
117.7604300123
 30
0.0
 10
115.0758388131
 20
117.5723163944
 30
0.0
 10
115.037140267
 20
117.4288966735
 30
0.0
 10
114.9845815825
 20
117.335388412
 30
0.0
 10
114.9121012016
 20
117.2635726094
 30
0.0
 10
114.852602321
 20
117.2336005683
 30
0.0
 10
114.8222286803
 20
117.2245163115
 30
0.0
  0
SPLINE
  5
512
100
AcDbEntity
  8
0
100
AcDbSpline
 62
7
  6
CONTINUOUS
 70
0
 71
3
 72
10
 73
6
 74
0
 42
0.0000001
 43
0.0000001
 44
0.0000000001
 40
0.0
 40
0.0
 40
0.0
 40
0.0
 40
0.6010092059
 40
0.8346780107
 40
1.0
 40
1.0
 40
1.0
 40
1.0
 10
114.9288917838
 20
117.9374763929
 30
0.0
 10
114.9081977738
 20
117.9421972497
 30
0.0
 10
114.8794160364
 20
117.9487890085
 30
0.0
 10
114.8455941795
 20
117.9587727415
 30
0.0
 10
114.8322875942
 20
117.9637322051
 30
0.0
 10
114.8272308558
 20
117.966650929
 30
0.0
  0
SPLINE
  5
513
100
AcDbEntity
  8
0
100
AcDbSpline
 62
7
  6
CONTINUOUS
 70
0
 71
3
 72
15
 73
11
 74
0
 42
0.0000001
 43
0.0000001
 44
0.0000000001
 40
0.0
 40
0.0
 40
0.0
 40
0.0
 40
0.1240491365
 40
0.2485351321
 40
0.373259516
 40
0.4984636724
 40
0.6239708325
 40
0.7495013287
 40
0.8750285304
 40
1.0
 40
1.0
 40
1.0
 40
1.0
 10
114.8272308555
 20
117.9666509286
 30
0.0
 10
114.8607393528
 20
117.9473047888
 30
0.0
 10
114.9224019614
 20
117.8981174129
 30
0.0
 10
114.989114808
 20
117.8006924511
 30
0.0
 10
115.024496581
 20
117.687587238
 30
0.0
 10
115.0256843743
 20
117.5688054051
 30
0.0
 10
114.9924334449
 20
117.4545184825
 30
0.0
 10
114.9277983568
 20
117.3544310274
 30
0.0
 10
114.8372487249
 20
117.2773825725
 30
0.0
 10
114.764475184
 20
117.2454773358
 30
0.0
 10
114.7268569722
 20
117.235264214
 30
0.0
  0
SPLINE
  5
514
100
AcDbEntity
  8
0
100
AcDbSpline
 62
7
  6
CONTINUOUS
 70
0
 71
3
 72
8
 73
4
 74
0
 42
0.0000001
 43
0.0000001
 44
0.0000000001
 40
0.0
 40
0.0
 40
0.0
 40
0.0
 40
1.0
 40
1.0
 40
1.0
 40
1.0
 10
114.725803391
 20
118.02521407
 30
0.0
 10
114.7700567265
 20
117.9996554833
 30
0.0
 10
114.8099714152
 20
117.9647684584
 30
0.0
 10
114.8413024631
 20
117.9243956395
 30
0.0
  0
SPLINE
  5
515
100
AcDbEntity
  8
0
100
AcDbSpline
 62
7
  6
CONTINUOUS
 70
0
 71
3
 72
11
 73
7
 74
0
 42
0.0000001
 43
0.0000001
 44
0.0000000001
 40
0.0
 40
0.0
 40
0.0
 40
0.0
 40
0.2497214005
 40
0.4997868387
 40
0.7499272804
 40
1.0
 40
1.0
 40
1.0
 40
1.0
 10
114.8413024631
 20
117.9243956395
 30
0.0
 10
114.8803597212
 20
117.8740669171
 30
0.0
 10
114.9345530956
 20
117.7521115241
 30
0.0
 10
114.9210905547
 20
117.5539485139
 30
0.0
 10
114.8178847861
 20
117.3841259231
 30
0.0
 10
114.703279988
 20
117.3156033078
 30
0.0
 10
114.6423139571
 20
117.2968144804
 30
0.0
  0
SPLINE
  5
516
100
AcDbEntity
  8
0
100
AcDbSpline
 62
7
  6
CONTINUOUS
 70
0
 71
3
 72
27
 73
23
 74
0
 42
0.0000001
 43
0.0000001
 44
0.0000000001
 40
0.0
 40
0.0
 40
0.0
 40
0.0
 40
0.0005806417
 40
0.0016111419
 40
0.0053519524
 40
0.0114332401
 40
0.0198737761
 40
0.030661296
 40
0.0437729418
 40
0.0591830751
 40
0.0768555441
 40
0.0967460044
 40
0.1188094568
 40
0.1692399264
 40
0.2276621632
 40
0.2935155239
 40
0.366170958
 40
0.4449255279
 40
0.5290230026
 40
0.6176550056
 40
0.8050767459
 40
1.0
 40
1.0
 40
1.0
 40
1.0
 10
94.3706842765
 20
84.6633748277
 30
0.0
 10
94.3679237821
 20
84.6633748277
 30
0.0
 10
94.3612731567
 20
84.6691261402
 30
0.0
 10
94.3513114179
 20
84.6920905804
 30
0.0
 10
94.3391539159
 20
84.742965083
 30
0.0
 10
94.3260252252
 20
84.8284825751
 30
0.0
 10
94.3122954719
 20
84.9481882578
 30
0.0
 10
94.2984793857
 20
85.1012680555
 30
0.0
 10
94.2845242937
 20
85.2876563041
 30
0.0
 10
94.270524199
 20
85.5068231337
 30
0.0
 10
94.2564805137
 20
85.758280738
 30
0.0
 10
94.242407876
 20
86.0414084001
 30
0.0
 10
94.2227341525
 20
86.4801841902
 30
0.0
 10
94.1985784526
 20
87.1021233903
 30
0.0
 10
94.1706034704
 20
87.9322441261
 30
0.0
 10
94.1425584213
 20
88.8680777375
 30
0.0
 10
94.1144607462
 20
89.9006127097
 30
0.0
 10
94.0863268064
 20
91.0199124878
 30
0.0
 10
94.0581671599
 20
92.2151898873
 30
0.0
 10
94.019884054
 20
93.9269977156
 30
0.0
 10
93.972790854
 20
96.1656280569
 30
0.0
 10
93.9359651396
 20
97.9830044407
 30
0.0
 10
93.9171907485
 20
98.9095208871
 30
0.0
  0
SPLINE
  5
517
100
AcDbEntity
  8
0
100
AcDbSpline
 62
7
  6
CONTINUOUS
 70
0
 71
3
 72
11
 73
7
 74
0
 42
0.0000001
 43
0.0000001
 44
0.0000000001
 40
0.0
 40
0.0
 40
0.0
 40
0.0
 40
0.3712496792
 40
0.6613706403
 40
0.8705199215
 40
1.0
 40
1.0
 40
1.0
 40
1.0
 10
93.8965597967
 20
84.9414977281
 30
0.0
 10
93.9000092853
 20
84.9080270053
 30
0.0
 10
93.9066929941
 20
84.8484783441
 30
0.0
 10
93.9176780282
 20
84.7702427924
 30
0.0
 10
93.9286546077
 20
84.714471733
 30
0.0
 10
93.937053847
 20
84.6845927925
 30
0.0
 10
93.9424694419
 20
84.6741817474
 30
0.0
  0
SPLINE
  5
518
100
AcDbEntity
  8
0
100
AcDbSpline
 62
7
  6
CONTINUOUS
 70
0
 71
3
 72
45
 73
41
 74
0
 42
0.0000001
 43
0.0000001
 44
0.0000000001
 40
0.0
 40
0.0
 40
0.0
 40
0.0
 40
0.0002857573
 40
0.0007900575
 40
0.002617238
 40
0.0055860627
 40
0.0097061787
 40
0.0149721035
 40
0.0213729031
 40
0.0288963611
 40
0.0375256223
 40
0.0472393849
 40
0.0580159893
 40
0.0826562351
 40
0.1112147343
 40
0.1434246889
 40
0.1789855895
 40
0.2175617439
 40
0.2587921818
 40
0.3022895909
 40
0.3944358469
 40
0.4905508709
 40
0.5870309742
 40
0.680257498
 40
0.7667395724
 40
0.8064267311
 40
0.8432400887
 40
0.8768332473
 40
0.9068927192
 40
0.9331353768
 40
0.9553173445
 40
0.9648192593
 40
0.9732324183
 40
0.9805358678
 40
0.986714116
 40
0.9917552072
 40
0.9956486225
 40
0.9983911557
 40
0.9993347336
 40
1.0
 40
1.0
 40
1.0
 40
1.0
 10
96.1849710831
 20
84.6633748277
 30
0.0
 10
96.1822547644
 20
84.6633748277
 30
0.0
 10
96.1757034033
 20
84.6689546766
 30
0.0
 10
96.1658378494
 20
84.6913812431
 30
0.0
 10
96.1538411133
 20
84.7410149909
 30
0.0
 10
96.140854956
 20
84.8244768484
 30
0.0
 10
96.1272943574
 20
84.9412909461
 30
0.0
 10
96.1136456315
 20
85.0906885192
 30
0.0
 10
96.0998630489
 20
85.2726071357
 30
0.0
 10
96.0860343851
 20
85.4865438682
 30
0.0
 10
96.072162538
 20
85.7320349987
 30
0.0
 10
96.0582615504
 20
86.008488417
 30
0.0
 10
96.0388247644
 20
86.4370468265
 30
0.0
 10
96.0149619795
 20
87.0447127899
 30
0.0
 10
95.9873272201
 20
87.8561126027
 30
0.0
 10
95.9596238522
 20
88.771371558
 30
0.0
 10
95.9318681246
 20
89.7818924556
 30
0.0
 10
95.9040763131
 20
90.8781878069
 30
0.0
 10
95.8762594625
 20
92.0499469335
 30
0.0
 10
95.8384178745
 20
93.7308306816
 30
0.0
 10
95.7918607614
 20
95.9333643339
 30
0.0
 10
95.7369149419
 20
98.6394681437
 30
0.0
 10
95.6819690276
 20
101.3558428828
 30
0.0
 10
95.6270832588
 20
103.9806318807
 30
0.0
 10
95.580257714
 20
106.0656148996
 30
0.0
 10
95.5420875006
 20
107.614406312
 30
0.0
 10
95.5143151523
 20
108.6605542707
 30
0.0
 10
95.4865856503
 20
109.6151507556
 30
0.0
 10
95.4589275215
 20
110.4692216123
 30
0.0
 10
95.4313533395
 20
111.2147596968
 30
0.0
 10
95.407454525
 20
111.7648794335
 30
0.0
 10
95.3879043819
 20
112.1455299119
 30
0.0
 10
95.3740371267
 20
112.3848491837
 30
0.0
 10
95.3602176093
 20
112.5925212701
 30
0.0
 10
95.3464435674
 20
112.7680521369
 30
0.0
 10
95.3328344096
 20
112.9110912959
 30
0.0
 10
95.3192987822
 20
113.0212370665
 30
0.0
 10
95.3075271261
 20
113.0924402772
 30
0.0
 10
95.2972096571
 20
113.1324873375
 30
0.0
 10
95.2919837856
 20
113.1469552511
 30
0.0
 10
95.289065537
 20
113.1525654587
 30
0.0
  0
SPLINE
  5
519
100
AcDbEntity
  8
0
100
AcDbSpline
 62
7
  6
CONTINUOUS
 70
0
 71
3
 72
45
 73
41
 74
0
 42
0.0000001
 43
0.0000001
 44
0.0000000001
 40
0.0
 40
0.0
 40
0.0
 40
0.0
 40
0.0002859218
 40
0.0007902667
 40
0.0026174487
 40
0.0055862616
 40
0.0097063878
 40
0.0149723562
 40
0.0213732006
 40
0.028896686
 40
0.0375259972
 40
0.0472398127
 40
0.0580164428
 40
0.0826567734
 40
0.1112153133
 40
0.1434252952
 40
0.1789861305
 40
0.2175621885
 40
0.2587925573
 40
0.3022899933
 40
0.3944363564
 40
0.4905514043
 40
0.5870315124
 40
0.6802579772
 40
0.7667400571
 40
0.8064273415
 40
0.8432407526
 40
0.8768339227
 40
0.9068933384
 40
0.9331358784
 40
0.9553177483
 40
0.9648195743
 40
0.9732326591
 40
0.9805360644
 40
0.9867142384
 40
0.9917552628
 40
0.9956486575
 40
0.9983911813
 40
0.9993347515
 40
1.0
 40
1.0
 40
1.0
 40
1.0
 10
94.8608454492
 20
113.1633748277
 30
0.0
 10
94.863563332
 20
113.1633748277
 30
0.0
 10
94.8701188809
 20
113.1577976545
 30
0.0
 10
94.8799877807
 20
113.1353676501
 30
0.0
 10
94.891980436
 20
113.0857345001
 30
0.0
 10
94.9049616305
 20
113.0022708335
 30
0.0
 10
94.9185198725
 20
112.8854565473
 30
0.0
 10
94.9321691551
 20
112.7360578861
 30
0.0
 10
94.9459532973
 20
112.554138314
 30
0.0
 10
94.9597830666
 20
112.340200423
 30
0.0
 10
94.9736549163
 20
112.0947080118
 30
0.0
 10
94.9875555358
 20
111.8182532969
 30
0.0
 10
95.0069918824
 20
111.3896932345
 30
0.0
 10
95.0308548
 20
110.7820257266
 30
0.0
 10
95.0584897516
 20
109.9706243172
 30
0.0
 10
95.0861929392
 20
109.0553651633
 30
0.0
 10
95.1139486227
 20
108.0448453573
 30
0.0
 10
95.1417403665
 20
106.9485519962
 30
0.0
 10
95.1695571621
 20
105.7767939696
 30
0.0
 10
95.2073987447
 20
104.0959092946
 30
0.0
 10
95.2539558772
 20
101.893373736
 30
0.0
 10
95.3089017082
 20
99.1872681364
 30
0.0
 10
95.3638476204
 20
96.4708931849
 30
0.0
 10
95.4187333754
 20
93.8461041658
 30
0.0
 10
95.465558989
 20
91.7611200777
 30
0.0
 10
95.5037292448
 20
90.2123266244
 30
0.0
 10
95.5315016927
 20
89.1661766624
 30
0.0
 10
95.5592312762
 20
88.2115799201
 30
0.0
 10
95.5868894211
 20
87.3575104499
 30
0.0
 10
95.6144634125
 20
86.611974804
 30
0.0
 10
95.6383624292
 20
86.0618578674
 30
0.0
 10
95.6579128947
 20
85.6812098171
 30
0.0
 10
95.6717800483
 20
85.4418924689
 30
0.0
 10
95.6855986145
 20
85.2342221195
 30
0.0
 10
95.6993716737
 20
85.0586929033
 30
0.0
 10
95.7129807306
 20
84.9156552547
 30
0.0
 10
95.7265181593
 20
84.8055105499
 30
0.0
 10
95.7382931826
 20
84.7343082695
 30
0.0
 10
95.7486119806
 20
84.6942618668
 30
0.0
 10
95.7538376736
 20
84.679794237
 30
0.0
 10
95.7567554526
 20
84.6741839756
 30
0.0
  0
SPLINE
  5
51A
100
AcDbEntity
  8
0
100
AcDbSpline
 62
7
  6
CONTINUOUS
 70
0
 71
3
 72
45
 73
41
 74
0
 42
0.0000001
 43
0.0000001
 44
0.0000000001
 40
0.0
 40
0.0
 40
0.0
 40
0.0
 40
0.0002859329
 40
0.0007902796
 40
0.0026174577
 40
0.0055862656
 40
0.0097063869
 40
0.0149723478
 40
0.0213731854
 40
0.0288966666
 40
0.0375259695
 40
0.0472397754
 40
0.0580163991
 40
0.0826567081
 40
0.1112152356
 40
0.1434252174
 40
0.178986092
 40
0.217562199
 40
0.2587925988
 40
0.3022900098
 40
0.3944363011
 40
0.490551309
 40
0.5870313871
 40
0.6802578524
 40
0.7667398884
 40
0.8064270842
 40
0.8432404504
 40
0.8768336012
 40
0.9068930324
 40
0.9331356213
 40
0.9553175334
 40
0.9648194013
 40
0.9732325206
 40
0.9805359446
 40
0.9867141528
 40
0.9917552109
 40
0.9956486245
 40
0.9983911698
 40
0.9993347492
 40
1.0
 40
1.0
 40
1.0
 40
1.0
 10
97.9992562117
 20
84.6633748277
 30
0.0
 10
97.9965382235
 20
84.6633748277
 30
0.0
 10
97.9899823884
 20
84.6689517889
 30
0.0
 10
97.9801132614
 20
84.6913819863
 30
0.0
 10
97.9681209191
 20
84.7410150027
 30
0.0
 10
97.9551401128
 20
84.8244786725
 30
0.0
 10
97.941582082
 20
84.9412927808
 30
0.0
 10
97.927932781
 20
85.0906912714
 30
0.0
 10
97.9141485542
 20
85.2726106599
 30
0.0
 10
97.9003187383
 20
85.4865483701
 30
0.0
 10
97.8864469037
 20
85.732040576
 30
0.0
 10
97.8725463279
 20
86.008495066
 30
0.0
 10
97.8531100587
 20
86.4370547803
 30
0.0
 10
97.8292471529
 20
87.0447219138
 30
0.0
 10
97.8016122336
 20
87.8561230138
 30
0.0
 10
97.7739090628
 20
88.7713824392
 30
0.0
 10
97.7461533916
 20
89.7819031013
 30
0.0
 10
97.7183616439
 20
90.878197614
 30
0.0
 10
97.6905448716
 20
92.049956183
 30
0.0
 10
97.6527033423
 20
93.7308402614
 30
0.0
 10
97.6061462908
 20
95.9333745576
 30
0.0
 10
97.5512005421
 20
98.6394788554
 30
0.0
 10
97.4962547021
 20
101.3558531926
 30
0.0
 10
97.4413690144
 20
103.980641559
 30
0.0
 10
97.3945434915
 20
106.0656244277
 30
0.0
 10
97.3563733139
 20
107.6144162214
 30
0.0
 10
97.3286009647
 20
108.66056475
 30
0.0
 10
97.3008714222
 20
109.6151610461
 30
0.0
 10
97.2732133
 20
110.4692309592
 30
0.0
 10
97.2456394793
 20
111.2147676382
 30
0.0
 10
97.2217402801
 20
111.7648858423
 30
0.0
 10
97.2021897263
 20
112.1455350233
 30
0.0
 10
97.1883226261
 20
112.3848532834
 30
0.0
 10
97.1745043542
 20
112.5925244867
 30
0.0
 10
97.1607316582
 20
112.7680545606
 30
0.0
 10
97.1471226338
 20
112.9110930418
 30
0.0
 10
97.1335843134
 20
113.0212383765
 30
0.0
 10
97.1218078595
 20
113.0924408876
 30
0.0
 10
97.1114885059
 20
113.1324874807
 30
0.0
 10
97.1062628752
 20
113.1469552097
 30
0.0
 10
97.1033452768
 20
113.1525655895
 30
0.0
  0
SPLINE
  5
51B
100
AcDbEntity
  8
0
100
AcDbSpline
 62
7
  6
CONTINUOUS
 70
0
 71
3
 72
45
 73
41
 74
0
 42
0.0000001
 43
0.0000001
 44
0.0000000001
 40
0.0
 40
0.0
 40
0.0
 40
0.0
 40
0.0002859171
 40
0.0007902605
 40
0.0026174417
 40
0.0055862539
 40
0.0097063784
 40
0.0149723425
 40
0.0213731826
 40
0.0288966647
 40
0.0375259697
 40
0.047239778
 40
0.0580164029
 40
0.0826567166
 40
0.1112152462
 40
0.1434252291
 40
0.178986101
 40
0.2175622035
 40
0.2587925997
 40
0.3022900149
 40
0.3944363217
 40
0.4905513417
 40
0.5870314195
 40
0.6802578793
 40
0.7667399198
 40
0.806427126
 40
0.8432404977
 40
0.8768336512
 40
0.9068930817
 40
0.9331356675
 40
0.9553175774
 40
0.9648194414
 40
0.9732325582
 40
0.9805359825
 40
0.9867141886
 40
0.9917552419
 40
0.9956486448
 40
0.9983911708
 40
0.9993347436
 40
1.0
 40
1.0
 40
1.0
 40
1.0
 10
96.6751319921
 20
113.1633748277
 30
0.0
 10
96.6778498306
 20
113.1633748277
 30
0.0
 10
96.684405262
 20
113.1577975858
 30
0.0
 10
96.694274074
 20
113.1353676902
 30
0.0
 10
96.7062668496
 20
113.0857345468
 30
0.0
 10
96.7192481897
 20
113.0022709644
 30
0.0
 10
96.7328065005
 20
112.8854567384
 30
0.0
 10
96.7464557737
 20
112.7360581832
 30
0.0
 10
96.7602398755
 20
112.5541387228
 30
0.0
 10
96.7740696144
 20
112.3402009669
 30
0.0
 10
96.78794147
 20
112.0947087198
 30
0.0
 10
96.8018421049
 20
111.8182541886
 30
0.0
 10
96.8212784625
 20
111.3896944144
 30
0.0
 10
96.8451413881
 20
110.7820272276
 30
0.0
 10
96.8727763402
 20
109.9706260838
 30
0.0
 10
96.9004795618
 20
109.0553666892
 30
0.0
 10
96.9282352747
 20
108.0448461244
 30
0.0
 10
96.9560270597
 20
106.9485517568
 30
0.0
 10
96.9838438728
 20
105.77679327
 30
0.0
 10
97.02168546
 20
104.095909102
 30
0.0
 10
97.0682425821
 20
101.8933745857
 30
0.0
 10
97.1231884075
 20
99.1872701307
 30
0.0
 10
97.1781343157
 20
96.4708958366
 30
0.0
 10
97.2330200683
 20
93.8461075828
 30
0.0
 10
97.2798456399
 20
91.7611247023
 30
0.0
 10
97.3180158643
 20
90.2123327724
 30
0.0
 10
97.3457882608
 20
89.1661841068
 30
0.0
 10
97.3735177968
 20
88.2115877757
 30
0.0
 10
97.4011759263
 20
87.3575179046
 30
0.0
 10
97.42875001
 20
86.6119813204
 30
0.0
 10
97.452648916
 20
86.0618632123
 30
0.0
 10
97.4721992186
 20
85.6812141146
 30
0.0
 10
97.4860664182
 20
85.4418959262
 30
0.0
 10
97.4998854451
 20
85.2342248182
 30
0.0
 10
97.51365899
 20
85.0586948846
 30
0.0
 10
97.5272680985
 20
84.915656582
 30
0.0
 10
97.5408046266
 20
84.8055114231
 30
0.0
 10
97.5525779707
 20
84.7343087286
 30
0.0
 10
97.5628961022
 20
84.69426204
 30
0.0
 10
97.5681218796
 20
84.6797942893
 30
0.0
 10
97.5710398893
 20
84.6741840638
 30
0.0
  0
SPLINE
  5
51C
100
AcDbEntity
  8
0
100
AcDbSpline
 62
7
  6
CONTINUOUS
 70
0
 71
3
 72
45
 73
41
 74
0
 42
0.0000001
 43
0.0000001
 44
0.0000000001
 40
0.0
 40
0.0
 40
0.0
 40
0.0
 40
0.0002859501
 40
0.0007902974
 40
0.0026174608
 40
0.0055862524
 40
0.0097063561
 40
0.014972285
 40
0.021373092
 40
0.0288965537
 40
0.037525818
 40
0.0472395828
 40
0.0580161862
 40
0.0826564332
 40
0.1112149303
 40
0.1434248822
 40
0.1789857737
 40
0.2175619148
 40
0.2587923387
 40
0.3022897411
 40
0.3944359915
 40
0.4905510041
 40
0.587031082
 40
0.6802575764
 40
0.7667396292
 40
0.8064267856
 40
0.8432401387
 40
0.8768332912
 40
0.9068927544
 40
0.9331354008
 40
0.9553173596
 40
0.9648192692
 40
0.9732324231
 40
0.9805358672
 40
0.9867141082
 40
0.9917551946
 40
0.9956486141
 40
0.9983911593
 40
0.9993347405
 40
1.0
 40
1.0
 40
1.0
 40
1.0
 10
98.4894182682
 20
113.1633748277
 30
0.0
 10
98.4921364205
 20
113.1633748277
 30
0.0
 10
98.4986927106
 20
113.1577982699
 30
0.0
 10
98.5085622414
 20
113.1353678778
 30
0.0
 10
98.5205541003
 20
113.0857352806
 30
0.0
 10
98.5335343026
 20
113.0022718566
 30
0.0
 10
98.5470919916
 20
112.885458402
 30
0.0
 10
98.5607413604
 20
112.7360606623
 30
0.0
 10
98.5745257449
 20
112.5541420769
 30
0.0
 10
98.5883556411
 20
112.3402052145
 30
0.0
 10
98.6022274933
 20
112.0947139565
 30
0.0
 10
98.6161280389
 20
111.8182604161
 30
0.0
 10
98.6355642061
 20
111.3897018719
 30
0.0
 10
98.659427186
 20
110.7820358143
 30
0.0
 10
98.6870621064
 20
109.9706358794
 30
0.0
 10
98.7147653246
 20
109.0553768701
 30
0.0
 10
98.7425210243
 20
108.0448560096
 30
0.0
 10
98.7703128218
 20
106.9485607857
 30
0.0
 10
98.7981296306
 20
105.776801749
 30
0.0
 10
98.8359711731
 20
104.0959179158
 30
0.0
 10
98.882528236
 20
101.8933840498
 30
0.0
 10
98.937473985
 20
99.1872801033
 30
0.0
 10
98.9924198236
 20
96.4709054524
 30
0.0
 10
99.0473055071
 20
93.8461166575
 30
0.0
 10
99.0941309858
 20
91.7611337291
 30
0.0
 10
99.132301137
 20
90.2123422768
 30
0.0
 10
99.1600734343
 20
89.1661942318
 30
0.0
 10
99.1878029244
 20
88.2115977403
 30
0.0
 10
99.2154610218
 20
87.3575269602
 30
0.0
 10
99.2430349552
 20
86.6119889915
 30
0.0
 10
99.2669339949
 20
86.0618693946
 30
0.0
 10
99.2864843385
 20
85.6812190333
 30
0.0
 10
99.3003514899
 20
85.4418998574
 30
0.0
 10
99.31417032
 20
85.2342278553
 30
0.0
 10
99.3279436064
 20
85.0586970565
 30
0.0
 10
99.3415526787
 20
84.9156579381
 30
0.0
 10
99.3550898399
 20
84.8055121748
 30
0.0
 10
99.3668641737
 20
84.7343092259
 30
0.0
 10
99.3771826835
 20
84.6942623269
 30
0.0
 10
99.3824084157
 20
84.6797944694
 30
0.0
 10
99.3853263007
 20
84.6741841452
 30
0.0
  0
SPLINE
  5
51D
100
AcDbEntity
  8
0
100
AcDbSpline
 62
7
  6
CONTINUOUS
 70
0
 71
3
 72
9
 73
5
 74
0
 42
0.0000001
 43
0.0000001
 44
0.0000000001
 40
0.0
 40
0.0
 40
0.0
 40
0.0
 40
0.2406563426
 40
1.0
 40
1.0
 40
1.0
 40
1.0
 10
129.0144275829
 20
116.5907193717
 30
0.0
 10
129.0274056287
 20
116.5951957517
 30
0.0
 10
129.0792044089
 20
116.6199495614
 30
0.0
 10
129.1204025022
 20
116.663365167
 30
0.0
 10
129.1440021239
 20
116.6996891233
 30
0.0
  0
SPLINE
  5
51E
100
AcDbEntity
  8
0
100
AcDbSpline
 62
7
  6
CONTINUOUS
 70
0
 71
3
 72
11
 73
7
 74
0
 42
0.0000001
 43
0.0000001
 44
0.0000000001
 40
0.0
 40
0.0
 40
0.0
 40
0.0
 40
0.2101968527
 40
0.4550510065
 40
0.7237231929
 40
1.0
 40
1.0
 40
1.0
 40
1.0
 10
129.4823468656
 20
115.8579797098
 30
0.0
 10
129.4265816972
 20
115.8864075022
 30
0.0
 10
129.317816946
 20
115.9713876262
 30
0.0
 10
129.1848812077
 20
116.1427637428
 30
0.0
 10
129.0784253938
 20
116.3539289917
 30
0.0
 10
129.0311723846
 20
116.5101708837
 30
0.0
 10
129.0144275827
 20
116.5907193717
 30
0.0
  0
SPLINE
  5
51F
100
AcDbEntity
  8
0
100
AcDbSpline
 62
7
  6
CONTINUOUS
 70
0
 71
3
 72
9
 73
5
 74
0
 42
0.0000001
 43
0.0000001
 44
0.0000000001
 40
0.0
 40
0.0
 40
0.0
 40
0.0
 40
0.4997657744
 40
1.0
 40
1.0
 40
1.0
 40
1.0
 10
129.4823468656
 20
115.8579797015
 30
0.0
 10
129.6137052385
 20
115.8660663043
 30
0.0
 10
129.8755891027
 20
115.9316301717
 30
0.0
 10
130.0970236746
 20
116.0860880421
 30
0.0
 10
130.1894536468
 20
116.179947517
 30
0.0
  0
SPLINE
  5
520
100
AcDbEntity
  8
0
100
AcDbSpline
 62
7
  6
CONTINUOUS
 70
0
 71
3
 72
40
 73
36
 74
0
 42
0.0000001
 43
0.0000001
 44
0.0000000001
 40
0.0
 40
0.0
 40
0.0
 40
0.0
 40
0.000299225
 40
0.0008007642
 40
0.0025854005
 40
0.0054710676
 40
0.0094705784
 40
0.0145796924
 40
0.0207885301
 40
0.0280858844
 40
0.0364568567
 40
0.0458812177
 40
0.0563380928
 40
0.0802574054
 40
0.1079959905
 40
0.1393058351
 40
0.1739008283
 40
0.211468391
 40
0.2516672629
 40
0.2941318725
 40
0.3843006579
 40
0.478706013
 40
0.5739252805
 40
0.6665064356
 40
0.7530933746
 40
0.8305477885
 40
0.8649570323
 40
0.8960634883
 40
0.923582913
 40
0.9472693178
 40
0.9669059772
 40
0.9823204064
 40
0.9933775533
 40
0.9972455721
 40
1.0
 40
1.0
 40
1.0
 40
1.0
 10
94.9693364089
 20
85.8133781241
 30
0.0
 10
94.966725691
 20
85.8133813788
 30
0.0
 10
94.9604004986
 20
85.8180918503
 30
0.0
 10
94.9504580771
 20
85.8381707723
 30
0.0
 10
94.9387855892
 20
85.8822881417
 30
0.0
 10
94.925922899
 20
85.9566384041
 30
0.0
 10
94.9126228247
 20
86.0605580154
 30
0.0
 10
94.8991804736
 20
86.1934952119
 30
0.0
 10
94.8856251286
 20
86.3553651465
 30
0.0
 10
94.8720179286
 20
86.5457551297
 30
0.0
 10
94.8583741626
 20
86.7642654594
 30
0.0
 10
94.84470179
 20
87.0103857844
 30
0.0
 10
94.8255801882
 20
87.392065835
 30
0.0
 10
94.8021055228
 20
87.9335101291
 30
0.0
 10
94.7749184938
 20
88.6568901924
 30
0.0
 10
94.7476693487
 20
89.4734706547
 30
0.0
 10
94.7203639861
 20
90.375848961
 30
0.0
 10
94.6930261009
 20
91.3558149397
 30
0.0
 10
94.6656619254
 20
92.4044668344
 30
0.0
 10
94.6284057685
 20
93.9119577516
 30
0.0
 10
94.5825598501
 20
95.892327157
 30
0.0
 10
94.5284875619
 20
98.3329084511
 30
0.0
 10
94.4744022627
 20
100.7945423113
 30
0.0
 10
94.4203755912
 20
103.1879459156
 30
0.0
 10
94.3664726723
 20
105.4263134976
 30
0.0
 10
94.3201639466
 20
107.1571678858
 30
0.0
 10
94.2822511091
 20
108.4039988059
 30
0.0
 10
94.2549986281
 20
109.2152680723
 30
0.0
 10
94.2278322819
 20
109.9329285581
 30
0.0
 10
94.2007612875
 20
110.5504311318
 30
0.0
 10
94.1739825915
 20
111.0622366778
 30
0.0
 10
94.1473545531
 20
111.4636267234
 30
0.0
 10
94.1242328297
 20
111.7274357658
 30
0.0
 10
94.1040445677
 20
111.8803564837
 30
0.0
 10
94.0938461781
 20
111.9373101723
 30
0.0
 10
94.0881043722
 20
111.9606463875
 30
0.0
  0
SPLINE
  5
521
100
AcDbEntity
  8
0
100
AcDbSpline
 62
7
  6
CONTINUOUS
 70
0
 71
3
 72
9
 73
5
 74
0
 42
0.0000001
 43
0.0000001
 44
0.0000000001
 40
0.0
 40
0.0
 40
0.0
 40
0.0
 40
0.3107618736
 40
1.0
 40
1.0
 40
1.0
 40
1.0
 10
94.0881043722
 20
111.9606463875
 30
0.0
 10
94.087034102
 20
111.9649962484
 30
0.0
 10
94.0833528787
 20
111.9789081156
 30
0.0
 10
94.0790015454
 20
111.9928110045
 30
0.0
 10
94.0744125626
 20
112.0016229908
 30
0.0
  0
LINE
  5
522
100
AcDbEntity
  8
0
100
AcDbLine
 62
7
  6
CONTINUOUS
 10
129.1440021239
 20
116.6996891233
 11
129.248648058
 21
116.8607796475
  0
SPLINE
  5
523
100
AcDbEntity
  8
0
100
AcDbSpline
 62
7
  6
CONTINUOUS
 70
0
 71
3
 72
13
 73
9
 74
0
 42
0.0000001
 43
0.0000001
 44
0.0000000001
 40
0.0
 40
0.0
 40
0.0
 40
0.0
 40
0.0800398631
 40
0.1795793258
 40
0.2973164531
 40
0.4298705198
 40
0.7185352123
 40
1.0
 40
1.0
 40
1.0
 40
1.0
 10
130.1894536468
 20
116.179947517
 30
0.0
 10
130.1585087247
 20
116.1711346107
 30
0.0
 10
130.0852511675
 20
116.1654836861
 30
0.0
 10
129.9665524754
 20
116.182828005
 30
0.0
 10
129.8316744349
 20
116.2242766771
 30
0.0
 10
129.6331120824
 20
116.3118257036
 30
0.0
 10
129.3926065373
 20
116.4627882124
 30
0.0
 10
129.2198392112
 20
116.615719549
 30
0.0
 10
129.1440021239
 20
116.6996891233
 30
0.0
  0
LINE
  5
524
100
AcDbEntity
  8
0
100
AcDbLine
 62
7
  6
CONTINUOUS
 10
130.1894536468
 20
116.179947517
 11
130.3036672092
 21
116.3394067897
  0
SPLINE
  5
525
100
AcDbEntity
  8
0
100
AcDbSpline
 62
7
  6
CONTINUOUS
 70
0
 71
3
 72
9
 73
5
 74
0
 42
0.0000001
 43
0.0000001
 44
0.0000000001
 40
0.0
 40
0.0
 40
0.0
 40
0.0
 40
0.5354704096
 40
1.0
 40
1.0
 40
1.0
 40
1.0
 10
129.248648058
 20
116.8607796475
 30
0.0
 10
129.4003847478
 20
117.0943430464
 30
0.0
 10
129.7447431573
 20
117.4945023101
 30
0.0
 10
130.1912207508
 20
117.7798973295
 30
0.0
 10
130.4148189275
 20
117.8714742739
 30
0.0
  0
SPLINE
  5
526
100
AcDbEntity
  8
0
100
AcDbSpline
 62
7
  6
CONTINUOUS
 70
0
 71
3
 72
13
 73
9
 74
0
 42
0.0000001
 43
0.0000001
 44
0.0000000001
 40
0.0
 40
0.0
 40
0.0
 40
0.0
 40
0.0806172746
 40
0.1805039778
 40
0.2984520369
 40
0.4311073208
 40
0.7195369916
 40
1.0
 40
1.0
 40
1.0
 40
1.0
 10
130.3036672451
 20
116.3394067565
 30
0.0
 10
130.2723654184
 20
116.3298365124
 30
0.0
 10
130.1980594233
 20
116.3228221406
 30
0.0
 10
130.0774831375
 20
116.3390195018
 30
0.0
 10
129.9406695376
 20
116.379964163
 30
0.0
 10
129.7397281535
 20
116.4676394874
 30
0.0
 10
129.4972220515
 20
116.6200707757
 30
0.0
 10
129.3240086139
 20
116.7754103111
 30
0.0
 10
129.248648051
 20
116.8607796475
 30
0.0
  0
SPLINE
  5
527
100
AcDbEntity
  8
0
100
AcDbSpline
 62
7
  6
CONTINUOUS
 70
0
 71
3
 72
9
 73
5
 74
0
 42
0.0000001
 43
0.0000001
 44
0.0000000001
 40
0.0
 40
0.0
 40
0.0
 40
0.0
 40
0.5489256497
 40
1.0
 40
1.0
 40
1.0
 40
1.0
 10
130.3036672092
 20
116.3394067897
 30
0.0
 10
130.3984641137
 20
116.5076790367
 30
0.0
 10
130.6080095516
 20
116.7950747425
 30
0.0
 10
130.8775914772
 20
117.0268319127
 30
0.0
 10
131.0107739903
 20
117.1131502961
 30
0.0
  0
SPLINE
  5
528
100
AcDbEntity
  8
0
100
AcDbSpline
 62
7
  6
CONTINUOUS
 70
0
 71
3
 72
24
 73
20
 74
0
 42
0.0000001
 43
0.0000001
 44
0.0000000001
 40
0.0
 40
0.0
 40
0.0
 40
0.0
 40
0.2186904557
 40
0.4151584943
 40
0.5869329043
 40
0.6628433426
 40
0.7317236119
 40
0.7932964054
 40
0.847283771
 40
0.8934259159
 40
0.9315164734
 40
0.9613579419
 40
0.9731266441
 40
0.9827758093
 40
0.9902965852
 40
0.9956801159
 40
0.9975676458
 40
0.9989175418
 40
1.0
 40
1.0
 40
1.0
 40
1.0
 10
130.4148189275
 20
117.8714742739
 30
0.0
 10
130.5810231846
 20
117.9395456573
 30
0.0
 10
130.8950661998
 20
118.0724081095
 30
0.0
 10
131.3350618375
 20
118.2693400511
 30
0.0
 10
131.665403831
 20
118.4240750874
 30
0.0
 10
131.8996030536
 20
118.5369639424
 30
0.0
 10
132.0518145391
 20
118.6114995358
 30
0.0
 10
132.1874756359
 20
118.6788869695
 30
0.0
 10
132.3061210926
 20
118.7385491291
 30
0.0
 10
132.4073337605
 20
118.7899481823
 30
0.0
 10
132.490717636
 20
118.8326604955
 30
0.0
 10
132.5488807457
 20
118.8626814047
 30
0.0
 10
132.5862749801
 20
118.8820245568
 30
0.0
 10
132.6073550275
 20
118.8929864156
 30
0.0
 10
132.6238377995
 20
118.901473883
 30
0.0
 10
132.6345166362
 20
118.9071924441
 30
0.0
 10
132.6409247585
 20
118.9103188462
 30
0.0
 10
132.6438409554
 20
118.9122192536
 30
0.0
 10
132.646054537
 20
118.9126438158
 30
0.0
 10
132.646560428
 20
118.9133748277
 30
0.0
  0
SPLINE
  5
529
100
AcDbEntity
  8
0
100
AcDbSpline
 62
7
  6
CONTINUOUS
 70
0
 71
3
 72
12
 73
8
 74
0
 42
0.0000001
 43
0.0000001
 44
0.0000000001
 40
0.0
 40
0.0
 40
0.0
 40
0.0
 40
0.222847374
 40
0.4697685031
 40
0.6003248279
 40
0.7335612385
 40
1.0
 40
1.0
 40
1.0
 40
1.0
 10
131.0107739903
 20
117.1131502462
 30
0.0
 10
130.9382574021
 20
117.1327598506
 30
0.0
 10
130.7935242303
 20
117.2060816801
 30
0.0
 10
130.6478954985
 20
117.3502886167
 30
0.0
 10
130.5505958419
 20
117.4927944385
 30
0.0
 10
130.4688786742
 20
117.6521269348
 30
0.0
 10
130.4296142238
 20
117.7828855788
 30
0.0
 10
130.414818793
 20
117.8714742739
 30
0.0
  0
SPLINE
  5
52A
100
AcDbEntity
  8
0
100
AcDbSpline
 62
7
  6
CONTINUOUS
 70
0
 71
3
 72
21
 73
17
 74
0
 42
0.0000001
 43
0.0000001
 44
0.0000000001
 40
0.0
 40
0.0
 40
0.0
 40
0.0
 40
0.2180448438
 40
0.4142441942
 40
0.5860201002
 40
0.7309820573
 40
0.7926760709
 40
0.8467939783
 40
0.8930651547
 40
0.9312745714
 40
0.9612171407
 40
0.9827110412
 40
0.9902592642
 40
0.9956628908
 40
0.9989128331
 40
1.0
 40
1.0
 40
1.0
 40
1.0
 10
131.0107739903
 20
117.1131502961
 30
0.0
 10
131.190879219
 20
117.1780354919
 30
0.0
 10
131.5317744624
 20
117.3048633123
 30
0.0
 10
132.0105752553
 20
117.4932567869
 30
0.0
 10
132.4270020877
 20
117.6647550973
 30
0.0
 10
132.7325615374
 20
117.7952530958
 30
0.0
 10
132.9423747673
 20
117.8868906699
 30
0.0
 10
133.0725215166
 20
117.9444442305
 30
0.0
 10
133.1836332407
 20
117.9940565478
 30
0.0
 10
133.2752205157
 20
118.0353404997
 30
0.0
 10
133.3469080826
 20
118.0678190832
 30
0.0
 10
133.3939976663
 20
118.0893938066
 30
0.0
 10
133.421550578
 20
118.1018293348
 30
0.0
 10
133.4344052215
 20
118.1079768415
 30
0.0
 10
133.4423176194
 20
118.1111436762
 30
0.0
 10
133.4456334954
 20
118.1131470904
 30
0.0
 10
133.446560428
 20
118.1133748277
 30
0.0
  0
SPLINE
  5
52B
100
AcDbEntity
  8
0
100
AcDbSpline
 62
7
  6
CONTINUOUS
 70
0
 71
3
 72
9
 73
5
 74
0
 42
0.0000001
 43
0.0000001
 44
0.0000000001
 40
0.0
 40
0.0
 40
0.0
 40
0.0
 40
0.1975893101
 40
1.0
 40
1.0
 40
1.0
 40
1.0
 10
114.8222284785
 20
117.2245163341
 30
0.0
 10
114.8496895736
 20
117.2123897946
 30
0.0
 10
114.9877674125
 20
117.1489931597
 30
0.0
 10
115.1212065272
 20
117.0754903911
 30
0.0
 10
115.2249875527
 20
117.0115273225
 30
0.0
  0
SPLINE
  5
52C
100
AcDbEntity
  8
0
100
AcDbSpline
 62
7
  6
CONTINUOUS
 70
0
 71
3
 72
9
 73
5
 74
0
 42
0.0000001
 43
0.0000001
 44
0.0000000001
 40
0.0
 40
0.0
 40
0.0
 40
0.0
 40
0.219871236
 40
1.0
 40
1.0
 40
1.0
 40
1.0
 10
115.5875689131
 20
117.9511366493
 30
0.0
 10
115.6148886671
 20
117.9412586735
 30
0.0
 10
115.7385118498
 20
117.8946062277
 30
0.0
 10
115.8592547539
 20
117.8403387905
 30
0.0
 10
115.9514020344
 20
117.7941501331
 30
0.0
  0
SPLINE
  5
52D
100
AcDbEntity
  8
0
100
AcDbSpline
 62
7
  6
CONTINUOUS
 70
0
 71
3
 72
14
 73
10
 74
0
 42
0.0000001
 43
0.0000001
 44
0.0000000001
 40
0.0
 40
0.0
 40
0.0
 40
0.0
 40
0.1850872213
 40
0.3076646432
 40
0.4435681128
 40
0.5874344158
 40
0.7325942459
 40
0.8720504652
 40
1.0
 40
1.0
 40
1.0
 40
1.0
 10
115.9514020344
 20
117.7941501331
 30
0.0
 10
116.6965875152
 20
117.4205984142
 30
0.0
 10
117.9644426028
 20
116.85365546
 30
0.0
 10
119.8623384716
 20
116.2230323298
 30
0.0
 10
121.6343493412
 20
115.8256001314
 30
0.0
 10
123.5453871966
 20
115.6437714856
 30
0.0
 10
125.4795835772
 20
115.7308417186
 30
0.0
 10
127.312867091
 20
116.0603976322
 30
0.0
 10
128.4696680886
 20
116.4028559075
 30
0.0
 10
129.0144275829
 20
116.5907193717
 30
0.0
  0
SPLINE
  5
52E
100
AcDbEntity
  8
0
100
AcDbSpline
 62
7
  6
CONTINUOUS
 70
0
 71
3
 72
12
 73
8
 74
0
 42
0.0000001
 43
0.0000001
 44
0.0000000001
 40
0.0
 40
0.0
 40
0.0
 40
0.0
 40
0.239279322
 40
0.3633095761
 40
0.4894195349
 40
0.7448790395
 40
1.0
 40
1.0
 40
1.0
 40
1.0
 10
115.2249875527
 20
117.0115268895
 30
0.0
 10
115.3164517049
 20
117.020084348
 30
0.0
 10
115.4541095616
 20
117.0618329673
 30
0.0
 10
115.6132849506
 20
117.1628443099
 30
0.0
 10
115.7575773133
 20
117.2940582655
 30
0.0
 10
115.8939102201
 20
117.5025511165
 30
0.0
 10
115.9435333964
 20
117.6965212841
 30
0.0
 10
115.9514027461
 20
117.7941501331
 30
0.0
  0
SPLINE
  5
52F
100
AcDbEntity
  8
0
100
AcDbSpline
 62
7
  6
CONTINUOUS
 70
0
 71
3
 72
14
 73
10
 74
0
 42
0.0000001
 43
0.0000001
 44
0.0000000001
 40
0.0
 40
0.0
 40
0.0
 40
0.0
 40
0.1869317963
 40
0.3102230074
 40
0.4461024672
 40
0.589157551
 40
0.7332501159
 40
0.8720704115
 40
1.0
 40
1.0
 40
1.0
 40
1.0
 10
115.2249875527
 20
117.0115273225
 30
0.0
 10
116.0597268187
 20
116.6440474667
 30
0.0
 10
117.4721537059
 20
116.0914902094
 30
0.0
 10
119.5654234609
 20
115.4877968716
 30
0.0
 10
121.4957997398
 20
115.1156790759
 30
0.0
 10
123.5580000243
 20
114.950627249
 30
0.0
 10
125.6397043767
 20
115.0363246803
 30
0.0
 10
127.6234638998
 20
115.349517664
 30
0.0
 10
128.8849704224
 20
115.677054109
 30
0.0
 10
129.4823468656
 20
115.8579797015
 30
0.0
  0
SPLINE
  5
530
100
AcDbEntity
  8
0
100
AcDbSpline
 62
7
  6
CONTINUOUS
 70
0
 71
3
 72
10
 73
6
 74
0
 42
0.0000001
 43
0.0000001
 44
0.0000000001
 40
0.0
 40
0.0
 40
0.0
 40
0.0
 40
0.5537041564
 40
0.7938594794
 40
1.0
 40
1.0
 40
1.0
 40
1.0
 10
105.7418598896
 20
87.482500145
 30
0.0
 10
105.8254835049
 20
87.4761623594
 30
0.0
 10
105.9482696464
 20
87.4824994913
 30
0.0
 10
106.0927082032
 20
87.5302705074
 30
0.0
 10
106.1513563108
 20
87.5659347029
 30
0.0
 10
106.1748725915
 20
87.586472151
 30
0.0
  0
SPLINE
  5
531
100
AcDbEntity
  8
0
100
AcDbSpline
 62
7
  6
CONTINUOUS
 70
0
 71
3
 72
9
 73
5
 74
0
 42
0.0000001
 43
0.0000001
 44
0.0000000001
 40
0.0
 40
0.0
 40
0.0
 40
0.0
 40
0.5001832065
 40
1.0
 40
1.0
 40
1.0
 40
1.0
 10
106.1748725915
 20
87.586472151
 30
0.0
 10
106.3593408324
 20
88.4572745254
 30
0.0
 10
106.6505421887
 20
90.2160776296
 30
0.0
 10
106.752237607
 20
91.9970567876
 30
0.0
 10
106.7522228607
 20
92.8865312867
 30
0.0
  0
SPLINE
  5
532
100
AcDbEntity
  8
0
100
AcDbSpline
 62
7
  6
CONTINUOUS
 70
0
 71
3
 72
9
 73
5
 74
0
 42
0.0000001
 43
0.0000001
 44
0.0000000001
 40
0.0
 40
0.0
 40
0.0
 40
0.0
 40
0.4993257442
 40
1.0
 40
1.0
 40
1.0
 40
1.0
 10
106.7522228607
 20
92.8865312867
 30
0.0
 10
106.7522080995
 20
93.7769034104
 30
0.0
 10
106.6501792036
 20
95.5614056462
 30
0.0
 10
106.3591848746
 20
97.3238015805
 30
0.0
 10
106.1748725915
 20
98.197345658
 30
0.0
  0
SPLINE
  5
533
100
AcDbEntity
  8
0
100
AcDbSpline
 62
7
  6
CONTINUOUS
 70
0
 71
3
 72
10
 73
6
 74
0
 42
0.0000001
 43
0.0000001
 44
0.0000000001
 40
0.0
 40
0.0
 40
0.0
 40
0.0
 40
0.5704270541
 40
0.8101441383
 40
1.0
 40
1.0
 40
1.0
 40
1.0
 10
105.7418598896
 20
98.0986088689
 30
0.0
 10
105.8261503181
 20
98.1072296719
 30
0.0
 10
105.94554895
 20
98.1254574071
 30
0.0
 10
106.0892586674
 20
98.1632382906
 30
0.0
 10
106.1494301553
 20
98.1851814167
 30
0.0
 10
106.1748725915
 20
98.197345658
 30
0.0
  0
SPLINE
  5
534
100
AcDbEntity
  8
0
100
AcDbSpline
 62
7
  6
CONTINUOUS
 70
0
 71
3
 72
11
 73
7
 74
0
 42
0.0000001
 43
0.0000001
 44
0.0000000001
 40
0.0
 40
0.0
 40
0.0
 40
0.0
 40
0.250228891
 40
0.5000002866
 40
0.7497718909
 40
1.0
 40
1.0
 40
1.0
 40
1.0
 10
105.7243804631
 20
87.4831560575
 30
0.0
 10
105.9137213221
 20
88.3550308495
 30
0.0
 10
106.2137353944
 20
90.1158754172
 30
0.0
 10
106.3718994008
 20
92.7904437384
 30
0.0
 10
106.2137350955
 20
95.4650092733
 30
0.0
 10
105.9137209133
 20
97.2258517342
 30
0.0
 10
105.7243804631
 20
98.0977237622
 30
0.0
  0
SPLINE
  5
535
100
AcDbEntity
  8
0
100
AcDbSpline
 62
7
  6
CONTINUOUS
 70
0
 71
3
 72
9
 73
5
 74
0
 42
0.0000001
 43
0.0000001
 44
0.0000000001
 40
0.0
 40
0.0
 40
0.0
 40
0.0
 40
0.5032388304
 40
1.0
 40
1.0
 40
1.0
 40
1.0
 10
105.7418598896
 20
81.9329108637
 30
0.0
 10
105.8283294623
 20
81.9324865216
 30
0.0
 10
106.0035786091
 20
81.9773693267
 30
0.0
 10
106.1318427092
 20
82.1049682351
 30
0.0
 10
106.1748725915
 20
82.1786862374
 30
0.0
  0
SPLINE
  5
536
100
AcDbEntity
  8
0
100
AcDbSpline
 62
7
  6
CONTINUOUS
 70
0
 71
3
 72
10
 73
6
 74
0
 42
0.0000001
 43
0.0000001
 44
0.0000000001
 40
0.0
 40
0.0
 40
0.0
 40
0.0
 40
0.5114187398
 40
0.7571582858
 40
1.0
 40
1.0
 40
1.0
 40
1.0
 10
106.1748725915
 20
82.1786862374
 30
0.0
 10
106.3531039952
 20
82.5238247579
 30
0.0
 10
106.5737168215
 20
83.061408231
 30
0.0
 10
106.7267747946
 20
83.8071279559
 30
0.0
 10
106.7522657934
 20
84.1787559089
 30
0.0
 10
106.7522228607
 20
84.3632033344
 30
0.0
  0
SPLINE
  5
537
100
AcDbEntity
  8
0
100
AcDbSpline
 62
7
  6
CONTINUOUS
 70
0
 71
3
 72
10
 73
6
 74
0
 42
0.0000001
 43
0.0000001
 44
0.0000000001
 40
0.0
 40
0.0
 40
0.0
 40
0.0
 40
0.2408809945
 40
0.4862028824
 40
1.0
 40
1.0
 40
1.0
 40
1.0
 10
106.7522228607
 20
84.3632033344
 30
0.0
 10
106.7521798146
 20
84.5481379188
 30
0.0
 10
106.7263008537
 20
84.9219126604
 30
0.0
 10
106.5726377261
 20
85.67582714
 30
0.0
 10
106.3525580182
 20
86.2216754914
 30
0.0
 10
106.1748725915
 20
86.5738539483
 30
0.0
  0
SPLINE
  5
538
100
AcDbEntity
  8
0
100
AcDbSpline
 62
7
  6
CONTINUOUS
 70
0
 71
3
 72
9
 73
5
 74
0
 42
0.0000001
 43
0.0000001
 44
0.0000000001
 40
0.0
 40
0.0
 40
0.0
 40
0.0
 40
0.5135502195
 40
1.0
 40
1.0
 40
1.0
 40
1.0
 10
105.7418598896
 20
86.3302470767
 30
0.0
 10
105.8289651063
 20
86.3362442082
 30
0.0
 10
105.9979889781
 20
86.3856899797
 30
0.0
 10
106.1300258611
 20
86.5043650212
 30
0.0
 10
106.1748725915
 20
86.5738539483
 30
0.0
  0
SPLINE
  5
539
100
AcDbEntity
  8
0
100
AcDbSpline
 62
7
  6
CONTINUOUS
 70
0
 71
3
 72
13
 73
9
 74
0
 42
0.0000001
 43
0.0000001
 44
0.0000000001
 40
0.0
 40
0.0
 40
0.0
 40
0.0
 40
0.2566404675
 40
0.3792937672
 40
0.4999997389
 40
0.6207055837
 40
0.7433588176
 40
1.0
 40
1.0
 40
1.0
 40
1.0
 10
105.7243804631
 20
81.9329533565
 30
0.0
 10
105.9068755966
 20
82.28103835
 30
0.0
 10
106.1339120708
 20
82.8222358361
 30
0.0
 10
106.2926064283
 20
83.5732931796
 30
0.0
 10
106.3324049992
 20
84.1313008945
 30
0.0
 10
106.2926087414
 20
84.6893088799
 30
0.0
 10
106.1339111012
 20
85.4403663552
 30
0.0
 10
105.9068762304
 20
85.9815653612
 30
0.0
 10
105.7243804631
 20
86.3296512586
 30
0.0
  0
SPLINE
  5
53A
100
AcDbEntity
  8
0
100
AcDbSpline
 62
7
  6
CONTINUOUS
 70
0
 71
3
 72
9
 73
5
 74
0
 42
0.0000001
 43
0.0000001
 44
0.0000000001
 40
0.0
 40
0.0
 40
0.0
 40
0.0
 40
0.5135502324
 40
1.0
 40
1.0
 40
1.0
 40
1.0
 10
105.7418598896
 20
111.4965025783
 30
0.0
 10
105.828965106
 20
111.490505446
 30
0.0
 10
105.997988958
 20
111.4410596444
 30
0.0
 10
106.1300258635
 20
111.3223846395
 30
0.0
 10
106.1748725915
 20
111.2528957163
 30
0.0
  0
SPLINE
  5
53B
100
AcDbEntity
  8
0
100
AcDbSpline
 62
7
  6
CONTINUOUS
 70
0
 71
3
 72
10
 73
6
 74
0
 42
0.0000001
 43
0.0000001
 44
0.0000000001
 40
0.0
 40
0.0
 40
0.0
 40
0.0
 40
0.5137982646
 40
0.7591185751
 40
1.0
 40
1.0
 40
1.0
 40
1.0
 10
106.1748725915
 20
111.2528957163
 30
0.0
 10
106.352620399
 20
111.6051979325
 30
0.0
 10
106.5727623925
 20
112.1512476296
 30
0.0
 10
106.726393436
 20
112.9054444609
 30
0.0
 10
106.7522167181
 20
113.279354435
 30
0.0
 10
106.7522228607
 20
113.4643539172
 30
0.0
  0
SPLINE
  5
53C
100
AcDbEntity
  8
0
100
AcDbSpline
 62
7
  6
CONTINUOUS
 70
0
 71
3
 72
10
 73
6
 74
0
 42
0.0000001
 43
0.0000001
 44
0.0000000001
 40
0.0
 40
0.0
 40
0.0
 40
0.0
 40
0.2428400925
 40
0.4885809668
 40
1.0
 40
1.0
 40
1.0
 40
1.0
 10
106.7522228607
 20
113.4643539172
 30
0.0
 10
106.7522289827
 20
113.6487350352
 30
0.0
 10
106.7266824575
 20
114.0202260912
 30
0.0
 10
106.5735915218
 20
114.7656631595
 30
0.0
 10
106.353041231
 20
115.3030464911
 30
0.0
 10
106.1748725915
 20
115.6480634184
 30
0.0
  0
SPLINE
  5
53D
100
AcDbEntity
  8
0
100
AcDbSpline
 62
7
  6
CONTINUOUS
 70
0
 71
3
 72
9
 73
5
 74
0
 42
0.0000001
 43
0.0000001
 44
0.0000000001
 40
0.0
 40
0.0
 40
0.0
 40
0.0
 40
0.5032388391
 40
1.0
 40
1.0
 40
1.0
 40
1.0
 10
105.7418598896
 20
115.8938387917
 30
0.0
 10
105.8283294637
 20
115.8942631338
 30
0.0
 10
106.0035786097
 20
115.849380326
 30
0.0
 10
106.1318427096
 20
115.7217814191
 30
0.0
 10
106.1748725915
 20
115.6480634184
 30
0.0
  0
SPLINE
  5
53E
100
AcDbEntity
  8
0
100
AcDbSpline
 62
7
  6
CONTINUOUS
 70
0
 71
3
 72
13
 73
9
 74
0
 42
0.0000001
 43
0.0000001
 44
0.0000000001
 40
0.0
 40
0.0
 40
0.0
 40
0.0
 40
0.256641183
 40
0.3792944165
 40
0.5000002613
 40
0.620706233
 40
0.7433595328
 40
1.0
 40
1.0
 40
1.0
 40
1.0
 10
105.7243804631
 20
111.4970983969
 30
0.0
 10
105.9068761527
 20
111.8451843361
 30
0.0
 10
106.1339111373
 20
112.3863832868
 30
0.0
 10
106.292608732
 20
113.1374407789
 30
0.0
 10
106.332405
 20
113.6954487598
 30
0.0
 10
106.2926064342
 20
114.253456478
 30
0.0
 10
106.1339120483
 20
115.0045138108
 30
0.0
 10
105.9068756452
 20
115.5457113314
 30
0.0
 10
105.7243804631
 20
115.8937962989
 30
0.0
  0
SPLINE
  5
53F
100
AcDbEntity
  8
0
100
AcDbSpline
 62
7
  6
CONTINUOUS
 70
0
 71
3
 72
10
 73
6
 74
0
 42
0.0000001
 43
0.0000001
 44
0.0000000001
 40
0.0
 40
0.0
 40
0.0
 40
0.0
 40
0.5704270607
 40
0.8101441478
 40
1.0
 40
1.0
 40
1.0
 40
1.0
 10
105.7418598896
 20
99.7281407862
 30
0.0
 10
105.8261503178
 20
99.7195199826
 30
0.0
 10
105.9455489496
 20
99.7012922366
 30
0.0
 10
106.0892586584
 20
99.6635113394
 30
0.0
 10
106.1494301567
 20
99.6415682452
 30
0.0
 10
106.1748725915
 20
99.629404005
 30
0.0
  0
SPLINE
  5
540
100
AcDbEntity
  8
0
100
AcDbSpline
 62
7
  6
CONTINUOUS
 70
0
 71
3
 72
9
 73
5
 74
0
 42
0.0000001
 43
0.0000001
 44
0.0000000001
 40
0.0
 40
0.0
 40
0.0
 40
0.0
 40
0.5006743431
 40
1.0
 40
1.0
 40
1.0
 40
1.0
 10
106.1748725915
 20
99.629404005
 30
0.0
 10
106.3592238009
 20
100.5031327232
 30
0.0
 10
106.650263152
 20
102.2659050391
 30
0.0
 10
106.7522508237
 20
104.0507897441
 30
0.0
 10
106.7522228607
 20
104.9413497474
 30
0.0
  0
SPLINE
  5
541
100
AcDbEntity
  8
0
100
AcDbSpline
 62
7
  6
CONTINUOUS
 70
0
 71
3
 72
9
 73
5
 74
0
 42
0.0000001
 43
0.0000001
 44
0.0000000001
 40
0.0
 40
0.0
 40
0.0
 40
0.0
 40
0.4998167421
 40
1.0
 40
1.0
 40
1.0
 40
1.0
 10
106.7522228607
 20
104.9413497474
 30
0.0
 10
106.7521949377
 20
105.830635936
 30
0.0
 10
106.6504581638
 20
107.611232627
 30
0.0
 10
106.3593018683
 20
109.3696593289
 30
0.0
 10
106.1748725915
 20
110.2402775144
 30
0.0
  0
SPLINE
  5
542
100
AcDbEntity
  8
0
100
AcDbSpline
 62
7
  6
CONTINUOUS
 70
0
 71
3
 72
10
 73
6
 74
0
 42
0.0000001
 43
0.0000001
 44
0.0000000001
 40
0.0
 40
0.0
 40
0.0
 40
0.0
 40
0.5537041918
 40
0.7938595215
 40
1.0
 40
1.0
 40
1.0
 40
1.0
 10
105.7418598896
 20
110.34424951
 30
0.0
 10
105.8254835074
 20
110.3505872949
 30
0.0
 10
105.9482696536
 20
110.3442501423
 30
0.0
 10
106.0927081951
 20
110.2964791177
 30
0.0
 10
106.1513563159
 20
110.260814957
 30
0.0
 10
106.1748725915
 20
110.2402775144
 30
0.0
  0
SPLINE
  5
543
100
AcDbEntity
  8
0
100
AcDbSpline
 62
7
  6
CONTINUOUS
 70
0
 71
3
 72
11
 73
7
 74
0
 42
0.0000001
 43
0.0000001
 44
0.0000000001
 40
0.0
 40
0.0
 40
0.0
 40
0.0
 40
0.2502281091
 40
0.4999997134
 40
0.749771109
 40
1.0
 40
1.0
 40
1.0
 40
1.0
 10
105.7243804631
 20
99.7290258932
 30
0.0
 10
105.9137208563
 20
100.6008979337
 30
0.0
 10
106.2137351264
 20
102.3617403744
 30
0.0
 10
106.3718994084
 20
105.0363059214
 30
0.0
 10
106.2137353331
 20
107.7108742253
 30
0.0
 10
105.9137214244
 20
109.4717188281
 30
0.0
 10
105.7243804631
 20
110.3435935979
 30
0.0
  0
SPLINE
  5
544
100
AcDbEntity
  8
0
100
AcDbSpline
 62
7
  6
CONTINUOUS
 70
0
 71
3
 72
9
 73
5
 74
0
 42
0.0000001
 43
0.0000001
 44
0.0000000001
 40
0.0
 40
0.0
 40
0.0
 40
0.0
 40
0.185399713
 40
1.0
 40
1.0
 40
1.0
 40
1.0
 10
95.1571171503
 20
85.8251248231
 30
0.0
 10
95.1556757783
 20
85.8278929636
 30
0.0
 10
95.148959198
 20
85.843364459
 30
0.0
 10
95.1448335635
 20
85.8597914982
 30
0.0
 10
95.1417458809
 20
85.8731519034
 30
0.0
  0
SPLINE
  5
545
100
AcDbEntity
  8
0
100
AcDbSpline
 62
7
  6
CONTINUOUS
 70
0
 71
3
 72
39
 73
35
 74
0
 42
0.0000001
 43
0.0000001
 44
0.0000000001
 40
0.0
 40
0.0
 40
0.0
 40
0.0
 40
0.0028840997
 40
0.0068781172
 40
0.0181729136
 40
0.0338032419
 40
0.0536323156
 40
0.0774864076
 40
0.1051480616
 40
0.1363709488
 40
0.1708707565
 40
0.2484306757
 40
0.3350284277
 40
0.4275372025
 40
0.5226162413
 40
0.6168316974
 40
0.7067807924
 40
0.7491306878
 40
0.7892151173
 40
0.8266706447
 40
0.8611586822
 40
0.8923684434
 40
0.9200161257
 40
0.943855337
 40
0.9636686571
 40
0.9720107932
 40
0.9792830529
 40
0.9854702358
 40
0.9905614438
 40
0.994547163
 40
0.997422896
 40
0.9992013937
 40
0.999701383
 40
1.0
 40
1.0
 40
1.0
 40
1.0
 10
95.1417458809
 20
85.8731519034
 30
0.0
 10
95.1360813149
 20
85.8976624853
 30
0.0
 10
95.1259110491
 20
85.9568565018
 30
0.0
 10
95.1058117748
 20
86.1140897501
 30
0.0
 10
95.0826805052
 20
86.3828856353
 30
0.0
 10
95.0560886211
 20
86.7898181723
 30
0.0
 10
95.029336346
 20
87.3065112098
 30
0.0
 10
95.0023099191
 20
87.9282310317
 30
0.0
 10
94.9751882863
 20
88.6494153728
 30
0.0
 10
94.9479840637
 20
89.4635093694
 30
0.0
 10
94.9101563552
 20
90.712724461
 30
0.0
 10
94.8639402602
 20
92.4449070548
 30
0.0
 10
94.8101320801
 20
94.6830404277
 30
0.0
 10
94.7562026712
 20
97.0740228877
 30
0.0
 10
94.7022164805
 20
99.5314656146
 30
0.0
 10
94.6482441456
 20
101.9665763947
 30
0.0
 10
94.6024799728
 20
103.9418248742
 30
0.0
 10
94.565290906
 20
105.4449837268
 30
0.0
 10
94.537978912
 20
106.4903695175
 30
0.0
 10
94.5106923532
 20
107.4671559765
 30
0.0
 10
94.4834401813
 20
108.3665016152
 30
0.0
 10
94.4562389777
 20
109.1802569175
 30
0.0
 10
94.429114858
 20
109.9010734337
 30
0.0
 10
94.4020965462
 20
110.5224080865
 30
0.0
 10
94.3786092972
 20
110.975333812
 30
0.0
 10
94.3593276547
 20
111.2837557971
 30
0.0
 10
94.3457450561
 20
111.4734336836
 30
0.0
 10
94.3322158643
 20
111.6346946611
 30
0.0
 10
94.3187981277
 20
111.7671297123
 30
0.0
 10
94.3055245144
 20
111.8706566561
 30
0.0
 10
94.2926848892
 20
111.9447270899
 30
0.0
 10
94.2810368267
 20
111.9886755896
 30
0.0
 10
94.2711079627
 20
112.0086780817
 30
0.0
 10
94.2647980171
 20
112.0133653312
 30
0.0
 10
94.2621933263
 20
112.0133692236
 30
0.0
  0
SPLINE
  5
546
100
AcDbEntity
  8
0
100
AcDbSpline
 62
7
  6
CONTINUOUS
 70
0
 71
3
 72
9
 73
5
 74
0
 42
0.0000001
 43
0.0000001
 44
0.0000000001
 40
0.0
 40
0.0
 40
0.0
 40
0.0
 40
0.39678409
 40
1.0
 40
1.0
 40
1.0
 40
1.0
 10
98.7856891211
 20
85.8251344635
 30
0.0
 10
98.7812545082
 20
85.8336616562
 30
0.0
 10
98.7738220376
 20
85.8569349593
 30
0.0
 10
98.768534716
 20
85.8805275041
 30
0.0
 10
98.7656955244
 20
85.8948608452
 30
0.0
  0
SPLINE
  5
547
100
AcDbEntity
  8
0
100
AcDbSpline
 62
7
  6
CONTINUOUS
 70
0
 71
3
 72
39
 73
35
 74
0
 42
0.0000001
 43
0.0000001
 44
0.0000000001
 40
0.0
 40
0.0
 40
0.0
 40
0.0
 40
0.0032400453
 40
0.0075791622
 40
0.0195240282
 40
0.0357443775
 40
0.0560988923
 40
0.0804105464
 40
0.1084599897
 40
0.140000017
 40
0.174746219
 40
0.2525922767
 40
0.3392177244
 40
0.4315274215
 40
0.5262226588
 40
0.6199192599
 40
0.7092686743
 40
0.751305645
 40
0.7910779152
 40
0.8282279416
 40
0.8624244031
 40
0.8933612768
 40
0.9207612938
 40
0.9443820413
 40
0.964010674
 40
0.9722741233
 40
0.9794780199
 40
0.9856063186
 40
0.9906486956
 40
0.994596648
 40
0.9974455193
 40
0.9992073449
 40
0.9997030776
 40
1.0
 40
1.0
 40
1.0
 40
1.0
 10
98.7656955244
 20
85.8948608452
 30
0.0
 10
98.7602087787
 20
85.9225600666
 30
0.0
 10
98.7501238419
 20
85.987883259
 30
0.0
 10
98.7302482647
 20
86.1568786436
 30
0.0
 10
98.7071271316
 20
86.4392842905
 30
0.0
 10
98.680631147
 20
86.8613036161
 30
0.0
 10
98.653958968
 20
87.3912829497
 30
0.0
 10
98.6270550115
 20
88.0244388001
 30
0.0
 10
98.6000585143
 20
88.7551529093
 30
0.0
 10
98.5729875526
 20
89.5768557982
 30
0.0
 10
98.5353938041
 20
90.8324258961
 30
0.0
 10
98.4894332895
 20
92.5680293757
 30
0.0
 10
98.4358868394
 20
94.805270477
 30
0.0
 10
98.3822259417
 20
97.1893907958
 30
0.0
 10
98.3285131634
 20
99.6351507065
 30
0.0
 10
98.2748165309
 20
102.0551055078
 30
0.0
 10
98.229277794
 20
104.0162047506
 30
0.0
 10
98.1922739347
 20
105.5074155817
 30
0.0
 10
98.1651054605
 20
106.5438051663
 30
0.0
 10
98.1379612945
 20
107.5118395053
 30
0.0
 10
98.1108527395
 20
108.4028408812
 30
0.0
 10
98.0837933543
 20
109.2088283813
 30
0.0
 10
98.0568121806
 20
109.9225930306
 30
0.0
 10
98.0299350219
 20
110.5377286478
 30
0.0
 10
98.006571109
 20
110.9860708028
 30
0.0
 10
97.9873888854
 20
111.2913396287
 30
0.0
 10
97.9738790024
 20
111.4790618063
 30
0.0
 10
97.9604210248
 20
111.6386508526
 30
0.0
 10
97.9470719017
 20
111.7697057864
 30
0.0
 10
97.9338693481
 20
111.8721536378
 30
0.0
 10
97.9210949366
 20
111.945456345
 30
0.0
 10
97.9095137217
 20
111.9889428026
 30
0.0
 10
97.8996228879
 20
112.0087353448
 30
0.0
 10
97.8933538974
 20
112.0133572043
 30
0.0
 10
97.8907661849
 20
112.0133616298
 30
0.0
  0
SPLINE
  5
548
100
AcDbEntity
  8
0
100
AcDbSpline
 62
7
  6
CONTINUOUS
 70
0
 71
3
 72
10
 73
6
 74
0
 42
0.0000001
 43
0.0000001
 44
0.0000000001
 40
0.0
 40
0.0
 40
0.0
 40
0.0
 40
0.2418603967
 40
0.4874026362
 40
1.0
 40
1.0
 40
1.0
 40
1.0
 10
99.896560428
 20
113.695447348
 30
0.0
 10
99.896560428
 20
113.5106961824
 30
0.0
 10
99.9222795087
 20
113.137867546
 30
0.0
 10
100.0757461941
 20
112.3878318789
 30
0.0
 10
100.2960673744
 20
111.8459412287
 30
0.0
 10
100.4739106972
 20
111.4970983969
 30
0.0
  0
SPLINE
  5
549
100
AcDbEntity
  8
0
100
AcDbSpline
 62
7
  6
CONTINUOUS
 70
0
 71
3
 72
10
 73
6
 74
0
 42
0.0000001
 43
0.0000001
 44
0.0000000001
 40
0.0
 40
0.0
 40
0.0
 40
0.0
 40
0.5125973691
 40
0.7581396067
 40
1.0
 40
1.0
 40
1.0
 40
1.0
 10
100.4739106972
 20
115.8937962989
 30
0.0
 10
100.2960673726
 20
115.5449534635
 30
0.0
 10
100.0757462068
 20
115.0030628069
 30
0.0
 10
99.9222794943
 20
114.2530271448
 30
0.0
 10
99.896560428
 20
113.880198511
 30
0.0
 10
99.896560428
 20
113.695447348
 30
0.0
  0
SPLINE
  5
54A
100
AcDbEntity
  8
0
100
AcDbSpline
 62
7
  6
CONTINUOUS
 70
0
 71
3
 72
9
 73
5
 74
0
 42
0.0000001
 43
0.0000001
 44
0.0000000001
 40
0.0
 40
0.0
 40
0.0
 40
0.0
 40
0.4995723899
 40
1.0
 40
1.0
 40
1.0
 40
1.0
 10
99.896560428
 20
105.0363097458
 30
0.0
 10
99.896560428
 20
104.1460804993
 30
0.0
 10
99.9985611697
 20
102.3627350349
 30
0.0
 10
100.2896624916
 20
100.6015374571
 30
0.0
 10
100.4739106972
 20
99.7290258932
 30
0.0
  0
SPLINE
  5
54B
100
AcDbEntity
  8
0
100
AcDbSpline
 62
7
  6
CONTINUOUS
 70
0
 71
3
 72
9
 73
5
 74
0
 42
0.0000001
 43
0.0000001
 44
0.0000000001
 40
0.0
 40
0.0
 40
0.0
 40
0.0
 40
0.5004276161
 40
1.0
 40
1.0
 40
1.0
 40
1.0
 10
100.4739106972
 20
110.3435935979
 30
0.0
 10
100.2896624894
 20
109.4710820239
 30
0.0
 10
99.9985611762
 20
107.7098844451
 30
0.0
 10
99.896560428
 20
105.9265389816
 30
0.0
 10
99.896560428
 20
105.0363097458
 30
0.0
  0
SPLINE
  5
54C
100
AcDbEntity
  8
0
100
AcDbSpline
 62
7
  6
CONTINUOUS
 70
0
 71
3
 72
9
 73
5
 74
0
 42
0.0000001
 43
0.0000001
 44
0.0000000001
 40
0.0
 40
0.0
 40
0.0
 40
0.0
 40
0.4995723899
 40
1.0
 40
1.0
 40
1.0
 40
1.0
 10
99.896560428
 20
92.7904399102
 30
0.0
 10
99.896560428
 20
91.9002106637
 30
0.0
 10
99.9985611697
 20
90.1168651992
 30
0.0
 10
100.2896624916
 20
88.3556676214
 30
0.0
 10
100.4739106972
 20
87.4831560575
 30
0.0
  0
SPLINE
  5
54D
100
AcDbEntity
  8
0
100
AcDbSpline
 62
7
  6
CONTINUOUS
 70
0
 71
3
 72
9
 73
5
 74
0
 42
0.0000001
 43
0.0000001
 44
0.0000000001
 40
0.0
 40
0.0
 40
0.0
 40
0.0
 40
0.5004276161
 40
1.0
 40
1.0
 40
1.0
 40
1.0
 10
100.4739106972
 20
98.0977237622
 30
0.0
 10
100.2896624894
 20
97.2252121882
 30
0.0
 10
99.9985611762
 20
95.4640146094
 30
0.0
 10
99.896560428
 20
93.6806691459
 30
0.0
 10
99.896560428
 20
92.7904399102
 30
0.0
  0
SPLINE
  5
54E
100
AcDbEntity
  8
0
100
AcDbSpline
 62
7
  6
CONTINUOUS
 70
0
 71
3
 72
10
 73
6
 74
0
 42
0.0000001
 43
0.0000001
 44
0.0000000001
 40
0.0
 40
0.0
 40
0.0
 40
0.0
 40
0.2418603967
 40
0.4874026362
 40
1.0
 40
1.0
 40
1.0
 40
1.0
 10
99.896560428
 20
84.1313023077
 30
0.0
 10
99.896560428
 20
83.946551142
 30
0.0
 10
99.9222795087
 20
83.5737225057
 30
0.0
 10
100.0757461941
 20
82.8236868385
 30
0.0
 10
100.2960673744
 20
82.2817961883
 30
0.0
 10
100.4739106972
 20
81.9329533565
 30
0.0
  0
SPLINE
  5
54F
100
AcDbEntity
  8
0
100
AcDbSpline
 62
7
  6
CONTINUOUS
 70
0
 71
3
 72
10
 73
6
 74
0
 42
0.0000001
 43
0.0000001
 44
0.0000000001
 40
0.0
 40
0.0
 40
0.0
 40
0.0
 40
0.5125973691
 40
0.7581396067
 40
1.0
 40
1.0
 40
1.0
 40
1.0
 10
100.4739106972
 20
86.3296512586
 30
0.0
 10
100.2960673726
 20
85.9808084232
 30
0.0
 10
100.0757462068
 20
85.4389177666
 30
0.0
 10
99.9222794943
 20
84.6888821044
 30
0.0
 10
99.896560428
 20
84.3160534706
 30
0.0
 10
99.896560428
 20
84.1313023077
 30
0.0
  0
SPLINE
  5
550
100
AcDbEntity
  8
0
100
AcDbSpline
 62
7
  6
CONTINUOUS
 70
0
 71
3
 72
43
 73
39
 74
0
 42
0.0000001
 43
0.0000001
 44
0.0000000001
 40
0.0
 40
0.0
 40
0.0
 40
0.0
 40
0.0003028181
 40
0.0008131999
 40
0.0026357121
 40
0.0055859138
 40
0.0096725664
 40
0.0148927338
 40
0.0212388922
 40
0.0286962028
 40
0.0372475332
 40
0.0468752566
 40
0.0575574681
 40
0.0819803645
 40
0.1102939173
 40
0.1422328121
 40
0.1775028726
 40
0.2157753793
 40
0.2566947578
 40
0.2998814928
 40
0.3914312182
 40
0.487027773
 40
0.5831237915
 40
0.6761530995
 40
0.7626635173
 40
0.8024587005
 40
0.8394457281
 40
0.8732826623
 40
0.9036527919
 40
0.9302773402
 40
0.9529073718
 40
0.9713361632
 40
0.9789206542
 40
0.9853964722
 40
0.9907483147
 40
0.9949662345
 40
0.9980476983
 40
1.0
 40
1.0
 40
1.0
 40
1.0
 10
96.78362322
 20
85.8134013093
 30
0.0
 10
96.7809775899
 20
85.81340019
 30
0.0
 10
96.7745587942
 20
85.8182297213
 30
0.0
 10
96.7645174342
 20
85.8387645578
 30
0.0
 10
96.7527040425
 20
85.8839303696
 30
0.0
 10
96.7397065522
 20
85.9600316859
 30
0.0
 10
96.7262410043
 20
86.0663901096
 30
0.0
 10
96.7126395426
 20
86.202437074
 30
0.0
 10
96.6989291273
 20
86.3680940821
 30
0.0
 10
96.6851628574
 20
86.5629139585
 30
0.0
 10
96.6713551931
 20
86.7864689117
 30
0.0
 10
96.6575228652
 20
87.0382424018
 30
0.0
 10
96.6381824885
 20
87.428582453
 30
0.0
 10
96.6144282861
 20
87.9821480659
 30
0.0
 10
96.5869283296
 20
88.7214220333
 30
0.0
 10
96.5593560962
 20
89.5555196362
 30
0.0
 10
96.531732935
 20
90.4766662703
 30
0.0
 10
96.5040743747
 20
91.4763038682
 30
0.0
 10
96.4763894024
 20
92.5451308628
 30
0.0
 10
96.4387196833
 20
94.0793208709
 30
0.0
 10
96.392370429
 20
96.0911379458
 30
0.0
 10
96.3376808724
 20
98.5651359777
 30
0.0
 10
96.2829881938
 20
101.0520638724
 30
0.0
 10
96.228351233
 20
103.459590537
 30
0.0
 10
96.181761602
 20
105.3752890313
 30
0.0
 10
96.1438006837
 20
106.801423035
 30
0.0
 10
96.1161532711
 20
107.767474366
 30
0.0
 10
96.0885529491
 20
108.6511471238
 30
0.0
 10
96.0610053706
 20
109.4442389502
 30
0.0
 10
96.0335652936
 20
110.1393593605
 30
0.0
 10
96.006239848
 20
110.7300597867
 30
0.0
 10
95.9824359219
 20
111.1543924873
 30
0.0
 10
95.9627646509
 20
111.4375576732
 30
0.0
 10
95.9490592587
 20
111.6066160037
 30
0.0
 10
95.9354005325
 20
111.7461163599
 30
0.0
 10
95.9220287275
 20
111.8559197911
 30
0.0
 10
95.9086851764
 20
111.9355267853
 30
0.0
 10
95.8984912024
 20
111.9786094987
 30
0.0
 10
95.8920259669
 20
111.9943933746
 30
0.0
  0
LINE
  5
551
100
AcDbEntity
  8
0
100
AcDbLine
 62
7
  6
CONTINUOUS
 10
95.8920259669
 20
111.9943933746
 11
95.8886990918
 21
112.0016452739
  0
SPLINE
  5
552
100
AcDbEntity
  8
0
100
AcDbSpline
 62
7
  6
CONTINUOUS
 70
0
 71
3
 72
9
 73
5
 74
0
 42
0.0000001
 43
0.0000001
 44
0.0000000001
 40
0.0
 40
0.0
 40
0.0
 40
0.0
 40
0.2373325247
 40
1.0
 40
1.0
 40
1.0
 40
1.0
 10
136.9803009072
 20
133.3752639822
 30
0.0
 10
136.9730255201
 20
133.3388696283
 30
0.0
 10
136.9454478588
 20
133.1849310699
 30
0.0
 10
136.9228910093
 20
133.0300419395
 30
0.0
 10
136.898123569
 20
132.9133748277
 30
0.0
  0
ELLIPSE
  5
553
100
AcDbEntity
  8
0
100
AcDbEllipse
 62
7
  6
CONTINUOUS
 10
137.3207643754
 20
132.9133748277
 30
0.0
 11
-0.0
 21
1.0
 31
0.0
 40
0.383864035
 41
0.0
 42
1.0906723322
  0
ELLIPSE
  5
554
100
AcDbEntity
  8
0
100
AcDbEllipse
 62
7
  6
CONTINUOUS
 10
135.8657553467
 20
132.950642609
 30
0.0
 11
0.5486916773
 21
1.2874646535
 31
0.0
 40
0.7145358838
 41
-1.5707963268
 42
-1.3028918007
  0
ELLIPSE
  5
555
100
AcDbEntity
  8
0
100
AcDbEllipse
 62
7
  6
CONTINUOUS
 10
134.7141632416
 20
130.2485164573
 30
0.0
 11
-0.5486916773
 21
-1.2874646535
 31
0.0
 40
0.7145358838
 41
1.5707963268
 42
2.1085963504
  0
ELLIPSE
  5
556
100
AcDbEntity
  8
0
100
AcDbEllipse
 62
7
  6
CONTINUOUS
 10
122.8301607355
 20
132.204149451
 30
0.0
 11
-1.2104221425
 21
1.2980188316
 31
0.0
 40
0.563438437
 41
0.5435120867
 42
1.5707963268
  0
ELLIPSE
  5
557
100
AcDbEntity
  8
0
100
AcDbEllipse
 62
7
  6
CONTINUOUS
 10
118.4159471732
 20
133.9133748277
 30
0.0
 11
3.0
 21
-0.0
 31
0.0
 40
1.0
 41
-0.0
 42
1.5707963268
  0
ELLIPSE
  5
558
100
AcDbEntity
  8
0
100
AcDbEllipse
 62
7
  6
CONTINUOUS
 10
136.9369003404
 20
133.9133748277
 30
0.0
 11
0.0
 21
3.0
 31
0.0
 40
0.383864035
 41
0.0
 42
1.5707963268
  0
ENDSEC
  0
SECTION
  2
OBJECTS
  0
DICTIONARY
  5
559
100
AcDbDictionary
  3
ACAD_GROUP
350
55A
  3
ACAD_MLINESTYLE
350
55B
  0
DICTIONARY
  5
55A
102
{ACAD_REACTORS
330
559
102
}
100
AcDbDictionary
  0
DICTIONARY
  5
55B
102
{ACAD_REACTORS
330
559
102
}
100
AcDbDictionary
  3
STANDARD
350
55C
  0
MLINESTYLE
  5
55C
102
{ACAD_REACTORS
330
55B
102
}
100
AcDbMlineStyle
  2
STANDARD
 70
0
  3

 62
256
 51
90.0
 52
90.0
 71
2
 49
0.5
 62
256
  6
BYLAYER
 49
-0.5
 62
256
  6
BYLAYER
  0
ENDSEC
  0
EOF
