999
DXF file: C:\Users\64ciro\Desktop\FILE 3D-2D\ARMATEC\h340ll050_3077.dxf
999
Pro/ENGINEER 2017260 by Parametric Technology Corporation
  0
SECTION
  2
HEADER
  9
$ACADVER
  1
AC1014
  9
$DWGCODEPAGE
  3
ANSI_1252
  9
$EXTMAX
 10
297.0
 20
210.0
 30
0.0
  9
$EXTMIN
 10
0.0
 20
0.0
 30
0.0
  9
$LIMMIN
 10
0.0
 20
0.0
  9
$LIMMAX
 10
297.0
 20
210.0
  9
$VIEWCTR
 10
148.5
 20
105.0
  9
$VIEWSIZE
 40
210.0
  9
$CLAYER
  8
0
  9
$LTSCALE
 40
16.335
  9
$CELTYPE
  6
BYLAYER
  9
$DIMSCALE
 40
1.0
  9
$DIMASZ
 40
1.5
  9
$DIMEXO
 40
0.0625
  9
$DIMDLI
 40
11.286
  9
$DIMEXE
 40
0.125
  9
$DIMCEN
 40
2.673
  9
$DIMLFAC
 40
1.0
  9
$DIMBLK
  1
_CLOSED
  9
$DIMALT
 70
0
  9
$DIMALTF
 40
25.4
  9
$DIMTXT
 40
2.0
  9
$DIMTOL
 70
1
  9
$DIMLIM
 70
0
  9
$DIMTFAC
 40
1.0
  9
$DIMTP
 40
0.01
  9
$DIMTM
 40
0.01
  9
$DIMGAP
 40
0.625
  9
$AUNITS
 70
0
  9
$PDMODE
 70
3
  9
$PDSIZE
 40
0.3125
  9
$HANDSEED
  5
3D0
  9
$TILEMODE
 70
1
  9
$MEASUREMENT
 70
1
  0
ENDSEC
  0
SECTION
  2
CLASSES
  0
ENDSEC
  0
SECTION
  2
TABLES
  0
TABLE
  2
VPORT
  5
8
100
AcDbSymbolTable
 70
2
  0
VPORT
  5
1F4
100
AcDbSymbolTableRecord
100
AcDbViewportTableRecord
  2
*ACTIVE
 70
0
 10
0.0
 20
0.0
 11
1.0
 21
1.0
 12
148.5
 22
105.0
 13
0.0
 23
0.0
 14
1.0
 24
1.0
 15
0.0
 25
0.0
 16
0.0
 26
0.0
 36
1.0
 17
0.0
 27
0.0
 37
0.0
 40
210.0
 41
1.4142857143
 42
50.0
 43
0.0
 44
0.0
 50
0.0
 51
0.0
 71
0
 72
100
 73
1
 74
1
 75
0
 76
0
 77
0
 78
0
  0
ENDTAB
  0
TABLE
  2
LTYPE
  5
5
100
AcDbSymbolTable
 70
6
  0
LTYPE
  5
14
100
AcDbSymbolTableRecord
100
AcDbLinetypeTableRecord
  2
BYBLOCK
 70
0
  3

 72
65
 73
0
 40
0.0
  0
LTYPE
  5
15
100
AcDbSymbolTableRecord
100
AcDbLinetypeTableRecord
  2
BYLAYER
 70
0
  3

 72
65
 73
0
 40
0.0
  0
LTYPE
  5
16
100
AcDbSymbolTableRecord
100
AcDbLinetypeTableRecord
  2
CONTINUOUS
 70
64
  3
Solid line
 72
65
 73
0
 40
0.0
  0
LTYPE
  5
1F5
100
AcDbSymbolTableRecord
100
AcDbLinetypeTableRecord
  2
CENTER
 70
64
  3
____ _ ____ _ ____ _ ____ _ ____ _ ____ _ ____
 72
65
 73
4
 40
0.6
 49
0.375
 74
0
 49
-0.075
 74
0
 49
0.075
 74
0
 49
-0.075
 74
0
  0
LTYPE
  5
1F6
100
AcDbSymbolTableRecord
100
AcDbLinetypeTableRecord
  2
HIDDEN
 70
64
  3
- - - - - - - - - - - - - - - - - - - -
 72
65
 73
2
 40
0.2
 49
0.1
 74
0
 49
-0.1
 74
0
  0
LTYPE
  5
1F7
100
AcDbSymbolTableRecord
100
AcDbLinetypeTableRecord
  2
PHANTOM
 70
64
  3
_____ _ _ _____ _ _ _____ _ _ _____
 72
65
 73
6
 40
0.8
 49
0.45
 74
0
 49
-0.05
 74
0
 49
0.1
 74
0
 49
-0.05
 74
0
 49
0.1
 74
0
 49
-0.05
 74
0
  0
LTYPE
  5
1F8
100
AcDbSymbolTableRecord
100
AcDbLinetypeTableRecord
  2
DOT
 70
64
  3
. . . . . . . . . . . . . . . . . . . .
 72
65
 73
2
 40
0.2
 49
0.1
 74
0
 49
-0.1
 74
0
  0
LTYPE
  5
1F9
100
AcDbSymbolTableRecord
100
AcDbLinetypeTableRecord
  2
DASHED
 70
64
  3
- - - - - - - - - - - - - - - - - - - -
 72
65
 73
2
 40
0.2
 49
0.1
 74
0
 49
-0.1
 74
0
  0
ENDTAB
  0
TABLE
  2
LAYER
  5
2
100
AcDbSymbolTable
 70
36
  0
LAYER
  5
10
100
AcDbSymbolTableRecord
100
AcDbLayerTableRecord
  2
0
 70
0
 62
7
  6
CONTINUOUS
  0
LAYER
  5
1FA
100
AcDbSymbolTableRecord
100
AcDbLayerTableRecord
  2
DEFAULT_1
 70
0
 62
7
  6
CENTER
  0
LAYER
  5
1FB
100
AcDbSymbolTableRecord
100
AcDbLayerTableRecord
  2
DEFAULT_2
 70
0
 62
8
  6
HIDDEN
  0
LAYER
  5
1FC
100
AcDbSymbolTableRecord
100
AcDbLayerTableRecord
  2
DEFAULT_3
 70
0
 62
7
  6
PHANTOM
  0
LAYER
  5
1FD
100
AcDbSymbolTableRecord
100
AcDbLayerTableRecord
  2
ASSI
 70
0
 62
7
  6
CONTINUOUS
  0
LAYER
  5
1FE
100
AcDbSymbolTableRecord
100
AcDbLayerTableRecord
  2
COSMETICA
 70
0
 62
7
  6
CONTINUOUS
  0
LAYER
  5
1FF
100
AcDbSymbolTableRecord
100
AcDbLayerTableRecord
  2
CURVE
 70
0
 62
7
  6
CONTINUOUS
  0
LAYER
  5
200
100
AcDbSymbolTableRecord
100
AcDbLayerTableRecord
  2
DETTAGLI
 70
0
 62
7
  6
CONTINUOUS
  0
LAYER
  5
201
100
AcDbSymbolTableRecord
100
AcDbLayerTableRecord
  2
GEOM
 70
0
 62
7
  6
CONTINUOUS
  0
LAYER
  5
202
100
AcDbSymbolTableRecord
100
AcDbLayerTableRecord
  2
GEOMETRIA_SOLIDA
 70
0
 62
7
  6
CONTINUOUS
  0
LAYER
  5
203
100
AcDbSymbolTableRecord
100
AcDbLayerTableRecord
  2
NOGEOM
 70
0
 62
7
  6
CONTINUOUS
  0
LAYER
  5
204
100
AcDbSymbolTableRecord
100
AcDbLayerTableRecord
  2
PIANI
 70
0
 62
7
  6
CONTINUOUS
  0
LAYER
  5
205
100
AcDbSymbolTableRecord
100
AcDbLayerTableRecord
  2
QUOTE
 70
0
 62
7
  6
CONTINUOUS
  0
LAYER
  5
206
100
AcDbSymbolTableRecord
100
AcDbLayerTableRecord
  2
RIF
 70
0
 62
7
  6
CONTINUOUS
  0
LAYER
  5
207
100
AcDbSymbolTableRecord
100
AcDbLayerTableRecord
  2
SKETCH
 70
0
 62
7
  6
CONTINUOUS
  0
LAYER
  5
208
100
AcDbSymbolTableRecord
100
AcDbLayerTableRecord
  2
TABELLE
 70
0
 62
7
  6
CONTINUOUS
  0
ENDTAB
  0
TABLE
  2
STYLE
  5
3
100
AcDbSymbolTable
 70
1
  0
STYLE
  5
11
100
AcDbSymbolTableRecord
100
AcDbTextStyleTableRecord
  2
STANDARD
 70
0
 40
0.0
 41
0.8
 50
0.0
 71
0
 42
0.2
  3
txt
  4

  0
STYLE
  5
209
100
AcDbSymbolTableRecord
100
AcDbTextStyleTableRecord
  2
TEXTSTYLE_1
 70
0
 40
0.0
 41
0.8
 50
0.0
 71
0
 42
0.2
  3
gdt
  4

  0
ENDTAB
  0
TABLE
  2
VIEW
  5
6
100
AcDbSymbolTable
 70
0
  0
ENDTAB
  0
TABLE
  2
UCS
  5
7
100
AcDbSymbolTable
 70
0
  0
ENDTAB
  0
TABLE
  2
APPID
  5
9
100
AcDbSymbolTable
 70
1
  0
APPID
  5
20A
100
AcDbSymbolTableRecord
100
AcDbRegAppTableRecord
  2
ACAD
 70
0
  0
ENDTAB
  0
TABLE
  2
BLOCK_RECORD
  5
1
100
AcDbSymbolTable
 70
0
  0
BLOCK_RECORD
  5
1F
100
AcDbSymbolTableRecord
100
AcDbBlockTableRecord
  2
*MODEL_SPACE
  0
BLOCK_RECORD
  5
1B
100
AcDbSymbolTableRecord
100
AcDbBlockTableRecord
  2
*PAPER_SPACE
  0
ENDTAB
  0
TABLE
  2
DIMSTYLE
  5
A
100
AcDbSymbolTable
 70
1
  0
DIMSTYLE
105
20B
100
AcDbSymbolTableRecord
100
AcDbDimStyleTableRecord
  2
STANDARD
 70
0
  3

  4

  5
_CLOSED
  6
_CLOSED
  7
_CLOSED
 40
1.0
 41
1.5
 42
0.0625
 43
0.38
 44
0.125
 45
0.0
 46
0.0
 47
0.01
 48
0.01
140
2.0
141
0.09
142
0.0
143
25.4
144
1.0
145
0.0
146
1.0
147
0.625
 71
1.0
 72
0.0
 73
0
 74
0
 75
0
 76
0
 77
1
 78
8
 79
2
170
0
171
1
172
0
173
0
174
0
175
0
176
0
177
0
178
0
270
2
179
2
271
2
272
2
273
2
274
2
275
0
280
0
281
0
282
0
283
1
284
8
285
0
286
0
287
3
288
0
340
11
  0
ENDTAB
  0
ENDSEC
  0
SECTION
  2
BLOCKS
  0
BLOCK
  5
20
100
AcDbEntity
  8
0
100
AcDbBlockBegin
  2
*MODEL_SPACE
 70
0
 10
0.0
 20
0.0
 30
0.0
  3
*MODEL_SPACE
  1

  0
ENDBLK
  5
21
100
AcDbEntity
  8
0
100
AcDbBlockEnd
  0
BLOCK
  5
1C
100
AcDbEntity
  8
0
100
AcDbBlockBegin
  2
*PAPER_SPACE
 70
0
 10
0.0
 20
0.0
 30
0.0
  3
*PAPER_SPACE
  1

  0
ENDBLK
  5
1D
100
AcDbEntity
  8
0
100
AcDbBlockEnd
  0
ENDSEC
  0
SECTION
  2
ENTITIES
  0
LINE
  5
20C
100
AcDbEntity
  8
0
100
AcDbLine
 62
7
  6
CONTINUOUS
 10
0.0
 20
0.0
 11
0.0
 21
210.0
  0
LINE
  5
20D
100
AcDbEntity
  8
0
100
AcDbLine
 62
7
  6
CONTINUOUS
 10
0.0
 20
0.0
 11
297.0
 21
0.0
  0
LINE
  5
20E
100
AcDbEntity
  8
0
100
AcDbLine
 62
7
  6
CONTINUOUS
 10
0.0
 20
210.0
 11
297.0
 21
210.0
  0
LINE
  5
20F
100
AcDbEntity
  8
0
100
AcDbLine
 62
7
  6
CONTINUOUS
 10
297.0
 20
0.0
 11
297.0
 21
210.0
  0
LINE
  5
210
100
AcDbEntity
  8
0
100
AcDbLine
 62
7
  6
CONTINUOUS
 10
55.7305383316
 20
48.8416519766
 11
57.4625891391
 21
45.8416519766
  0
LINE
  5
211
100
AcDbEntity
  8
0
100
AcDbLine
 62
7
  6
CONTINUOUS
 10
55.7305383316
 20
48.8417956593
 11
55.7305383316
 21
52.5416519766
  0
LINE
  5
212
100
AcDbEntity
  8
0
100
AcDbLine
 62
7
  6
CONTINUOUS
 10
55.7305383316
 20
52.7007797746
 11
55.7305383316
 21
115.8415082938
  0
LINE
  5
213
100
AcDbEntity
  8
0
100
AcDbLine
 62
7
  6
CONTINUOUS
 10
57.4625891391
 20
45.8416519766
 11
57.4625891391
 21
46.0841125767
  0
LINE
  5
214
100
AcDbEntity
  8
0
100
AcDbLine
 62
7
  6
CONTINUOUS
 10
57.4625891391
 20
60.5754893229
 11
57.4625891391
 21
67.8502752304
  0
LINE
  5
215
100
AcDbEntity
  8
0
100
AcDbLine
 62
7
  6
CONTINUOUS
 10
57.4625891391
 20
96.8330287227
 11
57.4625891391
 21
104.1078146302
  0
LINE
  5
216
100
AcDbEntity
  8
0
100
AcDbLine
 62
7
  6
CONTINUOUS
 10
57.4625891391
 20
118.5991913764
 11
57.4625891391
 21
118.8416519766
  0
LINE
  5
217
100
AcDbEntity
  8
0
100
AcDbLine
 62
7
  6
CONTINUOUS
 10
60.1905383316
 20
83.7416519766
 11
60.1905383316
 21
81.3416519766
  0
LINE
  5
218
100
AcDbEntity
  8
0
100
AcDbLine
 62
7
  6
CONTINUOUS
 10
61.2405383316
 20
81.3416519766
 11
61.2405383316
 21
83.7416519766
  0
LINE
  5
219
100
AcDbEntity
  8
0
100
AcDbLine
 62
7
  6
CONTINUOUS
 10
65.0564553143
 20
85.9916519766
 11
65.0564553143
 21
79.0916519766
  0
LINE
  5
21A
100
AcDbEntity
  8
0
100
AcDbLine
 62
7
  6
CONTINUOUS
 10
66.1064553143
 20
78.0416519766
 11
66.1064553143
 21
81.9559833264
  0
LINE
  5
21B
100
AcDbEntity
  8
0
100
AcDbLine
 62
7
  6
CONTINUOUS
 10
66.1064553143
 20
82.9916519766
 11
66.1064553143
 21
85.9916519766
  0
LINE
  5
21C
100
AcDbEntity
  8
0
100
AcDbLine
 62
7
  6
CONTINUOUS
 10
55.7305383316
 20
115.8416519766
 11
57.4625891391
 21
118.8416519766
  0
LINE
  5
21D
100
AcDbEntity
  8
0
100
AcDbLine
 62
7
  6
CONTINUOUS
 10
83.009217988
 20
47.9629723201
 11
90.2518586751
 21
40.720331633
  0
LINE
  5
21E
100
AcDbEntity
  8
0
100
AcDbLine
 62
7
  6
CONTINUOUS
 10
72.998487524
 20
45.8416519766
 11
72.998487524
 21
46.0841125767
  0
LINE
  5
21F
100
AcDbEntity
  8
0
100
AcDbLine
 62
7
  6
CONTINUOUS
 10
72.998487524
 20
60.5754893229
 11
72.998487524
 21
67.8502752304
  0
LINE
  5
220
100
AcDbEntity
  8
0
100
AcDbLine
 62
7
  6
CONTINUOUS
 10
72.998487524
 20
96.8330287227
 11
72.998487524
 21
104.1078146302
  0
LINE
  5
221
100
AcDbEntity
  8
0
100
AcDbLine
 62
7
  6
CONTINUOUS
 10
72.998487524
 20
118.5991913764
 11
72.998487524
 21
118.8416519766
  0
LINE
  5
222
100
AcDbEntity
  8
0
100
AcDbLine
 62
7
  6
CONTINUOUS
 10
74.7305383316
 20
115.8416519766
 11
74.7305383316
 21
48.8416519766
  0
LINE
  5
223
100
AcDbEntity
  8
0
100
AcDbLine
 62
7
  6
CONTINUOUS
 10
67.672372297
 20
81.9559833264
 11
70.1183179908
 21
78.0416519766
  0
LINE
  5
224
100
AcDbEntity
  8
0
100
AcDbLine
 62
7
  6
CONTINUOUS
 10
71.3564553143
 20
78.0416519766
 11
68.9105096205
 21
81.9559833264
  0
LINE
  5
225
100
AcDbEntity
  8
0
100
AcDbLine
 62
7
  6
CONTINUOUS
 10
80.8878976445
 20
115.8416519766
 11
80.8878976445
 21
48.8416519766
  0
LINE
  5
226
100
AcDbEntity
  8
0
100
AcDbLine
 62
7
  6
CONTINUOUS
 10
83.009217988
 20
116.720331633
 11
83.009217988
 21
47.9629723201
  0
LINE
  5
227
100
AcDbEntity
  8
0
100
AcDbLine
 62
7
  6
CONTINUOUS
 10
91.7305383316
 20
149.5155526554
 11
92.0041681517
 21
149.8416519766
  0
LINE
  5
228
100
AcDbEntity
  8
0
100
AcDbLine
 62
7
  6
CONTINUOUS
 10
90.2518586751
 20
40.720331633
 11
90.2518586751
 21
123.9629723201
  0
LINE
  5
229
100
AcDbEntity
  8
0
100
AcDbLine
 62
7
  6
CONTINUOUS
 10
92.7305383316
 20
133.1303271112
 11
92.4805383316
 21
132.6973144093
  0
LINE
  5
22A
100
AcDbEntity
  8
0
100
AcDbLine
 62
7
  6
CONTINUOUS
 10
104.2305383316
 20
149.8416519766
 11
103.7305383316
 21
149.3416519766
  0
LINE
  5
22B
100
AcDbEntity
  8
0
100
AcDbLine
 62
7
  6
CONTINUOUS
 10
97.2805383316
 20
142.8416519766
 11
96.9805383316
 21
142.5416519766
  0
LINE
  5
22C
100
AcDbEntity
  8
0
100
AcDbLine
 62
7
  6
CONTINUOUS
 10
100.7305383316
 20
144.8416519766
 11
100.4901678487
 21
144.6012814937
  0
LINE
  5
22D
100
AcDbEntity
  8
0
100
AcDbLine
 62
7
  6
CONTINUOUS
 10
99.9449593449
 20
144.0560729898
 11
99.7305383316
 21
143.8416519766
  0
LINE
  5
22E
100
AcDbEntity
  8
0
100
AcDbLine
 62
7
  6
CONTINUOUS
 10
105.7305383316
 20
155.9963525149
 11
104.0305383316
 21
155.0148570573
  0
LINE
  5
22F
100
AcDbEntity
  8
0
100
AcDbLine
 62
7
  6
CONTINUOUS
 10
133.6447518939
 20
37.8416519766
 11
145.6632113436
 21
37.8416519766
  0
LINE
  5
230
100
AcDbEntity
  8
0
100
AcDbLine
 62
7
  6
CONTINUOUS
 10
92.3731790187
 20
39.8416519766
 11
130.8163247692
 21
39.8416519766
  0
LINE
  5
231
100
AcDbEntity
  8
0
100
AcDbLine
 62
7
  6
CONTINUOUS
 10
74.7305383316
 20
115.8416519766
 11
72.998487524
 21
118.8416519766
  0
LINE
  5
232
100
AcDbEntity
  8
0
100
AcDbLine
 62
7
  6
CONTINUOUS
 10
91.7305383316
 20
132.8416519766
 11
91.7305383316
 21
149.8416519766
  0
LINE
  5
233
100
AcDbEntity
  8
0
100
AcDbLine
 62
7
  6
CONTINUOUS
 10
92.2305383316
 20
136.3416519766
 11
92.2305383316
 21
133.1303271112
  0
LINE
  5
234
100
AcDbEntity
  8
0
100
AcDbLine
 62
7
  6
CONTINUOUS
 10
92.3731790187
 20
39.8416519766
 11
92.3731790187
 21
124.8416519766
  0
LINE
  5
235
100
AcDbEntity
  8
0
100
AcDbLine
 62
7
  6
CONTINUOUS
 10
92.7305383316
 20
133.1303271112
 11
92.7305383316
 21
136.8416519766
  0
LINE
  5
236
100
AcDbEntity
  8
0
100
AcDbLine
 62
7
  6
CONTINUOUS
 10
95.7305383316
 20
136.8416519766
 11
95.7305383316
 21
149.3416519766
  0
LINE
  5
237
100
AcDbEntity
  8
0
100
AcDbLine
 62
7
  6
CONTINUOUS
 10
96.9805383316
 20
142.5416519766
 11
96.9805383316
 21
139.0916519766
  0
LINE
  5
238
100
AcDbEntity
  8
0
100
AcDbLine
 62
7
  6
CONTINUOUS
 10
97.2305383316
 20
138.6345451954
 11
97.2305383316
 21
137.3416519766
  0
LINE
  5
239
100
AcDbEntity
  8
0
100
AcDbLine
 62
7
  6
CONTINUOUS
 10
97.3141304666
 20
136.3416519766
 11
97.3141304666
 21
131.7987587577
  0
LINE
  5
23A
100
AcDbEntity
  8
0
100
AcDbLine
 62
7
  6
CONTINUOUS
 10
97.7932878903
 20
136.3416519766
 11
97.7932878903
 21
131.7987587577
  0
LINE
  5
23B
100
AcDbEntity
  8
0
100
AcDbLine
 62
7
  6
CONTINUOUS
 10
97.9805383316
 20
129.2332127941
 11
97.9805383316
 21
125.8416519766
  0
LINE
  5
23C
100
AcDbEntity
  8
0
100
AcDbLine
 62
7
  6
CONTINUOUS
 10
98.0987332349
 20
130.6345463992
 11
98.0987332349
 21
130.0309983386
  0
LINE
  5
23D
100
AcDbEntity
  8
0
100
AcDbLine
 62
7
  6
CONTINUOUS
 10
98.5754051254
 20
130.6345451946
 11
98.5754051254
 21
130.0309983386
  0
LWPOLYLINE
  5
23E
100
AcDbEntity
  8
0
100
AcDbPolyline
 62
7
  6
CONTINUOUS
 90
31
 70
0
 10
97.9805598663
 20
125.8416527014
 10
97.9783149383
 20
125.7746710924
 10
97.9720814208
 20
125.7116976971
 10
97.9620784999
 20
125.6502735803
 10
97.9485378766
 20
125.590605318
 10
97.9316665898
 20
125.5327780334
 10
97.9116900862
 20
125.4769537336
 10
97.888837141
 20
125.4232720135
 10
97.8632906867
 20
125.3717618491
 10
97.835265929
 20
125.3225287369
 10
97.8049777999
 20
125.2756596194
 10
97.7725781388
 20
125.2311438686
 10
97.7382579967
 20
125.1890361745
 10
97.702218703
 20
125.1493925984
 10
97.6646015739
 20
125.1121986998
 10
97.6255656273
 20
125.0774639994
 10
97.5853075585
 20
125.0452246916
 10
97.5440126621
 20
125.0154936534
 10
97.5018454382
 20
124.9882597097
 10
97.458972509
 20
124.9635069554
 10
97.4155773261
 20
124.9412201807
 10
97.3718114673
 20
124.9213585349
 10
97.3278190198
 20
124.9038731692
 10
97.2837649265
 20
124.8887171231
 10
97.2397797566
 20
124.8758242066
 10
97.1959842901
 20
124.8651221004
 10
97.1525188414
 20
124.8565385807
 10
97.1095096632
 20
124.8499916436
 10
97.0670329779
 20
124.8453886542
 10
97.0251416679
 20
124.8426371729
 10
96.9805411474
 20
124.8416429857
  0
LINE
  5
23F
100
AcDbEntity
  8
0
100
AcDbLine
 62
7
  6
CONTINUOUS
 10
98.0987332336
 20
130.6345451946
 11
98.4357911609
 21
130.9880985865
  0
LINE
  5
240
100
AcDbEntity
  8
0
100
AcDbLine
 62
7
  6
CONTINUOUS
 10
97.6200548816
 20
131.0916519759
 11
97.9582191695
 21
131.4452052241
  0
LINE
  5
241
100
AcDbEntity
  8
0
100
AcDbLine
 62
7
  6
CONTINUOUS
 10
83.009217988
 20
116.720331633
 11
90.2518586751
 21
123.9629723201
  0
LINE
  5
242
100
AcDbEntity
  8
0
100
AcDbLine
 62
7
  6
CONTINUOUS
 10
100.5387223727
 20
144.3694309507
 11
99.9695486006
 21
144.0729124712
  0
LINE
  5
243
100
AcDbEntity
  8
0
100
AcDbLine
 62
7
  6
CONTINUOUS
 10
100.538721914
 20
143.0324247544
 11
100.172534551
 21
142.8416519766
  0
LINE
  5
244
100
AcDbEntity
  8
0
100
AcDbLine
 62
7
  6
CONTINUOUS
 10
149.2074842628
 20
45.3416519766
 11
163.7098123894
 21
45.3416519766
  0
LINE
  5
245
100
AcDbEntity
  8
0
100
AcDbLine
 62
7
  6
CONTINUOUS
 10
149.2321937758
 20
45.4756619136
 11
163.7098123894
 21
45.4756619136
  0
LINE
  5
246
100
AcDbEntity
  8
0
100
AcDbLine
 62
7
  6
CONTINUOUS
 10
72.998487524
 20
45.8416519766
 11
57.4625891391
 21
45.8416519766
  0
LINE
  5
247
100
AcDbEntity
  8
0
100
AcDbLine
 62
7
  6
CONTINUOUS
 10
72.998487524
 20
46.0841125767
 11
57.4625891391
 21
46.0841125767
  0
LINE
  5
248
100
AcDbEntity
  8
0
100
AcDbLine
 62
7
  6
CONTINUOUS
 10
74.7305383316
 20
48.8416519766
 11
80.8878976445
 21
48.8416519766
  0
LINE
  5
249
100
AcDbEntity
  8
0
100
AcDbLine
 62
7
  6
CONTINUOUS
 10
131.5234315504
 20
39.5487587577
 11
132.9376451128
 21
38.1345451954
  0
LINE
  5
24A
100
AcDbEntity
  8
0
100
AcDbLine
 62
7
  6
CONTINUOUS
 10
103.0858858563
 20
83.9816519766
 11
105.1981184801
 21
79.8361620391
  0
LINE
  5
24B
100
AcDbEntity
  8
0
100
AcDbLine
 62
7
  6
CONTINUOUS
 10
99.7305383316
 20
143.8416519766
 11
99.7305383316
 21
143.6403567956
  0
LINE
  5
24C
100
AcDbEntity
  8
0
100
AcDbLine
 62
7
  6
CONTINUOUS
 10
100.5305414892
 20
144.5609078532
 11
100.5305414892
 21
144.3651688492
  0
LINE
  5
24D
100
AcDbEntity
  8
0
100
AcDbLine
 62
7
  6
CONTINUOUS
 10
100.5305410183
 20
143.2239016447
 11
100.5305410183
 21
143.0281626468
  0
LINE
  5
24E
100
AcDbEntity
  8
0
100
AcDbLine
 62
7
  6
CONTINUOUS
 10
100.6858858563
 20
88.3816519766
 11
100.6858858563
 21
76.3816519766
  0
LINE
  5
24F
100
AcDbEntity
  8
0
100
AcDbLine
 62
7
  6
CONTINUOUS
 10
101.6858858563
 20
87.3816519766
 11
101.6858858563
 21
77.3816519766
  0
LINE
  5
250
100
AcDbEntity
  8
0
100
AcDbLine
 62
7
  6
CONTINUOUS
 10
101.7305383316
 20
144.8416519766
 11
101.7305383316
 21
148.3416519766
  0
LINE
  5
251
100
AcDbEntity
  8
0
100
AcDbLine
 62
7
  6
CONTINUOUS
 10
102.4556211139
 20
144.8416519766
 11
102.4556211139
 21
147.7643017074
  0
LINE
  5
252
100
AcDbEntity
  8
0
100
AcDbLine
 62
7
  6
CONTINUOUS
 10
103.7305383316
 20
154.495241815
 11
103.7305383316
 21
153.8416519766
  0
LINE
  5
253
100
AcDbEntity
  8
0
100
AcDbLine
 62
7
  6
CONTINUOUS
 10
103.7305383316
 20
149.3416519766
 11
103.7305383316
 21
148.3416519766
  0
LINE
  5
254
100
AcDbEntity
  8
0
100
AcDbLine
 62
7
  6
CONTINUOUS
 10
105.7305383316
 20
155.5497705276
 11
105.7305383316
 21
159.3416519766
  0
LINE
  5
255
100
AcDbEntity
  8
0
100
AcDbLine
 62
7
  6
CONTINUOUS
 10
106.1131718399
 20
149.8416519766
 11
106.1131718399
 21
149.5155526554
  0
LINE
  5
256
100
AcDbEntity
  8
0
100
AcDbLine
 62
7
  6
CONTINUOUS
 10
145.1802857999
 20
169.3771858825
 11
129.9376451128
 21
154.1345451954
  0
LINE
  5
257
100
AcDbEntity
  8
0
100
AcDbLine
 62
7
  6
CONTINUOUS
 10
132.7660722375
 20
151.3061180706
 11
147.7158197058
 21
166.2558655389
  0
LINE
  5
258
100
AcDbEntity
  8
0
100
AcDbLine
 62
7
  6
CONTINUOUS
 10
104.2082120939
 20
83.9816519766
 11
105.7592815989
 21
80.9375066714
  0
LINE
  5
259
100
AcDbEntity
  8
DEFAULT_1
100
AcDbLine
 62
2
  6
CENTER
 10
110.7305383316
 20
159.4416519766
 11
110.7305383316
 21
158.8950699892
  0
LINE
  5
25A
100
AcDbEntity
  8
0
100
AcDbLine
 62
7
  6
CONTINUOUS
 10
110.7305383316
 20
85.9816519766
 11
110.7305383316
 21
84.9816519766
  0
LINE
  5
25B
100
AcDbEntity
  8
0
100
AcDbLine
 62
7
  6
CONTINUOUS
 10
110.7305383316
 20
83.9816519766
 11
110.7305383316
 21
78.8816519766
  0
LINE
  5
25C
100
AcDbEntity
  8
0
100
AcDbLine
 62
7
  6
CONTINUOUS
 10
110.7305383316
 20
155.5497705276
 11
110.7305383316
 21
158.8950699892
  0
LINE
  5
25D
100
AcDbEntity
  8
0
100
AcDbLine
 62
7
  6
CONTINUOUS
 10
111.7305383316
 20
85.9816519766
 11
111.7305383316
 21
84.9816519766
  0
LINE
  5
25E
100
AcDbEntity
  8
0
100
AcDbLine
 62
7
  6
CONTINUOUS
 10
111.7305383316
 20
83.9816519766
 11
111.7305383316
 21
78.8816519766
  0
LINE
  5
25F
100
AcDbEntity
  8
0
100
AcDbLine
 62
7
  6
CONTINUOUS
 10
113.1305383316
 20
83.9816519766
 11
113.1305383316
 21
82.0552719477
  0
LINE
  5
260
100
AcDbEntity
  8
0
100
AcDbLine
 62
7
  6
CONTINUOUS
 10
113.1305383316
 20
79.1416519766
 11
113.1305383316
 21
78.8816519766
  0
LINE
  5
261
100
AcDbEntity
  8
0
100
AcDbLine
 62
7
  6
CONTINUOUS
 10
114.1305383316
 20
83.9816519766
 11
114.1305383316
 21
82.9816519766
  0
LINE
  5
262
100
AcDbEntity
  8
0
100
AcDbLine
 62
7
  6
CONTINUOUS
 10
114.2305383316
 20
132.8416519766
 11
114.2305383316
 21
139.8416519766
  0
LINE
  5
263
100
AcDbEntity
  8
0
100
AcDbLine
 62
7
  6
CONTINUOUS
 10
124.6117361781
 20
142.3909354765
 11
126.9211372548
 21
148.7359627874
  0
LINE
  5
264
100
AcDbEntity
  8
0
100
AcDbLine
 62
7
  6
CONTINUOUS
 10
121.7305383316
 20
132.8416519766
 11
126.276113502
 21
145.3305171158
  0
LINE
  5
265
100
AcDbEntity
  8
0
100
AcDbLine
 62
7
  6
CONTINUOUS
 10
74.7305383316
 20
48.8416519766
 11
72.998487524
 21
45.8416519766
  0
LINE
  5
266
100
AcDbEntity
  8
0
100
AcDbLine
 62
7
  6
CONTINUOUS
 10
124.4805383316
 20
139.0916519766
 11
124.376984941
 21
138.988098586
  0
LINE
  5
267
100
AcDbEntity
  8
0
100
AcDbLine
 62
7
  6
CONTINUOUS
 10
124.0840917222
 20
131.4452053672
 11
123.626984941
 21
130.988098586
  0
LINE
  5
268
100
AcDbEntity
  8
0
100
AcDbLine
 62
7
  6
CONTINUOUS
 10
72.998487524
 20
60.5754893229
 11
57.4625891391
 21
60.5754893229
  0
LINE
  5
269
100
AcDbEntity
  8
0
100
AcDbLine
 62
7
  6
CONTINUOUS
 10
149.2321937758
 20
61.183939986
 11
163.7098123894
 21
61.183939986
  0
LINE
  5
26A
100
AcDbEntity
  8
0
100
AcDbLine
 62
7
  6
CONTINUOUS
 10
135.8305383316
 20
61.34165199
 11
140.3305383316
 21
61.34165199
  0
LINE
  5
26B
100
AcDbEntity
  8
0
100
AcDbLine
 62
7
  6
CONTINUOUS
 10
136.6706606439
 20
61.916295584
 11
140.3305383316
 21
61.916295584
  0
LINE
  5
26C
100
AcDbEntity
  8
0
100
AcDbLine
 62
7
  6
CONTINUOUS
 10
136.6614955357
 20
64.6492894505
 11
140.3305383316
 21
64.6492894505
  0
LINE
  5
26D
100
AcDbEntity
  8
0
100
AcDbLine
 62
7
  6
CONTINUOUS
 10
135.8305383316
 20
65.2239330445
 11
140.3305383316
 21
65.2239330445
  0
LINE
  5
26E
100
AcDbEntity
  8
0
100
AcDbLine
 62
7
  6
CONTINUOUS
 10
135.8305383316
 20
64.3990858589
 11
139.6767705372
 21
63.2827925776
  0
LINE
  5
26F
100
AcDbEntity
  8
0
100
AcDbLine
 62
7
  6
CONTINUOUS
 10
136.6614955357
 20
64.6492894505
 11
140.3305383316
 21
63.5714891408
  0
LINE
  5
270
100
AcDbEntity
  8
0
100
AcDbLine
 62
7
  6
CONTINUOUS
 10
139.0291126809
 20
66.7993914877
 11
140.3305383316
 21
66.4007150744
  0
LINE
  5
271
100
AcDbEntity
  8
0
100
AcDbLine
 62
7
  6
CONTINUOUS
 10
136.5026360741
 20
67.5774971043
 11
138.4547746173
 21
66.9698596035
  0
LINE
  5
272
100
AcDbEntity
  8
0
100
AcDbLine
 62
7
  6
CONTINUOUS
 10
135.8305383316
 20
67.2393099223
 11
140.3305383316
 21
65.7600836669
  0
LINE
  5
273
100
AcDbEntity
  8
0
100
AcDbLine
 62
7
  6
CONTINUOUS
 10
115.7305383316
 20
155.5497705276
 11
115.7305383316
 21
159.3416519766
  0
LINE
  5
274
100
AcDbEntity
  8
0
100
AcDbLine
 62
7
  6
CONTINUOUS
 10
116.9305383316
 20
83.3816519766
 11
116.9305383316
 21
82.3416519766
  0
LINE
  5
275
100
AcDbEntity
  8
0
100
AcDbLine
 62
7
  6
CONTINUOUS
 10
117.7305383316
 20
154.495241815
 11
117.7305383316
 21
153.8416519766
  0
LINE
  5
276
100
AcDbEntity
  8
0
100
AcDbLine
 62
7
  6
CONTINUOUS
 10
117.9305383316
 20
83.3816519766
 11
117.9305383316
 21
82.0489852397
  0
LINE
  5
277
100
AcDbEntity
  8
0
100
AcDbLine
 62
7
  6
CONTINUOUS
 10
119.6858858563
 20
87.3816519766
 11
119.6858858563
 21
77.3816519766
  0
LINE
  5
278
100
AcDbEntity
  8
0
100
AcDbLine
 62
7
  6
CONTINUOUS
 10
120.6858858563
 20
88.3816519766
 11
120.6858858563
 21
76.3816519766
  0
LINE
  5
279
100
AcDbEntity
  8
0
100
AcDbLine
 62
7
  6
CONTINUOUS
 10
123.4805383316
 20
130.6345451954
 11
123.4805383316
 21
125.8416519766
  0
LINE
  5
27A
100
AcDbEntity
  8
0
100
AcDbLine
 62
7
  6
CONTINUOUS
 10
105.7592815989
 20
80.9375066714
 11
105.1981184801
 21
79.8361620391
  0
LINE
  5
27B
100
AcDbEntity
  8
0
100
AcDbLine
 62
7
  6
CONTINUOUS
 10
108.2082120939
 20
83.9816519766
 11
105.6096323015
 21
78.8816519766
  0
LINE
  5
27C
100
AcDbEntity
  8
0
100
AcDbLine
 62
7
  6
CONTINUOUS
 10
149.2321937758
 20
66.6333739042
 11
163.7098123894
 21
66.6333739042
  0
LINE
  5
27D
100
AcDbEntity
  8
0
100
AcDbLine
 62
7
  6
CONTINUOUS
 10
72.998487524
 20
67.8502752304
 11
57.4625891391
 21
67.8502752304
  0
LINE
  5
27E
100
AcDbEntity
  8
0
100
AcDbLine
 62
7
  6
CONTINUOUS
 10
135.8305383316
 20
69.8980672573
 11
140.3305383316
 21
69.8980672573
  0
LINE
  5
27F
100
AcDbEntity
  8
0
100
AcDbLine
 62
7
  6
CONTINUOUS
 10
136.4048765293
 20
70.4727113341
 11
139.756200268
 21
70.4727113341
  0
LINE
  5
280
100
AcDbEntity
  8
0
100
AcDbLine
 62
7
  6
CONTINUOUS
 10
135.8305383316
 20
73.9673135017
 11
140.3305383316
 21
73.9673135017
  0
LINE
  5
281
100
AcDbEntity
  8
0
100
AcDbLine
 62
7
  6
CONTINUOUS
 10
100.4799991149
 20
144.5829785557
 11
100.477438095
 21
144.5885517399
  0
LINE
  5
282
100
AcDbEntity
  8
0
100
AcDbLine
 62
7
  6
CONTINUOUS
 10
124.2305383316
 20
138.6345451954
 11
124.2305383316
 21
131.7987587577
  0
LINE
  5
283
100
AcDbEntity
  8
0
100
AcDbLine
 62
7
  6
CONTINUOUS
 10
124.4805383316
 20
140.3972148801
 11
124.4805383316
 21
139.0916519766
  0
LINE
  5
284
100
AcDbEntity
  8
0
100
AcDbLine
 62
7
  6
CONTINUOUS
 10
124.6117361781
 20
149.8416519766
 11
124.6117361781
 21
142.3909354765
  0
LINE
  5
285
100
AcDbEntity
  8
0
100
AcDbLine
 62
7
  6
CONTINUOUS
 10
126.9211372548
 20
148.7359627874
 11
126.9211372548
 21
148.8416519766
  0
LINE
  5
286
100
AcDbEntity
  8
0
100
AcDbLine
 62
7
  6
CONTINUOUS
 10
129.2305383316
 20
149.8416519766
 11
129.2305383316
 21
153.8416519766
  0
LINE
  5
287
100
AcDbEntity
  8
0
100
AcDbLine
 62
7
  6
CONTINUOUS
 10
130.8163247692
 20
124.8416519766
 11
130.8163247692
 21
39.8416519766
  0
LINE
  5
288
100
AcDbEntity
  8
0
100
AcDbLine
 62
7
  6
CONTINUOUS
 10
109.3305383316
 20
83.9816519766
 11
106.7319585392
 21
78.8816519766
  0
LINE
  5
289
100
AcDbEntity
  8
0
100
AcDbLine
 62
7
  6
CONTINUOUS
 10
131.5234315504
 20
125.1345451954
 11
132.9376451128
 21
126.5487587577
  0
LINE
  5
28A
100
AcDbEntity
  8
0
100
AcDbLine
 62
7
  6
CONTINUOUS
 10
136.4048765293
 20
74.5419575785
 11
137.721576958
 21
74.5419575785
  0
LINE
  5
28B
100
AcDbEntity
  8
0
100
AcDbLine
 62
7
  6
CONTINUOUS
 10
138.2959151557
 20
74.5419575785
 11
139.756200268
 21
74.5419575785
  0
LINE
  5
28C
100
AcDbEntity
  8
0
100
AcDbLine
 62
7
  6
CONTINUOUS
 10
100.6858858563
 20
76.3816519766
 11
120.6858858563
 21
76.3816519766
  0
LINE
  5
28D
100
AcDbEntity
  8
0
100
AcDbLine
 62
7
  6
CONTINUOUS
 10
137.721576958
 20
76.7497988318
 11
138.2959151557
 21
76.7497988318
  0
LINE
  5
28E
100
AcDbEntity
  8
0
100
AcDbLine
 62
7
  6
CONTINUOUS
 10
135.8305383316
 20
76.9285150622
 11
136.4048765293
 21
76.9285150622
  0
LINE
  5
28F
100
AcDbEntity
  8
0
100
AcDbLine
 62
7
  6
CONTINUOUS
 10
139.756200268
 20
76.9587604021
 11
140.3305383316
 21
76.9587604021
  0
LINE
  5
290
100
AcDbEntity
  8
0
100
AcDbLine
 62
7
  6
CONTINUOUS
 10
101.6858858563
 20
77.3816519766
 11
119.6858858563
 21
77.3816519766
  0
LINE
  5
291
100
AcDbEntity
  8
0
100
AcDbLine
 62
7
  6
CONTINUOUS
 10
63.4905383316
 20
78.0416519766
 11
66.1064553143
 21
78.0416519766
  0
LINE
  5
292
100
AcDbEntity
  8
0
100
AcDbLine
 62
7
  6
CONTINUOUS
 10
70.1183179908
 20
78.0416519766
 11
71.3564553143
 21
78.0416519766
  0
LINE
  5
293
100
AcDbEntity
  8
0
100
AcDbLine
 62
7
  6
CONTINUOUS
 10
105.6096323015
 20
78.8816519766
 11
106.7319585392
 21
78.8816519766
  0
LINE
  5
294
100
AcDbEntity
  8
0
100
AcDbLine
 62
7
  6
CONTINUOUS
 10
110.7305383316
 20
78.8816519766
 11
111.7305383316
 21
78.8816519766
  0
LINE
  5
295
100
AcDbEntity
  8
0
100
AcDbLine
 62
7
  6
CONTINUOUS
 10
113.1305383316
 20
78.8816519766
 11
114.1305383316
 21
78.8816519766
  0
LINE
  5
296
100
AcDbEntity
  8
0
100
AcDbLine
 62
7
  6
CONTINUOUS
 10
65.0564553143
 20
79.0916519766
 11
63.4905383316
 21
79.0916519766
  0
LINE
  5
297
100
AcDbEntity
  8
0
100
AcDbLine
 62
7
  6
CONTINUOUS
 10
135.8305383316
 20
79.3948085044
 11
140.3305383316
 21
79.3948085044
  0
LINE
  5
298
100
AcDbEntity
  8
0
100
AcDbLine
 62
7
  6
CONTINUOUS
 10
135.8305383316
 20
79.9694516157
 11
140.3305383316
 21
79.9694516157
  0
LINE
  5
299
100
AcDbEntity
  8
0
100
AcDbLine
 62
7
  6
CONTINUOUS
 10
135.8305383316
 20
80.8932810043
 11
140.3305383316
 21
80.8932810043
  0
LINE
  5
29A
100
AcDbEntity
  8
0
100
AcDbLine
 62
7
  6
CONTINUOUS
 10
136.7470352045
 20
81.4679241155
 11
140.3305383316
 21
81.4679241155
  0
LINE
  5
29B
100
AcDbEntity
  8
0
100
AcDbLine
 62
7
  6
CONTINUOUS
 10
66.1064553143
 20
81.9559833264
 11
67.672372297
 21
81.9559833264
  0
LINE
  5
29C
100
AcDbEntity
  8
0
100
AcDbLine
 62
7
  6
CONTINUOUS
 10
131.5234315504
 20
125.1345451954
 11
131.5234315504
 21
39.5487587577
  0
LINE
  5
29D
100
AcDbEntity
  8
0
100
AcDbLine
 62
7
  6
CONTINUOUS
 10
132.9376451128
 20
38.1345451954
 11
132.9376451128
 21
126.5487587577
  0
LINE
  5
29E
100
AcDbEntity
  8
0
100
AcDbLine
 62
7
  6
CONTINUOUS
 10
133.6447518939
 20
37.8416519766
 11
133.6447518939
 21
126.8416519766
  0
LINE
  5
29F
100
AcDbEntity
  8
0
100
AcDbLine
 62
7
  6
CONTINUOUS
 10
135.8305383316
 20
101.9846253847
 11
135.8305383316
 21
101.283506677
  0
LINE
  5
2A0
100
AcDbEntity
  8
0
100
AcDbLine
 62
7
  6
CONTINUOUS
 10
135.8305383316
 20
99.0041766141
 11
135.8305383316
 21
98.3030579065
  0
LINE
  5
2A1
100
AcDbEntity
  8
0
100
AcDbLine
 62
7
  6
CONTINUOUS
 10
135.8305383316
 20
96.0484741186
 11
135.8305383316
 21
95.4738329385
  0
LINE
  5
2A2
100
AcDbEntity
  8
0
100
AcDbLine
 62
7
  6
CONTINUOUS
 10
135.8305383316
 20
93.4557041143
 11
135.8305383316
 21
92.7820797656
  0
LINE
  5
2A3
100
AcDbEntity
  8
0
100
AcDbLine
 62
7
  6
CONTINUOUS
 10
135.8305383316
 20
91.1598797534
 11
135.8305383316
 21
87.9292278741
  0
LINE
  5
2A4
100
AcDbEntity
  8
0
100
AcDbLine
 62
7
  6
CONTINUOUS
 10
135.8305383316
 20
87.3408366178
 11
135.8305383316
 21
86.7661935066
  0
LINE
  5
2A5
100
AcDbEntity
  8
0
100
AcDbLine
 62
7
  6
CONTINUOUS
 10
135.8305383316
 20
84.1019366239
 11
135.8305383316
 21
83.5272935127
  0
LINE
  5
2A6
100
AcDbEntity
  8
0
100
AcDbLine
 62
7
  6
CONTINUOUS
 10
135.8305383316
 20
81.5284128641
 11
135.8305383316
 21
80.8932810043
  0
LINE
  5
2A7
100
AcDbEntity
  8
0
100
AcDbLine
 62
7
  6
CONTINUOUS
 10
135.8305383316
 20
79.9694516157
 11
135.8305383316
 21
79.3948085044
  0
LINE
  5
2A8
100
AcDbEntity
  8
0
100
AcDbLine
 62
7
  6
CONTINUOUS
 10
135.8305383316
 20
76.9285150622
 11
135.8305383316
 21
73.9673135017
  0
LINE
  5
2A9
100
AcDbEntity
  8
0
100
AcDbLine
 62
7
  6
CONTINUOUS
 10
135.8305383316
 20
71.5780060028
 11
135.8305383316
 21
69.8980672573
  0
LINE
  5
2AA
100
AcDbEntity
  8
0
100
AcDbLine
 62
7
  6
CONTINUOUS
 10
135.8305383316
 20
67.9129352365
 11
135.8305383316
 21
67.2393099223
  0
LINE
  5
2AB
100
AcDbEntity
  8
0
100
AcDbLine
 62
7
  6
CONTINUOUS
 10
135.8305383316
 20
65.2239330445
 11
135.8305383316
 21
64.3990858589
  0
LINE
  5
2AC
100
AcDbEntity
  8
0
100
AcDbLine
 62
7
  6
CONTINUOUS
 10
135.8305383316
 20
62.1664991756
 11
135.8305383316
 21
61.34165199
  0
LINE
  5
2AD
100
AcDbEntity
  8
0
100
AcDbLine
 62
7
  6
CONTINUOUS
 10
136.4048765293
 20
91.1598797534
 11
136.4048765293
 21
89.8318753694
  0
LINE
  5
2AE
100
AcDbEntity
  8
0
100
AcDbLine
 62
7
  6
CONTINUOUS
 10
136.4048765293
 20
89.2572322582
 11
136.4048765293
 21
87.9292278741
  0
LINE
  5
2AF
100
AcDbEntity
  8
0
100
AcDbLine
 62
7
  6
CONTINUOUS
 10
136.4048765293
 20
76.9285150622
 11
136.4048765293
 21
74.5419575785
  0
LINE
  5
2B0
100
AcDbEntity
  8
0
100
AcDbLine
 62
7
  6
CONTINUOUS
 10
136.4048765293
 20
71.2838103746
 11
136.4048765293
 21
70.4727113341
  0
LINE
  5
2B1
100
AcDbEntity
  8
0
100
AcDbLine
 62
7
  6
CONTINUOUS
 10
137.721576958
 20
76.7497988318
 11
137.721576958
 21
74.5419575785
  0
LINE
  5
2B2
100
AcDbEntity
  8
0
100
AcDbLine
 62
7
  6
CONTINUOUS
 10
138.2959151557
 20
76.7497988318
 11
138.2959151557
 21
74.5419575785
  0
LINE
  5
2B3
100
AcDbEntity
  8
0
100
AcDbLine
 62
7
  6
CONTINUOUS
 10
138.4547746173
 20
93.7251553987
 11
138.4547746173
 21
92.5126304124
  0
LINE
  5
2B4
100
AcDbEntity
  8
0
100
AcDbLine
 62
7
  6
CONTINUOUS
 10
138.4547746173
 20
68.1823850726
 11
138.4547746173
 21
66.9698596035
  0
LINE
  5
2B5
100
AcDbEntity
  8
0
100
AcDbLine
 62
7
  6
CONTINUOUS
 10
139.0291126809
 20
93.8956215833
 11
139.0291126809
 21
92.3421603654
  0
LINE
  5
2B6
100
AcDbEntity
  8
0
100
AcDbLine
 62
7
  6
CONTINUOUS
 10
139.0291126809
 20
68.3528536712
 11
139.0291126809
 21
66.7993914877
  0
LINE
  5
2B7
100
AcDbEntity
  8
0
100
AcDbLine
 62
7
  6
CONTINUOUS
 10
116.3305383316
 20
82.3416519766
 11
116.9305383316
 21
82.3416519766
  0
LINE
  5
2B8
100
AcDbEntity
  8
0
100
AcDbLine
 62
7
  6
CONTINUOUS
 10
68.6405383316
 20
82.9916519766
 11
66.1064553143
 21
82.9916519766
  0
LINE
  5
2B9
100
AcDbEntity
  8
0
100
AcDbLine
 62
7
  6
CONTINUOUS
 10
116.9305383316
 20
83.3816519766
 11
117.9305383316
 21
83.3816519766
  0
LINE
  5
2BA
100
AcDbEntity
  8
0
100
AcDbLine
 62
7
  6
CONTINUOUS
 10
135.8305383316
 20
83.5272935127
 11
139.3743265262
 21
83.5272935127
  0
LINE
  5
2BB
100
AcDbEntity
  8
0
100
AcDbLine
 62
7
  6
CONTINUOUS
 10
103.0858858563
 20
83.9816519766
 11
104.2082120939
 21
83.9816519766
  0
LINE
  5
2BC
100
AcDbEntity
  8
0
100
AcDbLine
 62
7
  6
CONTINUOUS
 10
108.2082120939
 20
83.9816519766
 11
109.3305383316
 21
83.9816519766
  0
LINE
  5
2BD
100
AcDbEntity
  8
0
100
AcDbLine
 62
7
  6
CONTINUOUS
 10
110.7305383316
 20
83.9816519766
 11
111.7305383316
 21
83.9816519766
  0
LINE
  5
2BE
100
AcDbEntity
  8
0
100
AcDbLine
 62
7
  6
CONTINUOUS
 10
113.1305383316
 20
83.9816519766
 11
114.1305383316
 21
83.9816519766
  0
LINE
  5
2BF
100
AcDbEntity
  8
0
100
AcDbLine
 62
7
  6
CONTINUOUS
 10
135.8305383316
 20
84.1019366239
 11
140.3305383316
 21
84.1019366239
  0
LINE
  5
2C0
100
AcDbEntity
  8
0
100
AcDbLine
 62
7
  6
CONTINUOUS
 10
110.7305383316
 20
84.9816519766
 11
111.7305383316
 21
84.9816519766
  0
LINE
  5
2C1
100
AcDbEntity
  8
0
100
AcDbLine
 62
7
  6
CONTINUOUS
 10
110.7305383316
 20
85.9816519766
 11
111.7305383316
 21
85.9816519766
  0
LINE
  5
2C2
100
AcDbEntity
  8
0
100
AcDbLine
 62
7
  6
CONTINUOUS
 10
63.4905383316
 20
85.9916519766
 11
65.0564553143
 21
85.9916519766
  0
LINE
  5
2C3
100
AcDbEntity
  8
0
100
AcDbLine
 62
7
  6
CONTINUOUS
 10
66.1064553143
 20
85.9916519766
 11
68.6405383316
 21
85.9916519766
  0
LINE
  5
2C4
100
AcDbEntity
  8
0
100
AcDbLine
 62
7
  6
CONTINUOUS
 10
135.8305383316
 20
86.7661935066
 11
140.3305383316
 21
86.7661935066
  0
LINE
  5
2C5
100
AcDbEntity
  8
0
100
AcDbLine
 62
7
  6
CONTINUOUS
 10
68.6405383316
 20
87.0416519766
 11
63.4905383316
 21
87.0416519766
  0
LINE
  5
2C6
100
AcDbEntity
  8
0
100
AcDbLine
 62
7
  6
CONTINUOUS
 10
135.8305383316
 20
87.3408366178
 11
140.3305383316
 21
87.3408366178
  0
LINE
  5
2C7
100
AcDbEntity
  8
0
100
AcDbLine
 62
7
  6
CONTINUOUS
 10
101.6858858563
 20
87.3816519766
 11
119.6858858563
 21
87.3816519766
  0
LINE
  5
2C8
100
AcDbEntity
  8
0
100
AcDbLine
 62
7
  6
CONTINUOUS
 10
135.8305383316
 20
87.9292278741
 11
136.4048765293
 21
87.9292278741
  0
LINE
  5
2C9
100
AcDbEntity
  8
0
100
AcDbLine
 62
7
  6
CONTINUOUS
 10
100.6858858563
 20
88.3816519766
 11
120.6858858563
 21
88.3816519766
  0
LINE
  5
2CA
100
AcDbEntity
  8
0
100
AcDbLine
 62
7
  6
CONTINUOUS
 10
136.4048765293
 20
89.2572322582
 11
140.3305383316
 21
89.2572322582
  0
LINE
  5
2CB
100
AcDbEntity
  8
0
100
AcDbLine
 62
7
  6
CONTINUOUS
 10
136.4048765293
 20
89.8318753694
 11
140.3305383316
 21
89.8318753694
  0
LINE
  5
2CC
100
AcDbEntity
  8
0
100
AcDbLine
 62
7
  6
CONTINUOUS
 10
139.0291126809
 20
92.3421603654
 11
140.3305383316
 21
91.9434854005
  0
LINE
  5
2CD
100
AcDbEntity
  8
0
100
AcDbLine
 62
7
  6
CONTINUOUS
 10
136.5026360741
 20
93.1202679132
 11
138.4547746173
 21
92.5126304124
  0
LINE
  5
2CE
100
AcDbEntity
  8
0
100
AcDbLine
 62
7
  6
CONTINUOUS
 10
135.8305383316
 20
92.7820797656
 11
140.3305383316
 21
91.3028535102
  0
LINE
  5
2CF
100
AcDbEntity
  8
0
100
AcDbLine
 62
7
  6
CONTINUOUS
 10
96.9805383316
 20
139.0916519766
 11
97.0840917222
 21
138.988098586
  0
LINE
  5
2D0
100
AcDbEntity
  8
0
100
AcDbLine
 62
7
  6
CONTINUOUS
 10
139.756200268
 20
98.0666029428
 11
139.756200268
 21
96.0484741186
  0
LINE
  5
2D1
100
AcDbEntity
  8
0
100
AcDbLine
 62
7
  6
CONTINUOUS
 10
139.756200268
 20
76.9587604021
 11
139.756200268
 21
74.5419575785
  0
LINE
  5
2D2
100
AcDbEntity
  8
0
100
AcDbLine
 62
7
  6
CONTINUOUS
 10
139.756200268
 20
71.3003075694
 11
139.756200268
 21
70.4727113341
  0
LINE
  5
2D3
100
AcDbEntity
  8
0
100
AcDbLine
 62
7
  6
CONTINUOUS
 10
140.3305383316
 20
100.4311641668
 11
140.3305383316
 21
99.8565191244
  0
LINE
  5
2D4
100
AcDbEntity
  8
0
100
AcDbLine
 62
7
  6
CONTINUOUS
 10
140.3305383316
 20
98.0666029428
 11
140.3305383316
 21
95.4738329385
  0
LINE
  5
2D5
100
AcDbEntity
  8
0
100
AcDbLine
 62
7
  6
CONTINUOUS
 10
140.3305383316
 20
94.9349303697
 11
140.3305383316
 21
94.2943004106
  0
LINE
  5
2D6
100
AcDbEntity
  8
0
100
AcDbLine
 62
7
  6
CONTINUOUS
 10
140.3305383316
 20
91.9434854005
 11
140.3305383316
 21
91.3028535102
  0
LINE
  5
2D7
100
AcDbEntity
  8
0
100
AcDbLine
 62
7
  6
CONTINUOUS
 10
140.3305383316
 20
89.8318753694
 11
140.3305383316
 21
89.2572322582
  0
LINE
  5
2D8
100
AcDbEntity
  8
0
100
AcDbLine
 62
7
  6
CONTINUOUS
 10
140.3305383316
 20
87.3408366178
 11
140.3305383316
 21
86.7661935066
  0
LINE
  5
2D9
100
AcDbEntity
  8
0
100
AcDbLine
 62
7
  6
CONTINUOUS
 10
140.3305383316
 20
84.1019366239
 11
140.3305383316
 21
83.4668047641
  0
LINE
  5
2DA
100
AcDbEntity
  8
0
100
AcDbLine
 62
7
  6
CONTINUOUS
 10
140.3305383316
 20
81.4679241155
 11
140.3305383316
 21
80.8932810043
  0
LINE
  5
2DB
100
AcDbEntity
  8
0
100
AcDbLine
 62
7
  6
CONTINUOUS
 10
140.3305383316
 20
79.9694516157
 11
140.3305383316
 21
79.3948085044
  0
LINE
  5
2DC
100
AcDbEntity
  8
0
100
AcDbLine
 62
7
  6
CONTINUOUS
 10
140.3305383316
 20
76.9587604021
 11
140.3305383316
 21
73.9673135017
  0
LINE
  5
2DD
100
AcDbEntity
  8
0
100
AcDbLine
 62
7
  6
CONTINUOUS
 10
140.3305383316
 20
71.322303829
 11
140.3305383316
 21
69.8980672573
  0
LINE
  5
2DE
100
AcDbEntity
  8
0
100
AcDbLine
 62
7
  6
CONTINUOUS
 10
140.3305383316
 20
69.3921610092
 11
140.3305383316
 21
68.7515296017
  0
LINE
  5
2DF
100
AcDbEntity
  8
0
100
AcDbLine
 62
7
  6
CONTINUOUS
 10
140.3305383316
 20
66.4007150744
 11
140.3305383316
 21
65.7600836669
  0
LINE
  5
2E0
100
AcDbEntity
  8
0
100
AcDbLine
 62
7
  6
CONTINUOUS
 10
140.3305383316
 20
65.2239330445
 11
140.3305383316
 21
64.6492894505
  0
LINE
  5
2E1
100
AcDbEntity
  8
0
100
AcDbLine
 62
7
  6
CONTINUOUS
 10
140.3305383316
 20
63.5714891408
 11
140.3305383316
 21
62.9968455468
  0
LINE
  5
2E2
100
AcDbEntity
  8
0
100
AcDbLine
 62
7
  6
CONTINUOUS
 10
140.3305383316
 20
61.916295584
 11
140.3305383316
 21
61.34165199
  0
LINE
  5
2E3
100
AcDbEntity
  8
0
100
AcDbLine
 62
7
  6
CONTINUOUS
 10
143.4305383316
 20
126.8410177267
 11
143.4305383316
 21
37.8423341132
  0
LINE
  5
2E4
100
AcDbEntity
  8
0
100
AcDbLine
 62
7
  6
CONTINUOUS
 10
145.6632113436
 20
126.8416519766
 11
145.6632113436
 21
37.8416519766
  0
LINE
  5
2E5
100
AcDbEntity
  8
0
100
AcDbLine
 62
7
  6
CONTINUOUS
 10
146.6291371708
 20
126.1004710182
 11
146.6291371708
 21
38.582832935
  0
LINE
  5
2E6
100
AcDbEntity
  8
0
100
AcDbLine
 62
7
  6
CONTINUOUS
 10
135.8305383316
 20
91.1598797534
 11
136.4048765293
 21
91.1598797534
  0
LINE
  5
2E7
100
AcDbEntity
  8
0
100
AcDbLine
 62
7
  6
CONTINUOUS
 10
135.8305383316
 20
95.4738329385
 11
140.3305383316
 21
95.4738329385
  0
LINE
  5
2E8
100
AcDbEntity
  8
0
100
AcDbLine
 62
7
  6
CONTINUOUS
 10
135.8305383316
 20
96.0484741186
 11
139.756200268
 21
96.0484741186
  0
LINE
  5
2E9
100
AcDbEntity
  8
0
100
AcDbLine
 62
7
  6
CONTINUOUS
 10
72.998487524
 20
96.8330287227
 11
57.4625891391
 21
96.8330287227
  0
LINE
  5
2EA
100
AcDbEntity
  8
0
100
AcDbLine
 62
7
  6
CONTINUOUS
 10
149.2321937758
 20
98.049930049
 11
163.7098123894
 21
98.049930049
  0
LINE
  5
2EB
100
AcDbEntity
  8
0
100
AcDbLine
 62
7
  6
CONTINUOUS
 10
139.756200268
 20
98.0666029428
 11
140.3305383316
 21
98.0666029428
  0
LINE
  5
2EC
100
AcDbEntity
  8
0
100
AcDbLine
 62
7
  6
CONTINUOUS
 10
135.8305383316
 20
101.283506677
 11
137.9751411966
 21
100.1452166532
  0
LINE
  5
2ED
100
AcDbEntity
  8
0
100
AcDbLine
 62
7
  6
CONTINUOUS
 10
135.8305383316
 20
101.9846253847
 11
138.5555891982
 21
100.4311641668
  0
LINE
  5
2EE
100
AcDbEntity
  8
0
100
AcDbLine
 62
7
  6
CONTINUOUS
 10
92.4805383316
 20
132.6973144093
 11
98.0746288324
 21
129.4675647527
  0
LINE
  5
2EF
100
AcDbEntity
  8
0
100
AcDbLine
 62
7
  6
CONTINUOUS
 10
114.2305383316
 20
139.8416519766
 11
105.8395420198
 21
149.8416519766
  0
LINE
  5
2F0
100
AcDbEntity
  8
0
100
AcDbLine
 62
7
  6
CONTINUOUS
 10
148.2415584365
 20
120.0828329315
 11
148.2415584365
 21
119.926547242
  0
LINE
  5
2F1
100
AcDbEntity
  8
0
100
AcDbLine
 62
7
  6
CONTINUOUS
 10
148.2415584365
 20
104.1055118681
 11
148.2415584365
 21
98.1626873649
  0
LINE
  5
2F2
100
AcDbEntity
  8
0
100
AcDbLine
 62
7
  6
CONTINUOUS
 10
148.2415584365
 20
66.5206165888
 11
148.2415584365
 21
60.5777920855
  0
LINE
  5
2F3
100
AcDbEntity
  8
0
100
AcDbLine
 62
7
  6
CONTINUOUS
 10
148.2415584365
 20
44.7567567112
 11
148.2415584365
 21
44.6004710217
  0
LINE
  5
2F4
100
AcDbEntity
  8
0
100
AcDbLine
 62
7
  6
CONTINUOUS
 10
149.2074842628
 20
119.3416519766
 11
149.2074842628
 21
119.2075812651
  0
LINE
  5
2F5
100
AcDbEntity
  8
0
100
AcDbLine
 62
7
  6
CONTINUOUS
 10
149.2074842628
 20
103.4999502268
 11
149.2074842628
 21
98.0492830132
  0
LINE
  5
2F6
100
AcDbEntity
  8
0
100
AcDbLine
 62
7
  6
CONTINUOUS
 10
149.2074842628
 20
66.6340209399
 11
149.2074842628
 21
61.1833537263
  0
LINE
  5
2F7
100
AcDbEntity
  8
0
100
AcDbLine
 62
7
  6
CONTINUOUS
 10
149.2074842628
 20
45.475722688
 11
149.2074842628
 21
45.3416519766
  0
LINE
  5
2F8
100
AcDbEntity
  8
0
100
AcDbLine
 62
7
  6
CONTINUOUS
 10
152.7305383316
 20
166.1416519766
 11
152.7305383316
 21
171.5416519766
  0
LINE
  5
2F9
100
AcDbEntity
  8
0
100
AcDbLine
 62
7
  6
CONTINUOUS
 10
153.5305383316
 20
165.3416519766
 11
153.5305383316
 21
172.3416519766
  0
LINE
  5
2FA
100
AcDbEntity
  8
0
100
AcDbLine
 62
7
  6
CONTINUOUS
 10
138.5555891982
 20
99.8565191244
 11
135.8305383316
 21
98.3030579065
  0
LINE
  5
2FB
100
AcDbEntity
  8
0
100
AcDbLine
 62
7
  6
CONTINUOUS
 10
137.9751411966
 20
100.1452166532
 11
135.8305383316
 21
99.0041766141
  0
LINE
  5
2FC
100
AcDbEntity
  8
0
100
AcDbLine
 62
7
  6
CONTINUOUS
 10
138.5555891982
 20
99.8565191244
 11
140.3305383316
 21
99.8565191244
  0
LINE
  5
2FD
100
AcDbEntity
  8
0
100
AcDbLine
 62
7
  6
CONTINUOUS
 10
138.5555891982
 20
100.4311641668
 11
140.3305383316
 21
100.4311641668
  0
LINE
  5
2FE
100
AcDbEntity
  8
0
100
AcDbLine
 62
7
  6
CONTINUOUS
 10
149.2321937758
 20
103.4993639671
 11
163.7098123894
 21
103.4993639671
  0
LINE
  5
2FF
100
AcDbEntity
  8
0
100
AcDbLine
 62
7
  6
CONTINUOUS
 10
72.998487524
 20
104.1078146302
 11
57.4625891391
 21
104.1078146302
  0
LINE
  5
300
100
AcDbEntity
  8
0
100
AcDbLine
 62
7
  6
CONTINUOUS
 10
92.7305383316
 20
133.1303271112
 11
98.0987332349
 21
130.0309983386
  0
LINE
  5
301
100
AcDbEntity
  8
0
100
AcDbLine
 62
7
  6
CONTINUOUS
 10
148.2415584365
 20
120.0828329315
 11
146.6291371708
 21
126.1004710181
  0
LINE
  5
302
100
AcDbEntity
  8
0
100
AcDbLine
 62
7
  6
CONTINUOUS
 10
140.3305383316
 20
94.9349303697
 11
135.8305383316
 21
93.4557041143
  0
LINE
  5
303
100
AcDbEntity
  8
0
100
AcDbLine
 62
7
  6
CONTINUOUS
 10
138.4547746173
 20
93.7251553987
 11
136.5026360741
 21
93.1202679132
  0
LINE
  5
304
100
AcDbEntity
  8
0
100
AcDbLine
 62
7
  6
CONTINUOUS
 10
140.3305383316
 20
94.2943004106
 11
139.0291126809
 21
93.8956215833
  0
LINE
  5
305
100
AcDbEntity
  8
0
100
AcDbLine
 62
7
  6
CONTINUOUS
 10
99.738125534
 20
143.632452954
 11
100.5287950149
 21
143.2205502823
  0
LINE
  5
306
100
AcDbEntity
  8
0
100
AcDbLine
 62
7
  6
CONTINUOUS
 10
163.7098123894
 20
103.4993639671
 11
163.7098123894
 21
98.049930049
  0
LINE
  5
307
100
AcDbEntity
  8
0
100
AcDbLine
 62
7
  6
CONTINUOUS
 10
163.7098123894
 20
66.6333739042
 11
163.7098123894
 21
61.183939986
  0
LINE
  5
308
100
AcDbEntity
  8
0
100
AcDbLine
 62
7
  6
CONTINUOUS
 10
163.7098123894
 20
45.4756619136
 11
163.7098123894
 21
45.3416519766
  0
LINE
  5
309
100
AcDbEntity
  8
0
100
AcDbLine
 62
7
  6
CONTINUOUS
 10
163.7098123894
 20
119.2076420395
 11
163.7098123894
 21
119.3416519766
  0
LINE
  5
30A
100
AcDbEntity
  8
0
100
AcDbLine
 62
7
  6
CONTINUOUS
 10
165.7305383316
 20
115.8412437015
 11
165.7305383316
 21
48.8416519766
  0
LINE
  5
30B
100
AcDbEntity
  8
0
100
AcDbLine
 62
7
  6
CONTINUOUS
 10
148.2415584365
 20
44.6004710217
 11
146.6291371708
 21
38.582832935
  0
LINE
  5
30C
100
AcDbEntity
  8
0
100
AcDbLine
 62
7
  6
CONTINUOUS
 10
139.3743265262
 20
83.5272935127
 11
135.8305383316
 21
81.5284128641
  0
LINE
  5
30D
100
AcDbEntity
  8
0
100
AcDbLine
 62
7
  6
CONTINUOUS
 10
140.3305383316
 20
83.4668047641
 11
136.7470352045
 21
81.4679241155
  0
LINE
  5
30E
100
AcDbEntity
  8
0
100
AcDbLine
 62
7
  6
CONTINUOUS
 10
74.7305383316
 20
115.8416519766
 11
80.8878976445
 21
115.8416519766
  0
LINE
  5
30F
100
AcDbEntity
  8
0
100
AcDbLine
 62
7
  6
CONTINUOUS
 10
72.998487524
 20
118.5991913764
 11
57.4625891391
 21
118.5991913764
  0
LINE
  5
310
100
AcDbEntity
  8
0
100
AcDbLine
 62
7
  6
CONTINUOUS
 10
72.998487524
 20
118.8416519766
 11
57.4625891391
 21
118.8416519766
  0
LINE
  5
311
100
AcDbEntity
  8
0
100
AcDbLine
 62
7
  6
CONTINUOUS
 10
149.2321937758
 20
119.2076420395
 11
163.7098123894
 21
119.2076420395
  0
LINE
  5
312
100
AcDbEntity
  8
0
100
AcDbLine
 62
7
  6
CONTINUOUS
 10
149.2074842628
 20
119.3416519766
 11
163.7098123894
 21
119.3416519766
  0
LINE
  5
313
100
AcDbEntity
  8
0
100
AcDbLine
 62
7
  6
CONTINUOUS
 10
100.4799991149
 20
144.5829785557
 11
100.5287954882
 21
144.5575564956
  0
LINE
  5
314
100
AcDbEntity
  8
0
100
AcDbLine
 62
7
  6
CONTINUOUS
 10
165.7305383316
 20
115.8416519766
 11
163.7098123894
 21
119.3416519766
  0
LINE
  5
315
100
AcDbEntity
  8
0
100
AcDbLine
 62
7
  6
CONTINUOUS
 10
92.3731790187
 20
124.8416519766
 11
96.9805383316
 21
124.8416519766
  0
LINE
  5
316
100
AcDbEntity
  8
0
100
AcDbLine
 62
7
  6
CONTINUOUS
 10
124.4805383316
 20
124.8416519766
 11
130.8163247692
 21
124.8416519766
  0
LINE
  5
317
100
AcDbEntity
  8
0
100
AcDbLine
 62
7
  6
CONTINUOUS
 10
133.6447518939
 20
126.8416519766
 11
145.6632113436
 21
126.8416519766
  0
LWPOLYLINE
  5
318
100
AcDbEntity
  8
0
100
AcDbPolyline
 62
7
  6
CONTINUOUS
 90
35
 70
0
 10
124.4805354688
 20
124.841642969
 10
124.469354544
 20
124.8417052492
 10
124.4288449026
 20
124.8429787634
 10
124.3879750163
 20
124.8459340051
 10
124.346849765
 20
124.8506164363
 10
124.3055125945
 20
124.8570749748
 10
124.264029856
 20
124.8653570723
 10
124.2225018264
 20
124.8755015906
 10
124.1810292842
 20
124.887542211
 10
124.139705325
 20
124.9015106893
 10
124.0986268521
 20
124.9174344615
 10
124.057905118
 20
124.935331327
 10
124.0176434658
 20
124.9552176616
 10
123.9779483846
 20
124.9771045642
 10
123.9389392013
 20
125.0009911513
 10
123.9007280992
 20
125.0268749432
 10
123.8634273992
 20
125.0547486725
 10
123.8271585365
 20
125.0845927601
 10
123.7920531558
 20
125.1163706661
 10
123.7582117468
 20
125.150066826
 10
123.7257157137
 20
125.1856875562
 10
123.694700764
 20
125.2231808803
 10
123.6652797602
 20
125.2625136564
 10
123.6375191939
 20
125.3037236436
 10
123.6115582329
 20
125.3467559891
 10
123.587535599
 20
125.3915467421
 10
123.5655450709
 20
125.4381226208
 10
123.5457399809
 20
125.4864048745
 10
123.5282727361
 20
125.5363023617
 10
123.513265766
 20
125.5878184486
 10
123.5008844551
 20
125.6408403525
 10
123.4912912516
 20
125.695240192
 10
123.4846343742
 20
125.7509850835
 10
123.4810855138
 20
125.8079172573
 10
123.4805167482
 20
125.8416526958
  0
LINE
  5
319
100
AcDbEntity
  8
0
100
AcDbLine
 62
7
  6
CONTINUOUS
 10
115.7305383316
 20
155.9963525149
 11
117.4305383316
 21
155.0148570573
  0
LINE
  5
31A
100
AcDbEntity
  8
0
100
AcDbLine
 62
7
  6
CONTINUOUS
 10
140.3305383316
 20
69.3921610092
 11
135.8305383316
 21
67.9129352365
  0
LINE
  5
31B
100
AcDbEntity
  8
0
100
AcDbLine
 62
7
  6
CONTINUOUS
 10
138.4547746173
 20
68.1823850726
 11
136.5026360741
 21
67.5774971043
  0
LINE
  5
31C
100
AcDbEntity
  8
0
100
AcDbLine
 62
7
  6
CONTINUOUS
 10
140.3305383316
 20
68.7515296017
 11
139.0291126809
 21
68.3528536712
  0
LINE
  5
31D
100
AcDbEntity
  8
0
100
AcDbLine
 62
7
  6
CONTINUOUS
 10
98.0987332349
 20
130.0309983386
 11
98.5754051254
 21
130.0309983386
  0
LINE
  5
31E
100
AcDbEntity
  8
0
100
AcDbLine
 62
7
  6
CONTINUOUS
 10
98.0987332349
 20
130.6345451946
 11
123.4805383316
 21
130.6345451954
  0
LINE
  5
31F
100
AcDbEntity
  8
0
100
AcDbLine
 62
7
  6
CONTINUOUS
 10
98.435791161
 20
130.988098586
 11
123.626984941
 21
130.988098586
  0
LINE
  5
320
100
AcDbEntity
  8
0
100
AcDbLine
 62
7
  6
CONTINUOUS
 10
124.0840917222
 20
131.4452053672
 11
97.9582193054
 21
131.4452053672
  0
LINE
  5
321
100
AcDbEntity
  8
0
100
AcDbLine
 62
7
  6
CONTINUOUS
 10
97.3141304666
 20
131.7987587577
 11
124.2305383316
 21
131.7987587577
  0
LINE
  5
322
100
AcDbEntity
  8
0
100
AcDbLine
 62
7
  6
CONTINUOUS
 10
91.7305383316
 20
132.8416519766
 11
92.3231579625
 21
132.8416519766
  0
LINE
  5
323
100
AcDbEntity
  8
0
100
AcDbLine
 62
7
  6
CONTINUOUS
 10
114.2305383316
 20
132.8416519766
 11
121.7305383316
 21
132.8416519766
  0
LINE
  5
324
100
AcDbEntity
  8
0
100
AcDbLine
 62
7
  6
CONTINUOUS
 10
92.2305383316
 20
136.3416519766
 11
97.7932878903
 21
136.3416519766
  0
LINE
  5
325
100
AcDbEntity
  8
0
100
AcDbLine
 62
7
  6
CONTINUOUS
 10
97.0557440004
 20
136.8416519766
 11
92.7305383316
 21
136.8416519766
  0
LINE
  5
326
100
AcDbEntity
  8
0
100
AcDbLine
 62
7
  6
CONTINUOUS
 10
97.2305383316
 20
137.3416519766
 11
97.5441295122
 21
137.3416519766
  0
LINE
  5
327
100
AcDbEntity
  8
0
100
AcDbLine
 62
7
  6
CONTINUOUS
 10
165.7305383316
 20
48.8416519766
 11
163.7098123894
 21
45.3416519766
  0
LINE
  5
328
100
AcDbEntity
  8
0
100
AcDbLine
 62
7
  6
CONTINUOUS
 10
140.3305383316
 20
62.9968455468
 11
136.6706606439
 21
61.916295584
  0
LINE
  5
329
100
AcDbEntity
  8
0
100
AcDbLine
 62
7
  6
CONTINUOUS
 10
139.6767705372
 20
63.2827925776
 11
135.8305383316
 21
62.1664991756
  0
LINE
  5
32A
100
AcDbEntity
  8
0
100
AcDbLine
 62
7
  6
CONTINUOUS
 10
124.2305383316
 20
138.6345451954
 11
123.8389790335
 21
138.6345451954
  0
LINE
  5
32B
100
AcDbEntity
  8
0
100
AcDbLine
 62
7
  6
CONTINUOUS
 10
114.2305383316
 20
138.6345451954
 11
97.2305383316
 21
138.6345451954
  0
LINE
  5
32C
100
AcDbEntity
  8
0
100
AcDbLine
 62
7
  6
CONTINUOUS
 10
114.2305383316
 20
138.9880984298
 11
97.0840917222
 21
138.988098586
  0
LINE
  5
32D
100
AcDbEntity
  8
0
100
AcDbLine
 62
7
  6
CONTINUOUS
 10
124.4805383316
 20
139.0916519766
 11
124.0053522957
 21
139.0916519766
  0
LINE
  5
32E
100
AcDbEntity
  8
0
100
AcDbLine
 62
7
  6
CONTINUOUS
 10
114.2305383316
 20
139.0916519766
 11
96.9805383316
 21
139.0916519766
  0
LINE
  5
32F
100
AcDbEntity
  8
0
100
AcDbLine
 62
7
  6
CONTINUOUS
 10
91.7305383316
 20
139.8416519766
 11
95.7305383316
 21
139.8416519766
  0
LINE
  5
330
100
AcDbEntity
  8
0
100
AcDbLine
 62
7
  6
CONTINUOUS
 10
96.9805383316
 20
142.5416519766
 11
111.9649693274
 21
142.5416519766
  0
LINE
  5
331
100
AcDbEntity
  8
0
100
AcDbLine
 62
7
  6
CONTINUOUS
 10
97.2805383316
 20
142.8416519766
 11
111.713239438
 21
142.8416519766
  0
LINE
  5
332
100
AcDbEntity
  8
0
100
AcDbLine
 62
7
  6
CONTINUOUS
 10
104.2960613858
 20
143.8416519766
 11
99.7305383316
 21
143.8416519766
  0
LINE
  5
333
100
AcDbEntity
  8
0
100
AcDbLine
 62
7
  6
CONTINUOUS
 10
101.2561489236
 20
144.641655149
 11
108.1927974977
 21
144.6416551778
  0
LINE
  5
334
100
AcDbEntity
  8
0
100
AcDbLine
 62
7
  6
CONTINUOUS
 10
110.0054555492
 20
144.8416519766
 11
100.7305383316
 21
144.8416519766
  0
LINE
  5
335
100
AcDbEntity
  8
0
100
AcDbLine
 62
7
  6
CONTINUOUS
 10
124.376984941
 20
138.988098586
 11
123.9676631518
 21
138.9881019045
  0
LINE
  5
336
100
AcDbEntity
  8
0
100
AcDbLine
 62
7
  6
CONTINUOUS
 10
101.7305383316
 20
147.7643017074
 11
102.4556211139
 21
147.7643017074
  0
LINE
  5
337
100
AcDbEntity
  8
0
100
AcDbLine
 62
7
  6
CONTINUOUS
 10
101.7305383316
 20
148.3416519766
 11
107.0981914666
 21
148.3416519766
  0
LINE
  5
338
100
AcDbEntity
  8
0
100
AcDbLine
 62
7
  6
CONTINUOUS
 10
106.2590918354
 20
149.3416519766
 11
103.7305383316
 21
149.3416519766
  0
LINE
  5
339
100
AcDbEntity
  8
0
100
AcDbLine
 62
7
  6
CONTINUOUS
 10
92.0041681517
 20
149.8416519766
 11
105.8395420198
 21
149.8416519766
  0
LINE
  5
33A
100
AcDbEntity
  8
0
100
AcDbLine
 62
7
  6
CONTINUOUS
 10
106.1131718399
 20
149.8416519766
 11
124.6117361781
 21
149.8416519766
  0
LINE
  5
33B
100
AcDbEntity
  8
0
100
AcDbLine
 62
7
  6
CONTINUOUS
 10
127.498487524
 20
149.8416519766
 11
129.2305383316
 21
149.8416519766
  0
LINE
  5
33C
100
AcDbEntity
  8
0
100
AcDbLine
 62
7
  6
CONTINUOUS
 10
95.7305383316
 20
153.8416519766
 11
129.2305383316
 21
153.8416519766
  0
LINE
  5
33D
100
AcDbEntity
  8
0
100
AcDbLine
 62
7
  6
CONTINUOUS
 10
117.7305383316
 20
154.495241815
 11
103.7305383316
 21
154.495241815
  0
LINE
  5
33E
100
AcDbEntity
  8
0
100
AcDbLine
 62
7
  6
CONTINUOUS
 10
117.4305383316
 20
155.0148570573
 11
104.0305383316
 21
155.0148570573
  0
LINE
  5
33F
100
AcDbEntity
  8
0
100
AcDbLine
 62
7
  6
CONTINUOUS
 10
105.7305383316
 20
159.3416519766
 11
115.7305383316
 21
159.3416519766
  0
LINE
  5
340
100
AcDbEntity
  8
0
100
AcDbLine
 62
7
  6
CONTINUOUS
 10
153.5305383316
 20
165.3416519766
 11
249.5305383316
 21
165.3416519766
  0
LINE
  5
341
100
AcDbEntity
  8
0
100
AcDbLine
 62
7
  6
CONTINUOUS
 10
149.1300332682
 20
166.8416519766
 11
152.7305383316
 21
166.8416519766
  0
LINE
  5
342
100
AcDbEntity
  8
0
100
AcDbLine
 62
7
  6
CONTINUOUS
 10
152.7305383316
 20
168.5416519766
 11
252.7305383316
 21
168.5416519766
  0
LINE
  5
343
100
AcDbEntity
  8
0
100
AcDbLine
 62
7
  6
CONTINUOUS
 10
152.7305383316
 20
169.1416519766
 11
252.7305383316
 21
169.1416519766
  0
LINE
  5
344
100
AcDbEntity
  8
0
100
AcDbLine
 62
7
  6
CONTINUOUS
 10
152.7305383316
 20
170.8416519766
 11
148.7158197058
 21
170.8416519766
  0
LINE
  5
345
100
AcDbEntity
  8
0
100
AcDbLine
 62
7
  6
CONTINUOUS
 10
153.5305383316
 20
172.3416519766
 11
249.5305383316
 21
172.3416519766
  0
LINE
  5
346
100
AcDbEntity
  8
0
100
AcDbLine
 62
7
  6
CONTINUOUS
 10
239.7305383316
 20
165.3416519766
 11
239.7305383316
 21
172.3416519766
  0
LINE
  5
347
100
AcDbEntity
  8
0
100
AcDbLine
 62
7
  6
CONTINUOUS
 10
252.7305383316
 20
168.5416519766
 11
252.7305383316
 21
169.1416519766
  0
ARC
  5
348
100
AcDbEntity
  8
0
100
AcDbCircle
 62
7
  6
CONTINUOUS
 10
142.3252405956
 20
-2416.8492488807
 40
2560.9732736217
100
AcDbArc
 50
90.7053198415
 51
90.8508450968
  0
ARC
  5
349
100
AcDbEntity
  8
0
100
AcDbCircle
 62
7
  6
CONTINUOUS
 10
63.4905383316
 20
81.3416519766
 40
3.3
100
AcDbArc
 50
180.0
 51
270.0
  0
ARC
  5
34A
100
AcDbEntity
  8
0
100
AcDbCircle
 62
7
  6
CONTINUOUS
 10
63.4905383316
 20
83.7416519766
 40
3.3
100
AcDbArc
 50
90.0
 51
180.0
  0
ARC
  5
34B
100
AcDbEntity
  8
0
100
AcDbCircle
 62
7
  6
CONTINUOUS
 10
92.3731790187
 20
42.8416519766
 40
3.0
100
AcDbArc
 50
225.0
 51
270.0
  0
ARC
  5
34C
100
AcDbEntity
  8
0
100
AcDbCircle
 62
7
  6
CONTINUOUS
 10
80.8878976445
 20
45.8416519766
 40
3.0
100
AcDbArc
 50
45.0
 51
90.0
  0
ARC
  5
34D
100
AcDbEntity
  8
0
100
AcDbCircle
 62
7
  6
CONTINUOUS
 10
68.6405383316
 20
84.4916519766
 40
2.55
100
AcDbArc
 50
276.0773563052
 51
90.0
  0
ARC
  5
34E
100
AcDbEntity
  8
0
100
AcDbCircle
 62
7
  6
CONTINUOUS
 10
63.4905383316
 20
83.7416519766
 40
2.25
100
AcDbArc
 50
90.0
 51
180.0
  0
ARC
  5
34F
100
AcDbEntity
  8
0
100
AcDbCircle
 62
7
  6
CONTINUOUS
 10
63.4905383316
 20
81.3416519766
 40
2.25
100
AcDbArc
 50
180.0
 51
270.0
  0
ARC
  5
350
100
AcDbEntity
  8
0
100
AcDbCircle
 62
7
  6
CONTINUOUS
 10
68.6405383316
 20
84.4916519766
 40
1.5
100
AcDbArc
 50
270.0
 51
90.0
  0
ARC
  5
351
100
AcDbEntity
  8
0
100
AcDbCircle
 62
7
  6
CONTINUOUS
 10
106.2283235391
 20
136.5370820208
 40
11.8045701635
100
AcDbArc
 50
85.6313325056
 51
89.9892500726
  0
ARC
  5
352
100
AcDbEntity
  8
0
100
AcDbCircle
 62
7
  6
CONTINUOUS
 10
95.7305383316
 20
149.8416519766
 40
4.0
100
AcDbArc
 50
90.0
 51
180.0
  0
ARC
  5
353
100
AcDbEntity
  8
0
100
AcDbCircle
 62
7
  6
CONTINUOUS
 10
92.3731790187
 20
121.8416519766
 40
3.0
100
AcDbArc
 50
90.0
 51
135.0
  0
ARC
  5
354
100
AcDbEntity
  8
0
100
AcDbCircle
 62
7
  6
CONTINUOUS
 10
80.8878976445
 20
118.8416519766
 40
3.0
100
AcDbArc
 50
270.0
 51
315.0
  0
ARC
  5
355
100
AcDbEntity
  8
0
100
AcDbCircle
 62
7
  6
CONTINUOUS
 10
104.3305383316
 20
154.495241815
 40
0.6
100
AcDbArc
 50
120.0
 51
180.0
  0
ARC
  5
356
100
AcDbEntity
  8
0
100
AcDbCircle
 62
7
  6
CONTINUOUS
 10
96.2305383316
 20
149.3416519766
 40
0.5
100
AcDbArc
 50
90.0
 51
180.0
  0
ARC
  5
357
100
AcDbEntity
  8
0
100
AcDbCircle
 62
7
  6
CONTINUOUS
 10
96.7305383316
 20
137.3416519766
 40
0.5
100
AcDbArc
 50
270.0
 51
360.0
  0
ARC
  5
358
100
AcDbEntity
  8
0
100
AcDbCircle
 62
7
  6
CONTINUOUS
 10
96.7305383316
 20
138.6345451954
 40
0.5
100
AcDbArc
 50
0.0
 51
45.0000000473
  0
ARC
  5
359
100
AcDbEntity
  8
0
100
AcDbCircle
 62
7
  6
CONTINUOUS
 10
92.7305383316
 20
136.3416519766
 40
0.5
100
AcDbArc
 50
90.0
 51
180.0
  0
ARC
  5
35A
100
AcDbEntity
  8
0
100
AcDbCircle
 62
7
  6
CONTINUOUS
 10
92.7305383316
 20
133.1303271112
 40
0.5
100
AcDbArc
 50
180.0
 51
240.0
  0
ARC
  5
35B
100
AcDbEntity
  8
0
100
AcDbCircle
 62
7
  6
CONTINUOUS
 10
97.4805424964
 20
129.2332103896
 40
0.4999998429
100
AcDbArc
 50
0.0002756569
 51
60.0005351919
  0
ARC
  5
35C
100
AcDbEntity
  8
0
100
AcDbCircle
 62
7
  6
CONTINUOUS
 10
149.2321545801
 20
50.4829222144
 40
5.0072603009
100
AcDbArc
 50
269.7177077498
 51
270.0004282323
  0
ARC
  5
35D
100
AcDbEntity
  8
0
100
AcDbCircle
 62
7
  6
CONTINUOUS
 10
117.3505383316
 20
78.8816519766
 40
3.22
100
AcDbArc
 50
79.6230044397
 51
180.0
  0
ARC
  5
35E
100
AcDbEntity
  8
0
100
AcDbCircle
 62
7
  6
CONTINUOUS
 10
116.3305383316
 20
79.1416519766
 40
3.2
100
AcDbArc
 50
90.0
 51
180.0
  0
ARC
  5
35F
100
AcDbEntity
  8
0
100
AcDbCircle
 62
7
  6
CONTINUOUS
 10
114.9804142382
 20
81.0613106154
 40
2.1
100
AcDbArc
 50
113.8725051961
 51
151.75030876
  0
ARC
  5
360
100
AcDbEntity
  8
0
100
AcDbCircle
 62
7
  6
CONTINUOUS
 10
149.2074842628
 20
44.3416519766
 40
1.0
100
AcDbArc
 50
90.0
 51
165.0
  0
ARC
  5
361
100
AcDbEntity
  8
0
100
AcDbCircle
 62
7
  6
CONTINUOUS
 10
145.6632113436
 20
38.8416519766
 40
1.0
100
AcDbArc
 50
270.0
 51
345.0000002104
  0
ARC
  5
362
100
AcDbEntity
  8
0
100
AcDbCircle
 62
7
  6
CONTINUOUS
 10
133.6447518939
 20
38.8416519766
 40
1.0
100
AcDbArc
 50
224.9999999996
 51
270.0
  0
ARC
  5
363
100
AcDbEntity
  8
0
100
AcDbCircle
 62
7
  6
CONTINUOUS
 10
130.8163247692
 20
38.8416519766
 40
1.0
100
AcDbArc
 50
44.9999999995
 51
90.0
  0
ARC
  5
364
100
AcDbEntity
  8
0
100
AcDbCircle
 62
7
  6
CONTINUOUS
 10
149.2321646618
 20
60.6641489481
 40
0.5197910386
100
AcDbArc
 50
89.9969846614
 51
92.7215062861
  0
ARC
  5
365
100
AcDbEntity
  8
0
100
AcDbCircle
 62
7
  6
CONTINUOUS
 10
149.2321646615
 20
104.0191549823
 40
0.5197910159
100
AcDbArc
 50
267.2784936326
 51
270.0030152551
  0
ARC
  5
366
100
AcDbEntity
  8
0
100
AcDbCircle
 62
7
  6
CONTINUOUS
 10
149.2321664661
 20
97.5788361531
 40
0.4710938965
100
AcDbArc
 50
89.9968895351
 51
93.0032948778
  0
ARC
  5
367
100
AcDbEntity
  8
0
100
AcDbCircle
 62
7
  6
CONTINUOUS
 10
149.2321664659
 20
67.1044677776
 40
0.4710938742
100
AcDbArc
 50
266.9967050122
 51
270.0031103534
  0
ARC
  5
368
100
AcDbEntity
  8
0
100
AcDbCircle
 62
7
  6
CONTINUOUS
 10
149.2321545804
 20
114.2003815021
 40
5.0072605376
100
AcDbArc
 50
89.9995717583
 51
90.2822922408
  0
ARC
  5
369
100
AcDbEntity
  8
0
100
AcDbCircle
 62
7
  6
CONTINUOUS
 10
148.7158197058
 20
165.8416519766
 40
5.0
100
AcDbArc
 50
90.0
 51
135.0
  0
ARC
  5
36A
100
AcDbEntity
  8
0
100
AcDbCircle
 62
7
  6
CONTINUOUS
 10
129.2305383316
 20
154.8416519766
 40
5.0
100
AcDbArc
 50
270.0
 51
315.0
  0
ARC
  5
36B
100
AcDbEntity
  8
0
100
AcDbCircle
 62
7
  6
CONTINUOUS
 10
149.1300332682
 20
164.8416519766
 40
2.0
100
AcDbArc
 50
90.0
 51
135.0
  0
ARC
  5
36C
100
AcDbEntity
  8
0
100
AcDbCircle
 62
7
  6
CONTINUOUS
 10
149.2074842628
 20
120.3416519766
 40
1.0
100
AcDbArc
 50
195.0
 51
270.0
  0
ARC
  5
36D
100
AcDbEntity
  8
0
100
AcDbCircle
 62
7
  6
CONTINUOUS
 10
145.6632113436
 20
125.8416519766
 40
1.0
100
AcDbArc
 50
14.9999997896
 51
90.0
  0
ARC
  5
36E
100
AcDbEntity
  8
0
100
AcDbCircle
 62
7
  6
CONTINUOUS
 10
129.2305383316
 20
154.8416519766
 40
1.0
100
AcDbArc
 50
270.0
 51
315.0
  0
ARC
  5
36F
100
AcDbEntity
  8
0
100
AcDbCircle
 62
7
  6
CONTINUOUS
 10
133.6447518939
 20
125.8416519766
 40
1.0
100
AcDbArc
 50
90.0
 51
135.0000000006
  0
ARC
  5
370
100
AcDbEntity
  8
0
100
AcDbCircle
 62
7
  6
CONTINUOUS
 10
130.8163247692
 20
125.8416519766
 40
1.0
100
AcDbArc
 50
270.0
 51
315.0000000004
  0
ARC
  5
371
100
AcDbEntity
  8
0
100
AcDbCircle
 62
7
  6
CONTINUOUS
 10
153.5305383316
 20
171.5416519766
 40
0.8
100
AcDbArc
 50
90.0
 51
180.0
  0
ARC
  5
372
100
AcDbEntity
  8
0
100
AcDbCircle
 62
7
  6
CONTINUOUS
 10
153.5305383316
 20
166.1416519766
 40
0.8
100
AcDbArc
 50
180.0
 51
270.0
  0
ARC
  5
373
100
AcDbEntity
  8
0
100
AcDbCircle
 62
7
  6
CONTINUOUS
 10
117.1305383316
 20
154.495241815
 40
0.6
100
AcDbArc
 50
0.0
 51
60.0
  0
ARC
  5
374
100
AcDbEntity
  8
0
100
AcDbCircle
 62
7
  6
CONTINUOUS
 10
123.7305383316
 20
131.7987587577
 40
0.5
100
AcDbArc
 50
315.0
 51
359.9999999987
  0
ARC
  5
375
100
AcDbEntity
  8
0
100
AcDbCircle
 62
7
  6
CONTINUOUS
 10
123.9805383316
 20
130.6345451954
 40
0.5
100
AcDbArc
 50
135.0
 51
180.0
  0
ARC
  5
376
100
AcDbEntity
  8
0
100
AcDbCircle
 62
7
  6
CONTINUOUS
 10
124.7305383316
 20
138.6345451954
 40
0.5
100
AcDbArc
 50
134.9999999446
 51
180.0
  0
ARC
  5
377
100
AcDbEntity
  8
0
100
AcDbCircle
 62
7
  6
CONTINUOUS
 10
249.5305383316
 20
168.5416519766
 40
3.2
100
AcDbArc
 50
270.0
 51
360.0
  0
ARC
  5
378
100
AcDbEntity
  8
0
100
AcDbCircle
 62
7
  6
CONTINUOUS
 10
249.5305383316
 20
169.1416519766
 40
3.2
100
AcDbArc
 50
0.0
 51
90.0
  0
SPLINE
  5
379
100
AcDbEntity
  8
0
100
AcDbSpline
 62
7
  6
CONTINUOUS
 70
0
 71
3
 72
11
 73
7
 74
0
 42
0.0000001
 43
0.0000001
 44
0.0000000001
 40
0.0
 40
0.0
 40
0.0
 40
0.0
 40
0.2514101512
 40
0.5017415083
 40
0.7511442914
 40
1.0
 40
1.0
 40
1.0
 40
1.0
 10
105.7305383316
 20
158.8950699892
 30
0.0
 10
105.9332823062
 20
158.9626513141
 30
0.0
 10
106.3417183164
 20
159.0865263206
 30
0.0
 10
106.9645764942
 20
159.229748122
 30
0.0
 10
107.5951799899
 20
159.3207646227
 30
0.0
 10
108.0189988189
 20
159.3416519766
 30
0.0
 10
108.2305383318
 20
159.3416519766
 30
0.0
  0
SPLINE
  5
37A
100
AcDbEntity
  8
0
100
AcDbSpline
 62
7
  6
CONTINUOUS
 70
0
 71
3
 72
11
 73
7
 74
0
 42
0.0000001
 43
0.0000001
 44
0.0000000001
 40
0.0
 40
0.0
 40
0.0
 40
0.0
 40
0.2488504934
 40
0.4982498921
 40
0.7485823732
 40
1.0
 40
1.0
 40
1.0
 40
1.0
 10
108.2305383318
 20
159.3416519766
 30
0.0
 10
108.4420733665
 20
159.3416519765
 30
0.0
 10
108.8658846479
 20
159.3207619778
 30
0.0
 10
109.4964817707
 20
159.229748213
 30
0.0
 10
110.1193450255
 20
159.0865291996
 30
0.0
 10
110.5277883716
 20
158.9626533092
 30
0.0
 10
110.7305383316
 20
158.8950699892
 30
0.0
  0
SPLINE
  5
37B
100
AcDbEntity
  8
0
100
AcDbSpline
 62
7
  6
CONTINUOUS
 70
0
 71
3
 72
15
 73
11
 74
0
 42
0.0000001
 43
0.0000001
 44
0.0000000001
 40
0.0
 40
0.0
 40
0.0
 40
0.0
 40
0.1257074525
 40
0.250873099
 40
0.3755743725
 40
0.5000000224
 40
0.6244256683
 40
0.7491269332
 40
0.8742925582
 40
1.0
 40
1.0
 40
1.0
 40
1.0
 10
110.7305383316
 20
155.5497705276
 30
0.0
 10
110.5277906292
 20
155.617353095
 30
0.0
 10
110.1193477209
 20
155.7412278236
 30
0.0
 10
109.4964986257
 20
155.88444893
 30
0.0
 10
108.8658516279
 20
155.9754587647
 30
0.0
 10
108.2305382248
 20
156.0067743765
 30
0.0
 10
107.5952248389
 20
155.9754587257
 30
0.0
 10
106.9645779009
 20
155.8844488891
 30
0.0
 10
106.3417288718
 20
155.7412278047
 30
0.0
 10
105.9332860167
 20
155.6173530893
 30
0.0
 10
105.7305383316
 20
155.5497705276
 30
0.0
  0
SPLINE
  5
37C
100
AcDbEntity
  8
0
100
AcDbSpline
 62
7
  6
CONTINUOUS
 70
0
 71
3
 72
11
 73
7
 74
0
 42
0.0000001
 43
0.0000001
 44
0.0000000001
 40
0.0
 40
0.0
 40
0.0
 40
0.0
 40
0.2514101512
 40
0.5017415083
 40
0.7511442914
 40
1.0
 40
1.0
 40
1.0
 40
1.0
 10
110.7305383316
 20
158.8950699892
 30
0.0
 10
110.9332823062
 20
158.9626513141
 30
0.0
 10
111.3417183164
 20
159.0865263206
 30
0.0
 10
111.9645764942
 20
159.229748122
 30
0.0
 10
112.5951799899
 20
159.3207646227
 30
0.0
 10
113.0189988189
 20
159.3416519766
 30
0.0
 10
113.2305383318
 20
159.3416519766
 30
0.0
  0
SPLINE
  5
37D
100
AcDbEntity
  8
0
100
AcDbSpline
 62
7
  6
CONTINUOUS
 70
0
 71
3
 72
11
 73
7
 74
0
 42
0.0000001
 43
0.0000001
 44
0.0000000001
 40
0.0
 40
0.0
 40
0.0
 40
0.0
 40
0.2488504934
 40
0.4982498921
 40
0.7485823732
 40
1.0
 40
1.0
 40
1.0
 40
1.0
 10
113.2305383318
 20
159.3416519766
 30
0.0
 10
113.4420733665
 20
159.3416519765
 30
0.0
 10
113.8658846479
 20
159.3207619778
 30
0.0
 10
114.4964817707
 20
159.229748213
 30
0.0
 10
115.1193450255
 20
159.0865291996
 30
0.0
 10
115.5277883716
 20
158.9626533092
 30
0.0
 10
115.7305383316
 20
158.8950699892
 30
0.0
  0
SPLINE
  5
37E
100
AcDbEntity
  8
0
100
AcDbSpline
 62
7
  6
CONTINUOUS
 70
0
 71
3
 72
15
 73
11
 74
0
 42
0.0000001
 43
0.0000001
 44
0.0000000001
 40
0.0
 40
0.0
 40
0.0
 40
0.0
 40
0.1257074525
 40
0.250873099
 40
0.3755743725
 40
0.5000000224
 40
0.6244256683
 40
0.7491269332
 40
0.8742925582
 40
1.0
 40
1.0
 40
1.0
 40
1.0
 10
115.7305383316
 20
155.5497705276
 30
0.0
 10
115.5277906292
 20
155.617353095
 30
0.0
 10
115.1193477209
 20
155.7412278236
 30
0.0
 10
114.4964986257
 20
155.88444893
 30
0.0
 10
113.8658516279
 20
155.9754587647
 30
0.0
 10
113.2305382248
 20
156.0067743765
 30
0.0
 10
112.5952248389
 20
155.9754587257
 30
0.0
 10
111.9645779009
 20
155.8844488891
 30
0.0
 10
111.3417288718
 20
155.7412278047
 30
0.0
 10
110.9332860167
 20
155.6173530893
 30
0.0
 10
110.7305383316
 20
155.5497705276
 30
0.0
  0
SPLINE
  5
37F
100
AcDbEntity
  8
0
100
AcDbSpline
 62
7
  6
CONTINUOUS
 70
0
 71
3
 72
9
 73
5
 74
0
 42
0.0000001
 43
0.0000001
 44
0.0000000001
 40
0.0
 40
0.0
 40
0.0
 40
0.0
 40
0.179905068
 40
1.0
 40
1.0
 40
1.0
 40
1.0
 10
99.7305387792
 20
143.6403569767
 30
0.0
 10
99.7305384002
 20
143.6396796409
 30
0.0
 10
99.7316129213
 20
143.6359148009
 30
0.0
 10
99.7353914145
 20
143.633878814
 30
0.0
 10
99.7381300896
 20
143.6324529458
 30
0.0
  0
SPLINE
  5
380
100
AcDbEntity
  8
0
100
AcDbSpline
 62
7
  6
CONTINUOUS
 70
0
 71
3
 72
9
 73
5
 74
0
 42
0.0000001
 43
0.0000001
 44
0.0000000001
 40
0.0
 40
0.0
 40
0.0
 40
0.0
 40
0.2109673862
 40
1.0
 40
1.0
 40
1.0
 40
1.0
 10
99.944955671
 20
144.0560606595
 30
0.0
 10
99.9464411571
 20
144.0575471515
 30
0.0
 10
99.9539160315
 20
144.0641606787
 30
0.0
 10
99.9625821406
 20
144.0692804617
 30
0.0
 10
99.9695524251
 20
144.0729124366
 30
0.0
  0
SPLINE
  5
381
100
AcDbEntity
  8
0
100
AcDbSpline
 62
7
  6
CONTINUOUS
 70
0
 71
3
 72
9
 73
5
 74
0
 42
0.0000001
 43
0.0000001
 44
0.0000000001
 40
0.0
 40
0.0
 40
0.0
 40
0.0
 40
0.2159530938
 40
1.0
 40
1.0
 40
1.0
 40
1.0
 10
100.5387248595
 20
143.0324247458
 30
0.0
 10
100.5395070623
 20
143.0328324832
 30
0.0
 10
100.5431849738
 20
143.0346135754
 30
0.0
 10
100.5470231255
 20
143.0360433855
 30
0.0
 10
100.5500576218
 20
143.0370672252
 30
0.0
  0
SPLINE
  5
382
100
AcDbEntity
  8
0
100
AcDbSpline
 62
7
  6
CONTINUOUS
 70
0
 71
3
 72
23
 73
19
 74
0
 42
0.0000001
 43
0.0000001
 44
0.0000000001
 40
0.0
 40
0.0
 40
0.0
 40
0.0
 40
0.0041146628
 40
0.0104381894
 40
0.0189773792
 40
0.0297224203
 40
0.0426491591
 40
0.0577297098
 40
0.0942116113
 40
0.1388263035
 40
0.1911518199
 40
0.2506940275
 40
0.3168866859
 40
0.3890996214
 40
0.4666474141
 40
0.6347513468
 40
0.8148150414
 40
1.0
 40
1.0
 40
1.0
 40
1.0
 10
100.5500576218
 20
143.0370672252
 30
0.0
 10
100.5639996285
 20
143.0417712611
 30
0.0
 10
100.6006951156
 20
143.0494027884
 30
0.0
 10
100.6677742441
 20
143.0593631219
 30
0.0
 10
100.7588434277
 20
143.0693688158
 30
0.0
 10
100.8735726826
 20
143.0795567643
 30
0.0
 10
101.0117823448
 20
143.0897860533
 30
0.0
 10
101.2419336051
 20
143.1044318827
 30
0.0
 10
101.5854198716
 20
143.1221779576
 30
0.0
 10
102.0621093703
 20
143.1425564765
 30
0.0
 10
102.6213252668
 20
143.1630217915
 30
0.0
 10
103.2577459819
 20
143.1835602391
 30
0.0
 10
103.9653167385
 20
143.2041400036
 30
0.0
 10
104.7372998417
 20
143.2247520344
 30
0.0
 10
105.8736450068
 20
143.2530255909
 30
0.0
 10
107.3956256647
 20
143.2877264851
 30
0.0
 10
109.3024805447
 20
143.3284503442
 30
0.0
 10
110.6083419574
 20
143.3555898718
 30
0.0
 10
111.2704260988
 20
143.369421613
 30
0.0
  0
SPLINE
  5
383
100
AcDbEntity
  8
0
100
AcDbSpline
 62
7
  6
CONTINUOUS
 70
0
 71
3
 72
9
 73
5
 74
0
 42
0.0000001
 43
0.0000001
 44
0.0000000001
 40
0.0
 40
0.0
 40
0.0
 40
0.0
 40
0.3706327729
 40
1.0
 40
1.0
 40
1.0
 40
1.0
 10
100.477438095
 20
144.5885517399
 30
0.0
 10
100.4788365637
 20
144.5899502087
 30
0.0
 10
100.4839191404
 20
144.5921443633
 30
0.0
 10
100.4889817033
 20
144.5935962007
 30
0.0
 10
100.4922426276
 20
144.5943993178
 30
0.0
  0
SPLINE
  5
384
100
AcDbEntity
  8
0
100
AcDbSpline
 62
7
  6
CONTINUOUS
 70
0
 71
3
 72
9
 73
5
 74
0
 42
0.0000001
 43
0.0000001
 44
0.0000000001
 40
0.0
 40
0.0
 40
0.0
 40
0.0
 40
0.2020834562
 40
1.0
 40
1.0
 40
1.0
 40
1.0
 10
100.4922426276
 20
144.5943993178
 30
0.0
 10
100.4942995878
 20
144.5949059164
 30
0.0
 10
100.5045347087
 20
144.5971831209
 30
0.0
 10
100.5149005872
 20
144.5988172351
 30
0.0
 10
100.5231804881
 20
144.6000038642
 30
0.0
  0
SPLINE
  5
385
100
AcDbEntity
  8
0
100
AcDbSpline
 62
7
  6
CONTINUOUS
 70
0
 71
3
 72
11
 73
7
 74
0
 42
0.0000001
 43
0.0000001
 44
0.0000000001
 40
0.0
 40
0.0
 40
0.0
 40
0.0
 40
0.1376767198
 40
0.3509604924
 40
0.6389719917
 40
1.0
 40
1.0
 40
1.0
 40
1.0
 10
100.5231804881
 20
144.6000038642
 30
0.0
 10
100.5565389079
 20
144.6047846063
 30
0.0
 10
100.6421802761
 20
144.6123521702
 30
0.0
 10
100.7982378322
 20
144.6223430209
 30
0.0
 10
101.0090924032
 20
144.6323483307
 30
0.0
 10
101.1678363703
 20
144.638493025
 30
0.0
 10
101.2561489236
 20
144.641655149
 30
0.0
  0
SPLINE
  5
386
100
AcDbEntity
  8
0
100
AcDbSpline
 62
7
  6
CONTINUOUS
 70
0
 71
3
 72
9
 73
5
 74
0
 42
0.0000001
 43
0.0000001
 44
0.0000000001
 40
0.0
 40
0.0
 40
0.0
 40
0.0
 40
0.2578414972
 40
1.0
 40
1.0
 40
1.0
 40
1.0
 10
111.6150814029
 20
142.9588277118
 30
0.0
 10
111.1107478742
 20
142.9490398345
 30
0.0
 10
109.1547620887
 20
142.9112565002
 30
0.0
 10
107.1987791945
 20
142.8731495958
 30
0.0
 10
105.7471982813
 20
142.8416516801
 30
0.0
  0
SPLINE
  5
387
100
AcDbEntity
  8
0
100
AcDbSpline
 62
7
  6
CONTINUOUS
 70
0
 71
3
 72
10
 73
6
 74
0
 42
0.0000001
 43
0.0000001
 44
0.0000000001
 40
0.0
 40
0.0
 40
0.0
 40
0.0
 40
0.5011988852
 40
0.7507952752
 40
1.0
 40
1.0
 40
1.0
 40
1.0
 10
102.4556211139
 20
147.7643017074
 30
0.0
 10
103.0700814699
 20
147.9428597471
 30
0.0
 10
104.0068178748
 20
148.1618392642
 30
0.0
 10
105.2752377672
 20
148.3154721229
 30
0.0
 10
105.912379709
 20
148.3416519824
 30
0.0
 10
106.2305383317
 20
148.3416519766
 30
0.0
  0
SPLINE
  5
388
100
AcDbEntity
  8
0
100
AcDbSpline
 62
7
  6
CONTINUOUS
 70
0
 71
3
 72
25
 73
21
 74
0
 42
0.0000001
 43
0.0000001
 44
0.0000000001
 40
0.0
 40
0.0
 40
0.0
 40
0.0
 40
0.2202576248
 40
0.4178304595
 40
0.5072148718
 40
0.5899220513
 40
0.6656635086
 40
0.7341659522
 40
0.7951992574
 40
0.8485470518
 40
0.8940319368
 40
0.9314977112
 40
0.960823669
 40
0.9724100048
 40
0.9819354987
 40
0.989401328
 40
0.9948248733
 40
0.9967868528
 40
0.9982691454
 40
1.0
 40
1.0
 40
1.0
 40
1.0
 10
104.2960613858
 20
143.8416519766
 30
0.0
 10
103.9602061553
 20
143.8336415408
 30
0.0
 10
103.3231003531
 20
143.8178381367
 30
0.0
 10
102.5497565666
 20
143.7965173591
 30
0.0
 10
101.9861857033
 20
143.7792339639
 30
0.0
 10
101.6083820464
 20
143.7667163381
 30
0.0
 10
101.2624472621
 20
143.754212843
 30
0.0
 10
100.9495938869
 20
143.7417234147
 30
0.0
 10
100.670925538
 20
143.7292607905
 30
0.0
 10
100.4274031606
 20
143.7168276174
 30
0.0
 10
100.2198765026
 20
143.7044595777
 30
0.0
 10
100.0490627901
 20
143.6921544891
 30
0.0
 10
99.9299885514
 20
143.6813952021
 30
0.0
 10
99.8535725197
 20
143.6724073525
 30
0.0
 10
99.8104258934
 20
143.6662776225
 30
0.0
 10
99.7767395596
 20
143.6601392261
 30
0.0
 10
99.7547810204
 20
143.654864768
 30
0.0
 10
99.7419053917
 20
143.6501623963
 30
0.0
 10
99.7350921393
 20
143.6468840308
 30
0.0
 10
99.7305402562
 20
143.6429969843
 30
0.0
 10
99.7305387792
 20
143.6403569767
 30
0.0
  0
SPLINE
  5
389
100
AcDbEntity
  8
0
100
AcDbSpline
 62
7
  6
CONTINUOUS
 70
0
 71
3
 72
16
 73
12
 74
0
 42
0.0000001
 43
0.0000001
 44
0.0000000001
 40
0.0
 40
0.0
 40
0.0
 40
0.0
 40
0.0079066463
 40
0.0214860615
 40
0.0702705
 40
0.1493956098
 40
0.2591073121
 40
0.3993367086
 40
0.5698788202
 40
0.7702759566
 40
1.0
 40
1.0
 40
1.0
 40
1.0
 10
100.5305538059
 20
144.560907877
 30
0.0
 10
100.5305560758
 20
144.5628434805
 30
0.0
 10
100.5342715031
 20
144.5675267764
 30
0.0
 10
100.5496916305
 20
144.5747380231
 30
0.0
 10
100.5836816758
 20
144.5833325006
 30
0.0
 10
100.6409208564
 20
144.5927221278
 30
0.0
 10
100.7209825634
 20
144.6024866229
 30
0.0
 10
100.8234216466
 20
144.6123373842
 30
0.0
 10
100.9481798004
 20
144.6222736803
 30
0.0
 10
101.0948861646
 20
144.632247663
 30
0.0
 10
101.1999997755
 20
144.6384929077
 30
0.0
 10
101.2561489236
 20
144.641655149
 30
0.0
  0
SPLINE
  5
38A
100
AcDbEntity
  8
0
100
AcDbSpline
 62
7
  6
CONTINUOUS
 70
0
 71
3
 72
22
 73
18
 74
0
 42
0.0000001
 43
0.0000001
 44
0.0000000001
 40
0.0
 40
0.0
 40
0.0
 40
0.0
 40
0.0054380609
 40
0.0127433608
 40
0.0219532886
 40
0.0330800291
 40
0.0610766663
 40
0.0966397766
 40
0.1396027877
 40
0.1897309354
 40
0.2467423634
 40
0.3103025168
 40
0.3800287563
 40
0.4554972148
 40
0.621744229
 40
0.8048225748
 40
1.0
 40
1.0
 40
1.0
 40
1.0
 10
99.9695524251
 20
144.0729124366
 30
0.0
 10
99.982816053
 20
144.0798236555
 30
0.0
 10
100.0155822317
 20
144.0926713927
 30
0.0
 10
100.0735684125
 20
144.1095322965
 30
0.0
 10
100.1477011941
 20
144.1265630992
 30
0.0
 10
100.2783100398
 20
144.1513770834
 30
0.0
 10
100.4816116542
 20
144.1812393073
 30
0.0
 10
100.7725829953
 20
144.2154880908
 30
0.0
 10
101.1247498495
 20
144.2500205776
 30
0.0
 10
101.5361110886
 20
144.2848372527
 30
0.0
 10
102.0042827784
 20
144.3198535017
 30
0.0
 10
102.5264748074
 20
144.3550523426
 30
0.0
 10
103.0995228353
 20
144.3904169173
 30
0.0
 10
103.9546795927
 20
144.4393611883
 30
0.0
 10
105.1214236195
 20
144.4998738192
 30
0.0
 10
106.6172721158
 20
144.5710502358
 30
0.0
 10
107.6565325811
 20
144.6178290807
 30
0.0
 10
108.1927974977
 20
144.6416551778
 30
0.0
  0
SPLINE
  5
38B
100
AcDbEntity
  8
0
100
AcDbSpline
 62
7
  6
CONTINUOUS
 70
0
 71
3
 72
23
 73
19
 74
0
 42
0.0000001
 43
0.0000001
 44
0.0000000001
 40
0.0
 40
0.0
 40
0.0
 40
0.0
 40
0.0033817931
 40
0.008810893
 40
0.0163184762
 40
0.0259091101
 40
0.0375742997
 40
0.0512966489
 40
0.0848338963
 40
0.1263181983
 40
0.1754905351
 40
0.2320374086
 40
0.2956032374
 40
0.3657786729
 40
0.4421204102
 40
0.6113145505
 40
0.7988625808
 40
1.0
 40
1.0
 40
1.0
 40
1.0
 10
100.5387223848
 20
144.3694309513
 30
0.0
 10
100.5463823953
 20
144.3734215159
 30
0.0
 10
100.5682613284
 20
144.3796595607
 30
0.0
 10
100.6090347715
 20
144.3877917732
 30
0.0
 10
100.6660627313
 20
144.3959431248
 30
0.0
 10
100.7390331347
 20
144.4042794283
 30
0.0
 10
100.8279879014
 20
144.4126451747
 30
0.0
 10
100.9780001422
 20
144.4246805878
 30
0.0
 10
101.2041994976
 20
144.439234346
 30
0.0
 10
101.5209552071
 20
144.4559235058
 30
0.0
 10
101.8965450486
 20
144.4726854634
 30
0.0
 10
102.3285752909
 20
144.4895141795
 30
0.0
 10
102.8142826122
 20
144.5063767689
 30
0.0
 10
103.3505724525
 20
144.523269328
 30
0.0
 10
104.1565663033
 20
144.5466224841
 30
0.0
 10
105.2622990839
 20
144.5753155215
 30
0.0
 10
106.6867390925
 20
144.608799713
 30
0.0
 10
107.6792086278
 20
144.6305929062
 30
0.0
 10
108.1927974977
 20
144.6416551778
 30
0.0
  0
SPLINE
  5
38C
100
AcDbEntity
  8
0
100
AcDbSpline
 62
7
  6
CONTINUOUS
 70
0
 71
3
 72
30
 73
26
 74
0
 42
0.0000001
 43
0.0000001
 44
0.0000000001
 40
0.0
 40
0.0
 40
0.0
 40
0.0
 40
0.0005895113
 40
0.0010456881
 40
0.0016342671
 40
0.0032342368
 40
0.0054174823
 40
0.0115630045
 40
0.0200884145
 40
0.0309812639
 40
0.0442217949
 40
0.0597773749
 40
0.0776098088
 40
0.0976777606
 40
0.1199289271
 40
0.1707558308
 40
0.2295807397
 40
0.2958138882
 40
0.3687879195
 40
0.4477668456
 40
0.5319557899
 40
0.6205065506
 40
0.7125255737
 40
0.8070856204
 40
1.0
 40
1.0
 40
1.0
 40
1.0
 10
100.5305445395
 20
143.2239016538
 30
0.0
 10
100.5305467836
 20
143.2259821593
 30
0.0
 10
100.5333180608
 20
143.2292747181
 30
0.0
 10
100.5381220767
 20
143.2322178028
 30
0.0
 10
100.5466636393
 20
143.2361801753
 30
0.0
 10
100.5614174499
 20
143.2407047277
 30
0.0
 10
100.5955947608
 20
143.2485657788
 30
0.0
 10
100.6544372797
 20
143.2575753288
 30
0.0
 10
100.7440594665
 20
143.2679461386
 30
0.0
 10
100.8588593294
 20
143.2783645742
 30
0.0
 10
100.9985354488
 20
143.2888908998
 30
0.0
 10
101.1627610358
 20
143.2994516997
 30
0.0
 10
101.3511216657
 20
143.3100466449
 30
0.0
 10
101.5631445659
 20
143.3206591557
 30
0.0
 10
101.8915420185
 20
143.3354958999
 30
0.0
 10
102.3567019899
 20
143.3537123686
 30
0.0
 10
102.9770790061
 20
143.3748132331
 30
0.0
 10
103.6756561223
 20
143.3959651361
 30
0.0
 10
104.4453887512
 20
143.4171581597
 30
0.0
 10
105.278512371
 20
143.4383776567
 30
0.0
 10
106.1666255549
 20
143.4596161132
 30
0.0
 10
107.100772028
 20
143.4808676717
 30
0.0
 10
108.0715290816
 20
143.5021289317
 30
0.0
 10
109.4105353452
 20
143.5306746693
 30
0.0
 10
110.4248724597
 20
143.5517686812
 30
0.0
 10
111.1055586871
 20
143.5659786772
 30
0.0
  0
SPLINE
  5
38D
100
AcDbEntity
  8
0
100
AcDbSpline
 62
7
  6
CONTINUOUS
 70
0
 71
3
 72
11
 73
7
 74
0
 42
0.0000001
 43
0.0000001
 44
0.0000000001
 40
0.0
 40
0.0
 40
0.0
 40
0.0
 40
0.2512009484
 40
0.4999999952
 40
0.7487990583
 40
1.0
 40
1.0
 40
1.0
 40
1.0
 10
149.2321937758
 20
45.4756619136
 30
0.0
 10
149.5196836792
 20
46.7703178864
 30
0.0
 10
149.9805549144
 20
49.3746532489
 30
0.0
 10
150.227251632
 20
53.3298009602
 30
0.0
 10
149.9805549314
 20
57.284948637
 30
0.0
 10
149.5196837
 20
59.889284054
 30
0.0
 10
149.2321937758
 20
61.183939986
 30
0.0
  0
SPLINE
  5
38E
100
AcDbEntity
  8
0
100
AcDbSpline
 62
7
  6
CONTINUOUS
 70
0
 71
3
 72
11
 73
7
 74
0
 42
0.0000001
 43
0.0000001
 44
0.0000000001
 40
0.0
 40
0.0
 40
0.0
 40
0.0
 40
0.2552345212
 40
0.507042276
 40
0.7549413506
 40
1.0
 40
1.0
 40
1.0
 40
1.0
 10
149.2074842628
 20
45.475722688
 30
0.0
 10
149.0978621602
 20
45.4762635745
 30
0.0
 10
148.8782582846
 20
45.4417888825
 30
0.0
 10
148.5858362976
 20
45.2892598906
 30
0.0
 10
148.3604592047
 20
45.0544716215
 30
0.0
 10
148.2694624355
 20
44.8582433509
 30
0.0
 10
148.2415584365
 20
44.7567567112
 30
0.0
  0
SPLINE
  5
38F
100
AcDbEntity
  8
0
100
AcDbSpline
 62
7
  6
CONTINUOUS
 70
0
 71
3
 72
11
 73
7
 74
0
 42
0.0000001
 43
0.0000001
 44
0.0000000001
 40
0.0
 40
0.0
 40
0.0
 40
0.0
 40
0.252163492
 40
0.5012789321
 40
0.7496729294
 40
1.0
 40
1.0
 40
1.0
 40
1.0
 10
148.2415584365
 20
44.7567567112
 30
0.0
 10
148.5358520283
 20
46.0653286316
 30
0.0
 10
149.008839521
 20
48.6946095971
 30
0.0
 10
149.2638776847
 20
52.6840500384
 30
0.0
 10
149.0100869009
 20
56.6638875723
 30
0.0
 10
148.5362293004
 20
59.2793194772
 30
0.0
 10
148.2415584365
 20
60.5777920855
 30
0.0
  0
SPLINE
  5
390
100
AcDbEntity
  8
0
100
AcDbSpline
 62
7
  6
CONTINUOUS
 70
0
 71
3
 72
11
 73
7
 74
0
 42
0.0000001
 43
0.0000001
 44
0.0000000001
 40
0.0
 40
0.0
 40
0.0
 40
0.0
 40
0.2744880829
 40
0.5375302149
 40
0.7799367033
 40
1.0
 40
1.0
 40
1.0
 40
1.0
 10
149.2074842628
 20
61.1833537263
 30
0.0
 10
149.0977139119
 20
61.1781296324
 30
0.0
 10
148.8830598156
 20
61.1413023302
 30
0.0
 10
148.5947788491
 20
61.012606141
 30
0.0
 10
148.3686004602
 20
60.8238534606
 30
0.0
 10
148.2705697496
 20
60.6609836145
 30
0.0
 10
148.2415584365
 20
60.5777920855
 30
0.0
  0
SPLINE
  5
391
100
AcDbEntity
  8
0
100
AcDbSpline
 62
7
  6
CONTINUOUS
 70
0
 71
3
 72
11
 73
7
 74
0
 42
0.0000001
 43
0.0000001
 44
0.0000000001
 40
0.0
 40
0.0
 40
0.0
 40
0.0
 40
0.2587949513
 40
0.5106779333
 40
0.7569396182
 40
1.0
 40
1.0
 40
1.0
 40
1.0
 10
163.7098123894
 20
103.4993639671
 30
0.0
 10
164.0203430113
 20
104.1328079398
 30
0.0
 10
164.5847143416
 20
105.4076156202
 30
0.0
 10
165.2325593418
 20
107.3708211613
 30
0.0
 10
165.6380976184
 20
109.3553706603
 30
0.0
 10
165.7305383399
 20
110.6909302336
 30
0.0
 10
165.7305383316
 20
111.3535031861
 30
0.0
  0
SPLINE
  5
392
100
AcDbEntity
  8
0
100
AcDbSpline
 62
7
  6
CONTINUOUS
 70
0
 71
3
 72
11
 73
7
 74
0
 42
0.0000001
 43
0.0000001
 44
0.0000000001
 40
0.0
 40
0.0
 40
0.0
 40
0.0
 40
0.2430603919
 40
0.4893220868
 40
0.7412050543
 40
1.0
 40
1.0
 40
1.0
 40
1.0
 10
165.7305383316
 20
111.3535031861
 30
0.0
 10
165.7305383232
 20
112.0160761364
 30
0.0
 10
165.6380975651
 20
113.351635702
 30
0.0
 10
165.2325592664
 20
115.3361851194
 30
0.0
 10
164.5847142706
 20
117.2993905347
 30
0.0
 10
164.0203429907
 20
118.5741981088
 30
0.0
 10
163.7098123894
 20
119.2076420395
 30
0.0
  0
SPLINE
  5
393
100
AcDbEntity
  8
0
100
AcDbSpline
 62
7
  6
CONTINUOUS
 70
0
 71
3
 72
10
 73
6
 74
0
 42
0.0000001
 43
0.0000001
 44
0.0000000001
 40
0.0
 40
0.0
 40
0.0
 40
0.0
 40
0.4999106822
 40
0.7499553437
 40
1.0
 40
1.0
 40
1.0
 40
1.0
 10
163.7098123894
 20
66.6333739042
 30
0.0
 10
164.339437265
 20
69.2020872894
 30
0.0
 10
165.1050580903
 20
73.1058617043
 30
0.0
 10
165.639516801
 20
78.3721430972
 30
0.0
 10
165.7305383315
 20
81.0188031914
 30
0.0
 10
165.7305383316
 20
82.3416519734
 30
0.0
  0
SPLINE
  5
394
100
AcDbEntity
  8
0
100
AcDbSpline
 62
7
  6
CONTINUOUS
 70
0
 71
3
 72
10
 73
6
 74
0
 42
0.0000001
 43
0.0000001
 44
0.0000000001
 40
0.0
 40
0.0
 40
0.0
 40
0.0
 40
0.2500446666
 40
0.5000893379
 40
1.0
 40
1.0
 40
1.0
 40
1.0
 10
165.7305383316
 20
82.3416519734
 30
0.0
 10
165.7305383316
 20
83.6645008105
 30
0.0
 10
165.6395167909
 20
86.3111610122
 30
0.0
 10
165.1050580648
 20
91.577442406
 30
0.0
 10
164.3394372399
 20
95.481216766
 30
0.0
 10
163.7098123894
 20
98.049930049
 30
0.0
  0
SPLINE
  5
395
100
AcDbEntity
  8
0
100
AcDbSpline
 62
7
  6
CONTINUOUS
 70
0
 71
3
 72
11
 73
7
 74
0
 42
0.0000001
 43
0.0000001
 44
0.0000000001
 40
0.0
 40
0.0
 40
0.0
 40
0.0
 40
0.2587949512
 40
0.5106779332
 40
0.7569396182
 40
1.0
 40
1.0
 40
1.0
 40
1.0
 10
163.7098123894
 20
45.4756619136
 30
0.0
 10
164.0203430042
 20
46.1091058719
 30
0.0
 10
164.5847143231
 20
47.3839135233
 30
0.0
 10
165.2325593158
 20
49.3471190182
 30
0.0
 10
165.6380975974
 20
51.3316684701
 30
0.0
 10
165.7305383316
 20
52.6672280126
 30
0.0
 10
165.7305383316
 20
53.3298009503
 30
0.0
  0
SPLINE
  5
396
100
AcDbEntity
  8
0
100
AcDbSpline
 62
7
  6
CONTINUOUS
 70
0
 71
3
 72
11
 73
7
 74
0
 42
0.0000001
 43
0.0000001
 44
0.0000000001
 40
0.0
 40
0.0
 40
0.0
 40
0.0
 40
0.2430603919
 40
0.4893220868
 40
0.7412050542
 40
1.0
 40
1.0
 40
1.0
 40
1.0
 10
165.7305383316
 20
53.3298009503
 30
0.0
 10
165.7305383316
 20
53.9923739154
 30
0.0
 10
165.638097586
 20
55.3279335118
 30
0.0
 10
165.2325592924
 20
57.3124829764
 30
0.0
 10
164.5847142892
 20
59.2756884377
 30
0.0
 10
164.0203429978
 20
60.5504960409
 30
0.0
 10
163.7098123894
 20
61.183939986
 30
0.0
  0
SPLINE
  5
397
100
AcDbEntity
  8
0
100
AcDbSpline
 62
7
  6
CONTINUOUS
 70
0
 71
3
 72
11
 73
7
 74
0
 42
0.0000001
 43
0.0000001
 44
0.0000000001
 40
0.0
 40
0.0
 40
0.0
 40
0.0
 40
0.2512009416
 40
0.5000000048
 40
0.7487990516
 40
1.0
 40
1.0
 40
1.0
 40
1.0
 10
149.2321937758
 20
103.4993639671
 30
0.0
 10
149.5196837018
 20
104.7940198985
 30
0.0
 10
149.9805549254
 20
107.3983553168
 30
0.0
 10
150.2272516318
 20
111.3535029923
 30
0.0
 10
149.9805549207
 20
115.3086507051
 30
0.0
 10
149.5196836775
 20
117.9129860662
 30
0.0
 10
149.2321937758
 20
119.2076420395
 30
0.0
  0
SPLINE
  5
398
100
AcDbEntity
  8
0
100
AcDbSpline
 62
7
  6
CONTINUOUS
 70
0
 71
3
 72
11
 73
7
 74
0
 42
0.0000001
 43
0.0000001
 44
0.0000000001
 40
0.0
 40
0.0
 40
0.0
 40
0.0
 40
0.2744880824
 40
0.5375302137
 40
0.7799367003
 40
1.0
 40
1.0
 40
1.0
 40
1.0
 10
149.2074842628
 20
103.4999502268
 30
0.0
 10
149.0977139119
 20
103.5051743205
 30
0.0
 10
148.8830598153
 20
103.5420016221
 30
0.0
 10
148.59477885
 20
103.6706978107
 30
0.0
 10
148.368600456
 20
103.8594504878
 30
0.0
 10
148.27056975
 20
104.0223203378
 30
0.0
 10
148.2415584365
 20
104.1055118681
 30
0.0
  0
SPLINE
  5
399
100
AcDbEntity
  8
0
100
AcDbSpline
 62
7
  6
CONTINUOUS
 70
0
 71
3
 72
11
 73
7
 74
0
 42
0.0000001
 43
0.0000001
 44
0.0000000001
 40
0.0
 40
0.0
 40
0.0
 40
0.0
 40
0.2503270706
 40
0.4987210679
 40
0.747836508
 40
1.0
 40
1.0
 40
1.0
 40
1.0
 10
148.2415584365
 20
104.1055118681
 30
0.0
 10
148.5362293009
 20
105.4039844763
 30
0.0
 10
149.0100869009
 20
108.0194163812
 30
0.0
 10
149.2638776846
 20
111.9992539148
 30
0.0
 10
149.0088395213
 20
115.9886943561
 30
0.0
 10
148.5358520279
 20
118.6179753214
 30
0.0
 10
148.2415584365
 20
119.926547242
 30
0.0
  0
SPLINE
  5
39A
100
AcDbEntity
  8
0
100
AcDbSpline
 62
7
  6
CONTINUOUS
 70
0
 71
3
 72
11
 73
7
 74
0
 42
0.0000001
 43
0.0000001
 44
0.0000000001
 40
0.0
 40
0.0
 40
0.0
 40
0.0
 40
0.255234521
 40
0.5070422753
 40
0.7549413489
 40
1.0
 40
1.0
 40
1.0
 40
1.0
 10
149.2074842628
 20
119.2075812651
 30
0.0
 10
149.0978621603
 20
119.2070403786
 30
0.0
 10
148.8782582849
 20
119.2415150705
 30
0.0
 10
148.5858362985
 20
119.3940440619
 30
0.0
 10
148.3604592047
 20
119.6288323304
 30
0.0
 10
148.2694624357
 20
119.8250606015
 30
0.0
 10
148.2415584365
 20
119.926547242
 30
0.0
  0
SPLINE
  5
39B
100
AcDbEntity
  8
0
100
AcDbSpline
 62
7
  6
CONTINUOUS
 70
0
 71
3
 72
9
 73
5
 74
0
 42
0.0000001
 43
0.0000001
 44
0.0000000001
 40
0.0
 40
0.0
 40
0.0
 40
0.0
 40
0.4999923951
 40
1.0
 40
1.0
 40
1.0
 40
1.0
 10
150.1453064363
 20
82.3416519766
 30
0.0
 10
150.1453068798
 20
84.9650996682
 30
0.0
 10
149.982534612
 20
90.2132315386
 30
0.0
 10
149.521703603
 20
95.4424253817
 30
0.0
 10
149.2321937758
 20
98.049930049
 30
0.0
  0
SPLINE
  5
39C
100
AcDbEntity
  8
0
100
AcDbSpline
 62
7
  6
CONTINUOUS
 70
0
 71
3
 72
9
 73
5
 74
0
 42
0.0000001
 43
0.0000001
 44
0.0000000001
 40
0.0
 40
0.0
 40
0.0
 40
0.0
 40
0.4999921485
 40
1.0
 40
1.0
 40
1.0
 40
1.0
 10
149.17938061
 20
82.3416519766
 30
0.0
 10
149.1793808435
 20
84.9841437737
 30
0.0
 10
149.0115898965
 20
90.2704190916
 30
0.0
 10
148.5381669457
 20
95.5368113391
 30
0.0
 10
148.2415584365
 20
98.1626873649
 30
0.0
  0
SPLINE
  5
39D
100
AcDbEntity
  8
0
100
AcDbSpline
 62
7
  6
CONTINUOUS
 70
0
 71
3
 72
12
 73
8
 74
0
 42
0.0000001
 43
0.0000001
 44
0.0000000001
 40
0.0
 40
0.0
 40
0.0
 40
0.0
 40
0.3304649771
 40
0.6236650805
 40
0.8520740492
 40
0.9365050956
 40
1.0
 40
1.0
 40
1.0
 40
1.0
 10
149.2074842628
 20
98.0492830132
 30
0.0
 10
149.0993438427
 20
98.0436029081
 30
0.0
 10
148.8947150924
 20
98.0400020788
 30
0.0
 10
148.6159496243
 20
98.0570980891
 30
0.0
 10
148.4188572295
 20
98.088834702
 30
0.0
 10
148.3016110095
 20
98.1274415849
 30
0.0
 10
148.2580485445
 20
98.1499992518
 30
0.0
 10
148.2415584365
 20
98.1626873649
 30
0.0
  0
SPLINE
  5
39E
100
AcDbEntity
  8
0
100
AcDbSpline
 62
7
  6
CONTINUOUS
 70
0
 71
3
 72
9
 73
5
 74
0
 42
0.0000001
 43
0.0000001
 44
0.0000000001
 40
0.0
 40
0.0
 40
0.0
 40
0.0
 40
0.5000076049
 40
1.0
 40
1.0
 40
1.0
 40
1.0
 10
149.2321937758
 20
66.6333739042
 30
0.0
 10
149.5217036045
 20
69.2408785711
 30
0.0
 10
149.9825346287
 20
74.470072414
 30
0.0
 10
150.1453068597
 20
79.7182042848
 30
0.0
 10
150.1453064363
 20
82.3416519766
 30
0.0
  0
SPLINE
  5
39F
100
AcDbEntity
  8
0
100
AcDbSpline
 62
7
  6
CONTINUOUS
 70
0
 71
3
 72
12
 73
8
 74
0
 42
0.0000001
 43
0.0000001
 44
0.0000000001
 40
0.0
 40
0.0
 40
0.0
 40
0.0
 40
0.330464978
 40
0.6236650824
 40
0.8520740529
 40
0.9365050975
 40
1.0
 40
1.0
 40
1.0
 40
1.0
 10
149.2074842628
 20
66.6340209399
 30
0.0
 10
149.0993438426
 20
66.6397010448
 30
0.0
 10
148.8947150923
 20
66.6433018725
 30
0.0
 10
148.6159496228
 20
66.6262058646
 30
0.0
 10
148.4188572304
 20
66.5944692411
 30
0.0
 10
148.3016110096
 20
66.555862365
 30
0.0
 10
148.2580485439
 20
66.5333047016
 30
0.0
 10
148.2415584365
 20
66.5206165888
 30
0.0
  0
SPLINE
  5
3A0
100
AcDbEntity
  8
0
100
AcDbSpline
 62
7
  6
CONTINUOUS
 70
0
 71
3
 72
9
 73
5
 74
0
 42
0.0000001
 43
0.0000001
 44
0.0000000001
 40
0.0
 40
0.0
 40
0.0
 40
0.0
 40
0.5000078514
 40
1.0
 40
1.0
 40
1.0
 40
1.0
 10
148.2415584365
 20
66.5206165888
 30
0.0
 10
148.5381669459
 20
69.1464926143
 30
0.0
 10
149.0115899021
 20
74.4128848616
 30
0.0
 10
149.1793808329
 20
79.6991601793
 30
0.0
 10
149.17938061
 20
82.3416519766
 30
0.0
  0
SPLINE
  5
3A1
100
AcDbEntity
  8
0
100
AcDbSpline
 62
7
  6
CONTINUOUS
 70
0
 71
3
 72
8
 73
4
 74
0
 42
0.0000001
 43
0.0000001
 44
0.0000000001
 40
0.0
 40
0.0
 40
0.0
 40
0.0
 40
1.0
 40
1.0
 40
1.0
 40
1.0
 10
139.3073801261
 20
72.3564324486
 30
0.0
 10
139.0077276966
 20
72.556825075
 30
0.0
 10
138.5891941926
 20
72.6585563277
 30
0.0
 10
138.0515160254
 20
72.6585563277
 30
0.0
  0
SPLINE
  5
3A2
100
AcDbEntity
  8
0
100
AcDbSpline
 62
7
  6
CONTINUOUS
 70
0
 71
3
 72
8
 73
4
 74
0
 42
0.0000001
 43
0.0000001
 44
0.0000000001
 40
0.0
 40
0.0
 40
0.0
 40
0.0
 40
1.0
 40
1.0
 40
1.0
 40
1.0
 10
139.6364189802
 20
72.0176188186
 30
0.0
 10
139.557625941
 20
72.1499000643
 30
0.0
 10
139.4476462519
 20
72.2626294468
 30
0.0
 10
139.3073801261
 20
72.3564324486
 30
0.0
  0
SPLINE
  5
3A3
100
AcDbEntity
  8
0
100
AcDbSpline
 62
7
  6
CONTINUOUS
 70
0
 71
3
 72
8
 73
4
 74
0
 42
0.0000001
 43
0.0000001
 44
0.0000000001
 40
0.0
 40
0.0
 40
0.0
 40
0.0
 40
1.0
 40
1.0
 40
1.0
 40
1.0
 10
139.756200268
 20
71.3003075694
 30
0.0
 10
139.756200268
 20
71.6439938162
 30
0.0
 10
139.7164854026
 20
71.8831997608
 30
0.0
 10
139.6364189802
 20
72.0176188186
 30
0.0
  0
SPLINE
  5
3A4
100
AcDbEntity
  8
0
100
AcDbSpline
 62
7
  6
CONTINUOUS
 70
0
 71
3
 72
8
 73
4
 74
0
 42
0.0000001
 43
0.0000001
 44
0.0000000001
 40
0.0
 40
0.0
 40
0.0
 40
0.0
 40
1.0
 40
1.0
 40
1.0
 40
1.0
 10
136.5154552325
 20
71.9901672401
 30
0.0
 10
136.4415364257
 20
71.8529553865
 30
0.0
 10
136.4048765293
 20
71.6192485069
 30
0.0
 10
136.4048765293
 20
71.2838103746
 30
0.0
  0
SPLINE
  5
3A5
100
AcDbEntity
  8
0
100
AcDbSpline
 62
7
  6
CONTINUOUS
 70
0
 71
3
 72
8
 73
4
 74
0
 42
0.0000001
 43
0.0000001
 44
0.0000000001
 40
0.0
 40
0.0
 40
0.0
 40
0.0
 40
1.0
 40
1.0
 40
1.0
 40
1.0
 10
136.8234995098
 20
72.342268055
 30
0.0
 10
136.6920453599
 20
72.2433832024
 30
0.0
 10
136.5881757429
 20
72.125154755
 30
0.0
 10
136.5154552325
 20
71.9901672401
 30
0.0
  0
SPLINE
  5
3A6
100
AcDbEntity
  8
0
100
AcDbSpline
 62
7
  6
CONTINUOUS
 70
0
 71
3
 72
8
 73
4
 74
0
 42
0.0000001
 43
0.0000001
 44
0.0000000001
 40
0.0
 40
0.0
 40
0.0
 40
0.0
 40
1.0
 40
1.0
 40
1.0
 40
1.0
 10
138.0515160254
 20
72.6585563277
 30
0.0
 10
137.510782688
 20
72.6585563277
 30
0.0
 10
137.1014140239
 20
72.5513260101
 30
0.0
 10
136.8234995098
 20
72.342268055
 30
0.0
  0
SPLINE
  5
3A7
100
AcDbEntity
  8
0
100
AcDbSpline
 62
7
  6
CONTINUOUS
 70
0
 71
3
 72
8
 73
4
 74
0
 42
0.0000001
 43
0.0000001
 44
0.0000000001
 40
0.0
 40
0.0
 40
0.0
 40
0.0
 40
1.0
 40
1.0
 40
1.0
 40
1.0
 10
136.41470742
 20
72.7678546294
 30
0.0
 10
136.8050800851
 20
73.0764785026
 30
0.0
 10
137.3397033504
 20
73.2331994389
 30
0.0
 10
138.0209659329
 20
73.2331994389
 30
0.0
  0
SPLINE
  5
3A8
100
AcDbEntity
  8
0
100
AcDbSpline
 62
7
  6
CONTINUOUS
 70
0
 71
3
 72
8
 73
4
 74
0
 42
0.0000001
 43
0.0000001
 44
0.0000000001
 40
0.0
 40
0.0
 40
0.0
 40
0.0
 40
1.0
 40
1.0
 40
1.0
 40
1.0
 10
135.8305383316
 20
71.5780060028
 30
0.0
 10
135.8305383316
 20
72.0619169568
 30
0.0
 10
136.0260576895
 20
72.4605928873
 30
0.0
 10
136.41470742
 20
72.7678546294
 30
0.0
  0
SPLINE
  5
3A9
100
AcDbEntity
  8
0
100
AcDbSpline
 62
7
  6
CONTINUOUS
 70
0
 71
3
 72
8
 73
4
 74
0
 42
0.0000001
 43
0.0000001
 44
0.0000000001
 40
0.0
 40
0.0
 40
0.0
 40
0.0
 40
1.0
 40
1.0
 40
1.0
 40
1.0
 10
140.0505218971
 20
72.4254880533
 30
0.0
 10
140.2388886409
 20
72.1773953889
 30
0.0
 10
140.3305383316
 20
71.8117128824
 30
0.0
 10
140.3305383316
 20
71.322303829
 30
0.0
  0
SPLINE
  5
3AA
100
AcDbEntity
  8
0
100
AcDbSpline
 62
7
  6
CONTINUOUS
 70
0
 71
3
 72
8
 73
4
 74
0
 42
0.0000001
 43
0.0000001
 44
0.0000000001
 40
0.0
 40
0.0
 40
0.0
 40
0.0
 40
1.0
 40
1.0
 40
1.0
 40
1.0
 10
139.2551819301
 20
73.0132407044
 30
0.0
 10
139.5973408064
 20
72.8675178979
 30
0.0
 10
139.8631248875
 20
72.6723035072
 30
0.0
 10
140.0505218971
 20
72.4254880533
 30
0.0
  0
SPLINE
  5
3AB
100
AcDbEntity
  8
0
100
AcDbSpline
 62
7
  6
CONTINUOUS
 70
0
 71
3
 72
8
 73
4
 74
0
 42
0.0000001
 43
0.0000001
 44
0.0000000001
 40
0.0
 40
0.0
 40
0.0
 40
0.0
 40
1.0
 40
1.0
 40
1.0
 40
1.0
 10
138.0209659329
 20
73.2331994389
 30
0.0
 10
138.5005994877
 20
73.2331994389
 30
0.0
 10
138.9130230537
 20
73.1589635108
 30
0.0
 10
139.2551819301
 20
73.0132407044
 30
0.0
  0
SPLINE
  5
3AC
100
AcDbEntity
  8
0
100
AcDbSpline
 62
7
  6
CONTINUOUS
 70
0
 71
3
 72
51
 73
47
 74
0
 42
0.0000001
 43
0.0000001
 44
0.0000000001
 40
0.0
 40
0.0
 40
0.0
 40
0.0
 40
0.0001597243
 40
0.0006361676
 40
0.0014281804
 40
0.0025346131
 40
0.0039543169
 40
0.0056861434
 40
0.0100814433
 40
0.0157043746
 40
0.0225288171
 40
0.0305279452
 40
0.0396745358
 40
0.0499354969
 40
0.0612740152
 40
0.0870366987
 40
0.1166539576
 40
0.1498016346
 40
0.1861486752
 40
0.2253599469
 40
0.2670869192
 40
0.3109715052
 40
0.4036388103
 40
0.4999998089
 40
0.5963608655
 40
0.6890283125
 40
0.7329129757
 40
0.7746400134
 40
0.8138513262
 40
0.850198379
 40
0.8833460549
 40
0.9129633089
 40
0.9387259907
 40
0.9500645097
 40
0.960325472
 40
0.9694720644
 40
0.9774711926
 40
0.9842956352
 40
0.9899185686
 40
0.9943138714
 40
0.9960456964
 40
0.9974653974
 40
0.9985718266
 40
0.9993638361
 40
0.9998402768
 40
1.0
 40
1.0
 40
1.0
 40
1.0
 10
97.9805383316
 20
125.8416519766
 30
0.0
 10
97.9813816584
 20
125.8405539868
 30
0.0
 10
97.9877194928
 20
125.8403115327
 30
0.0
 10
97.9983514412
 20
125.8348122214
 30
0.0
 10
98.0184512198
 20
125.8290213125
 30
0.0
 10
98.0454142533
 20
125.8193986227
 30
0.0
 10
98.0804774959
 20
125.8077076872
 30
0.0
 10
98.142408019
 20
125.7867195697
 30
0.0
 10
98.2389837396
 20
125.7543211131
 30
0.0
 10
98.3774638035
 20
125.7081189714
 30
0.0
 10
98.5457969087
 20
125.6526651409
 30
0.0
 10
98.7434008114
 20
125.588464898
 30
0.0
 10
98.9696684153
 20
125.5160913925
 30
0.0
 10
99.2239351518
 20
125.4362538473
 30
0.0
 10
99.6163667981
 20
125.3156895092
 30
0.0
 10
100.1709514293
 20
125.1516610714
 30
0.0
 10
100.9102334834
 20
124.9458714419
 30
0.0
 10
101.7421174694
 20
124.7311285664
 30
0.0
 10
102.6593825835
 20
124.5151970185
 30
0.0
 10
103.6544018746
 20
124.3062189876
 30
0.0
 10
104.7189325778
 20
124.1119879327
 30
0.0
 10
106.2467535875
 20
123.878941725
 30
0.0
 10
108.2563113417
 20
123.6694246822
 30
0.0
 10
110.7305338552
 20
123.5818398875
 30
0.0
 10
113.2047576272
 20
123.6694241033
 30
0.0
 10
115.2143178021
 20
123.8789411222
 30
0.0
 10
116.7421412886
 20
124.1119874566
 30
0.0
 10
117.8066735598
 20
124.306218794
 30
0.0
 10
118.8016938765
 20
124.5151969466
 30
0.0
 10
119.7189594278
 20
124.7311286139
 30
0.0
 10
120.550843459
 20
124.945871528
 30
0.0
 10
121.2901254548
 20
125.1516611196
 30
0.0
 10
121.8447100296
 20
125.3156895669
 30
0.0
 10
122.2371416745
 20
125.4362539156
 30
0.0
 10
122.4914084411
 20
125.5160914691
 30
0.0
 10
122.7176760711
 20
125.5884649837
 30
0.0
 10
122.9152800059
 20
125.6526651844
 30
0.0
 10
123.0836131423
 20
125.7081189805
 30
0.0
 10
123.2220932546
 20
125.7543211294
 30
0.0
 10
123.3186689567
 20
125.7867197056
 30
0.0
 10
123.3805994821
 20
125.8077078267
 30
0.0
 10
123.4156626144
 20
125.8193987781
 30
0.0
 10
123.4426256888
 20
125.8290213464
 30
0.0
 10
123.4627251248
 20
125.8348124198
 30
0.0
 10
123.4733574943
 20
125.840311342
 30
0.0
 10
123.4796948072
 20
125.8405541502
 30
0.0
 10
123.4805383316
 20
125.8416519766
 30
0.0
  0
SPLINE
  5
3AD
100
AcDbEntity
  8
0
100
AcDbSpline
 62
7
  6
CONTINUOUS
 70
0
 71
3
 72
14
 73
10
 74
0
 42
0.0000001
 43
0.0000001
 44
0.0000000001
 40
0.0
 40
0.0
 40
0.0
 40
0.0
 40
0.0444258644
 40
0.1124690174
 40
0.2085921387
 40
0.3312864854
 40
0.4769359105
 40
0.6407830952
 40
1.0
 40
1.0
 40
1.0
 40
1.0
 10
97.5441295122
 20
137.3416519766
 30
0.0
 10
97.5598860897
 20
137.3416492693
 30
0.0
 10
97.5975783905
 20
137.3190788082
 30
0.0
 10
97.637892728
 20
137.2569962568
 30
0.0
 10
97.6793552226
 20
137.1635452486
 30
0.0
 10
97.7167685735
 20
137.0396443373
 30
0.0
 10
97.7492354404
 20
136.889684837
 30
0.0
 10
97.7833755907
 20
136.6548586854
 30
0.0
 10
97.7932877056
 20
136.4690558919
 30
0.0
 10
97.7932878903
 20
136.3416519766
 30
0.0
  0
SPLINE
  5
3AE
100
AcDbEntity
  8
0
100
AcDbSpline
 62
7
  6
CONTINUOUS
 70
0
 71
3
 72
11
 73
7
 74
0
 42
0.0000001
 43
0.0000001
 44
0.0000000001
 40
0.0
 40
0.0
 40
0.0
 40
0.0
 40
0.2470289292
 40
0.4961574365
 40
0.7475517197
 40
1.0
 40
1.0
 40
1.0
 40
1.0
 10
97.0557440004
 20
136.8416519766
 30
0.0
 10
97.1192480483
 20
136.8416519766
 30
0.0
 10
97.2481035362
 20
136.8681947582
 30
0.0
 10
97.410882201
 20
136.9794037132
 30
0.0
 10
97.5186126536
 20
137.1459879604
 30
0.0
 10
97.5441295136
 20
137.276754769
 30
0.0
 10
97.5441295122
 20
137.3416519766
 30
0.0
  0
SPLINE
  5
3AF
100
AcDbEntity
  8
0
100
AcDbSpline
 62
7
  6
CONTINUOUS
 70
0
 71
3
 72
12
 73
8
 74
0
 42
0.0000001
 43
0.0000001
 44
0.0000000001
 40
0.0
 40
0.0
 40
0.0
 40
0.0
 40
0.1553383432
 40
0.2566554373
 40
0.3757026553
 40
0.6639387163
 40
1.0
 40
1.0
 40
1.0
 40
1.0
 10
97.0557440004
 20
136.8416519766
 30
0.0
 10
97.086905247
 20
136.8416502682
 30
0.0
 10
97.1371181105
 20
136.8156830969
 30
0.0
 10
97.1887821943
 20
136.7613940676
 30
0.0
 10
97.2459807352
 20
136.6760520893
 30
0.0
 10
97.2990316983
 20
136.5347947156
 30
0.0
 10
97.3141305063
 20
136.4090666815
 30
0.0
 10
97.3141304666
 20
136.3416519766
 30
0.0
  0
SPLINE
  5
3B0
100
AcDbEntity
  8
0
100
AcDbSpline
 62
7
  6
CONTINUOUS
 70
0
 71
3
 72
9
 73
5
 74
0
 42
0.0000001
 43
0.0000001
 44
0.0000000001
 40
0.0
 40
0.0
 40
0.0
 40
0.0
 40
0.5021645808
 40
1.0
 40
1.0
 40
1.0
 40
1.0
 10
97.7932878903
 20
131.7987587577
 30
0.0
 10
97.7933098729
 20
131.7319499576
 30
0.0
 10
97.824438502
 20
131.597271062
 30
0.0
 10
97.9086193434
 20
131.4890988008
 30
0.0
 10
97.9582193054
 20
131.4452053672
 30
0.0
  0
SPLINE
  5
3B1
100
AcDbEntity
  8
0
100
AcDbSpline
 62
7
  6
CONTINUOUS
 70
0
 71
3
 72
9
 73
5
 74
0
 42
0.0000001
 43
0.0000001
 44
0.0000000001
 40
0.0
 40
0.0
 40
0.0
 40
0.0
 40
0.5001170832
 40
1.0
 40
1.0
 40
1.0
 40
1.0
 10
97.3141304666
 20
131.7987587577
 30
0.0
 10
97.3142073877
 20
131.6676452582
 30
0.0
 10
97.3693487229
 20
131.4026391765
 30
0.0
 10
97.5253578847
 20
131.1822452441
 30
0.0
 10
97.6200548809
 20
131.0916519766
 30
0.0
  0
SPLINE
  5
3B2
100
AcDbEntity
  8
0
100
AcDbSpline
 62
7
  6
CONTINUOUS
 70
0
 71
3
 72
10
 73
6
 74
0
 42
0.0000001
 43
0.0000001
 44
0.0000000001
 40
0.0
 40
0.0
 40
0.0
 40
0.0
 40
0.5091239434
 40
0.7559388437
 40
1.0
 40
1.0
 40
1.0
 40
1.0
 10
57.4625891391
 20
60.5754893229
 30
0.0
 10
56.9320919427
 20
59.4183199197
 30
0.0
 10
56.2723772809
 20
57.6305998407
 30
0.0
 10
55.8087946013
 20
55.1688299378
 30
0.0
 10
55.7305383317
 20
53.9400335647
 30
0.0
 10
55.7305383315
 20
53.3298009534
 30
0.0
  0
SPLINE
  5
3B3
100
AcDbEntity
  8
0
100
AcDbSpline
 62
7
  6
CONTINUOUS
 70
0
 71
3
 72
10
 73
6
 74
0
 42
0.0000001
 43
0.0000001
 44
0.0000000001
 40
0.0
 40
0.0
 40
0.0
 40
0.0
 40
0.2440611696
 40
0.490876085
 40
1.0
 40
1.0
 40
1.0
 40
1.0
 10
74.7305383316
 20
53.3298009495
 30
0.0
 10
74.7305383316
 20
53.9400335943
 30
0.0
 10
74.6522820501
 20
55.1688300392
 30
0.0
 10
74.1886993497
 20
57.63059994
 30
0.0
 10
73.5289846911
 20
59.4183199837
 30
0.0
 10
72.998487524
 20
60.5754893229
 30
0.0
  0
SPLINE
  5
3B4
100
AcDbEntity
  8
0
100
AcDbSpline
 62
7
  6
CONTINUOUS
 70
0
 71
3
 72
10
 73
6
 74
0
 42
0.0000001
 43
0.0000001
 44
0.0000000001
 40
0.0
 40
0.0
 40
0.0
 40
0.0
 40
0.5091239329
 40
0.7559388403
 40
1.0
 40
1.0
 40
1.0
 40
1.0
 10
72.998487524
 20
46.0841125767
 30
0.0
 10
73.5289847097
 20
47.2412819564
 30
0.0
 10
74.1886993709
 20
49.0290020265
 30
0.0
 10
74.6522820585
 20
51.4907719293
 30
0.0
 10
74.7305383316
 20
52.7195683294
 30
0.0
 10
74.7305383316
 20
53.3298009495
 30
0.0
  0
SPLINE
  5
3B5
100
AcDbEntity
  8
0
100
AcDbSpline
 62
7
  6
CONTINUOUS
 70
0
 71
3
 72
10
 73
6
 74
0
 42
0.0000001
 43
0.0000001
 44
0.0000000001
 40
0.0
 40
0.0
 40
0.0
 40
0.0
 40
0.2440611669
 40
0.4908760763
 40
1.0
 40
1.0
 40
1.0
 40
1.0
 10
55.7305383315
 20
53.3298009534
 30
0.0
 10
55.7305383314
 20
52.719568315
 30
0.0
 10
55.8087946098
 20
51.4907718913
 30
0.0
 10
56.2723773031
 20
49.0290019882
 30
0.0
 10
56.9320919627
 20
47.2412819361
 30
0.0
 10
57.4625891391
 20
46.0841125767
 30
0.0
  0
SPLINE
  5
3B6
100
AcDbEntity
  8
0
100
AcDbSpline
 62
7
  6
CONTINUOUS
 70
0
 71
3
 72
10
 73
6
 74
0
 42
0.0000001
 43
0.0000001
 44
0.0000000001
 40
0.0
 40
0.0
 40
0.0
 40
0.0
 40
0.4999183289
 40
0.74995914
 40
1.0
 40
1.0
 40
1.0
 40
1.0
 10
57.4625891391
 20
96.8330287227
 30
0.0
 10
56.918199889
 20
94.4580846593
 30
0.0
 10
56.2623348809
 20
90.8532990109
 30
0.0
 10
55.8077260202
 20
85.9984190333
 30
0.0
 10
55.7305383316
 20
83.5603193109
 30
0.0
 10
55.7305383315
 20
82.3416519796
 30
0.0
  0
SPLINE
  5
3B7
100
AcDbEntity
  8
0
100
AcDbSpline
 62
7
  6
CONTINUOUS
 70
0
 71
3
 72
10
 73
6
 74
0
 42
0.0000001
 43
0.0000001
 44
0.0000000001
 40
0.0
 40
0.0
 40
0.0
 40
0.0
 40
0.2500407006
 40
0.500081415
 40
1.0
 40
1.0
 40
1.0
 40
1.0
 10
74.7305383316
 20
82.3416519761
 30
0.0
 10
74.7305383316
 20
83.5603185306
 30
0.0
 10
74.6533507646
 20
85.9984170048
 30
0.0
 10
74.1987421311
 20
90.853297004
 30
0.0
 10
73.5428770532
 20
94.4580834421
 30
0.0
 10
72.998487524
 20
96.8330287227
 30
0.0
  0
SPLINE
  5
3B8
100
AcDbEntity
  8
0
100
AcDbSpline
 62
7
  6
CONTINUOUS
 70
0
 71
3
 72
10
 73
6
 74
0
 42
0.0000001
 43
0.0000001
 44
0.0000000001
 40
0.0
 40
0.0
 40
0.0
 40
0.0
 40
0.499918603
 40
0.7499593095
 40
1.0
 40
1.0
 40
1.0
 40
1.0
 10
72.998487524
 20
67.8502752304
 30
0.0
 10
73.5428770728
 20
70.2252205964
 30
0.0
 10
74.1987421521
 20
73.8300070844
 30
0.0
 10
74.6533507729
 20
78.6848870843
 30
0.0
 10
74.7305383316
 20
81.1229854706
 30
0.0
 10
74.7305383316
 20
82.3416519761
 30
0.0
  0
SPLINE
  5
3B9
100
AcDbEntity
  8
0
100
AcDbSpline
 62
7
  6
CONTINUOUS
 70
0
 71
3
 72
10
 73
6
 74
0
 42
0.0000001
 43
0.0000001
 44
0.0000000001
 40
0.0
 40
0.0
 40
0.0
 40
0.0
 40
0.2500408656
 40
0.5000816813
 40
1.0
 40
1.0
 40
1.0
 40
1.0
 10
55.7305383315
 20
82.3416519796
 30
0.0
 10
55.7305383315
 20
81.1229846205
 30
0.0
 10
55.8077260248
 20
78.6848848474
 30
0.0
 10
56.2623348934
 20
73.8300048684
 30
0.0
 10
56.9181998998
 20
70.2252192464
 30
0.0
 10
57.4625891391
 20
67.8502752304
 30
0.0
  0
SPLINE
  5
3BA
100
AcDbEntity
  8
0
100
AcDbSpline
 62
7
  6
CONTINUOUS
 70
0
 71
3
 72
10
 73
6
 74
0
 42
0.0000001
 43
0.0000001
 44
0.0000000001
 40
0.0
 40
0.0
 40
0.0
 40
0.0
 40
0.5091239434
 40
0.7559388437
 40
1.0
 40
1.0
 40
1.0
 40
1.0
 10
57.4625891391
 20
118.5991913764
 30
0.0
 10
56.9320919426
 20
117.4420219731
 30
0.0
 10
56.2723772807
 20
115.6543018939
 30
0.0
 10
55.8087946013
 20
113.1925319907
 30
0.0
 10
55.7305383316
 20
111.9637356175
 30
0.0
 10
55.7305383314
 20
111.3535030061
 30
0.0
  0
SPLINE
  5
3BB
100
AcDbEntity
  8
0
100
AcDbSpline
 62
7
  6
CONTINUOUS
 70
0
 71
3
 72
10
 73
6
 74
0
 42
0.0000001
 43
0.0000001
 44
0.0000000001
 40
0.0
 40
0.0
 40
0.0
 40
0.0
 40
0.2440611696
 40
0.490876085
 40
1.0
 40
1.0
 40
1.0
 40
1.0
 10
74.7305383316
 20
111.3535030031
 30
0.0
 10
74.7305383316
 20
111.9637356479
 30
0.0
 10
74.6522820501
 20
113.1925320928
 30
0.0
 10
74.1886993497
 20
115.6543019936
 30
0.0
 10
73.5289846911
 20
117.4420220373
 30
0.0
 10
72.998487524
 20
118.5991913764
 30
0.0
  0
SPLINE
  5
3BC
100
AcDbEntity
  8
0
100
AcDbSpline
 62
7
  6
CONTINUOUS
 70
0
 71
3
 72
10
 73
6
 74
0
 42
0.0000001
 43
0.0000001
 44
0.0000000001
 40
0.0
 40
0.0
 40
0.0
 40
0.0
 40
0.5091239329
 40
0.7559388403
 40
1.0
 40
1.0
 40
1.0
 40
1.0
 10
72.998487524
 20
104.1078146302
 30
0.0
 10
73.5289847097
 20
105.26498401
 30
0.0
 10
74.1886993709
 20
107.05270408
 30
0.0
 10
74.6522820585
 20
109.5144739828
 30
0.0
 10
74.7305383316
 20
110.7432703829
 30
0.0
 10
74.7305383316
 20
111.3535030031
 30
0.0
  0
SPLINE
  5
3BD
100
AcDbEntity
  8
0
100
AcDbSpline
 62
7
  6
CONTINUOUS
 70
0
 71
3
 72
10
 73
6
 74
0
 42
0.0000001
 43
0.0000001
 44
0.0000000001
 40
0.0
 40
0.0
 40
0.0
 40
0.0
 40
0.2440611669
 40
0.4908760763
 40
1.0
 40
1.0
 40
1.0
 40
1.0
 10
55.7305383314
 20
111.3535030061
 30
0.0
 10
55.7305383314
 20
110.7432703677
 30
0.0
 10
55.8087946099
 20
109.5144739442
 30
0.0
 10
56.2723773032
 20
107.0527040414
 30
0.0
 10
56.9320919628
 20
105.2649839896
 30
0.0
 10
57.4625891391
 20
104.1078146302
 30
0.0
  0
SPLINE
  5
3BE
100
AcDbEntity
  8
0
100
AcDbSpline
 62
7
  6
CONTINUOUS
 70
0
 71
3
 72
8
 73
4
 74
0
 42
0.0000001
 43
0.0000001
 44
0.0000000001
 40
0.0
 40
0.0
 40
0.0
 40
0.0
 40
1.0
 40
1.0
 40
1.0
 40
1.0
 10
97.9582193054
 20
131.4452053672
 30
0.0
 10
98.1172960884
 20
131.2927175969
 30
0.0
 10
98.2764827792
 20
131.1403443821
 30
0.0
 10
98.435791161
 20
130.988098586
 30
0.0
  0
SPLINE
  5
3BF
100
AcDbEntity
  8
0
100
AcDbSpline
 62
7
  6
CONTINUOUS
 70
0
 71
3
 72
8
 73
4
 74
0
 42
0.0000001
 43
0.0000001
 44
0.0000000001
 40
0.0
 40
0.0
 40
0.0
 40
0.0
 40
1.0
 40
1.0
 40
1.0
 40
1.0
 10
97.6200548809
 20
131.0916519766
 30
0.0
 10
97.779491467
 20
130.9391548908
 30
0.0
 10
97.9390470224
 20
130.7867820708
 30
0.0
 10
98.0987332349
 20
130.6345463992
 30
0.0
  0
SPLINE
  5
3C0
100
AcDbEntity
  8
0
100
AcDbSpline
 62
7
  6
CONTINUOUS
 70
0
 71
3
 72
9
 73
5
 74
0
 42
0.0000001
 43
0.0000001
 44
0.0000000001
 40
0.0
 40
0.0
 40
0.0
 40
0.0
 40
0.4968673248
 40
1.0
 40
1.0
 40
1.0
 40
1.0
 10
98.4357911609
 20
130.9880985865
 30
0.0
 10
98.4800272289
 20
130.9416964027
 30
0.0
 10
98.5511328528
 20
130.8296811632
 30
0.0
 10
98.5754062798
 20
130.6994628152
 30
0.0
 10
98.5754051257
 20
130.6345451946
 30
0.0
  0
SPLINE
  5
3C1
100
AcDbEntity
  8
0
100
AcDbSpline
 62
7
  6
CONTINUOUS
 70
0
 71
3
 72
17
 73
13
 74
0
 42
0.0000001
 43
0.0000001
 44
0.0000000001
 40
0.0
 40
0.0
 40
0.0
 40
0.0
 40
0.1826421968
 40
0.360959275
 40
0.5288387254
 40
0.6791069596
 40
0.8036267095
 40
0.8958303902
 40
0.9293837991
 40
0.9557478104
 40
0.9777865351
 40
1.0
 40
1.0
 40
1.0
 40
1.0
 10
98.5754051254
 20
130.0309983386
 30
0.0
 10
98.5754058804
 20
129.9642612464
 30
0.0
 10
98.572405841
 20
129.8323453009
 30
0.0
 10
98.5582803966
 20
129.6395250422
 30
0.0
 10
98.5344478906
 20
129.4595972461
 30
0.0
 10
98.5017378226
 20
129.3009045326
 30
0.0
 10
98.4618239491
 20
129.1728440362
 30
0.0
 10
98.4219492668
 20
129.0893785267
 30
0.0
 10
98.3859121473
 20
129.046631323
 30
0.0
 10
98.3608686371
 20
129.0291450517
 30
0.0
 10
98.3344319772
 20
129.0244506578
 30
0.0
 10
98.318604129
 20
129.0303756534
 30
0.0
 10
98.3116442852
 20
129.0345520508
 30
0.0
  0
SPLINE
  5
3C2
100
AcDbEntity
  8
0
100
AcDbSpline
 62
7
  6
CONTINUOUS
 70
0
 71
3
 72
16
 73
12
 74
0
 42
0.0000001
 43
0.0000001
 44
0.0000000001
 40
0.0
 40
0.0
 40
0.0
 40
0.0
 40
0.3397630853
 40
0.5024431631
 40
0.6519399853
 40
0.7764052063
 40
0.8257405104
 40
0.8659642157
 40
0.8993146607
 40
0.9301058097
 40
1.0
 40
1.0
 40
1.0
 40
1.0
 10
98.0987332349
 20
130.0309983386
 30
0.0
 10
98.123351004
 20
129.9600392117
 30
0.0
 10
98.1550988894
 20
129.8532759466
 30
0.0
 10
98.1815696729
 20
129.7114235644
 30
0.0
 10
98.1899206285
 20
129.6151544012
 30
0.0
 10
98.1855230691
 20
129.5431259188
 30
0.0
 10
98.171880694
 20
129.4975455824
 30
0.0
 10
98.1581731452
 20
129.4737007846
 30
0.0
 10
98.1401422086
 20
129.4582498662
 30
0.0
 10
98.1103999155
 20
129.4509045384
 30
0.0
 10
98.0880092852
 20
129.4598387123
 30
0.0
 10
98.0746288324
 20
129.4675647527
 30
0.0
  0
LINE
  5
3C3
100
AcDbEntity
  8
0
100
AcDbLine
 62
7
  6
CONTINUOUS
 10
98.3116442852
 20
129.0345520508
 11
97.9805383309
 21
129.2332127957
  0
SPLINE
  5
3C4
100
AcDbEntity
  8
0
100
AcDbSpline
 62
7
  6
CONTINUOUS
 70
0
 71
3
 72
9
 73
5
 74
0
 42
0.0000001
 43
0.0000001
 44
0.0000000001
 40
0.0
 40
0.0
 40
0.0
 40
0.0
 40
0.4960970086
 40
1.0
 40
1.0
 40
1.0
 40
1.0
 10
98.0746286353
 20
129.4675644113
 30
0.0
 10
98.1479769238
 20
129.425217829
 30
0.0
 10
98.274246362
 20
129.2960441353
 30
0.0
 10
98.3141930482
 20
129.120541835
 30
0.0
 10
98.3116484092
 20
129.0345520508
 30
0.0
  0
SPLINE
  5
3C5
100
AcDbEntity
  8
0
100
AcDbSpline
 62
7
  6
CONTINUOUS
 70
0
 71
3
 72
37
 73
33
 74
0
 42
0.0000001
 43
0.0000001
 44
0.0000000001
 40
0.0
 40
0.0
 40
0.0
 40
0.0
 40
0.0006464431
 40
0.0025734825
 40
0.0057716819
 40
0.010231414
 40
0.0159349633
 40
0.0228540218
 40
0.0402221986
 40
0.0620705286
 40
0.0880869512
 40
0.1179393072
 40
0.1512800319
 40
0.2270105871
 40
0.3124148751
 40
0.4044899285
 40
0.4999998154
 40
0.5955097559
 40
0.6875849432
 40
0.7729893708
 40
0.8487199817
 40
0.8820607055
 40
0.9119130563
 40
0.9379294776
 40
0.9597778103
 40
0.9771459879
 40
0.9840650453
 40
0.989768596
 40
0.9942283315
 40
0.9974265273
 40
0.9993535602
 40
1.0
 40
1.0
 40
1.0
 40
1.0
 10
96.9805383316
 20
124.8416519766
 30
0.0
 10
96.9864372911
 20
124.8404410313
 30
0.0
 10
97.0089818191
 20
124.831963776
 30
0.0
 10
97.0607082897
 20
124.8174692814
 30
0.0
 10
97.1458892467
 20
124.7905666151
 30
0.0
 10
97.2650472668
 20
124.7546447357
 30
0.0
 10
97.4173527346
 20
124.7085182121
 30
0.0
 10
97.6850975132
 20
124.6287364549
 30
0.0
 10
98.097690794
 20
124.5083959393
 30
0.0
 10
98.6827622569
 20
124.3441342087
 30
0.0
 10
99.3822204114
 20
124.1572285096
 30
0.0
 10
100.1882459504
 20
123.9547254128
 30
0.0
 10
101.4487639737
 20
123.6613581386
 30
0.0
 10
103.2257379318
 20
123.3053973083
 30
0.0
 10
105.5593821312
 20
122.9545595209
 30
0.0
 10
108.0929138694
 20
122.7180355708
 30
0.0
 10
110.7305336625
 20
122.6344922887
 30
0.0
 10
113.368154724
 20
122.7180350466
 30
0.0
 10
115.901689536
 20
122.954558916
 30
0.0
 10
118.2353367973
 20
123.3053969816
 30
0.0
 10
120.0123125531
 20
123.6613580713
 30
0.0
 10
121.2728310154
 20
123.9547254976
 30
0.0
 10
122.0788564896
 20
124.1572285721
 30
0.0
 10
122.7783146072
 20
124.3441342712
 30
0.0
 10
123.3633860937
 20
124.5083959948
 30
0.0
 10
123.7759793977
 20
124.6287365093
 30
0.0
 10
124.043724191
 20
124.708518257
 30
0.0
 10
124.1960296952
 20
124.7546447727
 30
0.0
 10
124.3151876802
 20
124.7905668276
 30
0.0
 10
124.4003686142
 20
124.8174693046
 30
0.0
 10
124.45209491
 20
124.8319640354
 30
0.0
 10
124.4746394274
 20
124.8404409166
 30
0.0
 10
124.4805383316
 20
124.8416519766
 30
0.0
  0
SPLINE
  5
3C6
100
AcDbEntity
  8
0
100
AcDbSpline
 62
7
  6
CONTINUOUS
 70
0
 71
3
 72
18
 73
14
 74
0
 42
0.0000001
 43
0.0000001
 44
0.0000000001
 40
0.0
 40
0.0
 40
0.0
 40
0.0
 40
0.1946684704
 40
0.3826300431
 40
0.5555771948
 40
0.7070579126
 40
0.8313537933
 40
0.8818524768
 40
0.9238587293
 40
0.9568908058
 40
0.9807102062
 40
0.9951374311
 40
1.0
 40
1.0
 40
1.0
 40
1.0
 10
92.7305383316
 20
133.1303271112
 30
0.0
 10
92.698093199
 20
133.1301389684
 30
0.0
 10
92.6343199803
 20
133.1298238199
 30
0.0
 10
92.5417223883
 20
133.1297564542
 30
0.0
 10
92.4563168595
 20
133.1303390111
 30
0.0
 10
92.3815491756
 20
133.1308955816
 30
0.0
 10
92.3271174184
 20
133.1305693563
 30
0.0
 10
92.2910653705
 20
133.1302701294
 30
0.0
 10
92.2699683123
 20
133.1299114169
 30
0.0
 10
92.2539497491
 20
133.1302247058
 30
0.0
 10
92.2410196506
 20
133.1293682962
 30
0.0
 10
92.2356971677
 20
133.1310473536
 30
0.0
 10
92.2305383316
 20
133.1295166597
 30
0.0
 10
92.2305383316
 20
133.1303271112
 30
0.0
  0
ELLIPSE
  5
3C7
100
AcDbEntity
  8
0
100
AcDbEllipse
 62
7
  6
CONTINUOUS
 10
127.498487524
 20
148.8416519766
 30
0.0
 11
-0.0
 21
1.0
 31
0.0
 40
0.5773502692
 41
-0.0
 42
1.5707963268
  0
ELLIPSE
  5
3C8
100
AcDbEntity
  8
0
100
AcDbEllipse
 62
7
  6
CONTINUOUS
 10
123.4570356397
 20
146.3565775458
 30
0.0
 11
2.0131567266
 21
5.5311026482
 31
0.0
 40
0.5096773721
 41
-1.5707963268
 42
-0.9506573207
  0
ELLIPSE
  5
3C9
100
AcDbEntity
  8
0
100
AcDbEllipse
 62
7
  6
CONTINUOUS
 10
126.9211372548
 20
149.8416519766
 30
0.0
 11
-0.0
 21
4.0
 31
0.0
 40
0.5773502692
 41
0.0
 42
1.5707963268
  0
ELLIPSE
  5
3CA
100
AcDbEntity
  8
0
100
AcDbEllipse
 62
7
  6
CONTINUOUS
 10
102.1131718399
 20
149.8416519766
 30
0.0
 11
0.0
 21
4.0
 31
0.0
 40
1.0
 41
-1.5707963268
 42
0.0
  0
ELLIPSE
  5
3CB
100
AcDbEntity
  8
0
100
AcDbEllipse
 62
7
  6
CONTINUOUS
 10
121.1476345629
 20
140.011550235
 30
0.0
 11
2.0131567266
 21
5.5311026482
 31
0.0
 40
0.5096773721
 41
-1.5707963268
 42
-0.9506573207
  0
ENDSEC
  0
SECTION
  2
OBJECTS
  0
DICTIONARY
  5
3CC
100
AcDbDictionary
  3
ACAD_GROUP
350
3CD
  3
ACAD_MLINESTYLE
350
3CE
  0
DICTIONARY
  5
3CD
102
{ACAD_REACTORS
330
3CC
102
}
100
AcDbDictionary
  0
DICTIONARY
  5
3CE
102
{ACAD_REACTORS
330
3CC
102
}
100
AcDbDictionary
  3
STANDARD
350
3CF
  0
MLINESTYLE
  5
3CF
102
{ACAD_REACTORS
330
3CE
102
}
100
AcDbMlineStyle
  2
STANDARD
 70
0
  3

 62
256
 51
90.0
 52
90.0
 71
2
 49
0.5
 62
256
  6
BYLAYER
 49
-0.5
 62
256
  6
BYLAYER
  0
ENDSEC
  0
EOF
