999
DXF file: C:\Users\64ciro\Desktop\FILE 3D-2D\ARMATEC\h340ll040_3077.dxf
999
Pro/ENGINEER 2017260 by Parametric Technology Corporation
  0
SECTION
  2
HEADER
  9
$ACADVER
  1
AC1014
  9
$DWGCODEPAGE
  3
ANSI_1252
  9
$EXTMAX
 10
297.0
 20
210.0
 30
0.0
  9
$EXTMIN
 10
0.0
 20
0.0
 30
0.0
  9
$LIMMIN
 10
0.0
 20
0.0
  9
$LIMMAX
 10
297.0
 20
210.0
  9
$VIEWCTR
 10
148.5
 20
105.0
  9
$VIEWSIZE
 40
210.0
  9
$CLAYER
  8
0
  9
$LTSCALE
 40
16.335
  9
$CELTYPE
  6
BYLAYER
  9
$DIMSCALE
 40
1.0
  9
$DIMASZ
 40
1.5
  9
$DIMEXO
 40
0.0625
  9
$DIMDLI
 40
11.286
  9
$DIMEXE
 40
0.125
  9
$DIMCEN
 40
2.673
  9
$DIMLFAC
 40
1.0
  9
$DIMBLK
  1
_CLOSED
  9
$DIMALT
 70
0
  9
$DIMALTF
 40
25.4
  9
$DIMTXT
 40
2.0
  9
$DIMTOL
 70
1
  9
$DIMLIM
 70
0
  9
$DIMTFAC
 40
1.0
  9
$DIMTP
 40
0.01
  9
$DIMTM
 40
0.01
  9
$DIMGAP
 40
0.625
  9
$AUNITS
 70
0
  9
$PDMODE
 70
3
  9
$PDSIZE
 40
0.3125
  9
$HANDSEED
  5
40F
  9
$TILEMODE
 70
1
  9
$MEASUREMENT
 70
1
  0
ENDSEC
  0
SECTION
  2
CLASSES
  0
ENDSEC
  0
SECTION
  2
TABLES
  0
TABLE
  2
VPORT
  5
8
100
AcDbSymbolTable
 70
2
  0
VPORT
  5
1F4
100
AcDbSymbolTableRecord
100
AcDbViewportTableRecord
  2
*ACTIVE
 70
0
 10
0.0
 20
0.0
 11
1.0
 21
1.0
 12
148.5
 22
105.0
 13
0.0
 23
0.0
 14
1.0
 24
1.0
 15
0.0
 25
0.0
 16
0.0
 26
0.0
 36
1.0
 17
0.0
 27
0.0
 37
0.0
 40
210.0
 41
1.4142857143
 42
50.0
 43
0.0
 44
0.0
 50
0.0
 51
0.0
 71
0
 72
100
 73
1
 74
1
 75
0
 76
0
 77
0
 78
0
  0
ENDTAB
  0
TABLE
  2
LTYPE
  5
5
100
AcDbSymbolTable
 70
6
  0
LTYPE
  5
14
100
AcDbSymbolTableRecord
100
AcDbLinetypeTableRecord
  2
BYBLOCK
 70
0
  3

 72
65
 73
0
 40
0.0
  0
LTYPE
  5
15
100
AcDbSymbolTableRecord
100
AcDbLinetypeTableRecord
  2
BYLAYER
 70
0
  3

 72
65
 73
0
 40
0.0
  0
LTYPE
  5
16
100
AcDbSymbolTableRecord
100
AcDbLinetypeTableRecord
  2
CONTINUOUS
 70
64
  3
Solid line
 72
65
 73
0
 40
0.0
  0
LTYPE
  5
1F5
100
AcDbSymbolTableRecord
100
AcDbLinetypeTableRecord
  2
CENTER
 70
64
  3
____ _ ____ _ ____ _ ____ _ ____ _ ____ _ ____
 72
65
 73
4
 40
0.6
 49
0.375
 74
0
 49
-0.075
 74
0
 49
0.075
 74
0
 49
-0.075
 74
0
  0
LTYPE
  5
1F6
100
AcDbSymbolTableRecord
100
AcDbLinetypeTableRecord
  2
HIDDEN
 70
64
  3
- - - - - - - - - - - - - - - - - - - -
 72
65
 73
2
 40
0.2
 49
0.1
 74
0
 49
-0.1
 74
0
  0
LTYPE
  5
1F7
100
AcDbSymbolTableRecord
100
AcDbLinetypeTableRecord
  2
PHANTOM
 70
64
  3
_____ _ _ _____ _ _ _____ _ _ _____
 72
65
 73
6
 40
0.8
 49
0.45
 74
0
 49
-0.05
 74
0
 49
0.1
 74
0
 49
-0.05
 74
0
 49
0.1
 74
0
 49
-0.05
 74
0
  0
LTYPE
  5
1F8
100
AcDbSymbolTableRecord
100
AcDbLinetypeTableRecord
  2
DOT
 70
64
  3
. . . . . . . . . . . . . . . . . . . .
 72
65
 73
2
 40
0.2
 49
0.1
 74
0
 49
-0.1
 74
0
  0
LTYPE
  5
1F9
100
AcDbSymbolTableRecord
100
AcDbLinetypeTableRecord
  2
DASHED
 70
64
  3
- - - - - - - - - - - - - - - - - - - -
 72
65
 73
2
 40
0.2
 49
0.1
 74
0
 49
-0.1
 74
0
  0
ENDTAB
  0
TABLE
  2
LAYER
  5
2
100
AcDbSymbolTable
 70
36
  0
LAYER
  5
10
100
AcDbSymbolTableRecord
100
AcDbLayerTableRecord
  2
0
 70
0
 62
7
  6
CONTINUOUS
  0
LAYER
  5
1FA
100
AcDbSymbolTableRecord
100
AcDbLayerTableRecord
  2
DEFAULT_1
 70
0
 62
7
  6
CENTER
  0
LAYER
  5
1FB
100
AcDbSymbolTableRecord
100
AcDbLayerTableRecord
  2
DEFAULT_2
 70
0
 62
8
  6
HIDDEN
  0
LAYER
  5
1FC
100
AcDbSymbolTableRecord
100
AcDbLayerTableRecord
  2
DEFAULT_3
 70
0
 62
7
  6
PHANTOM
  0
LAYER
  5
1FD
100
AcDbSymbolTableRecord
100
AcDbLayerTableRecord
  2
ASSI
 70
0
 62
7
  6
CONTINUOUS
  0
LAYER
  5
1FE
100
AcDbSymbolTableRecord
100
AcDbLayerTableRecord
  2
COSMETICA
 70
0
 62
7
  6
CONTINUOUS
  0
LAYER
  5
1FF
100
AcDbSymbolTableRecord
100
AcDbLayerTableRecord
  2
CURVE
 70
0
 62
7
  6
CONTINUOUS
  0
LAYER
  5
200
100
AcDbSymbolTableRecord
100
AcDbLayerTableRecord
  2
DETTAGLI
 70
0
 62
7
  6
CONTINUOUS
  0
LAYER
  5
201
100
AcDbSymbolTableRecord
100
AcDbLayerTableRecord
  2
GEOM
 70
0
 62
7
  6
CONTINUOUS
  0
LAYER
  5
202
100
AcDbSymbolTableRecord
100
AcDbLayerTableRecord
  2
GEOMETRIA_SOLIDA
 70
0
 62
7
  6
CONTINUOUS
  0
LAYER
  5
203
100
AcDbSymbolTableRecord
100
AcDbLayerTableRecord
  2
NOGEOM
 70
0
 62
7
  6
CONTINUOUS
  0
LAYER
  5
204
100
AcDbSymbolTableRecord
100
AcDbLayerTableRecord
  2
PIANI
 70
0
 62
7
  6
CONTINUOUS
  0
LAYER
  5
205
100
AcDbSymbolTableRecord
100
AcDbLayerTableRecord
  2
PIANI_OFFSET
 70
0
 62
7
  6
CONTINUOUS
  0
LAYER
  5
206
100
AcDbSymbolTableRecord
100
AcDbLayerTableRecord
  2
QUOTE
 70
0
 62
7
  6
CONTINUOUS
  0
LAYER
  5
207
100
AcDbSymbolTableRecord
100
AcDbLayerTableRecord
  2
RIF
 70
0
 62
7
  6
CONTINUOUS
  0
LAYER
  5
208
100
AcDbSymbolTableRecord
100
AcDbLayerTableRecord
  2
SKETCH
 70
0
 62
7
  6
CONTINUOUS
  0
LAYER
  5
209
100
AcDbSymbolTableRecord
100
AcDbLayerTableRecord
  2
TAB
 70
0
 62
7
  6
CONTINUOUS
  0
ENDTAB
  0
TABLE
  2
STYLE
  5
3
100
AcDbSymbolTable
 70
1
  0
STYLE
  5
11
100
AcDbSymbolTableRecord
100
AcDbTextStyleTableRecord
  2
STANDARD
 70
0
 40
0.0
 41
0.8
 50
0.0
 71
0
 42
0.2
  3
txt
  4

  0
STYLE
  5
20A
100
AcDbSymbolTableRecord
100
AcDbTextStyleTableRecord
  2
TEXTSTYLE_1
 70
0
 40
0.0
 41
0.8
 50
0.0
 71
0
 42
0.2
  3
gdt
  4

  0
ENDTAB
  0
TABLE
  2
VIEW
  5
6
100
AcDbSymbolTable
 70
0
  0
ENDTAB
  0
TABLE
  2
UCS
  5
7
100
AcDbSymbolTable
 70
0
  0
ENDTAB
  0
TABLE
  2
APPID
  5
9
100
AcDbSymbolTable
 70
1
  0
APPID
  5
20B
100
AcDbSymbolTableRecord
100
AcDbRegAppTableRecord
  2
ACAD
 70
0
  0
ENDTAB
  0
TABLE
  2
BLOCK_RECORD
  5
1
100
AcDbSymbolTable
 70
0
  0
BLOCK_RECORD
  5
1F
100
AcDbSymbolTableRecord
100
AcDbBlockTableRecord
  2
*MODEL_SPACE
  0
BLOCK_RECORD
  5
1B
100
AcDbSymbolTableRecord
100
AcDbBlockTableRecord
  2
*PAPER_SPACE
  0
ENDTAB
  0
TABLE
  2
DIMSTYLE
  5
A
100
AcDbSymbolTable
 70
1
  0
DIMSTYLE
105
20C
100
AcDbSymbolTableRecord
100
AcDbDimStyleTableRecord
  2
STANDARD
 70
0
  3

  4

  5
_CLOSED
  6
_CLOSED
  7
_CLOSED
 40
1.0
 41
1.5
 42
0.0625
 43
0.38
 44
0.125
 45
0.0
 46
0.0
 47
0.01
 48
0.01
140
2.0
141
0.09
142
0.0
143
25.4
144
1.0
145
0.0
146
1.0
147
0.625
 71
1.0
 72
0.0
 73
0
 74
0
 75
0
 76
0
 77
1
 78
8
 79
2
170
0
171
1
172
0
173
0
174
0
175
0
176
0
177
0
178
0
270
2
179
2
271
2
272
2
273
2
274
2
275
0
280
0
281
0
282
0
283
1
284
8
285
0
286
0
287
3
288
0
340
11
  0
ENDTAB
  0
ENDSEC
  0
SECTION
  2
BLOCKS
  0
BLOCK
  5
20
100
AcDbEntity
  8
0
100
AcDbBlockBegin
  2
*MODEL_SPACE
 70
0
 10
0.0
 20
0.0
 30
0.0
  3
*MODEL_SPACE
  1

  0
ENDBLK
  5
21
100
AcDbEntity
  8
0
100
AcDbBlockEnd
  0
BLOCK
  5
1C
100
AcDbEntity
  8
0
100
AcDbBlockBegin
  2
*PAPER_SPACE
 70
0
 10
0.0
 20
0.0
 30
0.0
  3
*PAPER_SPACE
  1

  0
ENDBLK
  5
1D
100
AcDbEntity
  8
0
100
AcDbBlockEnd
  0
ENDSEC
  0
SECTION
  2
ENTITIES
  0
LINE
  5
20D
100
AcDbEntity
  8
0
100
AcDbLine
 62
7
  6
CONTINUOUS
 10
0.0
 20
0.0
 11
0.0
 21
210.0
  0
LINE
  5
20E
100
AcDbEntity
  8
0
100
AcDbLine
 62
7
  6
CONTINUOUS
 10
0.0
 20
0.0
 11
297.0
 21
0.0
  0
LINE
  5
20F
100
AcDbEntity
  8
0
100
AcDbLine
 62
7
  6
CONTINUOUS
 10
0.0
 20
210.0
 11
297.0
 21
210.0
  0
LINE
  5
210
100
AcDbEntity
  8
0
100
AcDbLine
 62
7
  6
CONTINUOUS
 10
297.0
 20
0.0
 11
297.0
 21
210.0
  0
LINE
  5
211
100
AcDbEntity
  8
0
100
AcDbLine
 62
7
  6
CONTINUOUS
 10
65.8075994497
 20
51.8739201138
 11
67.5011777643
 21
48.9405564264
  0
LINE
  5
212
100
AcDbEntity
  8
0
100
AcDbLine
 62
7
  6
CONTINUOUS
 10
65.8075994497
 20
51.8740425722
 11
65.8075994497
 21
106.8737976554
  0
LINE
  5
213
100
AcDbEntity
  8
0
100
AcDbLine
 62
7
  6
CONTINUOUS
 10
67.5396502573
 20
48.8739201138
 11
67.5396502573
 21
48.9627685306
  0
LINE
  5
214
100
AcDbEntity
  8
0
100
AcDbLine
 62
7
  6
CONTINUOUS
 10
67.5396502573
 20
62.1536744889
 11
67.5396502573
 21
66.1830141555
  0
LINE
  5
215
100
AcDbEntity
  8
0
100
AcDbLine
 62
7
  6
CONTINUOUS
 10
67.5396502573
 20
92.5648260721
 11
67.5396502573
 21
96.5941657387
  0
LINE
  5
216
100
AcDbEntity
  8
0
100
AcDbLine
 62
7
  6
CONTINUOUS
 10
67.5396502573
 20
109.785071697
 11
67.5396502573
 21
109.8739201138
  0
LINE
  5
217
100
AcDbEntity
  8
0
100
AcDbLine
 62
7
  6
CONTINUOUS
 10
69.1875994497
 20
80.2639201138
 11
69.1875994497
 21
78.3439201138
  0
LINE
  5
218
100
AcDbEntity
  8
0
100
AcDbLine
 62
7
  6
CONTINUOUS
 10
70.0275994497
 20
78.3439201138
 11
70.0275994497
 21
80.2639201138
  0
LINE
  5
219
100
AcDbEntity
  8
0
100
AcDbLine
 62
7
  6
CONTINUOUS
 10
73.3648153792
 20
82.0639201138
 11
73.3648153792
 21
76.5439201138
  0
LINE
  5
21A
100
AcDbEntity
  8
0
100
AcDbLine
 62
7
  6
CONTINUOUS
 10
74.2048153792
 20
75.7039201138
 11
74.2048153792
 21
78.3801182769
  0
LINE
  5
21B
100
AcDbEntity
  8
0
100
AcDbLine
 62
7
  6
CONTINUOUS
 10
74.2048153792
 20
79.3739201138
 11
74.2048153792
 21
81.7739201138
  0
LINE
  5
21C
100
AcDbEntity
  8
0
100
AcDbLine
 62
7
  6
CONTINUOUS
 10
65.8075994497
 20
106.8739201138
 11
67.5396502573
 21
109.8739201138
  0
LINE
  5
21D
100
AcDbEntity
  8
0
100
AcDbLine
 62
7
  6
CONTINUOUS
 10
90.4004926686
 20
51.581026895
 11
96.8147062309
 21
45.1668133326
  0
LINE
  5
21E
100
AcDbEntity
  8
0
100
AcDbLine
 62
7
  6
CONTINUOUS
 10
75.7420313086
 20
78.3801182769
 11
77.4143055204
 21
75.7039201138
  0
LINE
  5
21F
100
AcDbEntity
  8
0
100
AcDbLine
 62
7
  6
CONTINUOUS
 10
78.4048153792
 20
75.7039201138
 11
76.7325411675
 21
78.3801182769
  0
LINE
  5
220
100
AcDbEntity
  8
0
100
AcDbLine
 62
7
  6
CONTINUOUS
 10
80.7868735076
 20
109.8739201138
 11
80.7868735076
 21
109.7852137134
  0
LINE
  5
221
100
AcDbEntity
  8
0
100
AcDbLine
 62
7
  6
CONTINUOUS
 10
80.7868735076
 20
96.5926283147
 11
80.7868735076
 21
92.5665055384
  0
LINE
  5
222
100
AcDbEntity
  8
0
100
AcDbLine
 62
7
  6
CONTINUOUS
 10
80.7868735076
 20
66.181334699
 11
80.7868735076
 21
62.1552119315
  0
LINE
  5
223
100
AcDbEntity
  8
0
100
AcDbLine
 62
7
  6
CONTINUOUS
 10
80.7868735076
 20
48.9626265096
 11
80.7868735076
 21
48.8739201159
  0
LINE
  5
224
100
AcDbEntity
  8
0
100
AcDbLine
 62
7
  6
CONTINUOUS
 10
81.2198862095
 20
109.6239201138
 11
81.2198862095
 21
109.5442963839
  0
LINE
  5
225
100
AcDbEntity
  8
0
100
AcDbLine
 62
7
  6
CONTINUOUS
 10
81.2198862095
 20
96.3586271289
 11
81.2198862095
 21
92.5595893206
  0
LINE
  5
226
100
AcDbEntity
  8
0
100
AcDbLine
 62
7
  6
CONTINUOUS
 10
81.2198862095
 20
66.188250986
 11
81.2198862095
 21
62.3892130843
  0
LINE
  5
227
100
AcDbEntity
  8
0
100
AcDbLine
 62
7
  6
CONTINUOUS
 10
81.2198862095
 20
49.2035438764
 11
81.2198862095
 21
49.1239201161
  0
LINE
  5
228
100
AcDbEntity
  8
0
100
AcDbLine
 62
7
  6
CONTINUOUS
 10
82.6921293959
 20
100.4720220989
 11
82.6921293959
 21
84.369002081
  0
LINE
  5
229
100
AcDbEntity
  8
0
100
AcDbLine
 62
7
  6
CONTINUOUS
 10
82.6921293959
 20
74.3788381466
 11
82.6921293959
 21
58.2758181287
  0
LINE
  5
22A
100
AcDbEntity
  8
0
100
AcDbLine
 62
7
  6
CONTINUOUS
 10
82.6921293959
 20
105.4671040661
 11
82.6921293959
 21
107.0739201138
  0
LINE
  5
22B
100
AcDbEntity
  8
0
100
AcDbLine
 62
7
  6
CONTINUOUS
 10
82.7787319363
 20
51.8239201138
 11
82.7787319363
 21
53.7405831915
  0
LINE
  5
22C
100
AcDbEntity
  8
0
100
AcDbLine
 62
7
  6
CONTINUOUS
 10
82.8653344555
 20
55.5582215097
 11
82.8653344767
 21
51.8739201138
  0
LINE
  5
22D
100
AcDbEntity
  8
0
100
AcDbLine
 62
7
  6
CONTINUOUS
 10
83.0385395574
 20
106.8739201138
 11
83.0385395574
 21
55.5582215097
  0
LINE
  5
22E
100
AcDbEntity
  8
0
100
AcDbLine
 62
7
  6
CONTINUOUS
 10
93.8075994497
 20
138.8478207926
 11
94.0812292699
 21
139.1739201138
  0
LINE
  5
22F
100
AcDbEntity
  8
0
100
AcDbLine
 62
7
  6
CONTINUOUS
 10
89.6933858874
 20
106.8739201138
 11
89.6933858874
 21
51.8739201138
  0
LINE
  5
230
100
AcDbEntity
  8
0
100
AcDbLine
 62
7
  6
CONTINUOUS
 10
90.4004926686
 20
107.1668133326
 11
90.4004926686
 21
51.581026895
  0
LINE
  5
231
100
AcDbEntity
  8
0
100
AcDbLine
 62
7
  6
CONTINUOUS
 10
93.8075994497
 20
122.1739201138
 11
93.8075994497
 21
139.1739201138
  0
LINE
  5
232
100
AcDbEntity
  8
0
100
AcDbLine
 62
7
  6
CONTINUOUS
 10
94.3075994497
 20
125.4739201138
 11
94.3075994497
 21
122.5780653022
  0
LINE
  5
233
100
AcDbEntity
  8
0
100
AcDbLine
 62
7
  6
CONTINUOUS
 10
95.0075994497
 20
122.5780653022
 11
94.6575994497
 21
121.9718475196
  0
LINE
  5
234
100
AcDbEntity
  8
0
100
AcDbLine
 62
7
  6
CONTINUOUS
 10
95.0075994497
 20
122.5780653022
 11
95.0075994497
 21
126.1739201138
  0
LINE
  5
235
100
AcDbEntity
  8
0
100
AcDbLine
 62
7
  6
CONTINUOUS
 10
96.8147062309
 20
45.1668133326
 11
96.8147062309
 21
113.581026895
  0
LINE
  5
236
100
AcDbEntity
  8
0
100
AcDbLine
 62
7
  6
CONTINUOUS
 10
97.5218130121
 20
44.8739201138
 11
97.5218130121
 21
113.8739201138
  0
LINE
  5
237
100
AcDbEntity
  8
0
100
AcDbLine
 62
7
  6
CONTINUOUS
 10
97.8075994497
 20
126.1739201138
 11
97.8075994497
 21
138.6739201138
  0
LINE
  5
238
100
AcDbEntity
  8
0
100
AcDbLine
 62
7
  6
CONTINUOUS
 10
99.0575994497
 20
131.8739201138
 11
99.0575994497
 21
128.4239201138
  0
LINE
  5
239
100
AcDbEntity
  8
0
100
AcDbLine
 62
7
  6
CONTINUOUS
 10
99.3075994497
 20
126.6739201138
 11
99.3075994497
 21
128.1739201138
  0
LINE
  5
23A
100
AcDbEntity
  8
0
100
AcDbLine
 62
7
  6
CONTINUOUS
 10
99.3911915848
 20
125.4739201138
 11
99.3911915848
 21
121.0110780041
  0
LINE
  5
23B
100
AcDbEntity
  8
0
100
AcDbLine
 62
7
  6
CONTINUOUS
 10
99.8703490085
 20
125.4739201138
 11
99.8703490085
 21
121.0110780041
  0
LINE
  5
23C
100
AcDbEntity
  8
0
100
AcDbLine
 62
7
  6
CONTINUOUS
 10
100.0575994497
 20
114.8739201138
 11
100.0575994497
 21
118.5654809314
  0
LINE
  5
23D
100
AcDbEntity
  8
0
100
AcDbLine
 62
7
  6
CONTINUOUS
 10
100.1757943531
 20
119.7697749254
 11
100.1757943531
 21
119.5942065836
  0
LINE
  5
23E
100
AcDbEntity
  8
0
100
AcDbLine
 62
7
  6
CONTINUOUS
 10
100.6524662435
 20
119.7697749254
 11
100.6524662435
 21
119.5942065836
  0
LINE
  5
23F
100
AcDbEntity
  8
0
100
AcDbLine
 62
7
  6
CONTINUOUS
 10
101.8075994497
 20
132.6082176982
 11
101.8075994497
 21
132.3041215383
  0
LWPOLYLINE
  5
240
100
AcDbEntity
  8
0
100
AcDbPolyline
 62
7
  6
CONTINUOUS
 90
15
 70
0
 10
100.0576128821
 20
114.8739206338
 10
100.0508750074
 20
114.7580222841
 10
100.0314197273
 20
114.6465350111
 10
99.9994923647
 20
114.5379610808
 10
99.9555022225
 20
114.4336909722
 10
99.900013091
 20
114.335059992
 10
99.8337359671
 20
114.2433310926
 10
99.7575199118
 20
114.1596787335
 10
99.6723412039
 20
114.0851739207
 10
99.5792909737
 20
114.020770581
 10
99.4795611893
 20
113.9672932363
 10
99.3744290858
 20
113.925426309
 10
99.2652411855
 20
113.8957055905
 10
99.1533962358
 20
113.8785113011
 10
99.0576019562
 20
113.8739136071
  0
LINE
  5
241
100
AcDbEntity
  8
0
100
AcDbLine
 62
7
  6
CONTINUOUS
 10
100.070939762
 20
119.9429800062
 11
100.3094536498
 21
120.3759920934
  0
LINE
  5
242
100
AcDbEntity
  8
0
100
AcDbLine
 62
7
  6
CONTINUOUS
 10
100.0185416268
 20
119.9718475196
 11
100.2571434517
 21
120.4048602212
  0
LINE
  5
243
100
AcDbEntity
  8
0
100
AcDbLine
 62
7
  6
CONTINUOUS
 10
101.815186642
 20
132.6161215295
 11
101.8075994497
 21
132.6082176982
  0
LINE
  5
244
100
AcDbEntity
  8
0
100
AcDbLine
 62
7
  6
CONTINUOUS
 10
106.3075994497
 20
139.1739201138
 11
105.8075994497
 21
138.6739201138
  0
LINE
  5
245
100
AcDbEntity
  8
0
100
AcDbLine
 62
7
  6
CONTINUOUS
 10
99.3575994497
 20
132.1739201138
 11
99.0575994497
 21
131.8739201138
  0
LINE
  5
246
100
AcDbEntity
  8
0
100
AcDbLine
 62
7
  6
CONTINUOUS
 10
107.8075994497
 20
145.5286206522
 11
106.1075994497
 21
144.5471251946
  0
LINE
  5
247
100
AcDbEntity
  8
0
100
AcDbLine
 62
7
  6
CONTINUOUS
 10
130.5218130121
 20
43.8739201138
 11
141.4684998186
 21
43.8739201138
  0
LINE
  5
248
100
AcDbEntity
  8
0
100
AcDbLine
 62
7
  6
CONTINUOUS
 10
129.4004926686
 20
44.581026895
 11
129.8147062309
 21
44.1668133326
  0
LINE
  5
249
100
AcDbEntity
  8
0
100
AcDbLine
 62
7
  6
CONTINUOUS
 10
82.6921293959
 20
107.0739201138
 11
81.2198862095
 21
109.6239201138
  0
LINE
  5
24A
100
AcDbEntity
  8
0
100
AcDbLine
 62
7
  6
CONTINUOUS
 10
102.6076024202
 20
133.2246730047
 11
102.6076024202
 21
133.0331961117
  0
LINE
  5
24B
100
AcDbEntity
  8
0
100
AcDbLine
 62
7
  6
CONTINUOUS
 10
103.8075994497
 20
134.1739201138
 11
103.8075994497
 21
137.6739201138
  0
LINE
  5
24C
100
AcDbEntity
  8
0
100
AcDbLine
 62
7
  6
CONTINUOUS
 10
104.5326822321
 20
134.1739201138
 11
104.5326822321
 21
137.0965698446
  0
LINE
  5
24D
100
AcDbEntity
  8
0
100
AcDbLine
 62
7
  6
CONTINUOUS
 10
105.2741100933
 20
83.8939201138
 11
105.2741100933
 21
74.8939201138
  0
LINE
  5
24E
100
AcDbEntity
  8
0
100
AcDbLine
 62
7
  6
CONTINUOUS
 10
105.8075994497
 20
144.0275099523
 11
105.8075994497
 21
143.3739201138
  0
LINE
  5
24F
100
AcDbEntity
  8
0
100
AcDbLine
 62
7
  6
CONTINUOUS
 10
105.8075994497
 20
138.6739201138
 11
105.8075994497
 21
137.6739201138
  0
LINE
  5
250
100
AcDbEntity
  8
0
100
AcDbLine
 62
7
  6
CONTINUOUS
 10
106.0241100933
 20
83.1439201138
 11
106.0241100933
 21
75.6439201138
  0
LINE
  5
251
100
AcDbEntity
  8
0
100
AcDbLine
 62
7
  6
CONTINUOUS
 10
107.8075994497
 20
145.0820386648
 11
107.8075994497
 21
148.8739201138
  0
LINE
  5
252
100
AcDbEntity
  8
0
100
AcDbLine
 62
7
  6
CONTINUOUS
 10
108.1902329581
 20
139.1739201138
 11
108.1902329581
 21
138.8478207926
  0
LINE
  5
253
100
AcDbEntity
  8
0
100
AcDbLine
 62
7
  6
CONTINUOUS
 10
110.6444804891
 20
143.3739201138
 11
110.6181973206
 21
143.1739201138
  0
LINE
  5
254
100
AcDbEntity
  8
0
100
AcDbLine
 62
7
  6
CONTINUOUS
 10
112.8075994497
 20
143.3739201138
 11
112.7473863548
 21
143.1739201138
  0
LINE
  5
255
100
AcDbEntity
  8
0
100
AcDbLine
 62
7
  6
CONTINUOUS
 10
114.9707184104
 20
143.3739201138
 11
114.8824694663
 21
143.1739201138
  0
LINE
  5
256
100
AcDbEntity
  8
0
100
AcDbLine
 62
7
  6
CONTINUOUS
 10
119.8075994497
 20
143.3739201138
 11
119.7073367189
 21
143.1739201138
  0
LINE
  5
257
100
AcDbEntity
  8
0
100
AcDbLine
 62
7
  6
CONTINUOUS
 10
116.9220962158
 20
143.3739201138
 11
116.8144498442
 21
143.1739201138
  0
LINE
  5
258
100
AcDbEntity
  8
0
100
AcDbLine
 62
7
  6
CONTINUOUS
 10
119.4649950638
 20
143.3739201138
 11
119.3510326707
 21
143.1739201138
  0
LINE
  5
259
100
AcDbEntity
  8
0
100
AcDbLine
 62
7
  6
CONTINUOUS
 10
118.4707184104
 20
143.3739201138
 11
118.354211788
 21
143.1739201138
  0
LINE
  5
25A
100
AcDbEntity
  8
0
100
AcDbLine
 62
7
  6
CONTINUOUS
 10
90.4004926686
 20
107.1668133326
 11
96.8147062309
 21
113.581026895
  0
LINE
  5
25B
100
AcDbEntity
  8
0
100
AcDbLine
 62
7
  6
CONTINUOUS
 10
97.5218130121
 20
44.8739201138
 11
128.6933858874
 21
44.8739201138
  0
LINE
  5
25C
100
AcDbEntity
  8
0
100
AcDbLine
 62
7
  6
CONTINUOUS
 10
80.7868735076
 20
48.8739201138
 11
67.5396502573
 21
48.8739201138
  0
LINE
  5
25D
100
AcDbEntity
  8
0
100
AcDbLine
 62
7
  6
CONTINUOUS
 10
143.8740509393
 20
48.8739201138
 11
158.0755486422
 21
48.8739201138
  0
LINE
  5
25E
100
AcDbEntity
  8
0
100
AcDbLine
 62
7
  6
CONTINUOUS
 10
80.7580300104
 20
48.9627685306
 11
67.5396502573
 21
48.9627685306
  0
LINE
  5
25F
100
AcDbEntity
  8
0
100
AcDbLine
 62
7
  6
CONTINUOUS
 10
143.8740509393
 20
48.9627685306
 11
158.0755486422
 21
48.9627685306
  0
LINE
  5
260
100
AcDbEntity
  8
0
100
AcDbLine
 62
7
  6
CONTINUOUS
 10
107.0741100933
 20
80.5939201138
 11
108.6582845611
 21
77.4848026607
  0
LINE
  5
261
100
AcDbEntity
  8
0
100
AcDbLine
 62
7
  6
CONTINUOUS
 10
107.9158547715
 20
80.5939201138
 11
109.0791569002
 21
78.3108111349
  0
LINE
  5
262
100
AcDbEntity
  8
0
100
AcDbLine
 62
7
  6
CONTINUOUS
 10
108.6931026837
 20
143.3739201138
 11
108.7033222212
 21
143.1739201138
  0
LINE
  5
263
100
AcDbEntity
  8
DEFAULT_1
100
AcDbLine
 62
2
  6
CENTER
 10
112.8075994497
 20
148.9739201138
 11
112.8075994497
 21
148.4273381264
  0
LINE
  5
264
100
AcDbEntity
  8
0
100
AcDbLine
 62
7
  6
CONTINUOUS
 10
112.8075994497
 20
82.0939201138
 11
112.8075994497
 21
81.3439201138
  0
LINE
  5
265
100
AcDbEntity
  8
0
100
AcDbLine
 62
7
  6
CONTINUOUS
 10
112.8075994497
 20
80.5939201138
 11
112.8075994497
 21
76.7739201138
  0
LINE
  5
266
100
AcDbEntity
  8
0
100
AcDbLine
 62
7
  6
CONTINUOUS
 10
112.8075994497
 20
145.0820386648
 11
112.8075994497
 21
148.4273381264
  0
LINE
  5
267
100
AcDbEntity
  8
0
100
AcDbLine
 62
7
  6
CONTINUOUS
 10
113.5575994497
 20
82.0939201138
 11
113.5575994497
 21
81.3439201138
  0
LINE
  5
268
100
AcDbEntity
  8
0
100
AcDbLine
 62
7
  6
CONTINUOUS
 10
113.5575994497
 20
80.5939201138
 11
113.5575994497
 21
76.7739201138
  0
LINE
  5
269
100
AcDbEntity
  8
0
100
AcDbLine
 62
7
  6
CONTINUOUS
 10
114.6075994497
 20
80.5939201138
 11
114.6075994497
 21
79.1792595201
  0
LINE
  5
26A
100
AcDbEntity
  8
0
100
AcDbLine
 62
7
  6
CONTINUOUS
 10
114.6075994497
 20
76.9739201138
 11
114.6075994497
 21
76.7739201138
  0
LINE
  5
26B
100
AcDbEntity
  8
0
100
AcDbLine
 62
7
  6
CONTINUOUS
 10
115.3575994497
 20
80.5939201138
 11
115.3575994497
 21
79.8439201138
  0
LINE
  5
26C
100
AcDbEntity
  8
0
100
AcDbLine
 62
7
  6
CONTINUOUS
 10
116.3075994497
 20
122.1739201138
 11
116.3075994497
 21
129.1739201138
  0
LINE
  5
26D
100
AcDbEntity
  8
0
100
AcDbLine
 62
7
  6
CONTINUOUS
 10
147.2573469181
 20
158.7094540197
 11
132.0147062309
 21
143.4668133326
  0
LINE
  5
26E
100
AcDbEntity
  8
0
100
AcDbLine
 62
7
  6
CONTINUOUS
 10
134.8431333557
 20
140.6383862079
 11
149.792880824
 21
155.5881336762
  0
LINE
  5
26F
100
AcDbEntity
  8
0
100
AcDbLine
 62
7
  6
CONTINUOUS
 10
82.8653344767
 20
51.8739201138
 11
89.6933858874
 21
51.8739201138
  0
LINE
  5
270
100
AcDbEntity
  8
0
100
AcDbLine
 62
7
  6
CONTINUOUS
 10
82.8653344767
 20
55.5582215097
 11
83.0385395574
 21
55.5582215097
  0
LINE
  5
271
100
AcDbEntity
  8
0
100
AcDbLine
 62
7
  6
CONTINUOUS
 10
117.4575994497
 20
80.1439201138
 11
117.4575994497
 21
79.3739201138
  0
LINE
  5
272
100
AcDbEntity
  8
0
100
AcDbLine
 62
7
  6
CONTINUOUS
 10
117.8075994497
 20
145.0820386648
 11
117.8075994497
 21
148.8739201138
  0
LINE
  5
273
100
AcDbEntity
  8
0
100
AcDbLine
 62
7
  6
CONTINUOUS
 10
118.2075994497
 20
80.1439201138
 11
118.2075994497
 21
79.1554112433
  0
LINE
  5
274
100
AcDbEntity
  8
0
100
AcDbLine
 62
7
  6
CONTINUOUS
 10
119.5241100933
 20
83.1439201138
 11
119.5241100933
 21
75.6439201138
  0
LINE
  5
275
100
AcDbEntity
  8
0
100
AcDbLine
 62
7
  6
CONTINUOUS
 10
119.8075994497
 20
144.0275099523
 11
119.8075994497
 21
143.3739201138
  0
LINE
  5
276
100
AcDbEntity
  8
0
100
AcDbLine
 62
7
  6
CONTINUOUS
 10
120.2741100933
 20
83.8939201138
 11
120.2741100933
 21
74.8939201138
  0
LINE
  5
277
100
AcDbEntity
  8
0
100
AcDbLine
 62
7
  6
CONTINUOUS
 10
126.6887972962
 20
131.7232036138
 11
128.998198373
 21
138.0682309246
  0
LINE
  5
278
100
AcDbEntity
  8
0
100
AcDbLine
 62
7
  6
CONTINUOUS
 10
123.8075994497
 20
122.1739201138
 11
128.3531746202
 21
134.6627852531
  0
LINE
  5
279
100
AcDbEntity
  8
0
100
AcDbLine
 62
7
  6
CONTINUOUS
 10
82.7787319363
 20
51.8239201138
 11
81.2198862095
 21
49.1239201138
  0
LINE
  5
27A
100
AcDbEntity
  8
0
100
AcDbLine
 62
7
  6
CONTINUOUS
 10
126.3075994497
 20
128.1739201138
 11
126.5575994497
 21
128.4239201138
  0
LINE
  5
27B
100
AcDbEntity
  8
0
100
AcDbLine
 62
7
  6
CONTINUOUS
 10
80.7580300104
 20
62.1536744889
 11
67.5396502573
 21
62.1536744889
  0
LINE
  5
27C
100
AcDbEntity
  8
0
100
AcDbLine
 62
7
  6
CONTINUOUS
 10
143.8740509393
 20
62.1536744889
 11
158.0755486422
 21
62.1536744889
  0
LINE
  5
27D
100
AcDbEntity
  8
0
100
AcDbLine
 62
7
  6
CONTINUOUS
 10
132.8075994497
 20
63.3739201138
 11
136.8075994497
 21
63.3739201138
  0
LINE
  5
27E
100
AcDbEntity
  8
0
100
AcDbLine
 62
7
  6
CONTINUOUS
 10
133.5543748385
 20
63.8279594967
 11
136.8075994497
 21
63.8279594967
  0
LINE
  5
27F
100
AcDbEntity
  8
0
100
AcDbLine
 62
7
  6
CONTINUOUS
 10
133.5462280756
 20
65.9873620579
 11
136.8075994497
 21
65.9873620579
  0
LINE
  5
280
100
AcDbEntity
  8
0
100
AcDbLine
 62
7
  6
CONTINUOUS
 10
80.7580300104
 20
66.1830141555
 11
67.5396502573
 21
66.1830141555
  0
LINE
  5
281
100
AcDbEntity
  8
0
100
AcDbLine
 62
7
  6
CONTINUOUS
 10
143.8740509393
 20
66.1830141555
 11
158.0755486422
 21
66.1830141555
  0
LINE
  5
282
100
AcDbEntity
  8
0
100
AcDbLine
 62
7
  6
CONTINUOUS
 10
132.8075994497
 20
66.4414014409
 11
136.8075994497
 21
66.4414014409
  0
LINE
  5
283
100
AcDbEntity
  8
0
100
AcDbLine
 62
7
  6
CONTINUOUS
 10
82.2591167256
 20
74.4239201353
 11
82.6920774411
 21
74.3788435668
  0
LINE
  5
284
100
AcDbEntity
  8
0
100
AcDbLine
 62
7
  6
CONTINUOUS
 10
132.8075994497
 20
65.7896703312
 11
136.2264725214
 21
64.907660825
  0
LINE
  5
285
100
AcDbEntity
  8
0
100
AcDbLine
 62
7
  6
CONTINUOUS
 10
133.5462280756
 20
65.9873620579
 11
136.8075994497
 21
65.1357667515
  0
LINE
  5
286
100
AcDbEntity
  8
0
100
AcDbLine
 62
7
  6
CONTINUOUS
 10
135.6507766491
 20
67.686208112
 11
136.8075994497
 21
67.3712045262
  0
LINE
  5
287
100
AcDbEntity
  8
0
100
AcDbLine
 62
7
  6
CONTINUOUS
 10
133.4050196654
 20
68.3010076115
 11
135.1402539259
 21
67.8208989689
  0
LINE
  5
288
100
AcDbEntity
  8
0
100
AcDbLine
 62
7
  6
CONTINUOUS
 10
132.8075994497
 20
68.0337979863
 11
136.8075994497
 21
66.865026624
  0
LINE
  5
289
100
AcDbEntity
  8
0
100
AcDbLine
 62
7
  6
CONTINUOUS
 10
102.1173149624
 20
133.4758347662
 11
102.1148586093
 21
133.4811792733
  0
LINE
  5
28A
100
AcDbEntity
  8
0
100
AcDbLine
 62
7
  6
CONTINUOUS
 10
107.1444804891
 20
143.3739201138
 11
107.1902023731
 21
143.1739201138
  0
LINE
  5
28B
100
AcDbEntity
  8
0
100
AcDbLine
 62
7
  6
CONTINUOUS
 10
125.5575994497
 20
114.8739201138
 11
125.5575994497
 21
119.7697749254
  0
LINE
  5
28C
100
AcDbEntity
  8
0
100
AcDbLine
 62
7
  6
CONTINUOUS
 10
126.3075994497
 20
121.0110780041
 11
126.3075994497
 21
128.1739201138
  0
LINE
  5
28D
100
AcDbEntity
  8
0
100
AcDbLine
 62
7
  6
CONTINUOUS
 10
126.5575994497
 20
129.7294830173
 11
126.5575994497
 21
128.4239201138
  0
LINE
  5
28E
100
AcDbEntity
  8
0
100
AcDbLine
 62
7
  6
CONTINUOUS
 10
126.6887972962
 20
139.1739201138
 11
126.6887972962
 21
131.7232036138
  0
LINE
  5
28F
100
AcDbEntity
  8
0
100
AcDbLine
 62
7
  6
CONTINUOUS
 10
128.6933858874
 20
113.8739201138
 11
128.6933858874
 21
44.8739201138
  0
LINE
  5
290
100
AcDbEntity
  8
0
100
AcDbLine
 62
7
  6
CONTINUOUS
 10
128.998198373
 20
138.0682309246
 11
128.998198373
 21
138.1739201138
  0
LINE
  5
291
100
AcDbEntity
  8
0
100
AcDbLine
 62
7
  6
CONTINUOUS
 10
129.4004926686
 20
114.1668133326
 11
129.4004926686
 21
44.581026895
  0
LINE
  5
292
100
AcDbEntity
  8
0
100
AcDbLine
 62
7
  6
CONTINUOUS
 10
129.8147062309
 20
44.1668133326
 11
129.8147062309
 21
114.581026895
  0
LINE
  5
293
100
AcDbEntity
  8
0
100
AcDbLine
 62
7
  6
CONTINUOUS
 10
130.5218130121
 20
43.8739201138
 11
130.5218130121
 21
114.8739201138
  0
LINE
  5
294
100
AcDbEntity
  8
0
100
AcDbLine
 62
7
  6
CONTINUOUS
 10
131.3075994497
 20
139.1739201138
 11
131.3075994497
 21
143.1739201138
  0
LINE
  5
295
100
AcDbEntity
  8
0
100
AcDbLine
 62
7
  6
CONTINUOUS
 10
109.0791569002
 20
78.3108111349
 11
108.6582845611
 21
77.4848026607
  0
LINE
  5
296
100
AcDbEntity
  8
0
100
AcDbLine
 62
7
  6
CONTINUOUS
 10
110.9158547715
 20
80.5939201138
 11
108.9694675545
 21
76.7739201138
  0
LINE
  5
297
100
AcDbEntity
  8
0
100
AcDbLine
 62
7
  6
CONTINUOUS
 10
111.7575994497
 20
80.5939201138
 11
109.8112122327
 21
76.7739201138
  0
LINE
  5
298
100
AcDbEntity
  8
0
100
AcDbLine
 62
7
  6
CONTINUOUS
 10
129.4004926686
 20
114.1668133326
 11
129.8147062309
 21
114.581026895
  0
LINE
  5
299
100
AcDbEntity
  8
0
100
AcDbLine
 62
7
  6
CONTINUOUS
 10
125.9075994497
 20
120.375992708
 11
125.9575994497
 21
120.4048602215
  0
LINE
  5
29A
100
AcDbEntity
  8
0
100
AcDbLine
 62
7
  6
CONTINUOUS
 10
136.8075994497
 20
64.6817273686
 11
133.5543748385
 21
63.8279594967
  0
LINE
  5
29B
100
AcDbEntity
  8
0
100
AcDbLine
 62
7
  6
CONTINUOUS
 10
136.2264725214
 20
64.907660825
 11
132.8075994497
 21
64.0256512234
  0
LINE
  5
29C
100
AcDbEntity
  8
0
100
AcDbLine
 62
7
  6
CONTINUOUS
 10
132.8075994497
 20
70.1345445225
 11
136.8075994497
 21
70.1345445225
  0
LINE
  5
29D
100
AcDbEntity
  8
0
100
AcDbLine
 62
7
  6
CONTINUOUS
 10
133.3181222922
 20
70.5885842869
 11
136.2970767266
 21
70.5885842869
  0
LINE
  5
29E
100
AcDbEntity
  8
0
100
AcDbLine
 62
7
  6
CONTINUOUS
 10
132.8075994497
 20
73.3497514317
 11
136.8075994497
 21
73.3497514317
  0
LINE
  5
29F
100
AcDbEntity
  8
0
100
AcDbLine
 62
7
  6
CONTINUOUS
 10
133.3181222922
 20
73.8037911961
 11
134.4885226732
 21
73.8037911961
  0
LINE
  5
2A0
100
AcDbEntity
  8
0
100
AcDbLine
 62
7
  6
CONTINUOUS
 10
134.9990455157
 20
73.8037911961
 11
136.2970767266
 21
73.8037911961
  0
LINE
  5
2A1
100
AcDbEntity
  8
0
100
AcDbLine
 62
7
  6
CONTINUOUS
 10
105.8075994497
 20
143.3739201138
 11
105.9078621806
 21
143.1739201138
  0
LINE
  5
2A2
100
AcDbEntity
  8
0
100
AcDbLine
 62
7
  6
CONTINUOUS
 10
106.1502038357
 20
143.3739201138
 11
106.2269524896
 21
143.1739201138
  0
LINE
  5
2A3
100
AcDbEntity
  8
0
100
AcDbLine
 62
7
  6
CONTINUOUS
 10
132.8075994497
 20
95.4868867467
 11
132.8075994497
 21
94.9329164097
  0
LINE
  5
2A4
100
AcDbEntity
  8
0
100
AcDbLine
 62
7
  6
CONTINUOUS
 10
132.8075994497
 20
93.1319642613
 11
132.8075994497
 21
92.5779939244
  0
LINE
  5
2A5
100
AcDbEntity
  8
0
100
AcDbLine
 62
7
  6
CONTINUOUS
 10
132.8075994497
 20
90.7965943883
 11
132.8075994497
 21
90.3425569127
  0
LINE
  5
2A6
100
AcDbEntity
  8
0
100
AcDbLine
 62
7
  6
CONTINUOUS
 10
132.8075994497
 20
88.7479859898
 11
132.8075994497
 21
88.2157395909
  0
LINE
  5
2A7
100
AcDbEntity
  8
0
100
AcDbLine
 62
7
  6
CONTINUOUS
 10
132.8075994497
 20
86.9340013096
 11
132.8075994497
 21
84.3813874791
  0
LINE
  5
2A8
100
AcDbEntity
  8
0
100
AcDbLine
 62
7
  6
CONTINUOUS
 10
132.8075994497
 20
83.9164857457
 11
132.8075994497
 21
83.4624467442
  0
LINE
  5
2A9
100
AcDbEntity
  8
0
100
AcDbLine
 62
7
  6
CONTINUOUS
 10
132.8075994497
 20
81.3573548863
 11
132.8075994497
 21
80.9033158848
  0
LINE
  5
2AA
100
AcDbEntity
  8
0
100
AcDbLine
 62
7
  6
CONTINUOUS
 10
132.8075994497
 20
79.323953397
 11
132.8075994497
 21
78.8221208165
  0
LINE
  5
2AB
100
AcDbEntity
  8
0
100
AcDbLine
 62
7
  6
CONTINUOUS
 10
132.8075994497
 20
78.0921815465
 11
132.8075994497
 21
77.638142545
  0
LINE
  5
2AC
100
AcDbEntity
  8
0
100
AcDbLine
 62
7
  6
CONTINUOUS
 10
132.8075994497
 20
75.6894662449
 11
132.8075994497
 21
73.3497514317
  0
LINE
  5
2AD
100
AcDbEntity
  8
0
100
AcDbLine
 62
7
  6
CONTINUOUS
 10
132.8075994497
 20
71.4619035313
 11
132.8075994497
 21
70.1345445225
  0
LINE
  5
2AE
100
AcDbEntity
  8
0
100
AcDbLine
 62
7
  6
CONTINUOUS
 10
132.8075994497
 20
68.5660451481
 11
132.8075994497
 21
68.0337979863
  0
LINE
  5
2AF
100
AcDbEntity
  8
0
100
AcDbLine
 62
7
  6
CONTINUOUS
 10
132.8075994497
 20
66.4414014409
 11
132.8075994497
 21
65.7896703312
  0
LINE
  5
2B0
100
AcDbEntity
  8
0
100
AcDbLine
 62
7
  6
CONTINUOUS
 10
132.8075994497
 20
64.0256512234
 11
132.8075994497
 21
63.3739201138
  0
LINE
  5
2B1
100
AcDbEntity
  8
0
100
AcDbLine
 62
7
  6
CONTINUOUS
 10
133.3181222922
 20
86.9340013096
 11
133.3181222922
 21
85.8847138951
  0
LINE
  5
2B2
100
AcDbEntity
  8
0
100
AcDbLine
 62
7
  6
CONTINUOUS
 10
133.3181222922
 20
85.4306748936
 11
133.3181222922
 21
84.3813874791
  0
LINE
  5
2B3
100
AcDbEntity
  8
0
100
AcDbLine
 62
7
  6
CONTINUOUS
 10
133.3181222922
 20
75.6894662449
 11
133.3181222922
 21
73.8037911961
  0
LINE
  5
2B4
100
AcDbEntity
  8
0
100
AcDbLine
 62
7
  6
CONTINUOUS
 10
133.3181222922
 20
71.2294526646
 11
133.3181222922
 21
70.5885842869
  0
LINE
  5
2B5
100
AcDbEntity
  8
0
100
AcDbLine
 62
7
  6
CONTINUOUS
 10
134.4885226732
 20
75.5482583592
 11
134.4885226732
 21
73.8037911961
  0
LINE
  5
2B6
100
AcDbEntity
  8
0
100
AcDbLine
 62
7
  6
CONTINUOUS
 10
134.9990455157
 20
75.5482583592
 11
134.9990455157
 21
73.8037911961
  0
LINE
  5
2B7
100
AcDbEntity
  8
0
100
AcDbLine
 62
7
  6
CONTINUOUS
 10
135.1402539259
 20
88.9608857701
 11
135.1402539259
 21
88.0028413365
  0
LINE
  5
2B8
100
AcDbEntity
  8
0
100
AcDbLine
 62
7
  6
CONTINUOUS
 10
135.1402539259
 20
68.778943784
 11
135.1402539259
 21
67.8208989689
  0
LINE
  5
2B9
100
AcDbEntity
  8
0
100
AcDbLine
 62
7
  6
CONTINUOUS
 10
135.6507766491
 20
89.0955751011
 11
135.6507766491
 21
87.8681489537
  0
LINE
  5
2BA
100
AcDbEntity
  8
0
100
AcDbLine
 62
7
  6
CONTINUOUS
 10
135.6507766491
 20
68.9136350224
 11
135.6507766491
 21
67.686208112
  0
LINE
  5
2BB
100
AcDbEntity
  8
0
100
AcDbLine
 62
7
  6
CONTINUOUS
 10
136.2970767266
 20
92.3911653111
 11
136.2970767266
 21
90.7965943883
  0
LINE
  5
2BC
100
AcDbEntity
  8
0
100
AcDbLine
 62
7
  6
CONTINUOUS
 10
136.2970767266
 20
75.7133637974
 11
136.2970767266
 21
73.8037911961
  0
LINE
  5
2BD
100
AcDbEntity
  8
0
100
AcDbLine
 62
7
  6
CONTINUOUS
 10
136.2970767266
 20
71.2424874852
 11
136.2970767266
 21
70.5885842869
  0
LINE
  5
2BE
100
AcDbEntity
  8
0
100
AcDbLine
 62
7
  6
CONTINUOUS
 10
136.8075994497
 20
94.2594605992
 11
136.8075994497
 21
93.8054200718
  0
LINE
  5
2BF
100
AcDbEntity
  8
0
100
AcDbLine
 62
7
  6
CONTINUOUS
 10
136.8075994497
 20
92.3911653111
 11
136.8075994497
 21
90.3425569127
  0
LINE
  5
2C0
100
AcDbEntity
  8
0
100
AcDbLine
 62
7
  6
CONTINUOUS
 10
136.8075994497
 20
89.9167573521
 11
136.8075994497
 21
89.4105805943
  0
LINE
  5
2C1
100
AcDbEntity
  8
0
100
AcDbLine
 62
7
  6
CONTINUOUS
 10
136.8075994497
 20
87.5531465123
 11
136.8075994497
 21
87.0469682286
  0
LINE
  5
2C2
100
AcDbEntity
  8
0
100
AcDbLine
 62
7
  6
CONTINUOUS
 10
136.8075994497
 20
85.8847138951
 11
136.8075994497
 21
85.4306748936
  0
LINE
  5
2C3
100
AcDbEntity
  8
0
100
AcDbLine
 62
7
  6
CONTINUOUS
 10
136.8075994497
 20
83.9164857457
 11
136.8075994497
 21
83.4624467442
  0
LINE
  5
2C4
100
AcDbEntity
  8
0
100
AcDbLine
 62
7
  6
CONTINUOUS
 10
136.8075994497
 20
81.3573548863
 11
136.8075994497
 21
80.8555223057
  0
LINE
  5
2C5
100
AcDbEntity
  8
0
100
AcDbLine
 62
7
  6
CONTINUOUS
 10
136.8075994497
 20
79.2761598179
 11
136.8075994497
 21
78.8221208165
  0
LINE
  5
2C6
100
AcDbEntity
  8
0
100
AcDbLine
 62
7
  6
CONTINUOUS
 10
136.8075994497
 20
78.0921815465
 11
136.8075994497
 21
77.638142545
  0
LINE
  5
2C7
100
AcDbEntity
  8
0
100
AcDbLine
 62
7
  6
CONTINUOUS
 10
136.8075994497
 20
75.7133637974
 11
136.8075994497
 21
73.3497514317
  0
LINE
  5
2C8
100
AcDbEntity
  8
0
100
AcDbLine
 62
7
  6
CONTINUOUS
 10
136.8075994497
 20
71.2598672459
 11
136.8075994497
 21
70.1345445225
  0
LINE
  5
2C9
100
AcDbEntity
  8
0
100
AcDbLine
 62
7
  6
CONTINUOUS
 10
136.8075994497
 20
69.734816129
 11
136.8075994497
 21
69.2286382268
  0
LINE
  5
2CA
100
AcDbEntity
  8
0
100
AcDbLine
 62
7
  6
CONTINUOUS
 10
136.8075994497
 20
67.3712045262
 11
136.8075994497
 21
66.865026624
  0
LINE
  5
2CB
100
AcDbEntity
  8
0
100
AcDbLine
 62
7
  6
CONTINUOUS
 10
136.8075994497
 20
66.4414014409
 11
136.8075994497
 21
65.9873620579
  0
LINE
  5
2CC
100
AcDbEntity
  8
0
100
AcDbLine
 62
7
  6
CONTINUOUS
 10
136.8075994497
 20
65.1357667515
 11
136.8075994497
 21
64.6817273686
  0
LINE
  5
2CD
100
AcDbEntity
  8
0
100
AcDbLine
 62
7
  6
CONTINUOUS
 10
136.8075994497
 20
63.8279594967
 11
136.8075994497
 21
63.3739201138
  0
LINE
  5
2CE
100
AcDbEntity
  8
0
100
AcDbLine
 62
7
  6
CONTINUOUS
 10
135.1402539259
 20
68.778943784
 11
133.4050196654
 21
68.3010076115
  0
LINE
  5
2CF
100
AcDbEntity
  8
0
100
AcDbLine
 62
7
  6
CONTINUOUS
 10
136.8075994497
 20
69.2286382268
 11
135.6507766491
 21
68.9136350224
  0
LINE
  5
2D0
100
AcDbEntity
  8
0
100
AcDbLine
 62
7
  6
CONTINUOUS
 10
105.2741100933
 20
74.8939201138
 11
120.2741100933
 21
74.8939201138
  0
LINE
  5
2D1
100
AcDbEntity
  8
0
100
AcDbLine
 62
7
  6
CONTINUOUS
 10
134.4885226732
 20
75.5482583592
 11
134.9990455157
 21
75.5482583592
  0
LINE
  5
2D2
100
AcDbEntity
  8
0
100
AcDbLine
 62
7
  6
CONTINUOUS
 10
106.0241100933
 20
75.6439201138
 11
119.5241100933
 21
75.6439201138
  0
LINE
  5
2D3
100
AcDbEntity
  8
0
100
AcDbLine
 62
7
  6
CONTINUOUS
 10
132.8075994497
 20
75.6894662449
 11
133.3181222922
 21
75.6894662449
  0
LINE
  5
2D4
100
AcDbEntity
  8
0
100
AcDbLine
 62
7
  6
CONTINUOUS
 10
71.8275994497
 20
75.7039201138
 11
74.2048153792
 21
75.7039201138
  0
LINE
  5
2D5
100
AcDbEntity
  8
0
100
AcDbLine
 62
7
  6
CONTINUOUS
 10
77.4143055204
 20
75.7039201138
 11
78.4048153792
 21
75.7039201138
  0
LINE
  5
2D6
100
AcDbEntity
  8
0
100
AcDbLine
 62
7
  6
CONTINUOUS
 10
136.2970767266
 20
75.7133637974
 11
136.8075994497
 21
75.7133637974
  0
LINE
  5
2D7
100
AcDbEntity
  8
0
100
AcDbLine
 62
7
  6
CONTINUOUS
 10
73.3648153792
 20
76.5439201138
 11
71.8275994497
 21
76.5439201138
  0
LINE
  5
2D8
100
AcDbEntity
  8
0
100
AcDbLine
 62
7
  6
CONTINUOUS
 10
108.9694675545
 20
76.7739201138
 11
109.8112122327
 21
76.7739201138
  0
LINE
  5
2D9
100
AcDbEntity
  8
0
100
AcDbLine
 62
7
  6
CONTINUOUS
 10
112.8075994497
 20
76.7739201138
 11
113.5575994497
 21
76.7739201138
  0
LINE
  5
2DA
100
AcDbEntity
  8
0
100
AcDbLine
 62
7
  6
CONTINUOUS
 10
114.6075994497
 20
76.7739201138
 11
115.3575994497
 21
76.7739201138
  0
LINE
  5
2DB
100
AcDbEntity
  8
0
100
AcDbLine
 62
7
  6
CONTINUOUS
 10
132.8075994497
 20
77.638142545
 11
136.8075994497
 21
77.638142545
  0
LINE
  5
2DC
100
AcDbEntity
  8
0
100
AcDbLine
 62
7
  6
CONTINUOUS
 10
132.8075994497
 20
78.0921815465
 11
136.8075994497
 21
78.0921815465
  0
LINE
  5
2DD
100
AcDbEntity
  8
0
100
AcDbLine
 62
7
  6
CONTINUOUS
 10
74.2048153792
 20
78.3801182769
 11
75.7420313086
 21
78.3801182769
  0
LINE
  5
2DE
100
AcDbEntity
  8
0
100
AcDbLine
 62
7
  6
CONTINUOUS
 10
132.8075994497
 20
78.8221208165
 11
136.8075994497
 21
78.8221208165
  0
LINE
  5
2DF
100
AcDbEntity
  8
0
100
AcDbLine
 62
7
  6
CONTINUOUS
 10
133.6222633368
 20
79.2761598179
 11
136.8075994497
 21
79.2761598179
  0
LINE
  5
2E0
100
AcDbEntity
  8
0
100
AcDbLine
 62
7
  6
CONTINUOUS
 10
75.9475994497
 20
79.3739201138
 11
74.2048153792
 21
79.3739201138
  0
LINE
  5
2E1
100
AcDbEntity
  8
0
100
AcDbLine
 62
7
  6
CONTINUOUS
 10
117.0075994497
 20
79.3739201138
 11
117.4575994497
 21
79.3739201138
  0
LINE
  5
2E2
100
AcDbEntity
  8
0
100
AcDbLine
 62
7
  6
CONTINUOUS
 10
117.4575994497
 20
80.1439201138
 11
118.2075994497
 21
80.1439201138
  0
LINE
  5
2E3
100
AcDbEntity
  8
0
100
AcDbLine
 62
7
  6
CONTINUOUS
 10
107.0741100933
 20
80.5939201138
 11
107.9158547715
 21
80.5939201138
  0
LINE
  5
2E4
100
AcDbEntity
  8
0
100
AcDbLine
 62
7
  6
CONTINUOUS
 10
110.9158547715
 20
80.5939201138
 11
111.7575994497
 21
80.5939201138
  0
LINE
  5
2E5
100
AcDbEntity
  8
0
100
AcDbLine
 62
7
  6
CONTINUOUS
 10
112.8075994497
 20
80.5939201138
 11
113.5575994497
 21
80.5939201138
  0
LINE
  5
2E6
100
AcDbEntity
  8
0
100
AcDbLine
 62
7
  6
CONTINUOUS
 10
114.6075994497
 20
80.5939201138
 11
115.3575994497
 21
80.5939201138
  0
LINE
  5
2E7
100
AcDbEntity
  8
0
100
AcDbLine
 62
7
  6
CONTINUOUS
 10
132.8075994497
 20
80.9033158848
 11
135.9576334006
 21
80.9033158848
  0
LINE
  5
2E8
100
AcDbEntity
  8
0
100
AcDbLine
 62
7
  6
CONTINUOUS
 10
112.8075994497
 20
81.3439201138
 11
113.5575994497
 21
81.3439201138
  0
LINE
  5
2E9
100
AcDbEntity
  8
0
100
AcDbLine
 62
7
  6
CONTINUOUS
 10
132.8075994497
 20
81.3573548863
 11
136.8075994497
 21
81.3573548863
  0
LINE
  5
2EA
100
AcDbEntity
  8
0
100
AcDbLine
 62
7
  6
CONTINUOUS
 10
132.8075994497
 20
88.2157395909
 11
136.8075994497
 21
87.0469682286
  0
LINE
  5
2EB
100
AcDbEntity
  8
0
100
AcDbLine
 62
7
  6
CONTINUOUS
 10
99.3075994497
 20
128.1739201138
 11
99.0575994497
 21
128.4239201138
  0
LINE
  5
2EC
100
AcDbEntity
  8
0
100
AcDbLine
 62
7
  6
CONTINUOUS
 10
101.8151866497
 20
132.2962176995
 11
101.8075994497
 21
132.3041215383
  0
LINE
  5
2ED
100
AcDbEntity
  8
0
100
AcDbLine
 62
7
  6
CONTINUOUS
 10
139.8075994497
 20
114.8739097337
 11
139.8075994497
 21
43.8744642742
  0
LINE
  5
2EE
100
AcDbEntity
  8
0
100
AcDbLine
 62
7
  6
CONTINUOUS
 10
141.4684998186
 20
114.8739201138
 11
141.4684998186
 21
43.8739201138
  0
LINE
  5
2EF
100
AcDbEntity
  8
0
100
AcDbLine
 62
7
  6
CONTINUOUS
 10
142.4533075737
 20
114.0475682794
 11
142.4533075737
 21
44.7002719482
  0
LINE
  5
2F0
100
AcDbEntity
  8
0
100
AcDbLine
 62
7
  6
CONTINUOUS
 10
143.0726678558
 20
110.5350015717
 11
143.0726678558
 21
110.4297953598
  0
LINE
  5
2F1
100
AcDbEntity
  8
0
100
AcDbLine
 62
7
  6
CONTINUOUS
 10
143.0726678558
 20
97.117530939
 11
143.0726678558
 21
92.6861845403
  0
LINE
  5
2F2
100
AcDbEntity
  8
0
100
AcDbLine
 62
7
  6
CONTINUOUS
 10
143.0726678558
 20
66.0616556875
 11
143.0726678558
 21
61.6303092888
  0
LINE
  5
2F3
100
AcDbEntity
  8
0
100
AcDbLine
 62
7
  6
CONTINUOUS
 10
143.0726678558
 20
48.3180448678
 11
143.0726678558
 21
48.2128386559
  0
LINE
  5
2F4
100
AcDbEntity
  8
0
100
AcDbLine
 62
7
  6
CONTINUOUS
 10
143.8605140582
 20
109.8739201138
 11
143.8605140582
 21
109.7850515531
  0
LINE
  5
2F5
100
AcDbEntity
  8
0
100
AcDbLine
 62
7
  6
CONTINUOUS
 10
143.8605140582
 20
96.5943837058
 11
143.8605140582
 21
92.5645879602
  0
LINE
  5
2F6
100
AcDbEntity
  8
0
100
AcDbLine
 62
7
  6
CONTINUOUS
 10
143.8605140582
 20
66.1832522674
 11
143.8605140582
 21
62.1534565218
  0
LINE
  5
2F7
100
AcDbEntity
  8
0
100
AcDbLine
 62
7
  6
CONTINUOUS
 10
143.8605140582
 20
48.9627886745
 11
143.8605140582
 21
48.8739201138
  0
LINE
  5
2F8
100
AcDbEntity
  8
0
100
AcDbLine
 62
7
  6
CONTINUOUS
 10
74.2048153792
 20
81.7739201138
 11
75.9475994497
 21
81.7739201138
  0
LINE
  5
2F9
100
AcDbEntity
  8
0
100
AcDbLine
 62
7
  6
CONTINUOUS
 10
71.8275994497
 20
82.0639201138
 11
73.3648153792
 21
82.0639201138
  0
LINE
  5
2FA
100
AcDbEntity
  8
0
100
AcDbLine
 62
7
  6
CONTINUOUS
 10
112.8075994497
 20
82.0939201138
 11
113.5575994497
 21
82.0939201138
  0
LINE
  5
2FB
100
AcDbEntity
  8
0
100
AcDbLine
 62
7
  6
CONTINUOUS
 10
75.9475994497
 20
82.9039201138
 11
71.8275994497
 21
82.9039201138
  0
LINE
  5
2FC
100
AcDbEntity
  8
0
100
AcDbLine
 62
7
  6
CONTINUOUS
 10
106.0241100933
 20
83.1439201138
 11
119.5241100933
 21
83.1439201138
  0
LINE
  5
2FD
100
AcDbEntity
  8
0
100
AcDbLine
 62
7
  6
CONTINUOUS
 10
132.8075994497
 20
83.4624467442
 11
136.8075994497
 21
83.4624467442
  0
LINE
  5
2FE
100
AcDbEntity
  8
0
100
AcDbLine
 62
7
  6
CONTINUOUS
 10
105.2741100933
 20
83.8939201138
 11
120.2741100933
 21
83.8939201138
  0
LINE
  5
2FF
100
AcDbEntity
  8
0
100
AcDbLine
 62
7
  6
CONTINUOUS
 10
132.8075994497
 20
83.9164857457
 11
136.8075994497
 21
83.9164857457
  0
LINE
  5
300
100
AcDbEntity
  8
0
100
AcDbLine
 62
7
  6
CONTINUOUS
 10
132.8075994497
 20
84.3813874791
 11
133.3181222922
 21
84.3813874791
  0
LINE
  5
301
100
AcDbEntity
  8
0
100
AcDbLine
 62
7
  6
CONTINUOUS
 10
133.3181222922
 20
85.4306748936
 11
136.8075994497
 21
85.4306748936
  0
LINE
  5
302
100
AcDbEntity
  8
0
100
AcDbLine
 62
7
  6
CONTINUOUS
 10
133.3181222922
 20
85.8847138951
 11
136.8075994497
 21
85.8847138951
  0
LINE
  5
303
100
AcDbEntity
  8
0
100
AcDbLine
 62
7
  6
CONTINUOUS
 10
132.8075994497
 20
86.9340013096
 11
133.3181222922
 21
86.9340013096
  0
LINE
  5
304
100
AcDbEntity
  8
0
100
AcDbLine
 62
7
  6
CONTINUOUS
 10
135.6507766491
 20
87.8681489537
 11
136.8075994497
 21
87.5531465123
  0
LINE
  5
305
100
AcDbEntity
  8
0
100
AcDbLine
 62
7
  6
CONTINUOUS
 10
133.4050196654
 20
88.4829499791
 11
135.1402539259
 21
88.0028413365
  0
LINE
  5
306
100
AcDbEntity
  8
0
100
AcDbLine
 62
7
  6
CONTINUOUS
 10
132.8075994497
 20
94.9329164097
 11
134.7139131075
 21
94.0335267613
  0
LINE
  5
307
100
AcDbEntity
  8
0
100
AcDbLine
 62
7
  6
CONTINUOUS
 10
132.8075994497
 20
95.4868867467
 11
135.2298668867
 21
94.2594605992
  0
LINE
  5
308
100
AcDbEntity
  8
0
100
AcDbLine
 62
7
  6
CONTINUOUS
 10
94.6575994497
 20
121.9718475196
 11
100.106827272
 21
118.8257343695
  0
LINE
  5
309
100
AcDbEntity
  8
0
100
AcDbLine
 62
7
  6
CONTINUOUS
 10
95.0075994497
 20
122.5780653022
 11
100.1757943531
 21
119.5942065836
  0
LINE
  5
30A
100
AcDbEntity
  8
0
100
AcDbLine
 62
7
  6
CONTINUOUS
 10
116.3075994497
 20
129.1739201138
 11
107.916603138
 21
139.1739201138
  0
LINE
  5
30B
100
AcDbEntity
  8
0
100
AcDbLine
 62
7
  6
CONTINUOUS
 10
143.0726678558
 20
110.5350015717
 11
142.4533075734
 21
114.0475682814
  0
LINE
  5
30C
100
AcDbEntity
  8
0
100
AcDbLine
 62
7
  6
CONTINUOUS
 10
143.0726678558
 20
48.2128386559
 11
142.4533075734
 21
44.7002719462
  0
LINE
  5
30D
100
AcDbEntity
  8
0
100
AcDbLine
 62
7
  6
CONTINUOUS
 10
135.1402539259
 20
88.9608857701
 11
133.4050196654
 21
88.4829499791
  0
LINE
  5
30E
100
AcDbEntity
  8
0
100
AcDbLine
 62
7
  6
CONTINUOUS
 10
136.8075994497
 20
89.4105805943
 11
135.6507766491
 21
89.0955751011
  0
LINE
  5
30F
100
AcDbEntity
  8
0
100
AcDbLine
 62
7
  6
CONTINUOUS
 10
82.6921225975
 20
84.3690013738
 11
82.259116694
 21
84.3239201138
  0
LINE
  5
310
100
AcDbEntity
  8
0
100
AcDbLine
 62
7
  6
CONTINUOUS
 10
132.8075994497
 20
90.3425569127
 11
136.8075994497
 21
90.3425569127
  0
LINE
  5
311
100
AcDbEntity
  8
0
100
AcDbLine
 62
7
  6
CONTINUOUS
 10
132.8075994497
 20
90.7965943883
 11
136.2970767266
 21
90.7965943883
  0
LINE
  5
312
100
AcDbEntity
  8
0
100
AcDbLine
 62
7
  6
CONTINUOUS
 10
136.2970767266
 20
92.3911653111
 11
136.8075994497
 21
92.3911653111
  0
LINE
  5
313
100
AcDbEntity
  8
0
100
AcDbLine
 62
7
  6
CONTINUOUS
 10
80.7580300104
 20
92.5648260721
 11
67.5396502573
 21
92.5648260721
  0
LINE
  5
314
100
AcDbEntity
  8
0
100
AcDbLine
 62
7
  6
CONTINUOUS
 10
143.8740509393
 20
92.5648260721
 11
158.0755486422
 21
92.5648260721
  0
LINE
  5
315
100
AcDbEntity
  8
0
100
AcDbLine
 62
7
  6
CONTINUOUS
 10
135.2298668867
 20
93.8054200718
 11
136.8075994497
 21
93.8054200718
  0
LINE
  5
316
100
AcDbEntity
  8
0
100
AcDbLine
 62
7
  6
CONTINUOUS
 10
135.2298668867
 20
94.2594605992
 11
136.8075994497
 21
94.2594605992
  0
LINE
  5
317
100
AcDbEntity
  8
0
100
AcDbLine
 62
7
  6
CONTINUOUS
 10
100.2571434518
 20
120.4048602215
 11
100.3094539884
 21
120.375992708
  0
LINE
  5
318
100
AcDbEntity
  8
0
100
AcDbLine
 62
7
  6
CONTINUOUS
 10
154.8075994497
 20
155.4739201138
 11
154.8075994497
 21
160.8739201138
  0
LINE
  5
319
100
AcDbEntity
  8
0
100
AcDbLine
 62
7
  6
CONTINUOUS
 10
155.6075994497
 20
154.6739201138
 11
155.6075994497
 21
161.6739201138
  0
LINE
  5
31A
100
AcDbEntity
  8
0
100
AcDbLine
 62
7
  6
CONTINUOUS
 10
158.0755486422
 20
109.8739201138
 11
158.0755486422
 21
109.785071697
  0
LINE
  5
31B
100
AcDbEntity
  8
0
100
AcDbLine
 62
7
  6
CONTINUOUS
 10
158.0755486422
 20
96.5941657387
 11
158.0755486422
 21
92.5648260721
  0
LINE
  5
31C
100
AcDbEntity
  8
0
100
AcDbLine
 62
7
  6
CONTINUOUS
 10
158.0755486422
 20
66.1830141555
 11
158.0755486422
 21
62.1536744889
  0
LINE
  5
31D
100
AcDbEntity
  8
0
100
AcDbLine
 62
7
  6
CONTINUOUS
 10
158.0755486422
 20
48.8739201138
 11
158.0755486422
 21
48.9627685306
  0
LINE
  5
31E
100
AcDbEntity
  8
0
100
AcDbLine
 62
7
  6
CONTINUOUS
 10
159.8075994497
 20
51.8739201138
 11
159.8075994497
 21
106.8739201138
  0
LINE
  5
31F
100
AcDbEntity
  8
0
100
AcDbLine
 62
7
  6
CONTINUOUS
 10
135.2298668867
 20
93.8054200718
 11
132.8075994497
 21
92.5779939244
  0
LINE
  5
320
100
AcDbEntity
  8
0
100
AcDbLine
 62
7
  6
CONTINUOUS
 10
134.7139131075
 20
94.0335267613
 11
132.8075994497
 21
93.1319642613
  0
LINE
  5
321
100
AcDbEntity
  8
0
100
AcDbLine
 62
7
  6
CONTINUOUS
 10
80.7580300104
 20
96.5941657387
 11
67.5396502573
 21
96.5941657387
  0
LINE
  5
322
100
AcDbEntity
  8
0
100
AcDbLine
 62
7
  6
CONTINUOUS
 10
143.8740509393
 20
96.5941657387
 11
158.0755486422
 21
96.5941657387
  0
LINE
  5
323
100
AcDbEntity
  8
0
100
AcDbLine
 62
7
  6
CONTINUOUS
 10
101.8151866497
 20
132.2962176995
 11
102.0499523695
 21
132.1739201138
  0
LINE
  5
324
100
AcDbEntity
  8
0
100
AcDbLine
 62
7
  6
CONTINUOUS
 10
102.1173149624
 20
133.4758347662
 11
102.6058564173
 21
133.2213216434
  0
LINE
  5
325
100
AcDbEntity
  8
0
100
AcDbLine
 62
7
  6
CONTINUOUS
 10
136.8075994497
 20
89.9167573521
 11
132.8075994497
 21
88.7479859898
  0
LINE
  5
326
100
AcDbEntity
  8
0
100
AcDbLine
 62
7
  6
CONTINUOUS
 10
83.0385395574
 20
106.8739201138
 11
89.6933858874
 21
106.8739201138
  0
LINE
  5
327
100
AcDbEntity
  8
0
100
AcDbLine
 62
7
  6
CONTINUOUS
 10
80.7580300104
 20
109.785071697
 11
67.5396502573
 21
109.785071697
  0
LINE
  5
328
100
AcDbEntity
  8
0
100
AcDbLine
 62
7
  6
CONTINUOUS
 10
143.8740509393
 20
109.785071697
 11
158.0755486422
 21
109.785071697
  0
LINE
  5
329
100
AcDbEntity
  8
0
100
AcDbLine
 62
7
  6
CONTINUOUS
 10
80.7868735076
 20
109.8739201138
 11
67.5396502573
 21
109.8739201138
  0
LINE
  5
32A
100
AcDbEntity
  8
0
100
AcDbLine
 62
7
  6
CONTINUOUS
 10
143.8740509393
 20
109.8739201138
 11
158.0755486422
 21
109.8739201138
  0
LINE
  5
32B
100
AcDbEntity
  8
0
100
AcDbLine
 62
7
  6
CONTINUOUS
 10
119.4649950638
 20
143.3739201138
 11
119.7052349921
 21
143.1739201138
  0
LINE
  5
32C
100
AcDbEntity
  8
0
100
AcDbLine
 62
7
  6
CONTINUOUS
 10
159.8075994497
 20
106.8739201138
 11
158.0755486422
 21
109.8739201138
  0
LINE
  5
32D
100
AcDbEntity
  8
0
100
AcDbLine
 62
7
  6
CONTINUOUS
 10
135.9576334006
 20
80.9033158848
 11
132.8075994497
 21
79.323953397
  0
LINE
  5
32E
100
AcDbEntity
  8
0
100
AcDbLine
 62
7
  6
CONTINUOUS
 10
136.8075994497
 20
80.8555223057
 11
133.6222633368
 21
79.2761598179
  0
LINE
  5
32F
100
AcDbEntity
  8
0
100
AcDbLine
 62
7
  6
CONTINUOUS
 10
97.5218130121
 20
113.8739201138
 11
99.0575994497
 21
113.8739201138
  0
LINE
  5
330
100
AcDbEntity
  8
0
100
AcDbLine
 62
7
  6
CONTINUOUS
 10
126.5575994497
 20
113.8739201138
 11
128.6933858874
 21
113.8739201138
  0
LINE
  5
331
100
AcDbEntity
  8
0
100
AcDbLine
 62
7
  6
CONTINUOUS
 10
130.5218130121
 20
114.8739201138
 11
141.4684998186
 21
114.8739201138
  0
LWPOLYLINE
  5
332
100
AcDbEntity
  8
0
100
AcDbPolyline
 62
7
  6
CONTINUOUS
 90
15
 70
0
 10
126.5575969511
 20
113.8739136224
 10
126.4618026162
 20
113.8785113246
 10
126.3499576496
 20
113.8957056273
 10
126.2407697392
 20
113.9254263614
 10
126.1356376311
 20
113.9672933053
 10
126.0359078473
 20
114.0207706662
 10
125.9428576228
 20
114.0851740205
 10
125.8576789246
 20
114.1596788452
 10
125.7814628821
 20
114.2433312129
 10
125.7151857733
 20
114.3350601167
 10
125.6596966584
 20
114.4336910964
 10
125.6157065329
 20
114.5379611988
 10
125.5837791856
 20
114.6465351175
 10
125.5643239182
 20
114.7580223737
 10
125.5575860523
 20
114.8739206327
  0
LINE
  5
333
100
AcDbEntity
  8
0
100
AcDbLine
 62
7
  6
CONTINUOUS
 10
105.8075994497
 20
143.3739201138
 11
106.1917432792
 21
143.1739201138
  0
LINE
  5
334
100
AcDbEntity
  8
0
100
AcDbLine
 62
7
  6
CONTINUOUS
 10
117.8075994497
 20
145.5286206522
 11
119.5075994497
 21
144.5471251946
  0
LINE
  5
335
100
AcDbEntity
  8
0
100
AcDbLine
 62
7
  6
CONTINUOUS
 10
100.1757943531
 20
119.5942065836
 11
100.6524662435
 21
119.5942065836
  0
LINE
  5
336
100
AcDbEntity
  8
0
100
AcDbLine
 62
7
  6
CONTINUOUS
 10
100.1757943531
 20
119.7697749254
 11
125.5575994497
 21
119.7697749254
  0
LINE
  5
337
100
AcDbEntity
  8
0
100
AcDbLine
 62
7
  6
CONTINUOUS
 10
100.3094539884
 20
120.375992708
 11
125.9075994497
 21
120.375992708
  0
LINE
  5
338
100
AcDbEntity
  8
0
100
AcDbLine
 62
7
  6
CONTINUOUS
 10
125.9575994497
 20
120.4048602215
 11
100.2571434518
 21
120.4048602215
  0
LINE
  5
339
100
AcDbEntity
  8
0
100
AcDbLine
 62
7
  6
CONTINUOUS
 10
99.3911915848
 20
121.0110780041
 11
126.3075994497
 21
121.0110780041
  0
LINE
  5
33A
100
AcDbEntity
  8
0
100
AcDbLine
 62
7
  6
CONTINUOUS
 10
93.8075994497
 20
122.1739201138
 11
94.4372669331
 21
122.1739201138
  0
LINE
  5
33B
100
AcDbEntity
  8
0
100
AcDbLine
 62
7
  6
CONTINUOUS
 10
116.3075994497
 20
122.1739201138
 11
123.8075994497
 21
122.1739201138
  0
LINE
  5
33C
100
AcDbEntity
  8
0
100
AcDbLine
 62
7
  6
CONTINUOUS
 10
95.0075994497
 20
122.5780653022
 11
94.3075994497
 21
122.5780653022
  0
LINE
  5
33D
100
AcDbEntity
  8
0
100
AcDbLine
 62
7
  6
CONTINUOUS
 10
94.3075994497
 20
125.4739201138
 11
99.8703490085
 21
125.4739201138
  0
LINE
  5
33E
100
AcDbEntity
  8
0
100
AcDbLine
 62
7
  6
CONTINUOUS
 10
159.8075994497
 20
51.8739201138
 11
158.0755486422
 21
48.8739201138
  0
LINE
  5
33F
100
AcDbEntity
  8
0
100
AcDbLine
 62
7
  6
CONTINUOUS
 10
136.8075994497
 20
69.734816129
 11
132.8075994497
 21
68.5660451481
  0
LINE
  5
340
100
AcDbEntity
  8
0
100
AcDbLine
 62
7
  6
CONTINUOUS
 10
99.0904568902
 20
126.1739201138
 11
95.0075994497
 21
126.1739201138
  0
LINE
  5
341
100
AcDbEntity
  8
0
100
AcDbLine
 62
7
  6
CONTINUOUS
 10
99.3075994497
 20
126.6739201138
 11
99.5803548387
 21
126.6739201138
  0
LINE
  5
342
100
AcDbEntity
  8
0
100
AcDbLine
 62
7
  6
CONTINUOUS
 10
126.3075994497
 20
128.1739201138
 11
125.9914208553
 21
128.1739201138
  0
LINE
  5
343
100
AcDbEntity
  8
0
100
AcDbLine
 62
7
  6
CONTINUOUS
 10
116.3075994497
 20
128.1739201138
 11
99.3075994497
 21
128.1739201138
  0
LINE
  5
344
100
AcDbEntity
  8
0
100
AcDbLine
 62
7
  6
CONTINUOUS
 10
126.5575994497
 20
128.4239201138
 11
126.0824134139
 21
128.4239201138
  0
LINE
  5
345
100
AcDbEntity
  8
0
100
AcDbLine
 62
7
  6
CONTINUOUS
 10
116.3075994497
 20
128.4239201138
 11
99.0575994497
 21
128.4239201138
  0
LINE
  5
346
100
AcDbEntity
  8
0
100
AcDbLine
 62
7
  6
CONTINUOUS
 10
93.8075994497
 20
129.1739201138
 11
97.8075994497
 21
129.1739201138
  0
LINE
  5
347
100
AcDbEntity
  8
0
100
AcDbLine
 62
7
  6
CONTINUOUS
 10
114.0420304456
 20
131.8739201138
 11
99.0575994497
 21
131.8739201138
  0
LINE
  5
348
100
AcDbEntity
  8
0
100
AcDbLine
 62
7
  6
CONTINUOUS
 10
113.7903005562
 20
132.1739201138
 11
99.3575994497
 21
132.1739201138
  0
LINE
  5
349
100
AcDbEntity
  8
0
100
AcDbLine
 62
7
  6
CONTINUOUS
 10
106.1502038357
 20
143.3739201138
 11
107.1211287483
 21
143.1739201138
  0
LINE
  5
34A
100
AcDbEntity
  8
0
100
AcDbLine
 62
7
  6
CONTINUOUS
 10
118.4707184104
 20
143.3739201138
 11
119.3118257383
 21
143.1739201138
  0
LINE
  5
34B
100
AcDbEntity
  8
0
100
AcDbLine
 62
7
  6
CONTINUOUS
 10
103.8075994497
 20
134.1739201138
 11
104.5326822321
 21
134.1739201138
  0
LINE
  5
34C
100
AcDbEntity
  8
0
100
AcDbLine
 62
7
  6
CONTINUOUS
 10
103.8075994497
 20
137.0965698446
 11
104.5326822321
 21
137.0965698446
  0
LINE
  5
34D
100
AcDbEntity
  8
0
100
AcDbLine
 62
7
  6
CONTINUOUS
 10
103.8075994497
 20
137.6739201138
 11
109.1752525847
 21
137.6739201138
  0
LINE
  5
34E
100
AcDbEntity
  8
0
100
AcDbLine
 62
7
  6
CONTINUOUS
 10
105.8075994497
 20
138.6739201138
 11
108.3361529536
 21
138.6739201138
  0
LINE
  5
34F
100
AcDbEntity
  8
0
100
AcDbLine
 62
7
  6
CONTINUOUS
 10
94.0812292699
 20
139.1739201138
 11
107.916603138
 21
139.1739201138
  0
LINE
  5
350
100
AcDbEntity
  8
0
100
AcDbLine
 62
7
  6
CONTINUOUS
 10
108.1902329581
 20
139.1739201138
 11
126.6887972962
 21
139.1739201138
  0
LINE
  5
351
100
AcDbEntity
  8
0
100
AcDbLine
 62
7
  6
CONTINUOUS
 10
129.5755486422
 20
139.1739201138
 11
131.3075994497
 21
139.1739201138
  0
LINE
  5
352
100
AcDbEntity
  8
0
100
AcDbLine
 62
7
  6
CONTINUOUS
 10
110.6444804891
 20
143.3739201138
 11
112.6269785064
 21
143.1739201138
  0
LINE
  5
353
100
AcDbEntity
  8
0
100
AcDbLine
 62
7
  6
CONTINUOUS
 10
112.8075994497
 20
143.3739201138
 11
114.7673053282
 21
143.1739201138
  0
LINE
  5
354
100
AcDbEntity
  8
0
100
AcDbLine
 62
7
  6
CONTINUOUS
 10
108.6931026837
 20
143.3739201138
 11
110.504332121
 21
143.1739201138
  0
LINE
  5
355
100
AcDbEntity
  8
0
100
AcDbLine
 62
7
  6
CONTINUOUS
 10
114.9707184104
 20
143.3739201138
 11
116.7158024845
 21
143.1739201138
  0
LINE
  5
356
100
AcDbEntity
  8
0
100
AcDbLine
 62
7
  6
CONTINUOUS
 10
107.1444804891
 20
143.3739201138
 11
108.6071455896
 21
143.1739201138
  0
LINE
  5
357
100
AcDbEntity
  8
0
100
AcDbLine
 62
7
  6
CONTINUOUS
 10
116.9220962158
 20
143.3739201138
 11
118.2817374978
 21
143.1739201138
  0
LINE
  5
358
100
AcDbEntity
  8
0
100
AcDbLine
 62
7
  6
CONTINUOUS
 10
97.8075994497
 20
143.1739201138
 11
131.3075994497
 21
143.1739201138
  0
LINE
  5
359
100
AcDbEntity
  8
0
100
AcDbLine
 62
7
  6
CONTINUOUS
 10
119.8075994497
 20
143.3739201138
 11
105.8075994497
 21
143.3739201138
  0
LINE
  5
35A
100
AcDbEntity
  8
0
100
AcDbLine
 62
7
  6
CONTINUOUS
 10
105.8075994497
 20
144.0275099523
 11
119.8075994497
 21
144.0275099523
  0
LINE
  5
35B
100
AcDbEntity
  8
0
100
AcDbLine
 62
7
  6
CONTINUOUS
 10
106.1075994497
 20
144.5471251946
 11
119.5075994497
 21
144.5471251946
  0
LINE
  5
35C
100
AcDbEntity
  8
0
100
AcDbLine
 62
7
  6
CONTINUOUS
 10
107.8075994497
 20
148.8739201138
 11
117.8075994497
 21
148.8739201138
  0
LINE
  5
35D
100
AcDbEntity
  8
0
100
AcDbLine
 62
7
  6
CONTINUOUS
 10
155.6075994497
 20
154.6739201138
 11
251.6075994497
 21
154.6739201138
  0
LINE
  5
35E
100
AcDbEntity
  8
0
100
AcDbLine
 62
7
  6
CONTINUOUS
 10
151.2070943864
 20
156.1739201138
 11
154.8075994497
 21
156.1739201138
  0
LINE
  5
35F
100
AcDbEntity
  8
0
100
AcDbLine
 62
7
  6
CONTINUOUS
 10
154.8075994497
 20
157.8739201138
 11
254.8075994497
 21
157.8739201138
  0
LINE
  5
360
100
AcDbEntity
  8
0
100
AcDbLine
 62
7
  6
CONTINUOUS
 10
154.8075994497
 20
158.4739201138
 11
254.8075994497
 21
158.4739201138
  0
LINE
  5
361
100
AcDbEntity
  8
0
100
AcDbLine
 62
7
  6
CONTINUOUS
 10
154.8075994497
 20
160.1739201138
 11
150.792880824
 21
160.1739201138
  0
LINE
  5
362
100
AcDbEntity
  8
0
100
AcDbLine
 62
7
  6
CONTINUOUS
 10
155.6075994497
 20
161.6739201138
 11
251.6075994497
 21
161.6739201138
  0
LINE
  5
363
100
AcDbEntity
  8
0
100
AcDbLine
 62
7
  6
CONTINUOUS
 10
241.8075994497
 20
154.6739201138
 11
241.8075994497
 21
161.6739201138
  0
LINE
  5
364
100
AcDbEntity
  8
0
100
AcDbLine
 62
7
  6
CONTINUOUS
 10
254.8075994497
 20
157.8739201138
 11
254.8075994497
 21
158.4739201138
  0
ARC
  5
365
100
AcDbEntity
  8
0
100
AcDbCircle
 62
7
  6
CONTINUOUS
 10
143.8740412186
 20
53.5046898262
 40
4.5419212956
100
AcDbArc
 50
269.8293562805
 51
270.0001102097
  0
ARC
  5
366
100
AcDbEntity
  8
0
100
AcDbCircle
 62
7
  6
CONTINUOUS
 10
80.7582469772
 20
46.0778035072
 40
2.8849650316
100
AcDbArc
 50
89.4314640667
 51
90.0043164785
  0
ARC
  5
367
100
AcDbEntity
  8
0
100
AcDbCircle
 62
7
  6
CONTINUOUS
 10
71.8275994497
 20
78.3439201138
 40
2.64
100
AcDbArc
 50
180.0
 51
270.0
  0
ARC
  5
368
100
AcDbEntity
  8
0
100
AcDbCircle
 62
7
  6
CONTINUOUS
 10
71.8275994497
 20
80.2639201138
 40
2.64
100
AcDbArc
 50
90.0
 51
180.0
  0
ARC
  5
369
100
AcDbEntity
  8
0
100
AcDbCircle
 62
7
  6
CONTINUOUS
 10
117.7775994497
 20
76.7739201138
 40
2.42
100
AcDbArc
 50
79.7649981202
 51
180.0
  0
ARC
  5
36A
100
AcDbEntity
  8
0
100
AcDbCircle
 62
7
  6
CONTINUOUS
 10
117.0075994497
 20
76.9739201138
 40
2.4
100
AcDbArc
 50
90.0
 51
180.0
  0
ARC
  5
36B
100
AcDbEntity
  8
0
100
AcDbCircle
 62
7
  6
CONTINUOUS
 10
75.9475994497
 20
80.5739201138
 40
2.33
100
AcDbArc
 50
289.6871959786
 51
90.0
  0
ARC
  5
36C
100
AcDbEntity
  8
0
100
AcDbCircle
 62
7
  6
CONTINUOUS
 10
71.8275994497
 20
80.2639201138
 40
1.8
100
AcDbArc
 50
90.0
 51
180.0
  0
ARC
  5
36D
100
AcDbEntity
  8
0
100
AcDbCircle
 62
7
  6
CONTINUOUS
 10
71.8275994497
 20
78.3439201138
 40
1.8
100
AcDbArc
 50
180.0
 51
270.0
  0
ARC
  5
36E
100
AcDbEntity
  8
0
100
AcDbCircle
 62
7
  6
CONTINUOUS
 10
115.9764340832
 20
78.3901513232
 40
1.58
100
AcDbArc
 50
113.0582953277
 51
150.0373355261
  0
ARC
  5
36F
100
AcDbEntity
  8
0
100
AcDbCircle
 62
7
  6
CONTINUOUS
 10
75.9475994497
 20
80.5739201138
 40
1.2
100
AcDbArc
 50
270.0
 51
90.0
  0
ARC
  5
370
100
AcDbEntity
  8
0
100
AcDbCircle
 62
7
  6
CONTINUOUS
 10
141.4684998186
 20
44.8739201138
 40
1.0
100
AcDbArc
 50
270.0
 51
350.0000005878
  0
ARC
  5
371
100
AcDbEntity
  8
0
100
AcDbCircle
 62
7
  6
CONTINUOUS
 10
97.5218130121
 20
45.8739201138
 40
1.0
100
AcDbArc
 50
224.9999999992
 51
270.0
  0
ARC
  5
372
100
AcDbEntity
  8
0
100
AcDbCircle
 62
7
  6
CONTINUOUS
 10
130.5218130121
 20
44.8739201138
 40
1.0
100
AcDbArc
 50
224.9999999994
 51
270.0
  0
ARC
  5
373
100
AcDbEntity
  8
0
100
AcDbCircle
 62
7
  6
CONTINUOUS
 10
89.6933858874
 20
50.8739201138
 40
1.0
100
AcDbArc
 50
44.9999999991
 51
90.0
  0
ARC
  5
374
100
AcDbEntity
  8
0
100
AcDbCircle
 62
7
  6
CONTINUOUS
 10
128.6933858874
 20
43.8739201138
 40
1.0
100
AcDbArc
 50
44.9999999994
 51
90.0
  0
ARC
  5
375
100
AcDbEntity
  8
0
100
AcDbCircle
 62
7
  6
CONTINUOUS
 10
143.8605140582
 20
48.0739201138
 40
0.8
100
AcDbArc
 50
90.0
 51
170.0
  0
ARC
  5
376
100
AcDbEntity
  8
0
100
AcDbCircle
 62
7
  6
CONTINUOUS
 10
80.7868735076
 20
49.3739201138
 40
0.5
100
AcDbArc
 50
270.0
 51
330.0
  0
ARC
  5
377
100
AcDbEntity
  8
0
100
AcDbCircle
 62
7
  6
CONTINUOUS
 10
143.8740437907
 20
61.7336542979
 40
0.420020191
100
AcDbArc
 50
89.9991574569
 51
91.8459367069
  0
ARC
  5
378
100
AcDbEntity
  8
0
100
AcDbCircle
 62
7
  6
CONTINUOUS
 10
143.8740437905
 20
97.0141859128
 40
0.4200201741
100
AcDbArc
 50
268.1540632428
 51
270.0008424919
  0
ARC
  5
379
100
AcDbEntity
  8
0
100
AcDbCircle
 62
7
  6
CONTINUOUS
 10
143.874044212
 20
92.1802972693
 40
0.3845288029
100
AcDbArc
 50
89.9991406749
 51
92.0164438978
  0
ARC
  5
37A
100
AcDbEntity
  8
0
100
AcDbCircle
 62
7
  6
CONTINUOUS
 10
143.8740442118
 20
66.5675429408
 40
0.3845287853
100
AcDbArc
 50
267.9835560327
 51
270.0008592557
  0
ARC
  5
37B
100
AcDbEntity
  8
0
100
AcDbCircle
 62
7
  6
CONTINUOUS
 10
80.7582018918
 20
62.4217806507
 40
0.268106217
100
AcDbArc
 50
269.9632306057
 51
276.1390222169
  0
ARC
  5
37C
100
AcDbEntity
  8
0
100
AcDbCircle
 62
7
  6
CONTINUOUS
 10
80.7582021076
 20
96.3260603998
 40
0.2681053942
100
AcDbArc
 50
83.8610052465
 51
90.0367961881
  0
ARC
  5
37D
100
AcDbEntity
  8
0
100
AcDbCircle
 62
7
  6
CONTINUOUS
 10
80.7581913266
 20
92.8105773524
 40
0.2457513334
100
AcDbArc
 50
269.962337845
 51
276.7023925122
  0
ARC
  5
37E
100
AcDbEntity
  8
0
100
AcDbCircle
 62
7
  6
CONTINUOUS
 10
80.7581914336
 20
65.937263283
 40
0.2457509256
100
AcDbArc
 50
83.2976214291
 51
90.0376781103
  0
ARC
  5
37F
100
AcDbEntity
  8
0
100
AcDbCircle
 62
7
  6
CONTINUOUS
 10
82.8653344767
 20
51.7739201138
 40
0.1
100
AcDbArc
 50
90.0
 51
150.0
  0
ARC
  5
380
100
AcDbEntity
  8
0
100
AcDbCircle
 62
7
  6
CONTINUOUS
 10
80.7582475833
 20
112.6700072417
 40
2.8849355529
100
AcDbArc
 50
269.9956785231
 51
270.5685297068
  0
ARC
  5
381
100
AcDbEntity
  8
0
100
AcDbCircle
 62
7
  6
CONTINUOUS
 10
97.5218130121
 20
112.8739201138
 40
1.0
100
AcDbArc
 50
90.0
 51
135.0000000007
  0
ARC
  5
382
100
AcDbEntity
  8
0
100
AcDbCircle
 62
7
  6
CONTINUOUS
 10
89.6933858874
 20
107.8739201138
 40
1.0
100
AcDbArc
 50
270.0
 51
315.0000000008
  0
ARC
  5
383
100
AcDbEntity
  8
0
100
AcDbCircle
 62
7
  6
CONTINUOUS
 10
95.0075994497
 20
122.5780653022
 40
0.7
100
AcDbArc
 50
180.0
 51
240.0
  0
ARC
  5
384
100
AcDbEntity
  8
0
100
AcDbCircle
 62
7
  6
CONTINUOUS
 10
95.0075994497
 20
125.4739201138
 40
0.7
100
AcDbArc
 50
90.0
 51
180.0
  0
ARC
  5
385
100
AcDbEntity
  8
0
100
AcDbCircle
 62
7
  6
CONTINUOUS
 10
98.8075994497
 20
126.6739201138
 40
0.5
100
AcDbArc
 50
277.5
 51
360.0
  0
ARC
  5
386
100
AcDbEntity
  8
0
100
AcDbCircle
 62
7
  6
CONTINUOUS
 10
80.7868735076
 20
109.3739201138
 40
0.5
100
AcDbArc
 50
30.0
 51
90.0
  0
ARC
  5
387
100
AcDbEntity
  8
0
100
AcDbCircle
 62
7
  6
CONTINUOUS
 10
99.5576039069
 20
118.565478358
 40
0.4999998319
100
AcDbArc
 50
0.0002949973
 51
60.0005762982
  0
ARC
  5
388
100
AcDbEntity
  8
0
100
AcDbCircle
 62
7
  6
CONTINUOUS
 10
83.0385395574
 20
107.2739201138
 40
0.4
100
AcDbArc
 50
210.0
 51
270.0
  0
ARC
  5
389
100
AcDbEntity
  8
0
100
AcDbCircle
 62
7
  6
CONTINUOUS
 10
58.7200211854
 20
150.3521642605
 40
54.5358782259
100
AcDbArc
 50
352.4365383188
 51
352.6484523501
  0
ARC
  5
38A
100
AcDbEntity
  8
0
100
AcDbCircle
 62
7
  6
CONTINUOUS
 10
97.8075994497
 20
139.1739201138
 40
4.0
100
AcDbArc
 50
90.0
 51
180.0
  0
ARC
  5
38B
100
AcDbEntity
  8
0
100
AcDbCircle
 62
7
  6
CONTINUOUS
 10
98.3075994497
 20
138.6739201138
 40
0.5
100
AcDbArc
 50
90.0
 51
180.0
  0
ARC
  5
38C
100
AcDbEntity
  8
0
100
AcDbCircle
 62
7
  6
CONTINUOUS
 10
108.3053846778
 20
125.8693507257
 40
11.8045695959
100
AcDbArc
 50
85.6313323947
 51
89.9892501716
  0
ARC
  5
38D
100
AcDbEntity
  8
0
100
AcDbCircle
 62
7
  6
CONTINUOUS
 10
143.8740412188
 20
105.2431502059
 40
4.5419214911
100
AcDbArc
 50
89.9998897853
 51
90.1706437146
  0
ARC
  5
38E
100
AcDbEntity
  8
0
100
AcDbCircle
 62
7
  6
CONTINUOUS
 10
141.4684998186
 20
113.8739201138
 40
1.0
100
AcDbArc
 50
9.9999994122
 51
90.0
  0
ARC
  5
38F
100
AcDbEntity
  8
0
100
AcDbCircle
 62
7
  6
CONTINUOUS
 10
130.5218130121
 20
113.8739201138
 40
1.0
100
AcDbArc
 50
90.0
 51
135.0000000007
  0
ARC
  5
390
100
AcDbEntity
  8
0
100
AcDbCircle
 62
7
  6
CONTINUOUS
 10
128.6933858874
 20
114.8739201138
 40
1.0
100
AcDbArc
 50
270.0
 51
315.0000000007
  0
ARC
  5
391
100
AcDbEntity
  8
0
100
AcDbCircle
 62
7
  6
CONTINUOUS
 10
143.8605140582
 20
110.6739201138
 40
0.8
100
AcDbArc
 50
190.0
 51
270.0
  0
ARC
  5
392
100
AcDbEntity
  8
0
100
AcDbCircle
 62
7
  6
CONTINUOUS
 10
125.6075994497
 20
121.0110780041
 40
0.7
100
AcDbArc
 50
300.0
 51
360.0
  0
ARC
  5
393
100
AcDbEntity
  8
0
100
AcDbCircle
 62
7
  6
CONTINUOUS
 10
126.2575994497
 20
119.7697749254
 40
0.7
100
AcDbArc
 50
120.0
 51
180.0
  0
ARC
  5
394
100
AcDbEntity
  8
0
100
AcDbCircle
 62
7
  6
CONTINUOUS
 10
150.792880824
 20
155.1739201138
 40
5.0
100
AcDbArc
 50
90.0
 51
135.0
  0
ARC
  5
395
100
AcDbEntity
  8
0
100
AcDbCircle
 62
7
  6
CONTINUOUS
 10
131.3075994497
 20
144.1739201138
 40
5.0
100
AcDbArc
 50
270.0
 51
315.0
  0
ARC
  5
396
100
AcDbEntity
  8
0
100
AcDbCircle
 62
7
  6
CONTINUOUS
 10
151.2070943864
 20
154.1739201138
 40
2.0
100
AcDbArc
 50
90.0
 51
135.0
  0
ARC
  5
397
100
AcDbEntity
  8
0
100
AcDbCircle
 62
7
  6
CONTINUOUS
 10
131.3075994497
 20
144.1739201138
 40
1.0
100
AcDbArc
 50
270.0
 51
315.0
  0
ARC
  5
398
100
AcDbEntity
  8
0
100
AcDbCircle
 62
7
  6
CONTINUOUS
 10
119.2075994497
 20
144.0275099523
 40
0.6
100
AcDbArc
 50
0.0
 51
60.0
  0
ARC
  5
399
100
AcDbEntity
  8
0
100
AcDbCircle
 62
7
  6
CONTINUOUS
 10
106.4075994497
 20
144.0275099523
 40
0.6
100
AcDbArc
 50
120.0
 51
180.0
  0
ARC
  5
39A
100
AcDbEntity
  8
0
100
AcDbCircle
 62
7
  6
CONTINUOUS
 10
251.6075994497
 20
157.8739201138
 40
3.2
100
AcDbArc
 50
270.0
 51
360.0
  0
ARC
  5
39B
100
AcDbEntity
  8
0
100
AcDbCircle
 62
7
  6
CONTINUOUS
 10
251.6075994497
 20
158.4739201138
 40
3.2
100
AcDbArc
 50
0.0
 51
90.0
  0
ARC
  5
39C
100
AcDbEntity
  8
0
100
AcDbCircle
 62
7
  6
CONTINUOUS
 10
155.6075994497
 20
160.8739201138
 40
0.8
100
AcDbArc
 50
90.0
 51
180.0
  0
ARC
  5
39D
100
AcDbEntity
  8
0
100
AcDbCircle
 62
7
  6
CONTINUOUS
 10
155.6075994497
 20
155.4739201138
 40
0.8
100
AcDbArc
 50
180.0
 51
270.0
  0
LINE
  5
39E
100
AcDbEntity
  8
0
100
AcDbLine
 62
7
  6
CONTINUOUS
 10
111.8556854805
 20
143.1739201138
 11
111.8653139553
 21
143.2507589335
  0
SPLINE
  5
39F
100
AcDbEntity
  8
0
100
AcDbSpline
 62
7
  6
CONTINUOUS
 70
0
 71
3
 72
11
 73
7
 74
0
 42
0.0000001
 43
0.0000001
 44
0.0000000001
 40
0.0
 40
0.0
 40
0.0
 40
0.0
 40
0.2514101512
 40
0.5017415083
 40
0.7511442914
 40
1.0
 40
1.0
 40
1.0
 40
1.0
 10
107.8075994497
 20
148.4273381264
 30
0.0
 10
108.0103434244
 20
148.4949194513
 30
0.0
 10
108.4187794346
 20
148.6187944579
 30
0.0
 10
109.0416376124
 20
148.7620162592
 30
0.0
 10
109.6722411081
 20
148.85303276
 30
0.0
 10
110.0960599371
 20
148.8739201138
 30
0.0
 10
110.30759945
 20
148.8739201138
 30
0.0
  0
SPLINE
  5
3A0
100
AcDbEntity
  8
0
100
AcDbSpline
 62
7
  6
CONTINUOUS
 70
0
 71
3
 72
11
 73
7
 74
0
 42
0.0000001
 43
0.0000001
 44
0.0000000001
 40
0.0
 40
0.0
 40
0.0
 40
0.0
 40
0.2488504934
 40
0.4982498921
 40
0.7485823732
 40
1.0
 40
1.0
 40
1.0
 40
1.0
 10
110.30759945
 20
148.8739201138
 30
0.0
 10
110.5191344846
 20
148.8739201138
 30
0.0
 10
110.9429457661
 20
148.853030115
 30
0.0
 10
111.5735428889
 20
148.7620163502
 30
0.0
 10
112.1964061437
 20
148.6187973369
 30
0.0
 10
112.6048494898
 20
148.4949214464
 30
0.0
 10
112.8075994497
 20
148.4273381264
 30
0.0
  0
SPLINE
  5
3A1
100
AcDbEntity
  8
0
100
AcDbSpline
 62
7
  6
CONTINUOUS
 70
0
 71
3
 72
15
 73
11
 74
0
 42
0.0000001
 43
0.0000001
 44
0.0000000001
 40
0.0
 40
0.0
 40
0.0
 40
0.0
 40
0.1257074525
 40
0.250873099
 40
0.3755743725
 40
0.5000000224
 40
0.6244256683
 40
0.7491269332
 40
0.8742925582
 40
1.0
 40
1.0
 40
1.0
 40
1.0
 10
112.8075994497
 20
145.0820386648
 30
0.0
 10
112.6048517474
 20
145.1496212323
 30
0.0
 10
112.1964088391
 20
145.2734959609
 30
0.0
 10
111.5735597439
 20
145.4167170672
 30
0.0
 10
110.9429127461
 20
145.5077269019
 30
0.0
 10
110.3075993429
 20
145.5390425138
 30
0.0
 10
109.672285957
 20
145.5077268629
 30
0.0
 10
109.0416390191
 20
145.4167170263
 30
0.0
 10
108.41878999
 20
145.273495942
 30
0.0
 10
108.0103471349
 20
145.1496212265
 30
0.0
 10
107.8075994497
 20
145.0820386648
 30
0.0
  0
SPLINE
  5
3A2
100
AcDbEntity
  8
0
100
AcDbSpline
 62
7
  6
CONTINUOUS
 70
0
 71
3
 72
11
 73
7
 74
0
 42
0.0000001
 43
0.0000001
 44
0.0000000001
 40
0.0
 40
0.0
 40
0.0
 40
0.0
 40
0.2514101512
 40
0.5017415083
 40
0.7511442914
 40
1.0
 40
1.0
 40
1.0
 40
1.0
 10
112.8075994497
 20
148.4273381264
 30
0.0
 10
113.0103434244
 20
148.4949194513
 30
0.0
 10
113.4187794346
 20
148.6187944579
 30
0.0
 10
114.0416376124
 20
148.7620162592
 30
0.0
 10
114.6722411081
 20
148.85303276
 30
0.0
 10
115.0960599371
 20
148.8739201138
 30
0.0
 10
115.30759945
 20
148.8739201138
 30
0.0
  0
SPLINE
  5
3A3
100
AcDbEntity
  8
0
100
AcDbSpline
 62
7
  6
CONTINUOUS
 70
0
 71
3
 72
11
 73
7
 74
0
 42
0.0000001
 43
0.0000001
 44
0.0000000001
 40
0.0
 40
0.0
 40
0.0
 40
0.0
 40
0.2488504934
 40
0.4982498921
 40
0.7485823732
 40
1.0
 40
1.0
 40
1.0
 40
1.0
 10
115.30759945
 20
148.8739201138
 30
0.0
 10
115.5191344846
 20
148.8739201138
 30
0.0
 10
115.9429457661
 20
148.853030115
 30
0.0
 10
116.5735428889
 20
148.7620163502
 30
0.0
 10
117.1964061437
 20
148.6187973369
 30
0.0
 10
117.6048494898
 20
148.4949214464
 30
0.0
 10
117.8075994497
 20
148.4273381264
 30
0.0
  0
SPLINE
  5
3A4
100
AcDbEntity
  8
0
100
AcDbSpline
 62
7
  6
CONTINUOUS
 70
0
 71
3
 72
15
 73
11
 74
0
 42
0.0000001
 43
0.0000001
 44
0.0000000001
 40
0.0
 40
0.0
 40
0.0
 40
0.0
 40
0.1257074525
 40
0.250873099
 40
0.3755743725
 40
0.5000000224
 40
0.6244256683
 40
0.7491269332
 40
0.8742925582
 40
1.0
 40
1.0
 40
1.0
 40
1.0
 10
117.8075994497
 20
145.0820386648
 30
0.0
 10
117.6048517474
 20
145.1496212323
 30
0.0
 10
117.1964088391
 20
145.2734959609
 30
0.0
 10
116.5735597439
 20
145.4167170672
 30
0.0
 10
115.9429127461
 20
145.5077269019
 30
0.0
 10
115.3075993429
 20
145.5390425138
 30
0.0
 10
114.672285957
 20
145.5077268629
 30
0.0
 10
114.0416390191
 20
145.4167170263
 30
0.0
 10
113.41878999
 20
145.273495942
 30
0.0
 10
113.0103471349
 20
145.1496212265
 30
0.0
 10
112.8075994497
 20
145.0820386648
 30
0.0
  0
SPLINE
  5
3A5
100
AcDbEntity
  8
0
100
AcDbSpline
 62
7
  6
CONTINUOUS
 70
0
 71
3
 72
9
 73
5
 74
0
 42
0.0000001
 43
0.0000001
 44
0.0000000001
 40
0.0
 40
0.0
 40
0.0
 40
0.0
 40
0.2530923568
 40
1.0
 40
1.0
 40
1.0
 40
1.0
 10
112.8075994497
 20
143.3739201138
 30
0.0
 10
112.8794268346
 20
143.3568157888
 30
0.0
 10
113.1634361448
 20
143.2901228134
 30
0.0
 10
113.4478266199
 20
143.2250347951
 30
0.0
 10
113.6596454839
 20
143.1739201138
 30
0.0
  0
SPLINE
  5
3A6
100
AcDbEntity
  8
0
100
AcDbSpline
 62
7
  6
CONTINUOUS
 70
0
 71
3
 72
30
 73
26
 74
0
 42
0.0000001
 43
0.0000001
 44
0.0000000001
 40
0.0
 40
0.0
 40
0.0
 40
0.0
 40
0.1918159922
 40
0.2860370053
 40
0.3778393818
 40
0.4662805346
 40
0.5504529641
 40
0.6294936351
 40
0.7025916703
 40
0.7689964918
 40
0.8280279636
 40
0.8545875303
 40
0.8790824755
 40
0.9014514332
 40
0.9216380176
 40
0.939588846
 40
0.9552610771
 40
0.9686148078
 40
0.9796170412
 40
0.9882458494
 40
0.9944854726
 40
0.9967112713
 40
0.9983484072
 40
0.9994165832
 40
1.0
 40
1.0
 40
1.0
 40
1.0
 10
113.3912126109
 20
132.6496683171
 30
0.0
 10
112.6499807819
 20
132.6353092026
 30
0.0
 10
111.5446497343
 20
132.6140141408
 30
0.0
 10
110.0845799483
 20
132.5852362885
 30
0.0
 10
109.0239883096
 20
132.5637868886
 30
0.0
 10
108.0022425414
 20
132.5423467054
 30
0.0
 10
107.0298319118
 20
132.520919797
 30
0.0
 10
106.1167373525
 20
132.4995115211
 30
0.0
 10
105.2723341747
 20
132.4781312301
 30
0.0
 10
104.5052928567
 20
132.4567865117
 30
0.0
 10
103.9181111384
 20
132.4384628391
 30
0.0
 10
103.4928863098
 20
132.4236144053
 30
0.0
 10
103.2093063358
 20
132.4128812679
 30
0.0
 10
102.950376786
 20
132.4021589659
 30
0.0
 10
102.7167630858
 20
132.391451723
 30
0.0
 10
102.5090624002
 20
132.3807622342
 30
0.0
 10
102.327805559
 20
132.3701033609
 30
0.0
 10
102.1734631683
 20
132.3594903952
 30
0.0
 10
102.046390131
 20
132.3489523508
 30
0.0
 10
101.9469742604
 20
132.3385496154
 30
0.0
 10
101.8814375764
 20
132.3293211866
 30
0.0
 10
101.8432526541
 20
132.3215763623
 30
0.0
 10
101.8247381279
 20
132.3162285838
 30
0.0
 10
101.8132451843
 20
132.3117080257
 30
0.0
 10
101.807851215
 20
132.3067857662
 30
0.0
 10
101.8076210542
 20
132.3045426312
 30
0.0
  0
LINE
  5
3A7
100
AcDbEntity
  8
0
100
AcDbLine
 62
7
  6
CONTINUOUS
 10
102.6157841026
 20
133.0331961069
 11
102.6205377363
 21
133.035390739
  0
SPLINE
  5
3A8
100
AcDbEntity
  8
0
100
AcDbSpline
 62
7
  6
CONTINUOUS
 70
0
 71
3
 72
26
 73
22
 74
0
 42
0.0000001
 43
0.0000001
 44
0.0000000001
 40
0.0
 40
0.0
 40
0.0
 40
0.0
 40
0.0015601129
 40
0.0036617066
 40
0.0095135236
 40
0.0175746477
 40
0.0278397553
 40
0.0402881132
 40
0.0548943412
 40
0.0716295817
 40
0.0904548372
 40
0.1342060701
 40
0.1857581804
 40
0.2446511194
 40
0.3103537359
 40
0.3822754634
 40
0.459770681
 40
0.5421401992
 40
0.6286428008
 40
0.81090299
 40
1.0
 40
1.0
 40
1.0
 40
1.0
 10
102.6205377363
 20
133.035390739
 30
0.0
 10
102.6254302517
 20
133.0374180528
 30
0.0
 10
102.637320766
 20
133.0411592905
 30
0.0
 10
102.6687660226
 20
133.0485347622
 30
0.0
 10
102.7225078638
 20
133.0570962158
 30
0.0
 10
102.8039900331
 20
133.0668940147
 30
0.0
 10
102.9080040785
 20
133.0767506993
 30
0.0
 10
103.0342979824
 20
133.0867023321
 30
0.0
 10
103.1826131365
 20
133.0966874332
 30
0.0
 10
103.3526141614
 20
133.1067014989
 30
0.0
 10
103.6214759333
 20
133.1207939751
 30
0.0
 10
104.0085146172
 20
133.1380407319
 30
0.0
 10
104.5315679569
 20
133.1579537987
 30
0.0
 10
105.1291818442
 20
133.177924782
 30
0.0
 10
105.7959741748
 20
133.1979438881
 30
0.0
 10
106.5259381752
 20
133.2179926149
 30
0.0
 10
107.3124981797
 20
133.2380623344
 30
0.0
 10
108.1485686288
 20
133.2581483549
 30
0.0
 10
109.3402004088
 20
133.2854195114
 30
0.0
 10
110.8940756734
 20
133.3190028895
 30
0.0
 10
112.154399811
 20
133.3452975567
 30
0.0
 10
112.796163427
 20
133.3586859588
 30
0.0
  0
SPLINE
  5
3A9
100
AcDbEntity
  8
0
100
AcDbSpline
 62
7
  6
CONTINUOUS
 70
0
 71
3
 72
28
 73
24
 74
0
 42
0.0000001
 43
0.0000001
 44
0.0000000001
 40
0.0
 40
0.0
 40
0.0
 40
0.0
 40
0.0005956255
 40
0.0016306527
 40
0.0053638508
 40
0.0114254946
 40
0.0198315139
 40
0.0305723239
 40
0.043630584
 40
0.0589762028
 40
0.0765742335
 40
0.0963869813
 40
0.1183662701
 40
0.1686163095
 40
0.2268544763
 40
0.292536112
 40
0.3650421422
 40
0.443690452
 40
0.5277425178
 40
0.6164061513
 40
0.7088464822
 40
0.8041941677
 40
1.0
 40
1.0
 40
1.0
 40
1.0
 10
102.6076086383
 20
133.2246730148
 30
0.0
 10
102.6076107927
 20
133.2266655815
 30
0.0
 10
102.6115507079
 20
133.2314802277
 30
0.0
 10
102.6276804347
 20
133.2388199241
 30
0.0
 10
102.6632946515
 20
133.2476384138
 30
0.0
 10
102.7232320751
 20
133.257230748
 30
0.0
 10
102.8070747305
 20
133.2672293204
 30
0.0
 10
102.9143099663
 20
133.277307641
 30
0.0
 10
103.0448832714
 20
133.2874768061
 30
0.0
 10
103.1984342511
 20
133.2976840239
 30
0.0
 10
103.374627872
 20
133.3079225878
 30
0.0
 10
103.573043342
 20
133.3181786459
 30
0.0
 10
103.8806220229
 20
133.3325211888
 30
0.0
 10
104.3167279706
 20
133.3501317177
 30
0.0
 10
104.8990293076
 20
133.3705256651
 30
0.0
 10
105.5558230376
 20
133.3909687879
 30
0.0
 10
106.2809237778
 20
133.4114522316
 30
0.0
 10
107.0675014899
 20
133.4319613891
 30
0.0
 10
107.9081483728
 20
133.4524888561
 30
0.0
 10
108.7949468249
 20
133.4730296724
 30
0.0
 10
109.7195423514
 20
133.4935803067
 30
0.0
 10
111.0024949187
 20
133.5212336647
 30
0.0
 10
111.9762889379
 20
133.5415796133
 30
0.0
 10
112.6311827928
 20
133.5552439862
 30
0.0
  0
SPLINE
  5
3AA
100
AcDbEntity
  8
0
100
AcDbSpline
 62
7
  6
CONTINUOUS
 70
0
 71
3
 72
26
 73
22
 74
0
 42
0.0000001
 43
0.0000001
 44
0.0000000001
 40
0.0
 40
0.0
 40
0.0
 40
0.0
 40
0.1890389639
 40
0.3719989162
 40
0.4590048971
 40
0.5419109797
 40
0.6199271211
 40
0.6923091339
 40
0.758365903
 40
0.8174682964
 40
0.8690533673
 40
0.9126301275
 40
0.9312840788
 40
0.9477874671
 40
0.9621036288
 40
0.9741976951
 40
0.9840444763
 40
0.99162637
 40
0.9969344145
 40
0.9987424815
 40
1.0
 40
1.0
 40
1.0
 40
1.0
 10
113.1400582413
 20
132.9489014557
 30
0.0
 10
112.4260651492
 20
132.935083176
 30
0.0
 10
111.0210376745
 20
132.9079700542
 30
0.0
 10
109.2874118828
 20
132.8734540804
 30
0.0
 10
107.9546727844
 20
132.8454086784
 30
0.0
 10
107.018309773
 20
132.8247387654
 30
0.0
 10
106.1372050585
 20
132.8040858449
 30
0.0
 10
105.3197695107
 20
132.7834559337
 30
0.0
 10
104.5738076482
 20
132.7628576952
 30
0.0
 10
103.9064408158
 20
132.7423114535
 30
0.0
 10
103.3240395134
 20
132.7218306225
 30
0.0
 10
102.8944426689
 20
132.7040762408
 30
0.0
 10
102.5973643077
 20
132.6895522657
 30
0.0
 10
102.410753056
 20
132.6792491745
 30
0.0
 10
102.248960356
 20
132.6689862462
 30
0.0
 10
102.112377486
 20
132.6587571316
 30
0.0
 10
102.0012867304
 20
132.6486539775
 30
0.0
 10
101.9160064762
 20
132.638603736
 30
0.0
 10
101.8610749613
 20
132.6298815216
 30
0.0
 10
101.830400216
 20
132.6221990714
 30
0.0
 10
101.8194126984
 20
132.6183144724
 30
0.0
 10
101.815198665
 20
132.6161215118
 30
0.0
  0
SPLINE
  5
3AB
100
AcDbEntity
  8
0
100
AcDbSpline
 62
7
  6
CONTINUOUS
 70
0
 71
3
 72
9
 73
5
 74
0
 42
0.0000001
 43
0.0000001
 44
0.0000000001
 40
0.0
 40
0.0
 40
0.0
 40
0.0
 40
0.3590117574
 40
1.0
 40
1.0
 40
1.0
 40
1.0
 10
102.1148586093
 20
133.4811792733
 30
0.0
 10
102.1165270598
 20
133.4828477238
 30
0.0
 10
102.122963058
 20
133.485253659
 30
0.0
 10
102.1292077119
 20
133.4868762323
 30
0.0
 10
102.133324263
 20
133.4877715533
 30
0.0
  0
SPLINE
  5
3AC
100
AcDbEntity
  8
0
100
AcDbSpline
 62
7
  6
CONTINUOUS
 70
0
 71
3
 72
23
 73
19
 74
0
 42
0.0000001
 43
0.0000001
 44
0.0000000001
 40
0.0
 40
0.0
 40
0.0
 40
0.0
 40
0.0040152002
 40
0.0102056181
 40
0.0185707505
 40
0.029095092
 40
0.0417586805
 40
0.05653922
 40
0.0923193167
 40
0.1361404835
 40
0.187632446
 40
0.2463601618
 40
0.3118229366
 40
0.3834555233
 40
0.4606402507
 40
0.6289400293
 40
0.8108587342
 40
1.0
 40
1.0
 40
1.0
 40
1.0
 10
102.133324263
 20
133.4877715533
 30
0.0
 10
102.1469021828
 20
133.4907246557
 30
0.0
 10
102.1819649641
 20
133.4954646581
 30
0.0
 10
102.2459091878
 20
133.5016904552
 30
0.0
 10
102.332496101
 20
133.5079320398
 30
0.0
 10
102.4415023633
 20
133.5143017173
 30
0.0
 10
102.5727468898
 20
133.5206972244
 30
0.0
 10
102.7913544207
 20
133.5298622251
 30
0.0
 10
103.1177955011
 20
133.540982888
 30
0.0
 10
103.5712889542
 20
133.5537624823
 30
0.0
 10
104.1042223872
 20
133.5666126099
 30
0.0
 10
104.7120676478
 20
133.5795245165
 30
0.0
 10
105.3896265096
 20
133.5924777207
 30
0.0
 10
106.1310691518
 20
133.6054674295
 30
0.0
 10
107.228366569
 20
133.6233438057
 30
0.0
 10
108.7073122054
 20
133.6453327666
 30
0.0
 10
110.5736885562
 20
133.6711599556
 30
0.0
 10
111.8576962358
 20
133.6883107966
 30
0.0
 10
112.5121964569
 20
133.6970533136
 30
0.0
  0
LINE
  5
3AD
100
AcDbEntity
  8
0
100
AcDbLine
 62
7
  6
CONTINUOUS
 10
110.5263201111
 20
132.1739203492
 11
113.7340081056
 21
132.2412714685
  0
SPLINE
  5
3AE
100
AcDbEntity
  8
0
100
AcDbSpline
 62
7
  6
CONTINUOUS
 70
0
 71
3
 72
10
 73
6
 74
0
 42
0.0000001
 43
0.0000001
 44
0.0000000001
 40
0.0
 40
0.0
 40
0.0
 40
0.0
 40
0.5011988852
 40
0.7507952752
 40
1.0
 40
1.0
 40
1.0
 40
1.0
 10
104.5326822321
 20
137.0965698446
 30
0.0
 10
105.1471425881
 20
137.2751278844
 30
0.0
 10
106.083878993
 20
137.4941074011
 30
0.0
 10
107.3522988854
 20
137.6477402606
 30
0.0
 10
107.9894408272
 20
137.6739201186
 30
0.0
 10
108.3075994499
 20
137.6739201138
 30
0.0
  0
SPLINE
  5
3AF
100
AcDbEntity
  8
0
100
AcDbSpline
 62
7
  6
CONTINUOUS
 70
0
 71
3
 72
11
 73
7
 74
0
 42
0.0000001
 43
0.0000001
 44
0.0000000001
 40
0.0
 40
0.0
 40
0.0
 40
0.0
 40
0.2590858939
 40
0.5110578876
 40
0.7571987173
 40
1.0
 40
1.0
 40
1.0
 40
1.0
 10
158.0755486422
 20
48.9627685306
 30
0.0
 10
158.3409399119
 20
49.4941941399
 30
0.0
 10
158.8238006913
 20
50.5637018017
 30
0.0
 10
159.3794952518
 20
52.2119937441
 30
0.0
 10
159.7280437984
 20
53.8790682244
 30
0.0
 10
159.8075994583
 20
55.0015493746
 30
0.0
 10
159.8075994497
 20
55.558221693
 30
0.0
  0
SPLINE
  5
3B0
100
AcDbEntity
  8
0
100
AcDbSpline
 62
7
  6
CONTINUOUS
 70
0
 71
3
 72
11
 73
7
 74
0
 42
0.0000001
 43
0.0000001
 44
0.0000000001
 40
0.0
 40
0.0
 40
0.0
 40
0.0
 40
0.242801294
 40
0.488942135
 40
0.740914112
 40
1.0
 40
1.0
 40
1.0
 40
1.0
 10
159.8075994497
 20
55.558221693
 30
0.0
 10
159.8075994412
 20
56.1148940077
 30
0.0
 10
159.7280437445
 20
57.237375147
 30
0.0
 10
159.379495176
 20
58.9044495438
 30
0.0
 10
158.823800621
 20
60.5527413617
 30
0.0
 10
158.3409398917
 20
61.6222489201
 30
0.0
 10
158.0755486422
 20
62.1536744889
 30
0.0
  0
SPLINE
  5
3B1
100
AcDbEntity
  8
0
100
AcDbSpline
 62
7
  6
CONTINUOUS
 70
0
 71
3
 72
11
 73
7
 74
0
 42
0.0000001
 43
0.0000001
 44
0.0000000001
 40
0.0
 40
0.0
 40
0.0
 40
0.0
 40
0.2505476804
 40
0.500000001
 40
0.7494523136
 40
1.0
 40
1.0
 40
1.0
 40
1.0
 10
143.8740509393
 20
96.5941657387
 30
0.0
 10
144.0369932564
 20
97.6878753124
 30
0.0
 10
144.2971387579
 20
99.8812005164
 30
0.0
 10
144.4355521667
 20
103.1896186946
 30
0.0
 10
144.2971387204
 20
106.4980368982
 30
0.0
 10
144.0369932169
 20
108.6913620904
 30
0.0
 10
143.8740509393
 20
109.785071697
 30
0.0
  0
SPLINE
  5
3B2
100
AcDbEntity
  8
0
100
AcDbSpline
 62
7
  6
CONTINUOUS
 70
0
 71
3
 72
11
 73
7
 74
0
 42
0.0000001
 43
0.0000001
 44
0.0000000001
 40
0.0
 40
0.0
 40
0.0
 40
0.0
 40
0.2782576537
 40
0.5424178218
 40
0.78284753
 40
1.0
 40
1.0
 40
1.0
 40
1.0
 10
143.8605140582
 20
96.5943837058
 30
0.0
 10
143.7670794572
 20
96.5973963486
 30
0.0
 10
143.5847636428
 20
96.6271894389
 30
0.0
 10
143.3427222548
 20
96.7385469815
 30
0.0
 10
143.1595415747
 20
96.9039727292
 30
0.0
 10
143.0891712601
 20
97.0464677927
 30
0.0
 10
143.0726678558
 20
97.117530939
 30
0.0
  0
SPLINE
  5
3B3
100
AcDbEntity
  8
0
100
AcDbSpline
 62
7
  6
CONTINUOUS
 70
0
 71
3
 72
11
 73
7
 74
0
 42
0.0000001
 43
0.0000001
 44
0.0000000001
 40
0.0
 40
0.0
 40
0.0
 40
0.0
 40
0.2499482707
 40
0.4991416827
 40
0.7488179045
 40
1.0
 40
1.0
 40
1.0
 40
1.0
 10
143.0726678558
 20
97.117530939
 30
0.0
 10
143.2396147062
 20
98.2183665787
 30
0.0
 10
143.5068015898
 20
100.4278013689
 30
0.0
 10
143.6490614642
 20
103.7642914582
 30
0.0
 10
143.5063295483
 20
107.106236203
 30
0.0
 10
143.2394641292
 20
109.323378267
 30
0.0
 10
143.0726678558
 20
110.4297953598
 30
0.0
  0
SPLINE
  5
3B4
100
AcDbEntity
  8
0
100
AcDbSpline
 62
7
  6
CONTINUOUS
 70
0
 71
3
 72
11
 73
7
 74
0
 42
0.0000001
 43
0.0000001
 44
0.0000000001
 40
0.0
 40
0.0
 40
0.0
 40
0.0
 40
0.2552063605
 40
0.5070759304
 40
0.7549567146
 40
1.0
 40
1.0
 40
1.0
 40
1.0
 10
143.8605140582
 20
109.7850515531
 30
0.0
 10
143.7669491605
 20
109.7847727285
 30
0.0
 10
143.5793339221
 20
109.8167565215
 30
0.0
 10
143.3339242241
 20
109.9561111713
 30
0.0
 10
143.1529310927
 20
110.1677649286
 30
0.0
 10
143.0886135763
 20
110.3413825357
 30
0.0
 10
143.0726678558
 20
110.4297953598
 30
0.0
  0
SPLINE
  5
3B5
100
AcDbEntity
  8
0
100
AcDbSpline
 62
7
  6
CONTINUOUS
 70
0
 71
3
 72
9
 73
5
 74
0
 42
0.0000001
 43
0.0000001
 44
0.0000000001
 40
0.0
 40
0.0
 40
0.0
 40
0.0
 40
0.5000034333
 40
1.0
 40
1.0
 40
1.0
 40
1.0
 10
143.8740509393
 20
66.1830141555
 30
0.0
 10
144.0375195304
 20
68.3774989505
 30
0.0
 10
144.2976432857
 20
72.7718469568
 30
0.0
 10
144.3894952336
 20
77.1733855219
 30
0.0
 10
144.3894950004
 20
79.3739201138
 30
0.0
  0
SPLINE
  5
3B6
100
AcDbEntity
  8
0
100
AcDbSpline
 62
7
  6
CONTINUOUS
 70
0
 71
3
 72
12
 73
8
 74
0
 42
0.0000001
 43
0.0000001
 44
0.0000000001
 40
0.0
 40
0.0
 40
0.0
 40
0.0
 40
0.3416948957
 40
0.6405466429
 40
0.8649118574
 40
0.9435910967
 40
1.0
 40
1.0
 40
1.0
 40
1.0
 10
143.8605140582
 20
66.1832522674
 30
0.0
 10
143.7683552886
 20
66.1864984106
 30
0.0
 10
143.5951510415
 20
66.1860662534
 30
0.0
 10
143.3627208756
 20
66.1652534584
 30
0.0
 10
143.2021690251
 20
66.1328482705
 30
0.0
 10
143.1126935542
 20
66.0952226141
 30
0.0
 10
143.0822308003
 20
66.0735007561
 30
0.0
 10
143.0726678558
 20
66.0616556875
 30
0.0
  0
SPLINE
  5
3B7
100
AcDbEntity
  8
0
100
AcDbSpline
 62
7
  6
CONTINUOUS
 70
0
 71
3
 72
9
 73
5
 74
0
 42
0.0000001
 43
0.0000001
 44
0.0000000001
 40
0.0
 40
0.0
 40
0.0
 40
0.0
 40
0.5000034974
 40
1.0
 40
1.0
 40
1.0
 40
1.0
 10
143.0726678558
 20
66.0616556875
 30
0.0
 10
143.2400916678
 20
68.2762162555
 30
0.0
 10
143.5071050491
 20
72.7108838568
 30
0.0
 10
143.6016489178
 20
77.1530708972
 30
0.0
 10
143.6016487979
 20
79.3739201138
 30
0.0
  0
SPLINE
  5
3B8
100
AcDbEntity
  8
0
100
AcDbSpline
 62
7
  6
CONTINUOUS
 70
0
 71
3
 72
9
 73
5
 74
0
 42
0.0000001
 43
0.0000001
 44
0.0000000001
 40
0.0
 40
0.0
 40
0.0
 40
0.0
 40
0.4999965666
 40
1.0
 40
1.0
 40
1.0
 40
1.0
 10
144.3894950004
 20
79.3739201138
 30
0.0
 10
144.3894952448
 20
81.5744547057
 30
0.0
 10
144.2976432764
 20
85.9759932707
 30
0.0
 10
144.0375195294
 20
90.370341277
 30
0.0
 10
143.8740509393
 20
92.5648260721
 30
0.0
  0
SPLINE
  5
3B9
100
AcDbEntity
  8
0
100
AcDbSpline
 62
7
  6
CONTINUOUS
 70
0
 71
3
 72
9
 73
5
 74
0
 42
0.0000001
 43
0.0000001
 44
0.0000000001
 40
0.0
 40
0.0
 40
0.0
 40
0.0
 40
0.4999965026
 40
1.0
 40
1.0
 40
1.0
 40
1.0
 10
143.6016487979
 20
79.3739201138
 30
0.0
 10
143.6016489236
 20
81.5947693304
 30
0.0
 10
143.5071050463
 20
86.0369563709
 30
0.0
 10
143.2400916676
 20
90.4716239722
 30
0.0
 10
143.0726678558
 20
92.6861845403
 30
0.0
  0
SPLINE
  5
3BA
100
AcDbEntity
  8
0
100
AcDbSpline
 62
7
  6
CONTINUOUS
 70
0
 71
3
 72
12
 73
8
 74
0
 42
0.0000001
 43
0.0000001
 44
0.0000000001
 40
0.0
 40
0.0
 40
0.0
 40
0.0
 40
0.3416948951
 40
0.6405466415
 40
0.8649118547
 40
0.9435910953
 40
1.0
 40
1.0
 40
1.0
 40
1.0
 10
143.8605140582
 20
92.5645879602
 30
0.0
 10
143.7683552887
 20
92.5613418169
 30
0.0
 10
143.5951510415
 20
92.5617739733
 30
0.0
 10
143.3627208765
 20
92.5825867696
 30
0.0
 10
143.2021690245
 20
92.614991952
 30
0.0
 10
143.1126935541
 20
92.6526176119
 30
0.0
 10
143.0822308006
 20
92.6743394714
 30
0.0
 10
143.0726678558
 20
92.6861845403
 30
0.0
  0
SPLINE
  5
3BB
100
AcDbEntity
  8
0
100
AcDbSpline
 62
7
  6
CONTINUOUS
 70
0
 71
3
 72
11
 73
7
 74
0
 42
0.0000001
 43
0.0000001
 44
0.0000000001
 40
0.0
 40
0.0
 40
0.0
 40
0.0
 40
0.2505476864
 40
0.499999999
 40
0.7494523196
 40
1.0
 40
1.0
 40
1.0
 40
1.0
 10
143.8740509393
 20
48.9627685306
 30
0.0
 10
144.0369932181
 20
50.056478137
 30
0.0
 10
144.2971387167
 20
52.2498033297
 30
0.0
 10
144.4355521668
 20
55.5582215328
 30
0.0
 10
144.2971387613
 20
58.8666397115
 30
0.0
 10
144.0369932553
 20
61.0599649149
 30
0.0
 10
143.8740509393
 20
62.1536744889
 30
0.0
  0
SPLINE
  5
3BC
100
AcDbEntity
  8
0
100
AcDbSpline
 62
7
  6
CONTINUOUS
 70
0
 71
3
 72
11
 73
7
 74
0
 42
0.0000001
 43
0.0000001
 44
0.0000000001
 40
0.0
 40
0.0
 40
0.0
 40
0.0
 40
0.2552063606
 40
0.5070759307
 40
0.7549567156
 40
1.0
 40
1.0
 40
1.0
 40
1.0
 10
143.8605140582
 20
48.9627886745
 30
0.0
 10
143.7669491604
 20
48.9630674992
 30
0.0
 10
143.579333922
 20
48.9310837061
 30
0.0
 10
143.3339242237
 20
48.791729056
 30
0.0
 10
143.1529310927
 20
48.5800752984
 30
0.0
 10
143.0886135763
 20
48.4064576916
 30
0.0
 10
143.0726678558
 20
48.3180448678
 30
0.0
  0
SPLINE
  5
3BD
100
AcDbEntity
  8
0
100
AcDbSpline
 62
7
  6
CONTINUOUS
 70
0
 71
3
 72
11
 73
7
 74
0
 42
0.0000001
 43
0.0000001
 44
0.0000000001
 40
0.0
 40
0.0
 40
0.0
 40
0.0
 40
0.2511820955
 40
0.5008583173
 40
0.7500517293
 40
1.0
 40
1.0
 40
1.0
 40
1.0
 10
143.0726678558
 20
48.3180448678
 30
0.0
 10
143.2394641295
 20
49.4244619605
 30
0.0
 10
143.5063295481
 20
51.6416040246
 30
0.0
 10
143.6490614643
 20
54.9835487694
 30
0.0
 10
143.5068015898
 20
58.3200388588
 30
0.0
 10
143.2396147058
 20
60.529473649
 30
0.0
 10
143.0726678558
 20
61.6303092888
 30
0.0
  0
SPLINE
  5
3BE
100
AcDbEntity
  8
0
100
AcDbSpline
 62
7
  6
CONTINUOUS
 70
0
 71
3
 72
11
 73
7
 74
0
 42
0.0000001
 43
0.0000001
 44
0.0000000001
 40
0.0
 40
0.0
 40
0.0
 40
0.0
 40
0.278257654
 40
0.5424178226
 40
0.7828475319
 40
1.0
 40
1.0
 40
1.0
 40
1.0
 10
143.8605140582
 20
62.1534565218
 30
0.0
 10
143.7670794572
 20
62.1504438789
 30
0.0
 10
143.5847636429
 20
62.1206507882
 30
0.0
 10
143.3427222543
 20
62.0092932454
 30
0.0
 10
143.1595415766
 20
61.8438674962
 30
0.0
 10
143.08917126
 20
61.7013724344
 30
0.0
 10
143.0726678558
 20
61.6303092888
 30
0.0
  0
SPLINE
  5
3BF
100
AcDbEntity
  8
0
100
AcDbSpline
 62
7
  6
CONTINUOUS
 70
0
 71
3
 72
11
 73
7
 74
0
 42
0.0000001
 43
0.0000001
 44
0.0000000001
 40
0.0
 40
0.0
 40
0.0
 40
0.0
 40
0.2590858938
 40
0.5110578876
 40
0.7571987174
 40
1.0
 40
1.0
 40
1.0
 40
1.0
 10
158.0755486422
 20
96.5941657387
 30
0.0
 10
158.3409399047
 20
97.1255913337
 30
0.0
 10
158.8238006723
 20
98.1950989664
 30
0.0
 10
159.3794952251
 20
99.8433908626
 30
0.0
 10
159.728043777
 20
101.5104652956
 30
0.0
 10
159.8075994498
 20
102.6329464148
 30
0.0
 10
159.8075994497
 20
103.1896187184
 30
0.0
  0
SPLINE
  5
3C0
100
AcDbEntity
  8
0
100
AcDbSpline
 62
7
  6
CONTINUOUS
 70
0
 71
3
 72
11
 73
7
 74
0
 42
0.0000001
 43
0.0000001
 44
0.0000000001
 40
0.0
 40
0.0
 40
0.0
 40
0.0
 40
0.242801294
 40
0.4889421349
 40
0.7409141119
 40
1.0
 40
1.0
 40
1.0
 40
1.0
 10
159.8075994497
 20
103.1896187184
 30
0.0
 10
159.8075994497
 20
103.746291048
 30
0.0
 10
159.728043766
 20
104.8687722182
 30
0.0
 10
159.3794952026
 20
106.5358466622
 30
0.0
 10
158.8238006399
 20
108.1841385264
 30
0.0
 10
158.3409398988
 20
109.2536461139
 30
0.0
 10
158.0755486422
 20
109.785071697
 30
0.0
  0
SPLINE
  5
3C1
100
AcDbEntity
  8
0
100
AcDbSpline
 62
7
  6
CONTINUOUS
 70
0
 71
3
 72
10
 73
6
 74
0
 42
0.0000001
 43
0.0000001
 44
0.0000000001
 40
0.0
 40
0.0
 40
0.0
 40
0.0
 40
0.4999084933
 40
0.7499542553
 40
1.0
 40
1.0
 40
1.0
 40
1.0
 10
158.0755486422
 20
66.1830141555
 30
0.0
 10
158.6138091268
 20
68.3386646131
 30
0.0
 10
159.2701424596
 20
71.6158527411
 30
0.0
 10
159.729324251
 20
76.0391040172
 30
0.0
 10
159.8075994498
 20
78.2625956741
 30
0.0
 10
159.8075994497
 20
79.3739201148
 30
0.0
  0
SPLINE
  5
3C2
100
AcDbEntity
  8
0
100
AcDbSpline
 62
7
  6
CONTINUOUS
 70
0
 71
3
 72
10
 73
6
 74
0
 42
0.0000001
 43
0.0000001
 44
0.0000000001
 40
0.0
 40
0.0
 40
0.0
 40
0.0
 40
0.2500457564
 40
0.5000915293
 40
1.0
 40
1.0
 40
1.0
 40
1.0
 10
159.8075994497
 20
79.3739201148
 30
0.0
 10
159.8075994497
 20
80.4852446072
 30
0.0
 10
159.7293242408
 20
82.7087363642
 30
0.0
 10
159.2701424343
 20
87.1319876383
 30
0.0
 10
158.6138091024
 20
90.4091757122
 30
0.0
 10
158.0755486422
 20
92.5648260721
 30
0.0
  0
SPLINE
  5
3C3
100
AcDbEntity
  8
0
100
AcDbSpline
 62
7
  6
CONTINUOUS
 70
0
 71
3
 72
8
 73
4
 74
0
 42
0.0000001
 43
0.0000001
 44
0.0000000001
 40
0.0
 40
0.0
 40
0.0
 40
0.0
 40
1.0
 40
1.0
 40
1.0
 40
1.0
 10
136.5586959524
 20
72.1315189786
 30
0.0
 10
136.7261330581
 20
71.9354951451
 30
0.0
 10
136.8075994497
 20
71.6465608189
 30
0.0
 10
136.8075994497
 20
71.2598672459
 30
0.0
  0
SPLINE
  5
3C4
100
AcDbEntity
  8
0
100
AcDbSpline
 62
7
  6
CONTINUOUS
 70
0
 71
3
 72
8
 73
4
 74
0
 42
0.0000001
 43
0.0000001
 44
0.0000000001
 40
0.0
 40
0.0
 40
0.0
 40
0.0
 40
1.0
 40
1.0
 40
1.0
 40
1.0
 10
135.8517270929
 20
72.5959161351
 30
0.0
 10
136.1558683163
 20
72.4807771275
 30
0.0
 10
136.3921208328
 20
72.3265336583
 30
0.0
 10
136.5586959524
 20
72.1315189786
 30
0.0
  0
SPLINE
  5
3C5
100
AcDbEntity
  8
0
100
AcDbSpline
 62
7
  6
CONTINUOUS
 70
0
 71
3
 72
8
 73
4
 74
0
 42
0.0000001
 43
0.0000001
 44
0.0000000001
 40
0.0
 40
0.0
 40
0.0
 40
0.0
 40
1.0
 40
1.0
 40
1.0
 40
1.0
 10
134.7546462065
 20
72.7697106907
 30
0.0
 10
135.1809871441
 20
72.7697106907
 30
0.0
 10
135.5475858694
 20
72.7110551427
 30
0.0
 10
135.8517270929
 20
72.5959161351
 30
0.0
  0
SPLINE
  5
3C6
100
AcDbEntity
  8
0
100
AcDbSpline
 62
7
  6
CONTINUOUS
 70
0
 71
3
 72
8
 73
4
 74
0
 42
0.0000001
 43
0.0000001
 44
0.0000000001
 40
0.0
 40
0.0
 40
0.0
 40
0.0
 40
1.0
 40
1.0
 40
1.0
 40
1.0
 10
133.3268608617
 20
72.4020308413
 30
0.0
 10
133.6738587862
 20
72.6458818028
 30
0.0
 10
134.1490794665
 20
72.7697106907
 30
0.0
 10
134.7546462065
 20
72.7697106907
 30
0.0
  0
SPLINE
  5
3C7
100
AcDbEntity
  8
0
100
AcDbSpline
 62
7
  6
CONTINUOUS
 70
0
 71
3
 72
8
 73
4
 74
0
 42
0.0000001
 43
0.0000001
 44
0.0000000001
 40
0.0
 40
0.0
 40
0.0
 40
0.0
 40
1.0
 40
1.0
 40
1.0
 40
1.0
 10
132.8075994497
 20
71.4619035313
 30
0.0
 10
132.8075994497
 20
71.8442529271
 30
0.0
 10
132.9813944346
 20
72.1592561314
 30
0.0
 10
133.3268608617
 20
72.4020308413
 30
0.0
  0
SPLINE
  5
3C8
100
AcDbEntity
  8
0
100
AcDbSpline
 62
7
  6
CONTINUOUS
 70
0
 71
3
 72
8
 73
4
 74
0
 42
0.0000001
 43
0.0000001
 44
0.0000000001
 40
0.0
 40
0.0
 40
0.0
 40
0.0
 40
1.0
 40
1.0
 40
1.0
 40
1.0
 10
135.8981254893
 20
72.0769565255
 30
0.0
 10
135.6317677742
 20
72.2352914403
 30
0.0
 10
135.2597379929
 20
72.3156716893
 30
0.0
 10
134.7818018442
 20
72.3156716893
 30
0.0
  0
SPLINE
  5
3C9
100
AcDbEntity
  8
0
100
AcDbSpline
 62
7
  6
CONTINUOUS
 70
0
 71
3
 72
8
 73
4
 74
0
 42
0.0000001
 43
0.0000001
 44
0.0000000001
 40
0.0
 40
0.0
 40
0.0
 40
0.0
 40
1.0
 40
1.0
 40
1.0
 40
1.0
 10
136.1906044708
 20
71.809251929
 30
0.0
 10
136.1205662137
 20
71.9137704442
 30
0.0
 10
136.0228064901
 20
72.0028405736
 30
0.0
 10
135.8981254893
 20
72.0769565255
 30
0.0
  0
SPLINE
  5
3CA
100
AcDbEntity
  8
0
100
AcDbSpline
 62
7
  6
CONTINUOUS
 70
0
 71
3
 72
8
 73
4
 74
0
 42
0.0000001
 43
0.0000001
 44
0.0000000001
 40
0.0
 40
0.0
 40
0.0
 40
0.0
 40
1.0
 40
1.0
 40
1.0
 40
1.0
 10
136.2970767266
 20
71.2424874852
 30
0.0
 10
136.2970767266
 20
71.5140420506
 30
0.0
 10
136.261774624
 20
71.7030442784
 30
0.0
 10
136.1906044708
 20
71.809251929
 30
0.0
  0
SPLINE
  5
3CB
100
AcDbEntity
  8
0
100
AcDbSpline
 62
7
  6
CONTINUOUS
 70
0
 71
3
 72
8
 73
4
 74
0
 42
0.0000001
 43
0.0000001
 44
0.0000000001
 40
0.0
 40
0.0
 40
0.0
 40
0.0
 40
1.0
 40
1.0
 40
1.0
 40
1.0
 10
133.4164144728
 20
71.7875617929
 30
0.0
 10
133.3507088667
 20
71.6791474888
 30
0.0
 10
133.3181222922
 20
71.4944902012
 30
0.0
 10
133.3181222922
 20
71.2294526646
 30
0.0
  0
SPLINE
  5
3CC
100
AcDbEntity
  8
0
100
AcDbSpline
 62
7
  6
CONTINUOUS
 70
0
 71
3
 72
8
 73
4
 74
0
 42
0.0000001
 43
0.0000001
 44
0.0000000001
 40
0.0
 40
0.0
 40
0.0
 40
0.0
 40
1.0
 40
1.0
 40
1.0
 40
1.0
 10
133.6902316082
 20
72.0657649059
 30
0.0
 10
133.5733834749
 20
71.9876336644
 30
0.0
 10
133.4810549265
 20
71.8942185948
 30
0.0
 10
133.4164144728
 20
71.7875617929
 30
0.0
  0
SPLINE
  5
3CD
100
AcDbEntity
  8
0
100
AcDbSpline
 62
7
  6
CONTINUOUS
 70
0
 71
3
 72
8
 73
4
 74
0
 42
0.0000001
 43
0.0000001
 44
0.0000000001
 40
0.0
 40
0.0
 40
0.0
 40
0.0
 40
1.0
 40
1.0
 40
1.0
 40
1.0
 10
134.7818018442
 20
72.3156716893
 30
0.0
 10
134.3011499888
 20
72.3156716893
 30
0.0
 10
133.9372667319
 20
72.2309465001
 30
0.0
 10
133.6902316082
 20
72.0657649059
 30
0.0
  0
SPLINE
  5
3CE
100
AcDbEntity
  8
0
100
AcDbSpline
 62
7
  6
CONTINUOUS
 70
0
 71
3
 72
11
 73
7
 74
0
 42
0.0000001
 43
0.0000001
 44
0.0000000001
 40
0.0
 40
0.0
 40
0.0
 40
0.0
 40
0.2590859168
 40
0.5110579182
 40
0.75719873
 40
1.0
 40
1.0
 40
1.0
 40
1.0
 10
67.5396502573
 20
62.1536744889
 30
0.0
 10
67.2742589622
 20
61.6222488287
 30
0.0
 10
66.791398139
 20
60.5527410994
 30
0.0
 10
66.2357036054
 20
58.904449103
 30
0.0
 10
65.8871550827
 20
57.2373746601
 30
0.0
 10
65.807599437
 20
56.1148935717
 30
0.0
 10
65.8075994436
 20
55.5582212782
 30
0.0
  0
SPLINE
  5
3CF
100
AcDbEntity
  8
0
100
AcDbSpline
 62
7
  6
CONTINUOUS
 70
0
 71
3
 72
11
 73
7
 74
0
 42
0.0000001
 43
0.0000001
 44
0.0000000001
 40
0.0
 40
0.0
 40
0.0
 40
0.0
 40
0.2428012832
 40
0.4889421088
 40
0.7409140919
 40
1.0
 40
1.0
 40
1.0
 40
1.0
 10
65.8075994436
 20
55.5582212782
 30
0.0
 10
65.8075994587
 20
55.0015489918
 30
0.0
 10
65.8871551499
 20
53.8790679207
 30
0.0
 10
66.2357037
 20
52.2119935803
 30
0.0
 10
66.7913982278
 20
50.563701739
 30
0.0
 10
67.274258989
 20
49.4941941371
 30
0.0
 10
67.5396502573
 20
48.9627685306
 30
0.0
  0
SPLINE
  5
3D0
100
AcDbEntity
  8
0
100
AcDbSpline
 62
7
  6
CONTINUOUS
 70
0
 71
3
 72
9
 73
5
 74
0
 42
0.0000001
 43
0.0000001
 44
0.0000000001
 40
0.0
 40
0.0
 40
0.0
 40
0.0
 40
0.5094659734
 40
1.0
 40
1.0
 40
1.0
 40
1.0
 10
80.7580300104
 20
48.9627685306
 30
0.0
 10
81.1310679376
 20
49.698730388
 30
0.0
 10
81.7864835907
 20
51.18480413
 30
0.0
 10
82.2119868006
 20
52.7570715627
 30
0.0
 10
82.3457192344
 20
53.5401779027
 30
0.0
  0
SPLINE
  5
3D1
100
AcDbEntity
  8
0
100
AcDbSpline
 62
7
  6
CONTINUOUS
 70
0
 71
3
 72
9
 73
5
 74
0
 42
0.0000001
 43
0.0000001
 44
0.0000000001
 40
0.0
 40
0.0
 40
0.0
 40
0.0
 40
0.508943498
 40
1.0
 40
1.0
 40
1.0
 40
1.0
 10
81.2198862095
 20
49.2035438764
 30
0.0
 10
81.5864904314
 20
49.9327059919
 30
0.0
 10
82.2301502056
 20
51.4064921796
 30
0.0
 10
82.6470429127
 20
52.9642212697
 30
0.0
 10
82.7787319363
 20
53.7405831915
 30
0.0
  0
SPLINE
  5
3D2
100
AcDbEntity
  8
0
100
AcDbSpline
 62
7
  6
CONTINUOUS
 70
0
 71
3
 72
9
 73
5
 74
0
 42
0.0000001
 43
0.0000001
 44
0.0000000001
 40
0.0
 40
0.0
 40
0.0
 40
0.0
 40
0.5060344865
 40
1.0
 40
1.0
 40
1.0
 40
1.0
 10
80.7868735076
 20
48.9626265096
 30
0.0
 10
80.8733979761
 20
48.961761379
 30
0.0
 10
81.0480806541
 20
49.0049814278
 30
0.0
 10
81.1768667866
 20
49.1308549651
 30
0.0
 10
81.2198862095
 20
49.2035438764
 30
0.0
  0
SPLINE
  5
3D3
100
AcDbEntity
  8
0
100
AcDbSpline
 62
7
  6
CONTINUOUS
 70
0
 71
3
 72
9
 73
5
 74
0
 42
0.0000001
 43
0.0000001
 44
0.0000000001
 40
0.0
 40
0.0
 40
0.0
 40
0.0
 40
0.4972262718
 40
1.0
 40
1.0
 40
1.0
 40
1.0
 10
82.3457192344
 20
53.5401779027
 30
0.0
 10
82.4041803144
 20
53.8807265195
 30
0.0
 10
82.5666514918
 20
54.5576902867
 30
0.0
 10
82.7656162886
 20
55.2233689334
 30
0.0
 10
82.8653344767
 20
55.5582215097
 30
0.0
  0
SPLINE
  5
3D4
100
AcDbEntity
  8
0
100
AcDbSpline
 62
7
  6
CONTINUOUS
 70
0
 71
3
 72
9
 73
5
 74
0
 42
0.0000001
 43
0.0000001
 44
0.0000000001
 40
0.0
 40
0.0
 40
0.0
 40
0.0
 40
0.4688547214
 40
1.0
 40
1.0
 40
1.0
 40
1.0
 10
82.7787319363
 20
53.7405831915
 30
0.0
 10
82.7891672251
 20
54.0247701276
 30
0.0
 10
82.8184477129
 20
54.6306244789
 30
0.0
 10
82.8496549518
 20
55.2363526978
 30
0.0
 10
82.8653344555
 20
55.5581309982
 30
0.0
  0
SPLINE
  5
3D5
100
AcDbEntity
  8
0
100
AcDbSpline
 62
7
  6
CONTINUOUS
 70
0
 71
3
 72
9
 73
5
 74
0
 42
0.0000001
 43
0.0000001
 44
0.0000000001
 40
0.0
 40
0.0
 40
0.0
 40
0.0
 40
0.5174721082
 40
1.0
 40
1.0
 40
1.0
 40
1.0
 10
82.3457192361
 20
53.5401606603
 30
0.0
 10
82.4306512862
 20
53.5365401612
 30
0.0
 10
82.5992251847
 20
53.5657732194
 30
0.0
 10
82.7344547474
 20
53.6748328865
 30
0.0
 10
82.7787287313
 20
53.7405849132
 30
0.0
  0
SPLINE
  5
3D6
100
AcDbEntity
  8
0
100
AcDbSpline
 62
7
  6
CONTINUOUS
 70
0
 71
3
 72
9
 73
5
 74
0
 42
0.0000001
 43
0.0000001
 44
0.0000000001
 40
0.0
 40
0.0
 40
0.0
 40
0.0
 40
0.2637387046
 40
1.0
 40
1.0
 40
1.0
 40
1.0
 10
82.6921293959
 20
58.2758181287
 30
0.0
 10
82.7112011482
 20
58.0356863554
 30
0.0
 10
82.7993424182
 20
57.1264217259
 30
0.0
 10
82.9326599709
 20
56.2223042827
 30
0.0
 10
83.0385395574
 20
55.5582215097
 30
0.0
  0
SPLINE
  5
3D7
100
AcDbEntity
  8
0
100
AcDbSpline
 62
7
  6
CONTINUOUS
 70
0
 71
3
 72
9
 73
5
 74
0
 42
0.0000001
 43
0.0000001
 44
0.0000000001
 40
0.0
 40
0.0
 40
0.0
 40
0.0
 40
0.4959847771
 40
1.0
 40
1.0
 40
1.0
 40
1.0
 10
82.259116694
 20
58.0332215097
 30
0.0
 10
82.3465511272
 20
57.6129639314
 30
0.0
 10
82.5921319984
 20
56.7806250226
 30
0.0
 10
82.8888374646
 20
55.9679354502
 30
0.0
 10
83.0385395574
 20
55.5582215097
 30
0.0
  0
SPLINE
  5
3D8
100
AcDbEntity
  8
0
100
AcDbSpline
 62
7
  6
CONTINUOUS
 70
0
 71
3
 72
9
 73
5
 74
0
 42
0.0000001
 43
0.0000001
 44
0.0000000001
 40
0.0
 40
0.0
 40
0.0
 40
0.0
 40
0.4890143395
 40
1.0
 40
1.0
 40
1.0
 40
1.0
 10
82.6921225975
 20
58.2758211185
 30
0.0
 10
82.6478945514
 20
58.2053379148
 30
0.0
 10
82.5160699462
 20
58.0853599891
 30
0.0
 10
82.3459483022
 20
58.0377425128
 30
0.0
 10
82.259116694
 20
58.0332215098
 30
0.0
  0
SPLINE
  5
3D9
100
AcDbEntity
  8
0
100
AcDbSpline
 62
7
  6
CONTINUOUS
 70
0
 71
3
 72
9
 73
5
 74
0
 42
0.0000001
 43
0.0000001
 44
0.0000000001
 40
0.0
 40
0.0
 40
0.0
 40
0.0
 40
0.2569171662
 40
1.0
 40
1.0
 40
1.0
 40
1.0
 10
81.2198862095
 20
62.3892130843
 30
0.0
 10
81.386690147
 20
62.0536943217
 30
0.0
 10
82.0037139367
 20
60.7327219946
 30
0.0
 10
82.4736382068
 20
59.3372971182
 30
0.0
 10
82.6921293959
 20
58.2758181287
 30
0.0
  0
SPLINE
  5
3DA
100
AcDbEntity
  8
0
100
AcDbSpline
 62
7
  6
CONTINUOUS
 70
0
 71
3
 72
9
 73
5
 74
0
 42
0.0000001
 43
0.0000001
 44
0.0000000001
 40
0.0
 40
0.0
 40
0.0
 40
0.0
 40
0.5087154017
 40
1.0
 40
1.0
 40
1.0
 40
1.0
 10
80.7580300104
 20
62.1536744889
 30
0.0
 10
81.0949688292
 20
61.4889358768
 30
0.0
 10
81.694248473
 20
60.1485102103
 30
0.0
 10
82.1123988095
 20
58.7378277302
 30
0.0
 10
82.259116694
 20
58.0332215097
 30
0.0
  0
SPLINE
  5
3DB
100
AcDbEntity
  8
0
100
AcDbSpline
 62
7
  6
CONTINUOUS
 70
0
 71
3
 72
9
 73
5
 74
0
 42
0.0000001
 43
0.0000001
 44
0.0000000001
 40
0.0
 40
0.0
 40
0.0
 40
0.0
 40
0.5240143643
 40
1.0
 40
1.0
 40
1.0
 40
1.0
 10
80.7868735076
 20
62.1552119315
 30
0.0
 10
80.874161579
 20
62.1646641161
 30
0.0
 10
81.038632812
 20
62.2143473406
 30
0.0
 10
81.1736209493
 20
62.3242532967
 30
0.0
 10
81.2198862095
 20
62.3892130843
 30
0.0
  0
SPLINE
  5
3DC
100
AcDbEntity
  8
0
100
AcDbSpline
 62
7
  6
CONTINUOUS
 70
0
 71
3
 72
9
 73
5
 74
0
 42
0.0000001
 43
0.0000001
 44
0.0000000001
 40
0.0
 40
0.0
 40
0.0
 40
0.0
 40
0.5000128361
 40
1.0
 40
1.0
 40
1.0
 40
1.0
 10
80.7580300104
 20
66.1830141555
 30
0.0
 10
81.101238923
 20
67.5372348787
 30
0.0
 10
81.7077641142
 20
70.266791629
 30
0.0
 10
82.1144291366
 20
73.0344701408
 30
0.0
 10
82.259116694
 20
74.4239201138
 30
0.0
  0
SPLINE
  5
3DD
100
AcDbEntity
  8
0
100
AcDbSpline
 62
7
  6
CONTINUOUS
 70
0
 71
3
 72
9
 73
5
 74
0
 42
0.0000001
 43
0.0000001
 44
0.0000000001
 40
0.0
 40
0.0
 40
0.0
 40
0.0
 40
0.5000114388
 40
1.0
 40
1.0
 40
1.0
 40
1.0
 10
81.2198862095
 20
66.188250986
 30
0.0
 10
81.556465002
 20
67.5347073713
 30
0.0
 10
82.1507635843
 20
70.2481749742
 30
0.0
 10
82.5496405959
 20
72.9983488271
 30
0.0
 10
82.6921293959
 20
74.3788381466
 30
0.0
  0
SPLINE
  5
3DE
100
AcDbEntity
  8
0
100
AcDbSpline
 62
7
  6
CONTINUOUS
 70
0
 71
3
 72
10
 73
6
 74
0
 42
0.0000001
 43
0.0000001
 44
0.0000000001
 40
0.0
 40
0.0
 40
0.0
 40
0.0
 40
0.5792764044
 40
0.8161551492
 40
1.0
 40
1.0
 40
1.0
 40
1.0
 10
80.7868735076
 20
66.181334699
 30
0.0
 10
80.870276393
 20
66.1714693107
 30
0.0
 10
80.9888760574
 20
66.1635106773
 30
0.0
 10
81.1337161424
 20
66.1711407031
 30
0.0
 10
81.1942569122
 20
66.1809311707
 30
0.0
 10
81.2198862095
 20
66.188250986
 30
0.0
  0
SPLINE
  5
3DF
100
AcDbEntity
  8
0
100
AcDbSpline
 62
7
  6
CONTINUOUS
 70
0
 71
3
 72
9
 73
5
 74
0
 42
0.0000001
 43
0.0000001
 44
0.0000000001
 40
0.0
 40
0.0
 40
0.0
 40
0.0
 40
0.4999806039
 40
1.0
 40
1.0
 40
1.0
 40
1.0
 10
82.259116694
 20
74.4239201138
 30
0.0
 10
82.3460432343
 20
75.254662013
 30
0.0
 10
82.5880616982
 20
76.9088997924
 30
0.0
 10
82.8885484183
 20
78.5521541786
 30
0.0
 10
83.0385395574
 20
79.3739201138
 30
0.0
  0
SPLINE
  5
3E0
100
AcDbEntity
  8
0
100
AcDbSpline
 62
7
  6
CONTINUOUS
 70
0
 71
3
 72
9
 73
5
 74
0
 42
0.0000001
 43
0.0000001
 44
0.0000000001
 40
0.0
 40
0.0
 40
0.0
 40
0.0
 40
0.499354848
 40
1.0
 40
1.0
 40
1.0
 40
1.0
 10
82.6921293959
 20
74.3788381466
 30
0.0
 10
82.7311255051
 20
75.2113876707
 30
0.0
 10
82.8394976078
 20
76.8771744961
 30
0.0
 10
82.9721983936
 20
78.5409415684
 30
0.0
 10
83.0385395574
 20
79.3739198477
 30
0.0
  0
SPLINE
  5
3E1
100
AcDbEntity
  8
0
100
AcDbSpline
 62
7
  6
CONTINUOUS
 70
0
 71
3
 72
9
 73
5
 74
0
 42
0.0000001
 43
0.0000001
 44
0.0000000001
 40
0.0
 40
0.0
 40
0.0
 40
0.0
 40
0.4993538592
 40
1.0
 40
1.0
 40
1.0
 40
1.0
 10
82.6921293959
 20
84.369002081
 30
0.0
 10
82.7309797886
 20
83.5364474092
 30
0.0
 10
82.8396447207
 20
81.8706761262
 30
0.0
 10
82.9721359055
 20
80.2068950572
 30
0.0
 10
83.0385395574
 20
79.3739201138
 30
0.0
  0
SPLINE
  5
3E2
100
AcDbEntity
  8
0
100
AcDbSpline
 62
7
  6
CONTINUOUS
 70
0
 71
3
 72
9
 73
5
 74
0
 42
0.0000001
 43
0.0000001
 44
0.0000000001
 40
0.0
 40
0.0
 40
0.0
 40
0.0
 40
0.4999802586
 40
1.0
 40
1.0
 40
1.0
 40
1.0
 10
82.259116694
 20
84.3239201138
 30
0.0
 10
82.345539824
 20
83.4931267069
 30
0.0
 10
82.5885172862
 20
81.8390010658
 30
0.0
 10
82.8884147552
 20
80.1956617893
 30
0.0
 10
83.0385395574
 20
79.3739201138
 30
0.0
  0
SPLINE
  5
3E3
100
AcDbEntity
  8
0
100
AcDbSpline
 62
7
  6
CONTINUOUS
 70
0
 71
3
 72
9
 73
5
 74
0
 42
0.0000001
 43
0.0000001
 44
0.0000000001
 40
0.0
 40
0.0
 40
0.0
 40
0.0
 40
0.50001149
 40
1.0
 40
1.0
 40
1.0
 40
1.0
 10
81.2198862095
 20
92.5595893206
 30
0.0
 10
81.5564655435
 20
91.2131329114
 30
0.0
 10
82.1507632991
 20
88.4996650755
 30
0.0
 10
82.5496405341
 20
85.7494912638
 30
0.0
 10
82.6921293959
 20
84.369002081
 30
0.0
  0
SPLINE
  5
3E4
100
AcDbEntity
  8
0
100
AcDbSpline
 62
7
  6
CONTINUOUS
 70
0
 71
3
 72
9
 73
5
 74
0
 42
0.0000001
 43
0.0000001
 44
0.0000000001
 40
0.0
 40
0.0
 40
0.0
 40
0.0
 40
0.5000128841
 40
1.0
 40
1.0
 40
1.0
 40
1.0
 10
80.7580300104
 20
92.5648260721
 30
0.0
 10
81.1012395006
 20
91.2106053579
 30
0.0
 10
81.707763779
 20
88.4810483754
 30
0.0
 10
82.1144290044
 20
85.7133699372
 30
0.0
 10
82.259116694
 20
84.3239201138
 30
0.0
  0
SPLINE
  5
3E5
100
AcDbEntity
  8
0
100
AcDbSpline
 62
7
  6
CONTINUOUS
 70
0
 71
3
 72
10
 73
6
 74
0
 42
0.0000001
 43
0.0000001
 44
0.0000000001
 40
0.0
 40
0.0
 40
0.0
 40
0.0
 40
0.5792764825
 40
0.8161552393
 40
1.0
 40
1.0
 40
1.0
 40
1.0
 10
80.7868735076
 20
92.5665055384
 30
0.0
 10
80.8702763979
 20
92.5763709372
 30
0.0
 10
80.9888760836
 20
92.5843295314
 30
0.0
 10
81.1337161369
 20
92.5766994131
 30
0.0
 10
81.1942569255
 20
92.5669091287
 30
0.0
 10
81.2198862095
 20
92.5595893206
 30
0.0
  0
SPLINE
  5
3E6
100
AcDbEntity
  8
0
100
AcDbSpline
 62
7
  6
CONTINUOUS
 70
0
 71
3
 72
9
 73
5
 74
0
 42
0.0000001
 43
0.0000001
 44
0.0000000001
 40
0.0
 40
0.0
 40
0.0
 40
0.0
 40
0.5087105287
 40
1.0
 40
1.0
 40
1.0
 40
1.0
 10
80.7580300104
 20
96.5941657387
 30
0.0
 10
81.0949654927
 20
97.2588980429
 30
0.0
 10
81.694250981
 20
98.5993220819
 30
0.0
 10
82.1123885047
 20
100.0100073474
 30
0.0
 10
82.259116694
 20
100.7146187179
 30
0.0
  0
SPLINE
  5
3E7
100
AcDbEntity
  8
0
100
AcDbSpline
 62
7
  6
CONTINUOUS
 70
0
 71
3
 72
9
 73
5
 74
0
 42
0.0000001
 43
0.0000001
 44
0.0000000001
 40
0.0
 40
0.0
 40
0.0
 40
0.0
 40
0.2569145822
 40
1.0
 40
1.0
 40
1.0
 40
1.0
 10
81.2198862095
 20
96.3586271289
 30
0.0
 10
81.3866883474
 20
96.6941425698
 30
0.0
 10
82.0037134111
 20
98.0151146427
 30
0.0
 10
82.4736284571
 20
99.4105412888
 30
0.0
 10
82.6921293959
 20
100.4720220989
 30
0.0
  0
SPLINE
  5
3E8
100
AcDbEntity
  8
0
100
AcDbSpline
 62
7
  6
CONTINUOUS
 70
0
 71
3
 72
9
 73
5
 74
0
 42
0.0000001
 43
0.0000001
 44
0.0000000001
 40
0.0
 40
0.0
 40
0.0
 40
0.0
 40
0.5240142703
 40
1.0
 40
1.0
 40
1.0
 40
1.0
 10
80.7868735076
 20
96.5926283147
 30
0.0
 10
80.8741615808
 20
96.5831761597
 30
0.0
 10
81.0386329596
 20
96.5334931636
 30
0.0
 10
81.1736209338
 20
96.4235869408
 30
0.0
 10
81.2198862095
 20
96.3586271289
 30
0.0
  0
SPLINE
  5
3E9
100
AcDbEntity
  8
0
100
AcDbSpline
 62
7
  6
CONTINUOUS
 70
0
 71
3
 72
9
 73
5
 74
0
 42
0.0000001
 43
0.0000001
 44
0.0000000001
 40
0.0
 40
0.0
 40
0.0
 40
0.0
 40
0.4959816868
 40
1.0
 40
1.0
 40
1.0
 40
1.0
 10
82.259116694
 20
100.7146187179
 30
0.0
 10
82.3470648502
 20
101.1347671903
 30
0.0
 10
82.5916811917
 20
101.967329469
 30
0.0
 10
82.8889523865
 20
102.7798592237
 30
0.0
 10
83.0385394959
 20
103.1896188892
 30
0.0
  0
SPLINE
  5
3EA
100
AcDbEntity
  8
0
100
AcDbSpline
 62
7
  6
CONTINUOUS
 70
0
 71
3
 72
9
 73
5
 74
0
 42
0.0000001
 43
0.0000001
 44
0.0000000001
 40
0.0
 40
0.0
 40
0.0
 40
0.0
 40
0.2637411438
 40
1.0
 40
1.0
 40
1.0
 40
1.0
 10
82.6921293959
 20
100.4720220989
 30
0.0
 10
82.7112734516
 20
100.7121503232
 30
0.0
 10
82.7992381882
 20
101.6214299769
 30
0.0
 10
82.9327538375
 20
102.5255231946
 30
0.0
 10
83.0385395574
 20
103.1896185848
 30
0.0
  0
SPLINE
  5
3EB
100
AcDbEntity
  8
0
100
AcDbSpline
 62
7
  6
CONTINUOUS
 70
0
 71
3
 72
9
 73
5
 74
0
 42
0.0000001
 43
0.0000001
 44
0.0000000001
 40
0.0
 40
0.0
 40
0.0
 40
0.0
 40
0.5109891432
 40
1.0
 40
1.0
 40
1.0
 40
1.0
 10
82.2591167256
 20
100.7146938204
 30
0.0
 10
82.3459483435
 20
100.710149532
 30
0.0
 10
82.5160585113
 20
100.6624911182
 30
0.0
 10
82.6478595095
 20
100.5424888283
 30
0.0
 10
82.6920774411
 20
100.4719992655
 30
0.0
  0
SPLINE
  5
3EC
100
AcDbEntity
  8
0
100
AcDbSpline
 62
7
  6
CONTINUOUS
 70
0
 71
3
 72
9
 73
5
 74
0
 42
0.0000001
 43
0.0000001
 44
0.0000000001
 40
0.0
 40
0.0
 40
0.0
 40
0.0
 40
0.4748419453
 40
1.0
 40
1.0
 40
1.0
 40
1.0
 10
82.6921293959
 20
105.4671040661
 30
0.0
 10
82.7331229748
 20
105.1047701592
 30
0.0
 10
82.8489675282
 20
104.3452803817
 30
0.0
 10
82.9750428981
 20
103.5878733673
 30
0.0
 10
83.0385395574
 20
103.1896187179
 30
0.0
  0
SPLINE
  5
3ED
100
AcDbEntity
  8
0
100
AcDbSpline
 62
7
  6
CONTINUOUS
 70
0
 71
3
 72
9
 73
5
 74
0
 42
0.0000001
 43
0.0000001
 44
0.0000000001
 40
0.0
 40
0.0
 40
0.0
 40
0.0
 40
0.495984777
 40
1.0
 40
1.0
 40
1.0
 40
1.0
 10
82.259116694
 20
105.6646187179
 30
0.0
 10
82.3465511211
 20
105.244361169
 30
0.0
 10
82.5921319699
 20
104.4120223172
 30
0.0
 10
82.8888374136
 20
103.599332801
 30
0.0
 10
83.0385394959
 20
103.1896188892
 30
0.0
  0
SPLINE
  5
3EE
100
AcDbEntity
  8
0
100
AcDbSpline
 62
7
  6
CONTINUOUS
 70
0
 71
3
 72
9
 73
5
 74
0
 42
0.0000001
 43
0.0000001
 44
0.0000000001
 40
0.0
 40
0.0
 40
0.0
 40
0.0
 40
0.4819069023
 40
1.0
 40
1.0
 40
1.0
 40
1.0
 10
82.6921225975
 20
105.4671003692
 30
0.0
 10
82.6480751399
 20
105.5327096816
 30
0.0
 10
82.5126159014
 20
105.6413942755
 30
0.0
 10
82.3439595279
 20
105.6690343466
 30
0.0
 10
82.259116694
 20
105.6646187179
 30
0.0
  0
SPLINE
  5
3EF
100
AcDbEntity
  8
0
100
AcDbSpline
 62
7
  6
CONTINUOUS
 70
0
 71
3
 72
9
 73
5
 74
0
 42
0.0000001
 43
0.0000001
 44
0.0000000001
 40
0.0
 40
0.0
 40
0.0
 40
0.0
 40
0.5082539833
 40
1.0
 40
1.0
 40
1.0
 40
1.0
 10
81.2198862095
 20
109.5442963839
 30
0.0
 10
81.5504868337
 20
108.8867466149
 30
0.0
 10
82.1382586934
 20
107.5597418838
 30
0.0
 10
82.5477828399
 20
106.1643970074
 30
0.0
 10
82.6921293959
 20
105.4671040661
 30
0.0
  0
SPLINE
  5
3F0
100
AcDbEntity
  8
0
100
AcDbSpline
 62
7
  6
CONTINUOUS
 70
0
 71
3
 72
9
 73
5
 74
0
 42
0.0000001
 43
0.0000001
 44
0.0000000001
 40
0.0
 40
0.0
 40
0.0
 40
0.0
 40
0.50870704
 40
1.0
 40
1.0
 40
1.0
 40
1.0
 10
80.7580300104
 20
109.785071697
 30
0.0
 10
81.0949638119
 20
109.1203442143
 30
0.0
 10
81.6942653115
 20
107.7799241615
 30
0.0
 10
82.1123640151
 20
106.3692302586
 30
0.0
 10
82.259116694
 20
105.6646187179
 30
0.0
  0
SPLINE
  5
3F1
100
AcDbEntity
  8
0
100
AcDbSpline
 62
7
  6
CONTINUOUS
 70
0
 71
3
 72
9
 73
5
 74
0
 42
0.0000001
 43
0.0000001
 44
0.0000000001
 40
0.0
 40
0.0
 40
0.0
 40
0.0
 40
0.506035505
 40
1.0
 40
1.0
 40
1.0
 40
1.0
 10
80.7868735076
 20
109.7852137134
 30
0.0
 10
80.873398131
 20
109.7860788335
 30
0.0
 10
81.0480806797
 20
109.7428584271
 30
0.0
 10
81.1768668645
 20
109.6169851274
 30
0.0
 10
81.2198862095
 20
109.5442963944
 30
0.0
  0
SPLINE
  5
3F2
100
AcDbEntity
  8
0
100
AcDbSpline
 62
7
  6
CONTINUOUS
 70
0
 71
3
 72
53
 73
49
 74
0
 42
0.0000001
 43
0.0000001
 44
0.0000000001
 40
0.0
 40
0.0
 40
0.0
 40
0.0
 40
0.0001634438
 40
0.0003668195
 40
0.0006510774
 40
0.0014615795
 40
0.0025936295
 40
0.0040459073
 40
0.0058170937
 40
0.0103101771
 40
0.0160507701
 40
0.0230086168
 40
0.0311533608
 40
0.0404519093
 40
0.0508642617
 40
0.0623496119
 40
0.0883745062
 40
0.1181841037
 40
0.1514342472
 40
0.1877860771
 40
0.2269071185
 40
0.268464217
 40
0.3121182474
 40
0.4042268691
 40
0.4999999467
 40
0.5957730124
 40
0.6878816124
 40
0.7315356445
 40
0.7730927539
 40
0.8122138311
 40
0.8485656915
 40
0.8818158632
 40
0.9116254855
 40
0.9376503943
 40
0.9491357455
 40
0.9595480962
 40
0.9688466425
 40
0.9769913845
 40
0.9839492286
 40
0.9896898174
 40
0.9941828952
 40
0.9959540813
 40
0.9974063605
 40
0.998538413
 40
0.999348918
 40
0.9996331774
 40
0.9998365543
 40
1.0
 40
1.0
 40
1.0
 40
1.0
 10
100.0575994497
 20
114.8739201138
 30
0.0
 10
100.0584022935
 20
114.8727354874
 30
0.0
 10
100.0621708105
 20
114.8724701364
 30
0.0
 10
100.0670112089
 20
114.8697600356
 30
0.0
 10
100.0777327692
 20
114.865659376
 30
0.0
 10
100.0955503225
 20
114.8579377638
 30
0.0
 10
100.1230775386
 20
114.8466210173
 30
0.0
 10
100.1582674777
 20
114.8319644095
 30
0.0
 10
100.2207104731
 20
114.8061459998
 30
0.0
 10
100.3178745475
 20
114.7660682436
 30
0.0
 10
100.4572019498
 20
114.7090993872
 30
0.0
 10
100.6263909978
 20
114.640694544
 30
0.0
 10
100.8248216294
 20
114.5615078036
 30
0.0
 10
101.0517993268
 20
114.472259089
 30
0.0
 10
101.3066070928
 20
114.3738692685
 30
0.0
 10
101.6990663685
 20
114.2254293401
 30
0.0
 10
102.2528066447
 20
114.0233689257
 30
0.0
 10
102.990399923
 20
113.7695599739
 30
0.0
 10
103.8194287151
 20
113.5041224245
 30
0.0
 10
104.7331277448
 20
113.236632433
 30
0.0
 10
105.7244378398
 20
112.976715608
 30
0.0
 10
106.7859240301
 20
112.7342729422
 30
0.0
 10
108.3109585627
 20
112.4418989466
 30
0.0
 10
110.3232552862
 20
112.1768317934
 30
0.0
 10
112.8075979386
 20
112.0652448995
 30
0.0
 10
115.2919404192
 20
112.1768315793
 30
0.0
 10
117.3042368648
 20
112.4418985842
 30
0.0
 10
118.8292714199
 20
112.7342720621
 30
0.0
 10
119.8907579928
 20
112.9767149595
 30
0.0
 10
120.8820687964
 20
113.23663174
 30
0.0
 10
121.7957686316
 20
113.5041219317
 30
0.0
 10
122.6247981226
 20
113.7695596921
 30
0.0
 10
123.3623919737
 20
114.0233687957
 30
0.0
 10
123.9161325698
 20
114.2254293626
 30
0.0
 10
124.3085919659
 20
114.3738693168
 30
0.0
 10
124.5633997124
 20
114.4722591159
 30
0.0
 10
124.7903773592
 20
114.5615078182
 30
0.0
 10
124.9888079169
 20
114.6406945812
 30
0.0
 10
125.1579968821
 20
114.709099427
 30
0.0
 10
125.2973241778
 20
114.7660682548
 30
0.0
 10
125.3944882075
 20
114.8061458942
 30
0.0
 10
125.4569311729
 20
114.8319642615
 30
0.0
 10
125.4921211568
 20
114.8466208646
 30
0.0
 10
125.5196483917
 20
114.8579376621
 30
0.0
 10
125.537466068
 20
114.8656592556
 30
0.0
 10
125.5481875733
 20
114.8697600131
 30
0.0
 10
125.5530281736
 20
114.8724700191
 30
0.0
 10
125.5567963912
 20
114.872735613
 30
0.0
 10
125.5575994497
 20
114.8739201138
 30
0.0
  0
SPLINE
  5
3F3
100
AcDbEntity
  8
0
100
AcDbSpline
 62
7
  6
CONTINUOUS
 70
0
 71
3
 72
9
 73
5
 74
0
 42
0.0000001
 43
0.0000001
 44
0.0000000001
 40
0.0
 40
0.0
 40
0.0
 40
0.0
 40
0.496623351
 40
1.0
 40
1.0
 40
1.0
 40
1.0
 10
100.1068271663
 20
118.8257341864
 30
0.0
 10
100.1803534627
 20
118.7832843343
 30
0.0
 10
100.3069799014
 20
118.6542819573
 30
0.0
 10
100.347755625
 20
118.4787481669
 30
0.0
 10
100.3455378781
 20
118.3927216677
 30
0.0
  0
LINE
  5
3F4
100
AcDbEntity
  8
0
100
AcDbLine
 62
7
  6
CONTINUOUS
 10
100.3455356561
 20
118.3927216677
 11
100.0575994493
 21
118.5654809323
  0
SPLINE
  5
3F5
100
AcDbEntity
  8
0
100
AcDbSpline
 62
7
  6
CONTINUOUS
 70
0
 71
3
 72
17
 73
13
 74
0
 42
0.0000001
 43
0.0000001
 44
0.0000000001
 40
0.0
 40
0.0
 40
0.0
 40
0.0
 40
0.1755351372
 40
0.3482022507
 40
0.5133561378
 40
0.6634547045
 40
0.7879877574
 40
0.8377494283
 40
0.8785107925
 40
0.9116954702
 40
0.9403291368
 40
1.0
 40
1.0
 40
1.0
 40
1.0
 10
100.1757943531
 20
119.5942065836
 30
0.0
 10
100.1887517251
 20
119.5448224456
 30
0.0
 10
100.2120769835
 20
119.4462094683
 30
0.0
 10
100.2380055671
 20
119.2990752389
 30
0.0
 10
100.2526020803
 20
119.1577238146
 30
0.0
 10
100.2536287827
 20
119.0296532684
 30
0.0
 10
100.2415554107
 20
118.9353905741
 30
0.0
 10
100.2217832052
 20
118.8757963094
 30
0.0
 10
100.2042053912
 20
118.8440857897
 30
0.0
 10
100.1829618753
 20
118.822362538
 30
0.0
 10
100.1492049474
 20
118.8083317175
 30
0.0
 10
100.1218526937
 20
118.8170477268
 30
0.0
 10
100.106827272
 20
118.8257343695
 30
0.0
  0
SPLINE
  5
3F6
100
AcDbEntity
  8
0
100
AcDbSpline
 62
7
  6
CONTINUOUS
 70
0
 71
3
 72
17
 73
13
 74
0
 42
0.0000001
 43
0.0000001
 44
0.0000000001
 40
0.0
 40
0.0
 40
0.0
 40
0.0
 40
0.1829115532
 40
0.3613448704
 40
0.5295324938
 40
0.6802233098
 40
0.8053830276
 40
0.8982641899
 40
0.9319597207
 40
0.9580479723
 40
0.9791928998
 40
1.0
 40
1.0
 40
1.0
 40
1.0
 10
100.6524662435
 20
119.5942065836
 30
0.0
 10
100.6524661804
 20
119.5142348281
 30
0.0
 10
100.6488758458
 20
119.3562226349
 30
0.0
 10
100.6320112068
 20
119.1252004339
 30
0.0
 10
100.6036593983
 20
118.9095138893
 30
0.0
 10
100.5649345627
 20
118.7189603526
 30
0.0
 10
100.5179889544
 20
118.5646804236
 30
0.0
 10
100.4716823267
 20
118.4636202923
 30
0.0
 10
100.4302108597
 20
118.4108976567
 30
0.0
 10
100.4017657422
 20
118.388803766
 30
0.0
 10
100.3715686514
 20
118.3816621035
 30
0.0
 10
100.3533336296
 20
118.388036543
 30
0.0
 10
100.3455356561
 20
118.3927216677
 30
0.0
  0
SPLINE
  5
3F7
100
AcDbEntity
  8
0
100
AcDbSpline
 62
7
  6
CONTINUOUS
 70
0
 71
3
 72
9
 73
5
 74
0
 42
0.0000001
 43
0.0000001
 44
0.0000000001
 40
0.0
 40
0.0
 40
0.0
 40
0.0
 40
0.5003352042
 40
1.0
 40
1.0
 40
1.0
 40
1.0
 10
100.0709397621
 20
119.9429800061
 30
0.0
 10
100.1016097254
 20
119.9260910556
 30
0.0
 10
100.1555088132
 20
119.8760280919
 30
0.0
 10
100.1758165879
 20
119.8047406205
 30
0.0
 10
100.1757943531
 20
119.7697749254
 30
0.0
  0
SPLINE
  5
3F8
100
AcDbEntity
  8
0
100
AcDbSpline
 62
7
  6
CONTINUOUS
 70
0
 71
3
 72
9
 73
5
 74
0
 42
0.0000001
 43
0.0000001
 44
0.0000000001
 40
0.0
 40
0.0
 40
0.0
 40
0.0
 40
0.4974639797
 40
1.0
 40
1.0
 40
1.0
 40
1.0
 10
100.3094539884
 20
120.375992708
 30
0.0
 10
100.4124202196
 20
120.3153546871
 30
0.0
 10
100.5896490866
 20
120.1349754303
 30
0.0
 10
100.6524630223
 20
119.8904880999
 30
0.0
 10
100.6524662435
 20
119.7697749254
 30
0.0
  0
LINE
  5
3F9
100
AcDbEntity
  8
0
100
AcDbLine
 62
7
  6
CONTINUOUS
 10
100.0185416268
 20
119.9718475196
 11
100.0709397621
 21
119.9429800061
  0
SPLINE
  5
3FA
100
AcDbEntity
  8
0
100
AcDbSpline
 62
7
  6
CONTINUOUS
 70
0
 71
3
 72
11
 73
7
 74
0
 42
0.0000001
 43
0.0000001
 44
0.0000000001
 40
0.0
 40
0.0
 40
0.0
 40
0.0
 40
0.2500322115
 40
0.5000879419
 40
0.7500760183
 40
1.0
 40
1.0
 40
1.0
 40
1.0
 10
99.3911915848
 20
121.0110780041
 30
0.0
 10
99.3912081499
 20
120.9052333117
 30
0.0
 10
99.4209242306
 20
120.6924060172
 30
0.0
 10
99.5501161919
 20
120.3981976634
 30
0.0
 10
99.7525259309
 20
120.1489313914
 30
0.0
 10
99.9258825817
 20
120.0229132013
 30
0.0
 10
100.0185416268
 20
119.9718475196
 30
0.0
  0
SPLINE
  5
3FB
100
AcDbEntity
  8
0
100
AcDbSpline
 62
7
  6
CONTINUOUS
 70
0
 71
3
 72
10
 73
6
 74
0
 42
0.0000001
 43
0.0000001
 44
0.0000000001
 40
0.0
 40
0.0
 40
0.0
 40
0.0
 40
0.2522339733
 40
0.5039026252
 40
1.0
 40
1.0
 40
1.0
 40
1.0
 10
99.8703490085
 20
121.0110780041
 30
0.0
 10
99.8703543261
 20
120.9479316738
 30
0.0
 10
99.8895889408
 20
120.8209381681
 30
0.0
 10
99.9975999471
 20
120.5921712419
 30
0.0
 10
100.1469326129
 20
120.4621183342
 30
0.0
 10
100.2571434518
 20
120.4048602215
 30
0.0
  0
SPLINE
  5
3FC
100
AcDbEntity
  8
0
100
AcDbSpline
 62
7
  6
CONTINUOUS
 70
0
 71
3
 72
12
 73
8
 74
0
 42
0.0000001
 43
0.0000001
 44
0.0000000001
 40
0.0
 40
0.0
 40
0.0
 40
0.0
 40
0.1389022919
 40
0.2378951723
 40
0.357846586
 40
0.6537582337
 40
1.0
 40
1.0
 40
1.0
 40
1.0
 10
99.0904568902
 20
126.1739201138
 30
0.0
 10
99.127712575
 20
126.1739471696
 30
0.0
 10
99.1871300255
 20
126.1328045702
 30
0.0
 10
99.2449253975
 20
126.0580206471
 30
0.0
 10
99.3123367518
 20
125.9361619252
 30
0.0
 10
99.3736666511
 20
125.7395482207
 30
0.0
 10
99.3911933575
 20
125.5667873901
 30
0.0
 10
99.3911915848
 20
125.4739201138
 30
0.0
  0
SPLINE
  5
3FD
100
AcDbEntity
  8
0
100
AcDbSpline
 62
7
  6
CONTINUOUS
 70
0
 71
3
 72
11
 73
7
 74
0
 42
0.0000001
 43
0.0000001
 44
0.0000000001
 40
0.0
 40
0.0
 40
0.0
 40
0.0
 40
0.2476384102
 40
0.4966667364
 40
0.7476475961
 40
1.0
 40
1.0
 40
1.0
 40
1.0
 10
99.0904568902
 20
126.1739201138
 30
0.0
 10
99.1542236297
 20
126.1739201138
 30
0.0
 10
99.2835528152
 20
126.2001285052
 30
0.0
 10
99.446396995
 20
126.3117897541
 30
0.0
 10
99.5550385453
 20
126.4779523608
 30
0.0
 10
99.5803548481
 20
126.6089395237
 30
0.0
 10
99.5803548387
 20
126.6739201138
 30
0.0
  0
SPLINE
  5
3FE
100
AcDbEntity
  8
0
100
AcDbSpline
 62
7
  6
CONTINUOUS
 70
0
 71
3
 72
15
 73
11
 74
0
 42
0.0000001
 43
0.0000001
 44
0.0000000001
 40
0.0
 40
0.0
 40
0.0
 40
0.0
 40
0.0424572042
 40
0.0726994685
 40
0.1100511997
 40
0.2061862843
 40
0.3292403736
 40
0.4753413592
 40
0.6396892808
 40
1.0
 40
1.0
 40
1.0
 40
1.0
 10
99.5803548387
 20
126.6739201138
 30
0.0
 10
99.5983514542
 20
126.6739681206
 30
0.0
 10
99.6274015905
 20
126.6551333189
 30
0.0
 10
99.6565283872
 20
126.6195176924
 30
0.0
 10
99.6931389173
 20
126.5599937715
 30
0.0
 10
99.7350734415
 20
126.4593447663
 30
0.0
 10
99.7794648836
 20
126.3107996164
 30
0.0
 10
99.8177558016
 20
126.1309056901
 30
0.0
 10
99.858470224
 20
125.8493806936
 30
0.0
 10
99.8703340574
 20
125.6266479401
 30
0.0
 10
99.8703490085
 20
125.4739201138
 30
0.0
  0
SPLINE
  5
3FF
100
AcDbEntity
  8
0
100
AcDbSpline
 62
7
  6
CONTINUOUS
 70
0
 71
3
 72
9
 73
5
 74
0
 42
0.0000001
 43
0.0000001
 44
0.0000000001
 40
0.0
 40
0.0
 40
0.0
 40
0.0
 40
0.1798746861
 40
1.0
 40
1.0
 40
1.0
 40
1.0
 10
102.5576168305
 20
134.3047712863
 30
0.0
 10
102.5576191924
 20
134.3054590336
 30
0.0
 10
102.5587239841
 20
134.3092774531
 30
0.0
 10
102.5625570051
 20
134.3113425552
 30
0.0
 10
102.5653386724
 20
134.3127900579
 30
0.0
  0
SPLINE
  5
400
100
AcDbEntity
  8
0
100
AcDbSpline
 62
7
  6
CONTINUOUS
 70
0
 71
3
 72
9
 73
5
 74
0
 42
0.0000001
 43
0.0000001
 44
0.0000000001
 40
0.0
 40
0.0
 40
0.0
 40
0.0
 40
0.1801285895
 40
1.0
 40
1.0
 40
1.0
 40
1.0
 10
102.5576432134
 20
133.0047706409
 30
0.0
 10
102.5576419313
 20
133.0054575032
 30
0.0
 10
102.5587215387
 20
133.0092726922
 30
0.0
 10
102.5625452709
 20
133.0113429244
 30
0.0
 10
102.5653168298
 20
133.0127894172
 30
0.0
  0
SPLINE
  5
401
100
AcDbEntity
  8
0
100
AcDbSpline
 62
7
  6
CONTINUOUS
 70
0
 71
3
 72
41
 73
37
 74
0
 42
0.0000001
 43
0.0000001
 44
0.0000000001
 40
0.0
 40
0.0
 40
0.0
 40
0.0
 40
0.0006622227
 40
0.0014860294
 40
0.0026364809
 40
0.0059118663
 40
0.0104764824
 40
0.016306098
 40
0.0233682296
 40
0.0410562102
 40
0.0632271162
 40
0.0895306468
 40
0.1195990352
 40
0.1530634203
 40
0.1895622825
 40
0.228741771
 40
0.3137350768
 40
0.4051891868
 40
0.4999999461
 40
0.5948106947
 40
0.6862647845
 40
0.7712581004
 40
0.8104376222
 40
0.8469365158
 40
0.8804009294
 40
0.9104693435
 40
0.9367728896
 40
0.9589437954
 40
0.976631772
 40
0.9836939013
 40
0.9895235126
 40
0.9940881224
 40
0.9973635081
 40
0.998513962
 40
0.9993377718
 40
1.0
 40
1.0
 40
1.0
 40
1.0
 10
99.0575994497
 20
113.8739201138
 30
0.0
 10
99.0636533745
 20
113.8724959602
 30
0.0
 10
99.0763410146
 20
113.8663562765
 30
0.0
 10
99.0997072877
 20
113.8582663391
 30
0.0
 10
99.1457594036
 20
113.8405952058
 30
0.0
 10
99.224937166
 20
113.8113207165
 30
0.0
 10
99.3452388074
 20
113.7664865464
 30
0.0
 10
99.4990922451
 20
113.7098793729
 30
0.0
 10
99.7689520801
 20
113.611633072
 30
0.0
 10
100.1840398305
 20
113.4637034313
 30
0.0
 10
100.7717017906
 20
113.2618170157
 30
0.0
 10
101.4726644742
 20
113.03206332
 30
0.0
 10
102.2788499631
 20
112.7831547609
 30
0.0
 10
103.1819307623
 20
112.5240861958
 30
0.0
 10
104.1735911365
 20
112.2643440992
 30
0.0
 10
105.6429052701
 20
111.9202286978
 30
0.0
 10
107.6347355834
 20
111.5469661806
 30
0.0
 10
110.1672200467
 20
111.2506674039
 30
0.0
 10
112.8075978244
 20
111.1455043953
 30
0.0
 10
115.4479754148
 20
111.2506672341
 30
0.0
 10
117.9804597228
 20
111.5469656718
 30
0.0
 10
119.9722902752
 20
111.9202280917
 30
0.0
 10
121.4416051477
 20
112.2643434178
 30
0.0
 10
122.4332663783
 20
112.5240857039
 30
0.0
 10
123.3363479563
 20
112.7831544666
 30
0.0
 10
124.142534083
 20
113.0320631799
 30
0.0
 10
124.8434971187
 20
113.2618170368
 30
0.0
 10
125.4311591925
 20
113.4637034472
 30
0.0
 10
125.8462468718
 20
113.611633105
 30
0.0
 10
126.1161066028
 20
113.7098793995
 30
0.0
 10
126.2699599237
 20
113.7664865426
 30
0.0
 10
126.3902615069
 20
113.811320588
 30
0.0
 10
126.4694392347
 20
113.840595084
 30
0.0
 10
126.5154914051
 20
113.8582662097
 30
0.0
 10
126.5388577529
 20
113.8663562691
 30
0.0
 10
126.5515454958
 20
113.8724958565
 30
0.0
 10
126.5575994497
 20
113.8739201138
 30
0.0
  0
SPLINE
  5
402
100
AcDbEntity
  8
0
100
AcDbSpline
 62
7
  6
CONTINUOUS
 70
0
 71
3
 72
10
 73
6
 74
0
 42
0.0000001
 43
0.0000001
 44
0.0000000001
 40
0.0
 40
0.0
 40
0.0
 40
0.0
 40
0.2500460225
 40
0.5000919939
 40
1.0
 40
1.0
 40
1.0
 40
1.0
 10
65.8075994497
 20
79.373920116
 30
0.0
 10
65.8075994497
 20
78.2625944408
 30
0.0
 10
65.8858748716
 20
76.0391006176
 30
0.0
 10
66.3450570687
 20
71.6158493801
 30
0.0
 10
67.0013902972
 20
68.3386625127
 30
0.0
 10
67.5396502573
 20
66.1830141555
 30
0.0
  0
SPLINE
  5
403
100
AcDbEntity
  8
0
100
AcDbSpline
 62
7
  6
CONTINUOUS
 70
0
 71
3
 72
10
 73
6
 74
0
 42
0.0000001
 43
0.0000001
 44
0.0000000001
 40
0.0
 40
0.0
 40
0.0
 40
0.0
 40
0.4999080253
 40
0.7499539883
 40
1.0
 40
1.0
 40
1.0
 40
1.0
 10
67.5396502573
 20
92.5648260721
 30
0.0
 10
67.0013902766
 20
90.4091776326
 30
0.0
 10
66.3450570441
 20
87.1319907173
 30
0.0
 10
65.8858748626
 20
82.7087394798
 30
0.0
 10
65.8075994498
 20
80.4852457429
 30
0.0
 10
65.8075994497
 20
79.373920116
 30
0.0
  0
SPLINE
  5
404
100
AcDbEntity
  8
0
100
AcDbSpline
 62
7
  6
CONTINUOUS
 70
0
 71
3
 72
11
 73
7
 74
0
 42
0.0000001
 43
0.0000001
 44
0.0000000001
 40
0.0
 40
0.0
 40
0.0
 40
0.0
 40
0.2590859167
 40
0.5110579182
 40
0.75719873
 40
1.0
 40
1.0
 40
1.0
 40
1.0
 10
67.5396502573
 20
109.785071697
 30
0.0
 10
67.2742589683
 20
109.2536460491
 30
0.0
 10
66.7913981551
 20
108.1841383444
 30
0.0
 10
66.2357036281
 20
106.5358463874
 30
0.0
 10
65.8871551008
 20
104.8687719846
 30
0.0
 10
65.8075994445
 20
103.7462909224
 30
0.0
 10
65.8075994445
 20
103.1896186415
 30
0.0
  0
SPLINE
  5
405
100
AcDbEntity
  8
0
100
AcDbSpline
 62
7
  6
CONTINUOUS
 70
0
 71
3
 72
11
 73
7
 74
0
 42
0.0000001
 43
0.0000001
 44
0.0000000001
 40
0.0
 40
0.0
 40
0.0
 40
0.0
 40
0.2428012833
 40
0.4889421088
 40
0.7409140918
 40
1.0
 40
1.0
 40
1.0
 40
1.0
 10
65.8075994445
 20
103.1896186415
 30
0.0
 10
65.8075994517
 20
102.6329463426
 30
0.0
 10
65.8871551316
 20
101.5104652451
 30
0.0
 10
66.2357036774
 20
99.8433908646
 30
0.0
 10
66.7913982117
 20
98.1950989841
 30
0.0
 10
67.2742589829
 20
97.1255913575
 30
0.0
 10
67.5396502573
 20
96.5941657387
 30
0.0
  0
ELLIPSE
  5
406
100
AcDbEntity
  8
0
100
AcDbEllipse
 62
7
  6
CONTINUOUS
 10
129.5755486422
 20
138.1739201138
 30
0.0
 11
0.0
 21
1.0
 31
0.0
 40
0.5773502692
 41
-0.0
 42
1.5707963268
  0
ELLIPSE
  5
407
100
AcDbEntity
  8
0
100
AcDbEllipse
 62
7
  6
CONTINUOUS
 10
125.5340967579
 20
135.6888456831
 30
0.0
 11
2.0131567266
 21
5.5311026482
 31
0.0
 40
0.5096773721
 41
-1.5707963268
 42
-0.9506573207
  0
ELLIPSE
  5
408
100
AcDbEntity
  8
0
100
AcDbEllipse
 62
7
  6
CONTINUOUS
 10
128.998198373
 20
139.1739201138
 30
0.0
 11
0.0
 21
4.0
 31
0.0
 40
0.5773502692
 41
-0.0
 42
1.5707963268
  0
ELLIPSE
  5
409
100
AcDbEntity
  8
0
100
AcDbEllipse
 62
7
  6
CONTINUOUS
 10
104.1902329581
 20
139.1739201138
 30
0.0
 11
0.0
 21
4.0
 31
0.0
 40
1.0
 41
-1.5707963268
 42
0.0
  0
ELLIPSE
  5
40A
100
AcDbEntity
  8
0
100
AcDbEllipse
 62
7
  6
CONTINUOUS
 10
123.2246956811
 20
129.3438183722
 30
0.0
 11
2.0131567266
 21
5.5311026482
 31
0.0
 40
0.5096773721
 41
-1.5707963268
 42
-0.9506573207
  0
ENDSEC
  0
SECTION
  2
OBJECTS
  0
DICTIONARY
  5
40B
100
AcDbDictionary
  3
ACAD_GROUP
350
40C
  3
ACAD_MLINESTYLE
350
40D
  0
DICTIONARY
  5
40C
102
{ACAD_REACTORS
330
40B
102
}
100
AcDbDictionary
  0
DICTIONARY
  5
40D
102
{ACAD_REACTORS
330
40B
102
}
100
AcDbDictionary
  3
STANDARD
350
40E
  0
MLINESTYLE
  5
40E
102
{ACAD_REACTORS
330
40D
102
}
100
AcDbMlineStyle
  2
STANDARD
 70
0
  3

 62
256
 51
90.0
 52
90.0
 71
2
 49
0.5
 62
256
  6
BYLAYER
 49
-0.5
 62
256
  6
BYLAYER
  0
ENDSEC
  0
EOF
