999
DXF file: C:\Users\64ciro\Desktop\FILE 3D-2D\ARMATEC\h340ll032_3077.dxf
999
Pro/ENGINEER 2017260 by Parametric Technology Corporation
  0
SECTION
  2
HEADER
  9
$ACADVER
  1
AC1014
  9
$DWGCODEPAGE
  3
ANSI_1252
  9
$EXTMAX
 10
297.0
 20
210.0
 30
0.0
  9
$EXTMIN
 10
0.0
 20
0.0
 30
0.0
  9
$LIMMIN
 10
0.0
 20
0.0
  9
$LIMMAX
 10
297.0
 20
210.0
  9
$VIEWCTR
 10
148.5
 20
105.0
  9
$VIEWSIZE
 40
210.0
  9
$CLAYER
  8
0
  9
$LTSCALE
 40
16.335
  9
$CELTYPE
  6
BYLAYER
  9
$DIMSCALE
 40
1.0
  9
$DIMASZ
 40
1.5
  9
$DIMEXO
 40
0.0625
  9
$DIMDLI
 40
11.286
  9
$DIMEXE
 40
0.125
  9
$DIMCEN
 40
2.673
  9
$DIMLFAC
 40
1.0
  9
$DIMBLK
  1
_CLOSED
  9
$DIMALT
 70
0
  9
$DIMALTF
 40
25.4
  9
$DIMTXT
 40
2.0
  9
$DIMTOL
 70
1
  9
$DIMLIM
 70
0
  9
$DIMTFAC
 40
1.0
  9
$DIMTP
 40
0.01
  9
$DIMTM
 40
0.01
  9
$DIMGAP
 40
0.625
  9
$AUNITS
 70
0
  9
$PDMODE
 70
3
  9
$PDSIZE
 40
0.3125
  9
$HANDSEED
  5
444
  9
$TILEMODE
 70
1
  9
$MEASUREMENT
 70
1
  0
ENDSEC
  0
SECTION
  2
CLASSES
  0
ENDSEC
  0
SECTION
  2
TABLES
  0
TABLE
  2
VPORT
  5
8
100
AcDbSymbolTable
 70
2
  0
VPORT
  5
1F4
100
AcDbSymbolTableRecord
100
AcDbViewportTableRecord
  2
*ACTIVE
 70
0
 10
0.0
 20
0.0
 11
1.0
 21
1.0
 12
148.5
 22
105.0
 13
0.0
 23
0.0
 14
1.0
 24
1.0
 15
0.0
 25
0.0
 16
0.0
 26
0.0
 36
1.0
 17
0.0
 27
0.0
 37
0.0
 40
210.0
 41
1.4142857143
 42
50.0
 43
0.0
 44
0.0
 50
0.0
 51
0.0
 71
0
 72
100
 73
1
 74
1
 75
0
 76
0
 77
0
 78
0
  0
ENDTAB
  0
TABLE
  2
LTYPE
  5
5
100
AcDbSymbolTable
 70
6
  0
LTYPE
  5
14
100
AcDbSymbolTableRecord
100
AcDbLinetypeTableRecord
  2
BYBLOCK
 70
0
  3

 72
65
 73
0
 40
0.0
  0
LTYPE
  5
15
100
AcDbSymbolTableRecord
100
AcDbLinetypeTableRecord
  2
BYLAYER
 70
0
  3

 72
65
 73
0
 40
0.0
  0
LTYPE
  5
16
100
AcDbSymbolTableRecord
100
AcDbLinetypeTableRecord
  2
CONTINUOUS
 70
64
  3
Solid line
 72
65
 73
0
 40
0.0
  0
LTYPE
  5
1F5
100
AcDbSymbolTableRecord
100
AcDbLinetypeTableRecord
  2
CENTER
 70
64
  3
____ _ ____ _ ____ _ ____ _ ____ _ ____ _ ____
 72
65
 73
4
 40
0.6
 49
0.375
 74
0
 49
-0.075
 74
0
 49
0.075
 74
0
 49
-0.075
 74
0
  0
LTYPE
  5
1F6
100
AcDbSymbolTableRecord
100
AcDbLinetypeTableRecord
  2
HIDDEN
 70
64
  3
- - - - - - - - - - - - - - - - - - - -
 72
65
 73
2
 40
0.2
 49
0.1
 74
0
 49
-0.1
 74
0
  0
LTYPE
  5
1F7
100
AcDbSymbolTableRecord
100
AcDbLinetypeTableRecord
  2
PHANTOM
 70
64
  3
_____ _ _ _____ _ _ _____ _ _ _____
 72
65
 73
6
 40
0.8
 49
0.45
 74
0
 49
-0.05
 74
0
 49
0.1
 74
0
 49
-0.05
 74
0
 49
0.1
 74
0
 49
-0.05
 74
0
  0
LTYPE
  5
1F8
100
AcDbSymbolTableRecord
100
AcDbLinetypeTableRecord
  2
DOT
 70
64
  3
. . . . . . . . . . . . . . . . . . . .
 72
65
 73
2
 40
0.2
 49
0.1
 74
0
 49
-0.1
 74
0
  0
LTYPE
  5
1F9
100
AcDbSymbolTableRecord
100
AcDbLinetypeTableRecord
  2
DASHED
 70
64
  3
- - - - - - - - - - - - - - - - - - - -
 72
65
 73
2
 40
0.2
 49
0.1
 74
0
 49
-0.1
 74
0
  0
ENDTAB
  0
TABLE
  2
LAYER
  5
2
100
AcDbSymbolTable
 70
36
  0
LAYER
  5
10
100
AcDbSymbolTableRecord
100
AcDbLayerTableRecord
  2
0
 70
0
 62
7
  6
CONTINUOUS
  0
LAYER
  5
1FA
100
AcDbSymbolTableRecord
100
AcDbLayerTableRecord
  2
DEFAULT_1
 70
0
 62
7
  6
CENTER
  0
LAYER
  5
1FB
100
AcDbSymbolTableRecord
100
AcDbLayerTableRecord
  2
DEFAULT_2
 70
0
 62
8
  6
HIDDEN
  0
LAYER
  5
1FC
100
AcDbSymbolTableRecord
100
AcDbLayerTableRecord
  2
DEFAULT_3
 70
0
 62
7
  6
PHANTOM
  0
LAYER
  5
1FD
100
AcDbSymbolTableRecord
100
AcDbLayerTableRecord
  2
ASSI
 70
0
 62
7
  6
CONTINUOUS
  0
LAYER
  5
1FE
100
AcDbSymbolTableRecord
100
AcDbLayerTableRecord
  2
COSMETICA
 70
0
 62
7
  6
CONTINUOUS
  0
LAYER
  5
1FF
100
AcDbSymbolTableRecord
100
AcDbLayerTableRecord
  2
CURVE
 70
0
 62
7
  6
CONTINUOUS
  0
LAYER
  5
200
100
AcDbSymbolTableRecord
100
AcDbLayerTableRecord
  2
DETTAGLI
 70
0
 62
7
  6
CONTINUOUS
  0
LAYER
  5
201
100
AcDbSymbolTableRecord
100
AcDbLayerTableRecord
  2
GEOM
 70
0
 62
7
  6
CONTINUOUS
  0
LAYER
  5
202
100
AcDbSymbolTableRecord
100
AcDbLayerTableRecord
  2
GEOMETRIA_SOLIDA
 70
0
 62
7
  6
CONTINUOUS
  0
LAYER
  5
203
100
AcDbSymbolTableRecord
100
AcDbLayerTableRecord
  2
LAY0001
 70
0
 62
7
  6
CONTINUOUS
  0
LAYER
  5
204
100
AcDbSymbolTableRecord
100
AcDbLayerTableRecord
  2
LAY0002
 70
0
 62
7
  6
CONTINUOUS
  0
LAYER
  5
205
100
AcDbSymbolTableRecord
100
AcDbLayerTableRecord
  2
NOGEOM
 70
0
 62
7
  6
CONTINUOUS
  0
LAYER
  5
206
100
AcDbSymbolTableRecord
100
AcDbLayerTableRecord
  2
PIANI
 70
0
 62
7
  6
CONTINUOUS
  0
LAYER
  5
207
100
AcDbSymbolTableRecord
100
AcDbLayerTableRecord
  2
PIANI-OFFSET
 70
0
 62
7
  6
CONTINUOUS
  0
LAYER
  5
208
100
AcDbSymbolTableRecord
100
AcDbLayerTableRecord
  2
QUOTE
 70
0
 62
7
  6
CONTINUOUS
  0
LAYER
  5
209
100
AcDbSymbolTableRecord
100
AcDbLayerTableRecord
  2
RIF
 70
0
 62
7
  6
CONTINUOUS
  0
LAYER
  5
20A
100
AcDbSymbolTableRecord
100
AcDbLayerTableRecord
  2
SKETCH
 70
0
 62
7
  6
CONTINUOUS
  0
LAYER
  5
20B
100
AcDbSymbolTableRecord
100
AcDbLayerTableRecord
  2
TABELLE
 70
0
 62
7
  6
CONTINUOUS
  0
ENDTAB
  0
TABLE
  2
STYLE
  5
3
100
AcDbSymbolTable
 70
1
  0
STYLE
  5
11
100
AcDbSymbolTableRecord
100
AcDbTextStyleTableRecord
  2
STANDARD
 70
0
 40
0.0
 41
0.8
 50
0.0
 71
0
 42
0.2
  3
txt
  4

  0
STYLE
  5
20C
100
AcDbSymbolTableRecord
100
AcDbTextStyleTableRecord
  2
TEXTSTYLE_1
 70
0
 40
0.0
 41
0.8
 50
0.0
 71
0
 42
0.2
  3
gdt
  4

  0
ENDTAB
  0
TABLE
  2
VIEW
  5
6
100
AcDbSymbolTable
 70
0
  0
ENDTAB
  0
TABLE
  2
UCS
  5
7
100
AcDbSymbolTable
 70
0
  0
ENDTAB
  0
TABLE
  2
APPID
  5
9
100
AcDbSymbolTable
 70
1
  0
APPID
  5
20D
100
AcDbSymbolTableRecord
100
AcDbRegAppTableRecord
  2
ACAD
 70
0
  0
ENDTAB
  0
TABLE
  2
BLOCK_RECORD
  5
1
100
AcDbSymbolTable
 70
0
  0
BLOCK_RECORD
  5
1F
100
AcDbSymbolTableRecord
100
AcDbBlockTableRecord
  2
*MODEL_SPACE
  0
BLOCK_RECORD
  5
1B
100
AcDbSymbolTableRecord
100
AcDbBlockTableRecord
  2
*PAPER_SPACE
  0
ENDTAB
  0
TABLE
  2
DIMSTYLE
  5
A
100
AcDbSymbolTable
 70
1
  0
DIMSTYLE
105
20E
100
AcDbSymbolTableRecord
100
AcDbDimStyleTableRecord
  2
STANDARD
 70
0
  3

  4

  5
_CLOSED
  6
_CLOSED
  7
_CLOSED
 40
1.0
 41
1.5
 42
0.0625
 43
0.38
 44
0.125
 45
0.0
 46
0.0
 47
0.01
 48
0.01
140
2.0
141
0.09
142
0.0
143
25.4
144
1.0
145
0.0
146
1.0
147
0.625
 71
1.0
 72
0.0
 73
0
 74
0
 75
0
 76
0
 77
1
 78
8
 79
2
170
0
171
1
172
0
173
0
174
0
175
0
176
0
177
0
178
0
270
2
179
2
271
2
272
2
273
2
274
2
275
0
280
0
281
0
282
0
283
1
284
8
285
0
286
0
287
3
288
0
340
11
  0
ENDTAB
  0
ENDSEC
  0
SECTION
  2
BLOCKS
  0
BLOCK
  5
20
100
AcDbEntity
  8
0
100
AcDbBlockBegin
  2
*MODEL_SPACE
 70
0
 10
0.0
 20
0.0
 30
0.0
  3
*MODEL_SPACE
  1

  0
ENDBLK
  5
21
100
AcDbEntity
  8
0
100
AcDbBlockEnd
  0
BLOCK
  5
1C
100
AcDbEntity
  8
0
100
AcDbBlockBegin
  2
*PAPER_SPACE
 70
0
 10
0.0
 20
0.0
 30
0.0
  3
*PAPER_SPACE
  1

  0
ENDBLK
  5
1D
100
AcDbEntity
  8
0
100
AcDbBlockEnd
  0
ENDSEC
  0
SECTION
  2
ENTITIES
  0
LINE
  5
20F
100
AcDbEntity
  8
0
100
AcDbLine
 62
7
  6
CONTINUOUS
 10
0.0
 20
0.0
 11
0.0
 21
210.0
  0
LINE
  5
210
100
AcDbEntity
  8
0
100
AcDbLine
 62
7
  6
CONTINUOUS
 10
0.0
 20
0.0
 11
297.0
 21
0.0
  0
LINE
  5
211
100
AcDbEntity
  8
0
100
AcDbLine
 62
7
  6
CONTINUOUS
 10
0.0
 20
210.0
 11
297.0
 21
210.0
  0
LINE
  5
212
100
AcDbEntity
  8
0
100
AcDbLine
 62
7
  6
CONTINUOUS
 10
297.0
 20
0.0
 11
297.0
 21
210.0
  0
LINE
  5
213
100
AcDbEntity
  8
0
100
AcDbLine
 62
7
  6
CONTINUOUS
 10
76.6622783328
 20
67.0738726533
 11
77.8169788712
 21
65.0738726533
  0
LINE
  5
214
100
AcDbEntity
  8
0
100
AcDbLine
 62
7
  6
CONTINUOUS
 10
76.6622783328
 20
67.0738726533
 11
76.6622783328
 21
115.0738726533
  0
LINE
  5
215
100
AcDbEntity
  8
0
100
AcDbLine
 62
7
  6
CONTINUOUS
 10
77.8169788712
 20
65.0738726533
 11
77.8169788712
 21
65.2892629625
  0
LINE
  5
216
100
AcDbEntity
  8
0
100
AcDbLine
 62
7
  6
CONTINUOUS
 10
77.8169788712
 20
75.2892629625
 11
77.8169788712
 21
81.0738726533
  0
LINE
  5
217
100
AcDbEntity
  8
0
100
AcDbLine
 62
7
  6
CONTINUOUS
 10
77.8169788712
 20
101.0738726533
 11
77.8169788712
 21
106.8584823441
  0
LINE
  5
218
100
AcDbEntity
  8
0
100
AcDbLine
 62
7
  6
CONTINUOUS
 10
77.8169788712
 20
116.8584823441
 11
77.8169788712
 21
117.0738726533
  0
LINE
  5
219
100
AcDbEntity
  8
0
100
AcDbLine
 62
7
  6
CONTINUOUS
 10
79.7022783328
 20
91.9438726533
 11
79.7022783328
 21
90.1838726533
  0
LINE
  5
21A
100
AcDbEntity
  8
0
100
AcDbLine
 62
7
  6
CONTINUOUS
 10
80.4722783328
 20
90.1838726533
 11
80.4722783328
 21
91.9438726533
  0
LINE
  5
21B
100
AcDbEntity
  8
0
100
AcDbLine
 62
7
  6
CONTINUOUS
 10
83.2702208334
 20
93.5938726533
 11
83.2702208334
 21
88.5338726533
  0
LINE
  5
21C
100
AcDbEntity
  8
0
100
AcDbLine
 62
7
  6
CONTINUOUS
 10
84.0402208334
 20
87.7638726533
 11
84.0402208334
 21
90.6350170348
  0
LINE
  5
21D
100
AcDbEntity
  8
0
100
AcDbLine
 62
7
  6
CONTINUOUS
 10
84.0402208334
 20
91.3938726533
 11
84.0402208334
 21
93.5938726533
  0
LINE
  5
21E
100
AcDbEntity
  8
0
100
AcDbLine
 62
7
  6
CONTINUOUS
 10
76.6622783328
 20
115.0738726533
 11
77.8169788712
 21
117.0738726533
  0
LINE
  5
21F
100
AcDbEntity
  8
0
100
AcDbLine
 62
7
  6
CONTINUOUS
 10
98.9551715516
 20
67.7809794345
 11
103.369385114
 21
63.3667658721
  0
LINE
  5
220
100
AcDbEntity
  8
0
100
AcDbLine
 62
7
  6
CONTINUOUS
 10
85.1881633339
 20
90.6350170348
 11
86.9822534628
 21
87.7638726533
  0
LINE
  5
221
100
AcDbEntity
  8
0
100
AcDbLine
 62
7
  6
CONTINUOUS
 10
87.8902208334
 20
87.7638726533
 11
86.0961307045
 21
90.6350170348
  0
LINE
  5
222
100
AcDbEntity
  8
0
100
AcDbLine
 62
7
  6
CONTINUOUS
 10
90.3528772561
 20
106.8563431019
 11
90.3528772561
 21
101.0763577467
  0
LINE
  5
223
100
AcDbEntity
  8
0
100
AcDbLine
 62
7
  6
CONTINUOUS
 10
90.3528772561
 20
81.0713875423
 11
90.3528772561
 21
75.2914022072
  0
LINE
  5
224
100
AcDbEntity
  8
0
100
AcDbLine
 62
7
  6
CONTINUOUS
 10
90.3528772561
 20
65.0738726533
 11
90.3528772561
 21
65.2889172545
  0
LINE
  5
225
100
AcDbEntity
  8
0
100
AcDbLine
 62
7
  6
CONTINUOUS
 10
90.3528772561
 20
116.8588280397
 11
90.3528772561
 21
117.0738726533
  0
LINE
  5
226
100
AcDbEntity
  8
0
100
AcDbLine
 62
7
  6
CONTINUOUS
 10
91.2189026598
 20
116.5738726533
 11
91.2189026598
 21
116.3877873941
  0
LINE
  5
227
100
AcDbEntity
  8
0
100
AcDbLine
 62
7
  6
CONTINUOUS
 10
91.2189026598
 20
106.3938697171
 11
91.2189026598
 21
101.0677890296
  0
LINE
  5
228
100
AcDbEntity
  8
0
100
AcDbLine
 62
7
  6
CONTINUOUS
 10
91.2189026598
 20
81.079956364
 11
91.2189026598
 21
75.7538755903
  0
LINE
  5
229
100
AcDbEntity
  8
0
100
AcDbLine
 62
7
  6
CONTINUOUS
 10
91.2189026598
 20
65.759957974
 11
91.2189026598
 21
65.5738726533
  0
LINE
  5
22A
100
AcDbEntity
  8
0
100
AcDbLine
 62
7
  6
CONTINUOUS
 10
92.3736031982
 20
114.5738726533
 11
92.3736031982
 21
67.5738726533
  0
LINE
  5
22B
100
AcDbEntity
  8
0
100
AcDbLine
 62
7
  6
CONTINUOUS
 10
93.239628602
 20
114.0738726533
 11
93.239628602
 21
68.0738726533
  0
LINE
  5
22C
100
AcDbEntity
  8
0
100
AcDbLine
 62
7
  6
CONTINUOUS
 10
98.2480647704
 20
114.0738726533
 11
98.2480647704
 21
68.0738726533
  0
LINE
  5
22D
100
AcDbEntity
  8
0
100
AcDbLine
 62
7
  6
CONTINUOUS
 10
98.9551715516
 20
114.3667658721
 11
98.9551715516
 21
67.7809794345
  0
LINE
  5
22E
100
AcDbEntity
  8
0
100
AcDbLine
 62
7
  6
CONTINUOUS
 10
102.1622783328
 20
124.3738726533
 11
102.1622783328
 21
139.3738726533
  0
LINE
  5
22F
100
AcDbEntity
  8
0
100
AcDbLine
 62
7
  6
CONTINUOUS
 10
102.3622783328
 20
125.6893427071
 11
102.3622783328
 21
129.5738726533
  0
LINE
  5
230
100
AcDbEntity
  8
0
100
AcDbLine
 62
7
  6
CONTINUOUS
 10
102.1622783328
 20
137.9878343093
 11
103.4547799986
 21
139.3738726533
  0
LINE
  5
231
100
AcDbEntity
  8
0
100
AcDbLine
 62
7
  6
CONTINUOUS
 10
91.2189026598
 20
116.5738726533
 11
92.3736031982
 21
114.5738726533
  0
LINE
  5
232
100
AcDbEntity
  8
0
100
AcDbLine
 62
7
  6
CONTINUOUS
 10
103.369385114
 20
63.3667658721
 11
103.369385114
 21
118.7809794345
  0
LINE
  5
233
100
AcDbEntity
  8
0
100
AcDbLine
 62
7
  6
CONTINUOUS
 10
104.0764918952
 20
63.0738726533
 11
104.0764918952
 21
119.0738726533
  0
LINE
  5
234
100
AcDbEntity
  8
0
100
AcDbLine
 62
7
  6
CONTINUOUS
 10
105.1622783328
 20
129.5738726533
 11
105.1622783328
 21
138.8738726533
  0
LINE
  5
235
100
AcDbEntity
  8
0
100
AcDbLine
 62
7
  6
CONTINUOUS
 10
105.8622783328
 20
133.2738726533
 11
105.8622783328
 21
130.3738726533
  0
LINE
  5
236
100
AcDbEntity
  8
0
100
AcDbLine
 62
7
  6
CONTINUOUS
 10
106.1622783328
 20
129.8667658721
 11
106.1622783328
 21
129.7738726533
  0
LINE
  5
237
100
AcDbEntity
  8
0
100
AcDbLine
 62
7
  6
CONTINUOUS
 10
106.2925957248
 20
129.3738726533
 11
106.2925957248
 21
123.5955604898
  0
LINE
  5
238
100
AcDbEntity
  8
0
100
AcDbLine
 62
7
  6
CONTINUOUS
 10
106.4866971999
 20
129.3738726533
 11
106.4866971999
 21
123.5955604898
  0
LINE
  5
239
100
AcDbEntity
  8
0
100
AcDbLine
 62
7
  6
CONTINUOUS
 10
106.9122783328
 20
122.5851975187
 11
106.9122783328
 21
120.0738726533
  0
LINE
  5
23A
100
AcDbEntity
  8
0
100
AcDbLine
 62
7
  6
CONTINUOUS
 10
108.9622784124
 20
133.684873536
 11
108.9622784124
 21
133.5738726533
  0
LWPOLYLINE
  5
23B
100
AcDbEntity
  8
0
100
AcDbPolyline
 62
7
  6
CONTINUOUS
 90
16
 70
0
 10
106.9122909479
 20
120.0738730482
 10
106.9119725166
 20
120.0486302126
 10
106.9031808492
 20
119.9391901223
 10
106.8824445458
 20
119.8313735424
 10
106.8500136003
 20
119.7264801425
 10
106.8062789819
 20
119.6257743551
 10
106.7517679183
 20
119.5304701221
 10
106.6871375343
 20
119.4417162593
 10
106.6131669336
 20
119.3605826192
 10
106.5307478045
 20
119.2880471927
 10
106.4408736788
 20
119.2249843267
 10
106.3446279547
 20
119.1721541798
 10
106.2431708174
 20
119.1301935503
 10
106.1377252783
 20
119.0996082153
 10
106.0295624436
 20
119.0807668287
 10
105.9122790817
 20
119.0738668667
  0
LINE
  5
23C
100
AcDbEntity
  8
0
100
AcDbLine
 62
7
  6
CONTINUOUS
 10
106.1622783328
 20
133.5738726533
 11
105.8622783328
 21
133.2738726533
  0
LINE
  5
23D
100
AcDbEntity
  8
0
100
AcDbLine
 62
7
  6
CONTINUOUS
 10
111.6622783328
 20
139.0738726533
 11
111.9622783328
 21
139.3738726533
  0
LINE
  5
23E
100
AcDbEntity
  8
0
100
AcDbLine
 62
7
  6
CONTINUOUS
 10
108.8622783328
 20
134.5738726533
 11
108.3118636914
 21
134.0234580119
  0
LINE
  5
23F
100
AcDbEntity
  8
0
100
AcDbLine
 62
7
  6
CONTINUOUS
 10
113.1622783328
 20
144.7285731917
 11
111.4622783328
 21
143.747077734
  0
LINE
  5
240
100
AcDbEntity
  8
0
100
AcDbLine
 62
7
  6
CONTINUOUS
 10
129.4551715516
 20
62.7809794345
 11
129.869385114
 21
62.3667658721
  0
LINE
  5
241
100
AcDbEntity
  8
0
100
AcDbLine
 62
7
  6
CONTINUOUS
 10
112.1932542239
 20
92.1338726533
 11
113.5662054293
 21
89.4393041939
  0
LINE
  5
242
100
AcDbEntity
  8
0
100
AcDbLine
 62
7
  6
CONTINUOUS
 10
112.9227662784
 20
92.1338726533
 11
113.9309614566
 21
90.1551782049
  0
LINE
  5
243
100
AcDbEntity
  8
0
100
AcDbLine
 62
7
  6
CONTINUOUS
 10
110.1622783328
 20
134.5738726533
 11
110.1622783328
 21
138.0738726515
  0
LINE
  5
244
100
AcDbEntity
  8
0
100
AcDbLine
 62
7
  6
CONTINUOUS
 10
110.3081763666
 20
137.4965223841
 11
110.3081763666
 21
134.5738726533
  0
LINE
  5
245
100
AcDbEntity
  8
0
100
AcDbLine
 62
7
  6
CONTINUOUS
 10
110.6332542239
 20
94.9938726533
 11
110.6332542239
 21
87.1938726533
  0
LINE
  5
246
100
AcDbEntity
  8
0
100
AcDbLine
 62
7
  6
CONTINUOUS
 10
111.1622783328
 20
143.2274624918
 11
111.1622783328
 21
142.5738726533
  0
LINE
  5
247
100
AcDbEntity
  8
0
100
AcDbLine
 62
7
  6
CONTINUOUS
 10
111.2832542239
 20
94.3438726533
 11
111.2832542239
 21
87.8438726533
  0
LINE
  5
248
100
AcDbEntity
  8
0
100
AcDbLine
 62
7
  6
CONTINUOUS
 10
111.6622783328
 20
139.0738726554
 11
111.6622783328
 21
138.0738726533
  0
LINE
  5
249
100
AcDbEntity
  8
0
100
AcDbLine
 62
7
  6
CONTINUOUS
 10
113.1622783328
 20
144.3713076018
 11
113.1622783328
 21
147.5738726533
  0
LINE
  5
24A
100
AcDbEntity
  8
0
100
AcDbLine
 62
7
  6
CONTINUOUS
 10
113.4946593095
 20
139.3738726533
 11
113.4946593095
 21
137.9878343093
  0
LINE
  5
24B
100
AcDbEntity
  8
0
100
AcDbLine
 62
7
  6
CONTINUOUS
 10
115.3081763666
 20
142.5738726533
 11
115.29018086
 21
142.3738726533
  0
LINE
  5
24C
100
AcDbEntity
  8
0
100
AcDbLine
 62
7
  6
CONTINUOUS
 10
117.1622783328
 20
142.5738726533
 11
117.1107917734
 21
142.3738726533
  0
LINE
  5
24D
100
AcDbEntity
  8
0
100
AcDbLine
 62
7
  6
CONTINUOUS
 10
119.0163802991
 20
142.5738726533
 11
118.9364425499
 21
142.3738726533
  0
LINE
  5
24E
100
AcDbEntity
  8
0
100
AcDbLine
 62
7
  6
CONTINUOUS
 10
123.1622783328
 20
142.5738726533
 11
123.0620536789
 21
142.3738726533
  0
LINE
  5
24F
100
AcDbEntity
  8
0
100
AcDbLine
 62
7
  6
CONTINUOUS
 10
120.6889898466
 20
142.5738726533
 11
120.5884257715
 21
142.3738726533
  0
LINE
  5
250
100
AcDbEntity
  8
0
100
AcDbLine
 62
7
  6
CONTINUOUS
 10
122.8686174306
 20
142.5738726533
 11
122.7573878985
 21
142.3738726533
  0
LINE
  5
251
100
AcDbEntity
  8
0
100
AcDbLine
 62
7
  6
CONTINUOUS
 10
122.0163802991
 20
142.5738726533
 11
121.9050338105
 21
142.3738726533
  0
LINE
  5
252
100
AcDbEntity
  8
0
100
AcDbLine
 62
7
  6
CONTINUOUS
 10
140.6231787016
 20
62.0738726533
 11
139.1622783328
 21
62.0738726533
  0
LINE
  5
253
100
AcDbEntity
  8
0
100
AcDbLine
 62
7
  6
CONTINUOUS
 10
130.5764918952
 20
62.0738726533
 11
138.9622783328
 21
62.0738726533
  0
LINE
  5
254
100
AcDbEntity
  8
0
100
AcDbLine
 62
7
  6
CONTINUOUS
 10
104.0764918952
 20
63.0738726533
 11
128.7480647704
 21
63.0738726533
  0
LINE
  5
255
100
AcDbEntity
  8
0
100
AcDbLine
 62
7
  6
CONTINUOUS
 10
156.5075777944
 20
65.0738726533
 11
142.6625389799
 21
65.0738726533
  0
LINE
  5
256
100
AcDbEntity
  8
0
100
AcDbLine
 62
7
  6
CONTINUOUS
 10
90.3528772561
 20
65.0738726533
 11
77.8169788712
 21
65.0738726533
  0
LINE
  5
257
100
AcDbEntity
  8
0
100
AcDbLine
 62
7
  6
CONTINUOUS
 10
156.5075777944
 20
65.2892629625
 11
142.6730777153
 21
65.2892629625
  0
LINE
  5
258
100
AcDbEntity
  8
0
100
AcDbLine
 62
7
  6
CONTINUOUS
 10
90.3067628998
 20
65.2892629625
 11
77.8169788712
 21
65.2892629625
  0
LINE
  5
259
100
AcDbEntity
  8
0
100
AcDbLine
 62
7
  6
CONTINUOUS
 10
113.6355668191
 20
142.5738726533
 11
113.652823891
 21
142.3738726533
  0
LINE
  5
25A
100
AcDbEntity
  8
0
100
AcDbLine
 62
7
  6
CONTINUOUS
 10
117.1622783328
 20
93.4338726533
 11
117.1622783328
 21
92.7838726533
  0
LINE
  5
25B
100
AcDbEntity
  8
0
100
AcDbLine
 62
7
  6
CONTINUOUS
 10
117.1622783328
 20
92.1338726533
 11
117.1622783328
 21
88.8238726533
  0
LINE
  5
25C
100
AcDbEntity
  8
0
100
AcDbLine
 62
7
  6
CONTINUOUS
 10
117.1622783328
 20
144.3713076018
 11
117.1622783328
 21
147.2166070634
  0
LINE
  5
25D
100
AcDbEntity
  8
0
100
AcDbLine
 62
7
  6
CONTINUOUS
 10
117.8122783328
 20
93.4338726533
 11
117.8122783328
 21
92.7838726533
  0
LINE
  5
25E
100
AcDbEntity
  8
0
100
AcDbLine
 62
7
  6
CONTINUOUS
 10
117.8122783328
 20
92.1338726533
 11
117.8122783328
 21
88.8238726533
  0
LINE
  5
25F
100
AcDbEntity
  8
0
100
AcDbLine
 62
7
  6
CONTINUOUS
 10
118.7222783328
 20
92.1338726533
 11
118.7222783328
 21
91.0738726533
  0
LINE
  5
260
100
AcDbEntity
  8
0
100
AcDbLine
 62
7
  6
CONTINUOUS
 10
118.7222783328
 20
88.9938726533
 11
118.7222783328
 21
88.8238726533
  0
LINE
  5
261
100
AcDbEntity
  8
0
100
AcDbLine
 62
7
  6
CONTINUOUS
 10
119.3722783328
 20
92.1338726533
 11
119.3722783328
 21
91.0738726533
  0
LINE
  5
262
100
AcDbEntity
  8
0
100
AcDbLine
 62
7
  6
CONTINUOUS
 10
119.6622783328
 20
124.3738726533
 11
119.6622783328
 21
131.3738726533
  0
LINE
  5
263
100
AcDbEntity
  8
0
100
AcDbLine
 62
7
  6
CONTINUOUS
 10
121.1622783328
 20
144.3713076018
 11
121.1622783328
 21
147.5738726533
  0
LINE
  5
264
100
AcDbEntity
  8
0
100
AcDbLine
 62
7
  6
CONTINUOUS
 10
121.1922783328
 20
91.7438726533
 11
121.1922783328
 21
91.0738726533
  0
LINE
  5
265
100
AcDbEntity
  8
0
100
AcDbLine
 62
7
  6
CONTINUOUS
 10
121.8422783328
 20
91.7438726533
 11
121.8422783328
 21
90.8790368803
  0
LINE
  5
266
100
AcDbEntity
  8
0
100
AcDbLine
 62
7
  6
CONTINUOUS
 10
98.9551715516
 20
114.3667658721
 11
103.369385114
 21
118.7809794345
  0
LINE
  5
267
100
AcDbEntity
  8
0
100
AcDbLine
 62
7
  6
CONTINUOUS
 10
151.0049190199
 20
160.202299778
 11
133.469385114
 21
142.6667658721
  0
LINE
  5
268
100
AcDbEntity
  8
0
100
AcDbLine
 62
7
  6
CONTINUOUS
 10
93.239628602
 20
68.0738726533
 11
98.2480647704
 21
68.0738726533
  0
LINE
  5
269
100
AcDbEntity
  8
0
100
AcDbLine
 62
7
  6
CONTINUOUS
 10
132.7622783328
 20
79.1272603482
 11
135.4973767902
 21
78.377552268
  0
LINE
  5
26A
100
AcDbEntity
  8
0
100
AcDbLine
 62
7
  6
CONTINUOUS
 10
133.3531812335
 20
79.2952983159
 11
135.9622783328
 21
78.5714423055
  0
LINE
  5
26B
100
AcDbEntity
  8
0
100
AcDbLine
 62
7
  6
CONTINUOUS
 10
132.7622783328
 20
81.034768855
 11
135.9622783328
 21
80.0413131971
  0
LINE
  5
26C
100
AcDbEntity
  8
0
100
AcDbLine
 62
7
  6
CONTINUOUS
 10
112.3081763666
 20
142.5738726533
 11
112.3589967745
 21
142.3738726533
  0
LINE
  5
26D
100
AcDbEntity
  8
0
100
AcDbLine
 62
7
  6
CONTINUOUS
 10
122.9832542239
 20
94.3438726533
 11
122.9832542239
 21
87.8438726533
  0
LINE
  5
26E
100
AcDbEntity
  8
0
100
AcDbLine
 62
7
  6
CONTINUOUS
 10
123.1622783328
 20
143.2274624918
 11
123.1622783328
 21
142.5738726533
  0
LINE
  5
26F
100
AcDbEntity
  8
0
100
AcDbLine
 62
7
  6
CONTINUOUS
 10
123.6332542239
 20
94.9938726533
 11
123.6332542239
 21
87.1938726533
  0
LINE
  5
270
100
AcDbEntity
  8
0
100
AcDbLine
 62
7
  6
CONTINUOUS
 10
127.4122783328
 20
122.5851975187
 11
127.4122783328
 21
120.0738726533
  0
LINE
  5
271
100
AcDbEntity
  8
0
100
AcDbLine
 62
7
  6
CONTINUOUS
 10
128.1622783328
 20
129.8667658721
 11
128.1622783328
 21
123.5955604898
  0
LINE
  5
272
100
AcDbEntity
  8
0
100
AcDbLine
 62
7
  6
CONTINUOUS
 10
128.4622783328
 20
130.693070718
 11
128.4622783328
 21
130.3738726533
  0
LINE
  5
273
100
AcDbEntity
  8
0
100
AcDbLine
 62
7
  6
CONTINUOUS
 10
131.1622783328
 20
138.1112597506
 11
126.1622783328
 21
124.3738726533
  0
LINE
  5
274
100
AcDbEntity
  8
0
100
AcDbLine
 62
7
  6
CONTINUOUS
 10
91.2189026598
 20
65.5738726533
 11
92.3736031982
 21
67.5738726533
  0
LINE
  5
275
100
AcDbEntity
  8
0
100
AcDbLine
 62
7
  6
CONTINUOUS
 10
135.5907054576
 20
140.5454455285
 11
152.8333461447
 21
157.7880862157
  0
LINE
  5
276
100
AcDbEntity
  8
0
100
AcDbLine
 62
7
  6
CONTINUOUS
 10
128.4622783328
 20
130.3738726533
 11
128.3087249422
 21
130.2203192627
  0
LINE
  5
277
100
AcDbEntity
  8
0
100
AcDbLine
 62
7
  6
CONTINUOUS
 10
156.5075777944
 20
75.2892629625
 11
142.6730777153
 21
75.2892629625
  0
LINE
  5
278
100
AcDbEntity
  8
0
100
AcDbLine
 62
7
  6
CONTINUOUS
 10
90.3067628998
 20
75.2892629625
 11
77.8169788712
 21
75.2892629625
  0
LINE
  5
279
100
AcDbEntity
  8
0
100
AcDbLine
 62
7
  6
CONTINUOUS
 10
132.7622783328
 20
77.0738726634
 11
135.9622783328
 21
77.0738726634
  0
LINE
  5
27A
100
AcDbEntity
  8
0
100
AcDbLine
 62
7
  6
CONTINUOUS
 10
133.3596986438
 20
77.4598061389
 11
135.9622783328
 21
77.4598061389
  0
LINE
  5
27B
100
AcDbEntity
  8
0
100
AcDbLine
 62
7
  6
CONTINUOUS
 10
133.3531812335
 20
79.2952983159
 11
135.9622783328
 21
79.2952983159
  0
LINE
  5
27C
100
AcDbEntity
  8
0
100
AcDbLine
 62
7
  6
CONTINUOUS
 10
132.7622783328
 20
79.6812317914
 11
135.9622783328
 21
79.6812317914
  0
LINE
  5
27D
100
AcDbEntity
  8
0
100
AcDbLine
 62
7
  6
CONTINUOUS
 10
135.0368200923
 20
80.7393174619
 11
135.9622783328
 21
80.4715644139
  0
LINE
  5
27E
100
AcDbEntity
  8
0
100
AcDbLine
 62
7
  6
CONTINUOUS
 10
133.2402145053
 20
81.2618970365
 11
134.6284019138
 21
80.8538046903
  0
LINE
  5
27F
100
AcDbEntity
  8
0
100
AcDbLine
 62
7
  6
CONTINUOUS
 10
108.3118622314
 20
134.0234565514
 11
108.3148273672
 21
134.0170039621
  0
LINE
  5
280
100
AcDbEntity
  8
0
100
AcDbLine
 62
7
  6
CONTINUOUS
 10
111.4559392351
 20
142.5738726533
 11
111.5353483234
 21
142.3738726533
  0
LINE
  5
281
100
AcDbEntity
  8
0
100
AcDbLine
 62
7
  6
CONTINUOUS
 10
128.7480647704
 20
119.0738726533
 11
128.7480647704
 21
63.0738726533
  0
LINE
  5
282
100
AcDbEntity
  8
0
100
AcDbLine
 62
7
  6
CONTINUOUS
 10
129.4551715516
 20
119.3667658721
 11
129.4551715516
 21
62.7809794345
  0
LINE
  5
283
100
AcDbEntity
  8
0
100
AcDbLine
 62
7
  6
CONTINUOUS
 10
129.5868518523
 20
139.3738726533
 11
129.5868518523
 21
133.7828110693
  0
LINE
  5
284
100
AcDbEntity
  8
0
100
AcDbLine
 62
7
  6
CONTINUOUS
 10
129.869385114
 20
62.3667658721
 11
129.869385114
 21
119.7809794345
  0
LINE
  5
285
100
AcDbEntity
  8
0
100
AcDbLine
 62
7
  6
CONTINUOUS
 10
130.5764918952
 20
62.0738726533
 11
130.5764918952
 21
120.0738726533
  0
LINE
  5
286
100
AcDbEntity
  8
0
100
AcDbLine
 62
7
  6
CONTINUOUS
 10
131.1354834136
 20
142.3570039176
 11
131.1354834136
 21
138.037641315
  0
LINE
  5
287
100
AcDbEntity
  8
0
100
AcDbLine
 62
7
  6
CONTINUOUS
 10
131.1622783328
 20
142.3659639672
 11
131.1622783328
 21
138.1112597506
  0
LINE
  5
288
100
AcDbEntity
  8
0
100
AcDbLine
 62
7
  6
CONTINUOUS
 10
132.7622783328
 20
104.3698943013
 11
132.7622783328
 21
103.899019515
  0
LINE
  5
289
100
AcDbEntity
  8
0
100
AcDbLine
 62
7
  6
CONTINUOUS
 10
132.7622783328
 20
102.3682101888
 11
132.7622783328
 21
101.8973354024
  0
LINE
  5
28A
100
AcDbEntity
  8
0
100
AcDbLine
 62
7
  6
CONTINUOUS
 10
132.7622783328
 20
100.3831457967
 11
132.7622783328
 21
99.9972139425
  0
LINE
  5
28B
100
AcDbEntity
  8
0
100
AcDbLine
 62
7
  6
CONTINUOUS
 10
132.7622783328
 20
98.641828658
 11
132.7622783328
 21
98.1894192189
  0
LINE
  5
28C
100
AcDbEntity
  8
0
100
AcDbLine
 62
7
  6
CONTINUOUS
 10
132.7622783328
 20
97.0999416799
 11
132.7622783328
 21
94.9302199239
  0
LINE
  5
28D
100
AcDbEntity
  8
0
100
AcDbLine
 62
7
  6
CONTINUOUS
 10
132.7622783328
 20
94.5350534505
 11
132.7622783328
 21
94.1491202993
  0
LINE
  5
28E
100
AcDbEntity
  8
0
100
AcDbLine
 62
7
  6
CONTINUOUS
 10
132.7622783328
 20
92.35979222
 11
132.7622783328
 21
91.9738590688
  0
LINE
  5
28F
100
AcDbEntity
  8
0
100
AcDbLine
 62
7
  6
CONTINUOUS
 10
132.7622783328
 20
90.6314009542
 11
132.7622783328
 21
90.2048432607
  0
LINE
  5
290
100
AcDbEntity
  8
0
100
AcDbLine
 62
7
  6
CONTINUOUS
 10
132.7622783328
 20
89.5843948812
 11
132.7622783328
 21
89.1984617299
  0
LINE
  5
291
100
AcDbEntity
  8
0
100
AcDbLine
 62
7
  6
CONTINUOUS
 10
132.7622783328
 20
87.5420868749
 11
132.7622783328
 21
85.5533292836
  0
LINE
  5
292
100
AcDbEntity
  8
0
100
AcDbLine
 62
7
  6
CONTINUOUS
 10
132.7622783328
 20
83.9486585683
 11
132.7622783328
 21
82.8204034108
  0
LINE
  5
293
100
AcDbEntity
  8
0
100
AcDbLine
 62
7
  6
CONTINUOUS
 10
132.7622783328
 20
81.4871789426
 11
132.7622783328
 21
81.034768855
  0
LINE
  5
294
100
AcDbEntity
  8
0
100
AcDbLine
 62
7
  6
CONTINUOUS
 10
132.7622783328
 20
79.6812317914
 11
132.7622783328
 21
79.1272603482
  0
LINE
  5
295
100
AcDbEntity
  8
0
100
AcDbLine
 62
7
  6
CONTINUOUS
 10
132.7622783328
 20
77.6278441066
 11
132.7622783328
 21
77.0738726634
  0
LINE
  5
296
100
AcDbEntity
  8
0
100
AcDbLine
 62
7
  6
CONTINUOUS
 10
133.1706966067
 20
97.0999416799
 11
133.1706966067
 21
96.2080473775
  0
LINE
  5
297
100
AcDbEntity
  8
0
100
AcDbLine
 62
7
  6
CONTINUOUS
 10
133.1706966067
 20
95.8221142263
 11
133.1706966067
 21
94.9302199239
  0
LINE
  5
298
100
AcDbEntity
  8
0
100
AcDbLine
 62
7
  6
CONTINUOUS
 10
133.1706966067
 20
87.5420868749
 11
133.1706966067
 21
85.9392630834
  0
LINE
  5
299
100
AcDbEntity
  8
0
100
AcDbLine
 62
7
  6
CONTINUOUS
 10
133.1706966067
 20
83.7510753316
 11
133.1706966067
 21
83.2063372106
  0
LINE
  5
29A
100
AcDbEntity
  8
0
100
AcDbLine
 62
7
  6
CONTINUOUS
 10
134.1070169116
 20
87.422060172
 11
134.1070169116
 21
85.9392630834
  0
LINE
  5
29B
100
AcDbEntity
  8
0
100
AcDbLine
 62
7
  6
CONTINUOUS
 10
134.5154351855
 20
87.422060172
 11
134.5154351855
 21
85.9392630834
  0
LINE
  5
29C
100
AcDbEntity
  8
0
100
AcDbLine
 62
7
  6
CONTINUOUS
 10
134.6284019138
 20
98.8227934713
 11
134.6284019138
 21
98.0084557027
  0
LINE
  5
29D
100
AcDbEntity
  8
0
100
AcDbLine
 62
7
  6
CONTINUOUS
 10
134.6284019138
 20
81.6681427831
 11
134.6284019138
 21
80.8538046903
  0
LINE
  5
29E
100
AcDbEntity
  8
0
100
AcDbLine
 62
7
  6
CONTINUOUS
 10
113.9309614566
 20
90.1551782049
 11
113.5662054293
 21
89.4393041939
  0
LINE
  5
29F
100
AcDbEntity
  8
0
100
AcDbLine
 62
7
  6
CONTINUOUS
 10
115.5227662784
 20
92.1338726533
 11
113.8362370405
 21
88.8238726533
  0
LINE
  5
2A0
100
AcDbEntity
  8
0
100
AcDbLine
 62
7
  6
CONTINUOUS
 10
116.2522783328
 20
92.1338726533
 11
114.565749095
 21
88.8238726533
  0
LINE
  5
2A1
100
AcDbEntity
  8
0
100
AcDbLine
 62
7
  6
CONTINUOUS
 10
129.4551715516
 20
119.3667658721
 11
129.869385114
 21
119.7809794345
  0
LINE
  5
2A2
100
AcDbEntity
  8
0
100
AcDbLine
 62
7
  6
CONTINUOUS
 10
127.9122783328
 20
123.1625477879
 11
127.6622783328
 21
123.0182102206
  0
LINE
  5
2A3
100
AcDbEntity
  8
0
100
AcDbLine
 62
7
  6
CONTINUOUS
 10
106.3200336658
 20
123.4043316002
 11
106.5067258652
 21
123.4589688624
  0
LINE
  5
2A4
100
AcDbEntity
  8
0
100
AcDbLine
 62
7
  6
CONTINUOUS
 10
135.9622783328
 20
78.18550883
 11
133.3596986438
 21
77.4598061389
  0
LINE
  5
2A5
100
AcDbEntity
  8
0
100
AcDbLine
 62
7
  6
CONTINUOUS
 10
135.4973767902
 20
78.377552268
 11
132.7622783328
 21
77.6278441066
  0
LINE
  5
2A6
100
AcDbEntity
  8
0
100
AcDbLine
 62
7
  6
CONTINUOUS
 10
156.5075777944
 20
81.0738726533
 11
142.6730777153
 21
81.0738726533
  0
LINE
  5
2A7
100
AcDbEntity
  8
0
100
AcDbLine
 62
7
  6
CONTINUOUS
 10
90.3067628998
 20
81.0738726533
 11
77.8169788712
 21
81.0738726533
  0
LINE
  5
2A8
100
AcDbEntity
  8
0
100
AcDbLine
 62
7
  6
CONTINUOUS
 10
132.7622783328
 20
82.8204034108
 11
135.9622783328
 21
82.8204034108
  0
LINE
  5
2A9
100
AcDbEntity
  8
0
100
AcDbLine
 62
7
  6
CONTINUOUS
 10
133.1706966067
 20
83.2063372106
 11
135.5538601543
 21
83.2063372106
  0
LINE
  5
2AA
100
AcDbEntity
  8
0
100
AcDbLine
 62
7
  6
CONTINUOUS
 10
132.7622783328
 20
85.5533292836
 11
135.9622783328
 21
85.5533292836
  0
LINE
  5
2AB
100
AcDbEntity
  8
0
100
AcDbLine
 62
7
  6
CONTINUOUS
 10
133.1706966067
 20
85.9392630834
 11
134.1070169116
 21
85.9392630834
  0
LINE
  5
2AC
100
AcDbEntity
  8
0
100
AcDbLine
 62
7
  6
CONTINUOUS
 10
134.5154351855
 20
85.9392630834
 11
135.5538601543
 21
85.9392630834
  0
LINE
  5
2AD
100
AcDbEntity
  8
0
100
AcDbLine
 62
7
  6
CONTINUOUS
 10
110.6332542239
 20
87.1938726533
 11
123.6332542239
 21
87.1938726533
  0
LINE
  5
2AE
100
AcDbEntity
  8
0
100
AcDbLine
 62
7
  6
CONTINUOUS
 10
105.8622783328
 20
130.3738726533
 11
106.0158317234
 21
130.2203192627
  0
LINE
  5
2AF
100
AcDbEntity
  8
0
100
AcDbLine
 62
7
  6
CONTINUOUS
 10
111.1622783328
 20
142.5738726533
 11
111.2625029867
 21
142.3738726533
  0
LINE
  5
2B0
100
AcDbEntity
  8
0
100
AcDbLine
 62
7
  6
CONTINUOUS
 10
135.0368200923
 20
98.9372794027
 11
135.0368200923
 21
97.8939671773
  0
LINE
  5
2B1
100
AcDbEntity
  8
0
100
AcDbLine
 62
7
  6
CONTINUOUS
 10
135.0368200923
 20
81.7826303357
 11
135.0368200923
 21
80.7393174619
  0
LINE
  5
2B2
100
AcDbEntity
  8
0
100
AcDbLine
 62
7
  6
CONTINUOUS
 10
135.5538601543
 20
101.7385310811
 11
135.5538601543
 21
100.3831457967
  0
LINE
  5
2B3
100
AcDbEntity
  8
0
100
AcDbLine
 62
7
  6
CONTINUOUS
 10
135.5538601543
 20
87.5623997945
 11
135.5538601543
 21
85.9392630834
  0
LINE
  5
2B4
100
AcDbEntity
  8
0
100
AcDbLine
 62
7
  6
CONTINUOUS
 10
135.5538601543
 20
83.7621549291
 11
135.5538601543
 21
83.2063372106
  0
LINE
  5
2B5
100
AcDbEntity
  8
0
100
AcDbLine
 62
7
  6
CONTINUOUS
 10
135.9622783328
 20
103.326582076
 11
135.9622783328
 21
102.9406476278
  0
LINE
  5
2B6
100
AcDbEntity
  8
0
100
AcDbLine
 62
7
  6
CONTINUOUS
 10
135.9622783328
 20
101.7385310811
 11
135.9622783328
 21
99.9972139425
  0
LINE
  5
2B7
100
AcDbEntity
  8
0
100
AcDbLine
 62
7
  6
CONTINUOUS
 10
135.9622783328
 20
99.635284316
 11
135.9622783328
 21
99.2050340718
  0
LINE
  5
2B8
100
AcDbEntity
  8
0
100
AcDbLine
 62
7
  6
CONTINUOUS
 10
135.9622783328
 20
97.6262151021
 11
135.9622783328
 21
97.195963561
  0
LINE
  5
2B9
100
AcDbEntity
  8
0
100
AcDbLine
 62
7
  6
CONTINUOUS
 10
135.9622783328
 20
96.2080473775
 11
135.9622783328
 21
95.8221142263
  0
LINE
  5
2BA
100
AcDbEntity
  8
0
100
AcDbLine
 62
7
  6
CONTINUOUS
 10
135.9622783328
 20
94.5350534505
 11
135.9622783328
 21
94.1491202993
  0
LINE
  5
2BB
100
AcDbEntity
  8
0
100
AcDbLine
 62
7
  6
CONTINUOUS
 10
135.9622783328
 20
92.35979222
 11
135.9622783328
 21
91.9332345266
  0
LINE
  5
2BC
100
AcDbEntity
  8
0
100
AcDbLine
 62
7
  6
CONTINUOUS
 10
135.9622783328
 20
90.5907764119
 11
135.9622783328
 21
90.2048432607
  0
LINE
  5
2BD
100
AcDbEntity
  8
0
100
AcDbLine
 62
7
  6
CONTINUOUS
 10
135.9622783328
 20
89.5843948812
 11
135.9622783328
 21
89.1984617299
  0
LINE
  5
2BE
100
AcDbEntity
  8
0
100
AcDbLine
 62
7
  6
CONTINUOUS
 10
135.9622783328
 20
87.5623997945
 11
135.9622783328
 21
85.5533292836
  0
LINE
  5
2BF
100
AcDbEntity
  8
0
100
AcDbLine
 62
7
  6
CONTINUOUS
 10
135.9622783328
 20
83.7769277257
 11
135.9622783328
 21
82.8204034108
  0
LINE
  5
2C0
100
AcDbEntity
  8
0
100
AcDbLine
 62
7
  6
CONTINUOUS
 10
135.9622783328
 20
82.4806342763
 11
135.9622783328
 21
82.0503830594
  0
LINE
  5
2C1
100
AcDbEntity
  8
0
100
AcDbLine
 62
7
  6
CONTINUOUS
 10
135.9622783328
 20
80.4715644139
 11
135.9622783328
 21
80.0413131971
  0
LINE
  5
2C2
100
AcDbEntity
  8
0
100
AcDbLine
 62
7
  6
CONTINUOUS
 10
135.9622783328
 20
79.6812317914
 11
135.9622783328
 21
79.2952983159
  0
LINE
  5
2C3
100
AcDbEntity
  8
0
100
AcDbLine
 62
7
  6
CONTINUOUS
 10
135.9622783328
 20
78.5714423055
 11
135.9622783328
 21
78.18550883
  0
LINE
  5
2C4
100
AcDbEntity
  8
0
100
AcDbLine
 62
7
  6
CONTINUOUS
 10
135.9622783328
 20
77.4598061389
 11
135.9622783328
 21
77.0738726634
  0
LINE
  5
2C5
100
AcDbEntity
  8
0
100
AcDbLine
 62
7
  6
CONTINUOUS
 10
138.9622783328
 20
120.0738726533
 11
138.9622783328
 21
62.0738726533
  0
LINE
  5
2C6
100
AcDbEntity
  8
0
100
AcDbLine
 62
7
  6
CONTINUOUS
 10
139.1622783328
 20
62.0741088763
 11
139.1622783328
 21
120.0736364303
  0
LINE
  5
2C7
100
AcDbEntity
  8
0
100
AcDbLine
 62
7
  6
CONTINUOUS
 10
140.6231787016
 20
120.0738726533
 11
140.6231787016
 21
62.0738726533
  0
LINE
  5
2C8
100
AcDbEntity
  8
0
100
AcDbLine
 62
7
  6
CONTINUOUS
 10
134.1070169116
 20
87.422060172
 11
134.5154351855
 21
87.422060172
  0
LINE
  5
2C9
100
AcDbEntity
  8
0
100
AcDbLine
 62
7
  6
CONTINUOUS
 10
132.7622783328
 20
87.5420868749
 11
133.1706966067
 21
87.5420868749
  0
LINE
  5
2CA
100
AcDbEntity
  8
0
100
AcDbLine
 62
7
  6
CONTINUOUS
 10
135.5538601543
 20
87.5623997945
 11
135.9622783328
 21
87.5623997945
  0
LINE
  5
2CB
100
AcDbEntity
  8
0
100
AcDbLine
 62
7
  6
CONTINUOUS
 10
82.1222783328
 20
87.7638726533
 11
84.0402208334
 21
87.7638726533
  0
LINE
  5
2CC
100
AcDbEntity
  8
0
100
AcDbLine
 62
7
  6
CONTINUOUS
 10
86.9822534628
 20
87.7638726533
 11
87.8902208334
 21
87.7638726533
  0
LINE
  5
2CD
100
AcDbEntity
  8
0
100
AcDbLine
 62
7
  6
CONTINUOUS
 10
111.2832542239
 20
87.8438726533
 11
122.9832542239
 21
87.8438726533
  0
LINE
  5
2CE
100
AcDbEntity
  8
0
100
AcDbLine
 62
7
  6
CONTINUOUS
 10
83.2702208334
 20
88.5338726533
 11
82.1222783328
 21
88.5338726533
  0
LINE
  5
2CF
100
AcDbEntity
  8
0
100
AcDbLine
 62
7
  6
CONTINUOUS
 10
113.8362370405
 20
88.8238726533
 11
114.565749095
 21
88.8238726533
  0
LINE
  5
2D0
100
AcDbEntity
  8
0
100
AcDbLine
 62
7
  6
CONTINUOUS
 10
117.1622783328
 20
88.8238726533
 11
117.8122783328
 21
88.8238726533
  0
LINE
  5
2D1
100
AcDbEntity
  8
0
100
AcDbLine
 62
7
  6
CONTINUOUS
 10
118.7222783328
 20
88.8238726533
 11
119.3722783328
 21
88.8238726533
  0
LINE
  5
2D2
100
AcDbEntity
  8
0
100
AcDbLine
 62
7
  6
CONTINUOUS
 10
132.7622783328
 20
89.1984617299
 11
135.9622783328
 21
89.1984617299
  0
LINE
  5
2D3
100
AcDbEntity
  8
0
100
AcDbLine
 62
7
  6
CONTINUOUS
 10
132.7622783328
 20
89.5843948812
 11
135.9622783328
 21
89.5843948812
  0
LINE
  5
2D4
100
AcDbEntity
  8
0
100
AcDbLine
 62
7
  6
CONTINUOUS
 10
132.7622783328
 20
90.2048432607
 11
135.9622783328
 21
90.2048432607
  0
LINE
  5
2D5
100
AcDbEntity
  8
0
100
AcDbLine
 62
7
  6
CONTINUOUS
 10
133.4140094424
 20
90.5907764119
 11
135.9622783328
 21
90.5907764119
  0
LINE
  5
2D6
100
AcDbEntity
  8
0
100
AcDbLine
 62
7
  6
CONTINUOUS
 10
84.0402208334
 20
90.6350170348
 11
85.1881633339
 21
90.6350170348
  0
LINE
  5
2D7
100
AcDbEntity
  8
0
100
AcDbLine
 62
7
  6
CONTINUOUS
 10
120.8022783328
 20
91.0738726533
 11
121.1922783328
 21
91.0738726533
  0
LINE
  5
2D8
100
AcDbEntity
  8
0
100
AcDbLine
 62
7
  6
CONTINUOUS
 10
85.8922783328
 20
91.3938726533
 11
84.0402208334
 21
91.3938726533
  0
LINE
  5
2D9
100
AcDbEntity
  8
0
100
AcDbLine
 62
7
  6
CONTINUOUS
 10
121.1922783328
 20
91.7438726533
 11
121.8422783328
 21
91.7438726533
  0
LINE
  5
2DA
100
AcDbEntity
  8
0
100
AcDbLine
 62
7
  6
CONTINUOUS
 10
132.7622783328
 20
91.9738590688
 11
135.2823054935
 21
91.9738590688
  0
LINE
  5
2DB
100
AcDbEntity
  8
0
100
AcDbLine
 62
7
  6
CONTINUOUS
 10
112.1932542239
 20
92.1338726533
 11
112.9227662784
 21
92.1338726533
  0
LINE
  5
2DC
100
AcDbEntity
  8
0
100
AcDbLine
 62
7
  6
CONTINUOUS
 10
115.5227662784
 20
92.1338726533
 11
116.2522783328
 21
92.1338726533
  0
LINE
  5
2DD
100
AcDbEntity
  8
0
100
AcDbLine
 62
7
  6
CONTINUOUS
 10
117.1622783328
 20
92.1338726533
 11
117.8122783328
 21
92.1338726533
  0
LINE
  5
2DE
100
AcDbEntity
  8
0
100
AcDbLine
 62
7
  6
CONTINUOUS
 10
118.7222783328
 20
92.1338726533
 11
119.3722783328
 21
92.1338726533
  0
LINE
  5
2DF
100
AcDbEntity
  8
0
100
AcDbLine
 62
7
  6
CONTINUOUS
 10
132.7622783328
 20
92.35979222
 11
135.9622783328
 21
92.35979222
  0
LINE
  5
2E0
100
AcDbEntity
  8
0
100
AcDbLine
 62
7
  6
CONTINUOUS
 10
117.1622783328
 20
92.7838726533
 11
117.8122783328
 21
92.7838726533
  0
LINE
  5
2E1
100
AcDbEntity
  8
0
100
AcDbLine
 62
7
  6
CONTINUOUS
 10
117.1622783328
 20
93.4338726533
 11
117.8122783328
 21
93.4338726533
  0
LINE
  5
2E2
100
AcDbEntity
  8
0
100
AcDbLine
 62
7
  6
CONTINUOUS
 10
82.1222783328
 20
93.5938726533
 11
83.2702208334
 21
93.5938726533
  0
LINE
  5
2E3
100
AcDbEntity
  8
0
100
AcDbLine
 62
7
  6
CONTINUOUS
 10
84.0402208334
 20
93.5938726533
 11
85.8922783328
 21
93.5938726533
  0
LINE
  5
2E4
100
AcDbEntity
  8
0
100
AcDbLine
 62
7
  6
CONTINUOUS
 10
135.0368200923
 20
97.8939671773
 11
135.9622783328
 21
97.6262151021
  0
LINE
  5
2E5
100
AcDbEntity
  8
0
100
AcDbLine
 62
7
  6
CONTINUOUS
 10
133.2402145053
 20
98.4165480489
 11
134.6284019138
 21
98.0084557027
  0
LINE
  5
2E6
100
AcDbEntity
  8
0
100
AcDbLine
 62
7
  6
CONTINUOUS
 10
132.7622783328
 20
98.1894192189
 11
135.9622783328
 21
97.195963561
  0
LINE
  5
2E7
100
AcDbEntity
  8
0
100
AcDbLine
 62
7
  6
CONTINUOUS
 10
132.7622783328
 20
103.899019515
 11
134.287329259
 21
103.1345383138
  0
LINE
  5
2E8
100
AcDbEntity
  8
0
100
AcDbLine
 62
7
  6
CONTINUOUS
 10
132.7622783328
 20
104.3698943013
 11
134.7000922824
 21
103.326582076
  0
LINE
  5
2E9
100
AcDbEntity
  8
0
100
AcDbLine
 62
7
  6
CONTINUOUS
 10
141.6079864559
 20
119.2475208239
 11
141.6079864559
 21
62.9002244827
  0
LINE
  5
2EA
100
AcDbEntity
  8
0
100
AcDbLine
 62
7
  6
CONTINUOUS
 10
141.8746927775
 20
64.4127911954
 11
141.8746927775
 21
64.6547305902
  0
LINE
  5
2EB
100
AcDbEntity
  8
0
100
AcDbLine
 62
7
  6
CONTINUOUS
 10
141.8746927775
 20
74.7608119673
 11
141.8746927775
 21
80.9677912616
  0
LINE
  5
2EC
100
AcDbEntity
  8
0
100
AcDbLine
 62
7
  6
CONTINUOUS
 10
141.8746927775
 20
101.1799540452
 11
141.8746927775
 21
107.3869333394
  0
LINE
  5
2ED
100
AcDbEntity
  8
0
100
AcDbLine
 62
7
  6
CONTINUOUS
 10
141.8746927775
 20
117.4930147164
 11
141.8746927775
 21
117.7349541112
  0
LINE
  5
2EE
100
AcDbEntity
  8
0
100
AcDbLine
 62
7
  6
CONTINUOUS
 10
142.6625389799
 20
65.0738726533
 11
142.6625389799
 21
65.2892860761
  0
LINE
  5
2EF
100
AcDbEntity
  8
0
100
AcDbLine
 62
7
  6
CONTINUOUS
 10
142.6625389799
 20
75.2891199791
 11
142.6625389799
 21
81.0740387516
  0
LINE
  5
2F0
100
AcDbEntity
  8
0
100
AcDbLine
 62
7
  6
CONTINUOUS
 10
142.6625389799
 20
101.073706555
 11
142.6625389799
 21
106.8586253275
  0
LINE
  5
2F1
100
AcDbEntity
  8
0
100
AcDbLine
 62
7
  6
CONTINUOUS
 10
142.6625389799
 20
116.8584592305
 11
142.6625389799
 21
117.0738726533
  0
LINE
  5
2F2
100
AcDbEntity
  8
0
100
AcDbLine
 62
7
  6
CONTINUOUS
 10
132.7622783328
 20
94.1491202993
 11
135.9622783328
 21
94.1491202993
  0
LINE
  5
2F3
100
AcDbEntity
  8
0
100
AcDbLine
 62
7
  6
CONTINUOUS
 10
111.2832542239
 20
94.3438726533
 11
122.9832542239
 21
94.3438726533
  0
LINE
  5
2F4
100
AcDbEntity
  8
0
100
AcDbLine
 62
7
  6
CONTINUOUS
 10
85.8922783328
 20
94.3638726533
 11
82.1222783328
 21
94.3638726533
  0
LINE
  5
2F5
100
AcDbEntity
  8
0
100
AcDbLine
 62
7
  6
CONTINUOUS
 10
132.7622783328
 20
94.5350534505
 11
135.9622783328
 21
94.5350534505
  0
LINE
  5
2F6
100
AcDbEntity
  8
0
100
AcDbLine
 62
7
  6
CONTINUOUS
 10
132.7622783328
 20
94.9302199239
 11
133.1706966067
 21
94.9302199239
  0
LINE
  5
2F7
100
AcDbEntity
  8
0
100
AcDbLine
 62
7
  6
CONTINUOUS
 10
110.6332542239
 20
94.9938726533
 11
123.6332542239
 21
94.9938726533
  0
LINE
  5
2F8
100
AcDbEntity
  8
0
100
AcDbLine
 62
7
  6
CONTINUOUS
 10
133.1706966067
 20
95.8221142263
 11
135.9622783328
 21
95.8221142263
  0
LINE
  5
2F9
100
AcDbEntity
  8
0
100
AcDbLine
 62
7
  6
CONTINUOUS
 10
133.1706966067
 20
96.2080473775
 11
135.9622783328
 21
96.2080473775
  0
LINE
  5
2FA
100
AcDbEntity
  8
0
100
AcDbLine
 62
7
  6
CONTINUOUS
 10
132.7622783328
 20
97.0999416799
 11
133.1706966067
 21
97.0999416799
  0
LINE
  5
2FB
100
AcDbEntity
  8
0
100
AcDbLine
 62
7
  6
CONTINUOUS
 10
132.7622783328
 20
99.9972139425
 11
135.9622783328
 21
99.9972139425
  0
LINE
  5
2FC
100
AcDbEntity
  8
0
100
AcDbLine
 62
7
  6
CONTINUOUS
 10
106.6899027823
 20
123.0756762182
 11
106.9474364441
 21
122.929474553
  0
LINE
  5
2FD
100
AcDbEntity
  8
0
100
AcDbLine
 62
7
  6
CONTINUOUS
 10
102.2622783328
 20
125.5161376264
 11
107.0685302488
 21
122.7412467889
  0
LINE
  5
2FE
100
AcDbEntity
  8
0
100
AcDbLine
 62
7
  6
CONTINUOUS
 10
102.3622783328
 20
125.6893427071
 11
106.3200336659
 21
123.4043316002
  0
LINE
  5
2FF
100
AcDbEntity
  8
0
100
AcDbLine
 62
7
  6
CONTINUOUS
 10
119.6622783328
 20
131.3738726533
 11
112.2021576437
 21
139.3738726533
  0
LINE
  5
300
100
AcDbEntity
  8
0
100
AcDbLine
 62
7
  6
CONTINUOUS
 10
141.8746927775
 20
117.7349541112
 11
141.6079864557
 21
119.2475208253
  0
LINE
  5
301
100
AcDbEntity
  8
0
100
AcDbLine
 62
7
  6
CONTINUOUS
 10
141.8746927775
 20
64.4127911954
 11
141.6079864557
 21
62.9002244813
  0
LINE
  5
302
100
AcDbEntity
  8
0
100
AcDbLine
 62
7
  6
CONTINUOUS
 10
132.7622783328
 20
100.3831457967
 11
135.5538601543
 21
100.3831457967
  0
LINE
  5
303
100
AcDbEntity
  8
0
100
AcDbLine
 62
7
  6
CONTINUOUS
 10
156.5075777944
 20
101.0738726533
 11
142.6730777153
 21
101.0738726533
  0
LINE
  5
304
100
AcDbEntity
  8
0
100
AcDbLine
 62
7
  6
CONTINUOUS
 10
90.3067628998
 20
101.0738726533
 11
77.8169788712
 21
101.0738726533
  0
LINE
  5
305
100
AcDbEntity
  8
0
100
AcDbLine
 62
7
  6
CONTINUOUS
 10
135.5538601543
 20
101.7385310811
 11
135.9622783328
 21
101.7385310811
  0
LINE
  5
306
100
AcDbEntity
  8
0
100
AcDbLine
 62
7
  6
CONTINUOUS
 10
134.7000922824
 20
102.9406476278
 11
135.9622783328
 21
102.9406476278
  0
LINE
  5
307
100
AcDbEntity
  8
0
100
AcDbLine
 62
7
  6
CONTINUOUS
 10
134.7000922824
 20
103.326582076
 11
135.9622783328
 21
103.326582076
  0
LINE
  5
308
100
AcDbEntity
  8
0
100
AcDbLine
 62
7
  6
CONTINUOUS
 10
156.5075777944
 20
106.8584823441
 11
142.6730777153
 21
106.8584823441
  0
LINE
  5
309
100
AcDbEntity
  8
0
100
AcDbLine
 62
7
  6
CONTINUOUS
 10
90.3067628998
 20
106.8584823441
 11
77.8169788712
 21
106.8584823441
  0
LINE
  5
30A
100
AcDbEntity
  8
0
100
AcDbLine
 62
7
  6
CONTINUOUS
 10
138.9622783328
 20
120.0738726533
 11
139.1622783328
 21
119.8738726533
  0
LINE
  5
30B
100
AcDbEntity
  8
0
100
AcDbLine
 62
7
  6
CONTINUOUS
 10
122.8686174306
 20
142.5738726533
 11
123.0602565502
 21
142.3738726533
  0
LINE
  5
30C
100
AcDbEntity
  8
0
100
AcDbLine
 62
7
  6
CONTINUOUS
 10
154.6622783328
 20
158.1738726533
 11
154.6622783328
 21
158.3738726533
  0
LINE
  5
30D
100
AcDbEntity
  8
0
100
AcDbLine
 62
7
  6
CONTINUOUS
 10
154.6622783328
 20
158.7105476952
 11
154.6622783328
 21
161.0371976114
  0
LINE
  5
30E
100
AcDbEntity
  8
0
100
AcDbLine
 62
7
  6
CONTINUOUS
 10
154.6622783328
 20
161.3738726533
 11
154.6622783328
 21
161.5738726533
  0
LINE
  5
30F
100
AcDbEntity
  8
0
100
AcDbLine
 62
7
  6
CONTINUOUS
 10
155.9622783328
 20
156.8738726533
 11
155.9622783328
 21
162.8738726533
  0
LINE
  5
310
100
AcDbEntity
  8
0
100
AcDbLine
 62
7
  6
CONTINUOUS
 10
156.4056594207
 20
162.8738726533
 11
156.4056594207
 21
162.9265541506
  0
LINE
  5
311
100
AcDbEntity
  8
0
100
AcDbLine
 62
7
  6
CONTINUOUS
 10
156.5075777944
 20
65.0738726533
 11
156.5075777944
 21
65.2892629625
  0
LINE
  5
312
100
AcDbEntity
  8
0
100
AcDbLine
 62
7
  6
CONTINUOUS
 10
156.5075777944
 20
75.2892629625
 11
156.5075777944
 21
81.0738726533
  0
LINE
  5
313
100
AcDbEntity
  8
0
100
AcDbLine
 62
7
  6
CONTINUOUS
 10
156.5075777944
 20
101.0738726533
 11
156.5075777944
 21
106.8584823441
  0
LINE
  5
314
100
AcDbEntity
  8
0
100
AcDbLine
 62
7
  6
CONTINUOUS
 10
156.5075777944
 20
116.8584823441
 11
156.5075777944
 21
117.0738726533
  0
LINE
  5
315
100
AcDbEntity
  8
0
100
AcDbLine
 62
7
  6
CONTINUOUS
 10
157.6622783328
 20
115.0738726533
 11
157.6622783328
 21
67.0738726533
  0
LINE
  5
316
100
AcDbEntity
  8
0
100
AcDbLine
 62
7
  6
CONTINUOUS
 10
134.7000922824
 20
102.9406476278
 11
132.7622783328
 21
101.8973354024
  0
LINE
  5
317
100
AcDbEntity
  8
0
100
AcDbLine
 62
7
  6
CONTINUOUS
 10
134.287329259
 20
103.1345383138
 11
132.7622783328
 21
102.3682101888
  0
LINE
  5
318
100
AcDbEntity
  8
0
100
AcDbLine
 62
7
  6
CONTINUOUS
 10
108.3148273672
 20
134.0170039621
 11
108.9601068205
 21
133.6807070877
  0
LINE
  5
319
100
AcDbEntity
  8
0
100
AcDbLine
 62
7
  6
CONTINUOUS
 10
157.6622783328
 20
115.0738726533
 11
156.5075777944
 21
117.0738726533
  0
LINE
  5
31A
100
AcDbEntity
  8
0
100
AcDbLine
 62
7
  6
CONTINUOUS
 10
161.7500382901
 20
162.8738726533
 11
161.7500382901
 21
162.9265541506
  0
LINE
  5
31B
100
AcDbEntity
  8
0
100
AcDbLine
 62
7
  6
CONTINUOUS
 10
162.5745183755
 20
162.8738726533
 11
162.5745183755
 21
162.9265541506
  0
LINE
  5
31C
100
AcDbEntity
  8
0
100
AcDbLine
 62
7
  6
CONTINUOUS
 10
135.2823054935
 20
91.9738590688
 11
132.7622783328
 21
90.6314009542
  0
LINE
  5
31D
100
AcDbEntity
  8
0
100
AcDbLine
 62
7
  6
CONTINUOUS
 10
135.9622783328
 20
91.9332345266
 11
133.4140094424
 21
90.5907764119
  0
LINE
  5
31E
100
AcDbEntity
  8
0
100
AcDbLine
 62
7
  6
CONTINUOUS
 10
135.9622783328
 20
99.635284316
 11
132.7622783328
 21
98.641828658
  0
LINE
  5
31F
100
AcDbEntity
  8
0
100
AcDbLine
 62
7
  6
CONTINUOUS
 10
134.6284019138
 20
98.8227934713
 11
133.2402145053
 21
98.4165480489
  0
LINE
  5
320
100
AcDbEntity
  8
0
100
AcDbLine
 62
7
  6
CONTINUOUS
 10
135.9622783328
 20
99.2050340718
 11
135.0368200923
 21
98.9372794027
  0
LINE
  5
321
100
AcDbEntity
  8
0
100
AcDbLine
 62
7
  6
CONTINUOUS
 10
93.239628602
 20
114.0738726533
 11
98.2480647704
 21
114.0738726533
  0
LINE
  5
322
100
AcDbEntity
  8
0
100
AcDbLine
 62
7
  6
CONTINUOUS
 10
156.5075777944
 20
116.8584823441
 11
142.6730777153
 21
116.8584823441
  0
LINE
  5
323
100
AcDbEntity
  8
0
100
AcDbLine
 62
7
  6
CONTINUOUS
 10
90.3067628998
 20
116.8584823441
 11
77.8169788712
 21
116.8584823441
  0
LINE
  5
324
100
AcDbEntity
  8
0
100
AcDbLine
 62
7
  6
CONTINUOUS
 10
156.5075777944
 20
117.0738726533
 11
142.6625389799
 21
117.0738726533
  0
LINE
  5
325
100
AcDbEntity
  8
0
100
AcDbLine
 62
7
  6
CONTINUOUS
 10
90.3528772561
 20
117.0738726533
 11
77.8169788712
 21
117.0738726533
  0
LINE
  5
326
100
AcDbEntity
  8
0
100
AcDbLine
 62
7
  6
CONTINUOUS
 10
104.0764918952
 20
119.0738726533
 11
105.9122783328
 21
119.0738726533
  0
LINE
  5
327
100
AcDbEntity
  8
0
100
AcDbLine
 62
7
  6
CONTINUOUS
 10
128.4122783328
 20
119.0738726533
 11
128.7480647704
 21
119.0738726533
  0
LWPOLYLINE
  5
328
100
AcDbEntity
  8
0
100
AcDbPolyline
 62
7
  6
CONTINUOUS
 90
16
 70
0
 10
128.4122775813
 20
119.0738668552
 10
128.2949942127
 20
119.0807668154
 10
128.1868313812
 20
119.0996081996
 10
128.0813858441
 20
119.1301935319
 10
127.9799287077
 20
119.1721541585
 10
127.8836829837
 20
119.2249843027
 10
127.7938088571
 20
119.2880471664
 10
127.7113897264
 20
119.360582591
 10
127.6374191236
 20
119.4417162298
 10
127.5727887371
 20
119.530470092
 10
127.5182776706
 20
119.6257743254
 10
127.4745430493
 20
119.726480114
 10
127.4421121011
 20
119.8313735162
 10
127.4213757956
 20
119.9391900995
 10
127.4125841265
 20
120.0486301939
 10
127.4122656949
 20
120.0738730478
  0
LINE
  5
329
100
AcDbEntity
  8
0
100
AcDbLine
 62
7
  6
CONTINUOUS
 10
111.1622783328
 20
142.5738726533
 11
111.5052418971
 21
142.3738726533
  0
LINE
  5
32A
100
AcDbEntity
  8
0
100
AcDbLine
 62
7
  6
CONTINUOUS
 10
167.918897245
 20
162.8738726533
 11
167.918897245
 21
162.9265541506
  0
LINE
  5
32B
100
AcDbEntity
  8
0
100
AcDbLine
 62
7
  6
CONTINUOUS
 10
167.9336389309
 20
162.8738726533
 11
167.9336389309
 21
162.9265541506
  0
LINE
  5
32C
100
AcDbEntity
  8
0
100
AcDbLine
 62
7
  6
CONTINUOUS
 10
171.2315592726
 20
162.8738726533
 11
171.2315592726
 21
162.9265541506
  0
LINE
  5
32D
100
AcDbEntity
  8
0
100
AcDbLine
 62
7
  6
CONTINUOUS
 10
172.5309750542
 20
162.9265541506
 11
172.5309750542
 21
162.8738726533
  0
LINE
  5
32E
100
AcDbEntity
  8
0
100
AcDbLine
 62
7
  6
CONTINUOUS
 10
173.1584744017
 20
162.9265541506
 11
173.1584744017
 21
162.8738726533
  0
LINE
  5
32F
100
AcDbEntity
  8
0
100
AcDbLine
 62
7
  6
CONTINUOUS
 10
173.3445427334
 20
162.8738726533
 11
173.3445427334
 21
162.9265541506
  0
LINE
  5
330
100
AcDbEntity
  8
0
100
AcDbLine
 62
7
  6
CONTINUOUS
 10
140.6231787016
 20
120.0738726533
 11
139.1622783328
 21
120.0738726533
  0
LINE
  5
331
100
AcDbEntity
  8
0
100
AcDbLine
 62
7
  6
CONTINUOUS
 10
130.5764918952
 20
120.0738726533
 11
138.9622783328
 21
120.0738726533
  0
LINE
  5
332
100
AcDbEntity
  8
0
100
AcDbLine
 62
7
  6
CONTINUOUS
 10
127.4122783328
 20
122.5851975187
 11
107.2004667325
 21
122.5851975187
  0
LINE
  5
333
100
AcDbEntity
  8
0
100
AcDbLine
 62
7
  6
CONTINUOUS
 10
107.1344798734
 20
122.5851975187
 11
106.9122783328
 21
122.5851975187
  0
LINE
  5
334
100
AcDbEntity
  8
0
100
AcDbLine
 62
7
  6
CONTINUOUS
 10
106.9954945182
 20
123.0182102206
 11
127.6622783328
 21
123.0182102206
  0
LINE
  5
335
100
AcDbEntity
  8
0
100
AcDbLine
 62
7
  6
CONTINUOUS
 10
127.9122783328
 20
123.1625477879
 11
106.7370370947
 21
123.1625477879
  0
LINE
  5
336
100
AcDbEntity
  8
0
100
AcDbLine
 62
7
  6
CONTINUOUS
 10
106.2925957248
 20
123.5955604898
 11
128.1622783328
 21
123.5955604898
  0
LINE
  5
337
100
AcDbEntity
  8
0
100
AcDbLine
 62
7
  6
CONTINUOUS
 10
102.1622783328
 20
124.3738726533
 11
104.2407393019
 21
124.3738726533
  0
LINE
  5
338
100
AcDbEntity
  8
0
100
AcDbLine
 62
7
  6
CONTINUOUS
 10
119.6622783328
 20
124.3738726533
 11
126.1622783328
 21
124.3738726533
  0
LINE
  5
339
100
AcDbEntity
  8
0
100
AcDbLine
 62
7
  6
CONTINUOUS
 10
121.1622783328
 20
144.7285731917
 11
122.8622783328
 21
143.747077734
  0
LINE
  5
33A
100
AcDbEntity
  8
0
100
AcDbLine
 62
7
  6
CONTINUOUS
 10
175.8518298428
 20
162.8738726533
 11
175.8518298428
 21
162.9265541506
  0
LINE
  5
33B
100
AcDbEntity
  8
0
100
AcDbLine
 62
7
  6
CONTINUOUS
 10
176.0378981745
 20
162.9265541506
 11
176.0378981745
 21
162.8738726533
  0
LINE
  5
33C
100
AcDbEntity
  8
0
100
AcDbLine
 62
7
  6
CONTINUOUS
 10
176.6653975221
 20
162.9265541506
 11
176.6653975221
 21
162.8738726533
  0
LINE
  5
33D
100
AcDbEntity
  8
0
100
AcDbLine
 62
7
  6
CONTINUOUS
 10
177.9648133036
 20
162.8738726533
 11
177.9648133036
 21
162.9265541506
  0
LINE
  5
33E
100
AcDbEntity
  8
0
100
AcDbLine
 62
7
  6
CONTINUOUS
 10
179.0641200842
 20
162.8738726533
 11
179.0641200842
 21
162.9265541506
  0
LINE
  5
33F
100
AcDbEntity
  8
0
100
AcDbLine
 62
7
  6
CONTINUOUS
 10
180.2321335386
 20
162.9265541506
 11
180.2321335386
 21
162.8738726533
  0
LINE
  5
340
100
AcDbEntity
  8
0
100
AcDbLine
 62
7
  6
CONTINUOUS
 10
102.1622783328
 20
129.3738726533
 11
106.4866971999
 21
129.3738726533
  0
LINE
  5
341
100
AcDbEntity
  8
0
100
AcDbLine
 62
7
  6
CONTINUOUS
 10
106.200982789
 20
129.5738726533
 11
102.3622783328
 21
129.5738726533
  0
LINE
  5
342
100
AcDbEntity
  8
0
100
AcDbLine
 62
7
  6
CONTINUOUS
 10
106.1622783328
 20
129.7738726533
 11
106.3967202094
 21
129.7738726533
  0
LINE
  5
343
100
AcDbEntity
  8
0
100
AcDbLine
 62
7
  6
CONTINUOUS
 10
119.6622783328
 20
129.8667658721
 11
106.1622783328
 21
129.8667658721
  0
LINE
  5
344
100
AcDbEntity
  8
0
100
AcDbLine
 62
7
  6
CONTINUOUS
 10
119.6622783328
 20
130.2203191948
 11
106.0158317234
 21
130.2203192627
  0
LINE
  5
345
100
AcDbEntity
  8
0
100
AcDbLine
 62
7
  6
CONTINUOUS
 10
128.4622783328
 20
130.3738726533
 11
128.3460997384
 21
130.3738726533
  0
LINE
  5
346
100
AcDbEntity
  8
0
100
AcDbLine
 62
7
  6
CONTINUOUS
 10
119.6622783328
 20
130.3738726533
 11
105.8622783328
 21
130.3738726533
  0
LINE
  5
347
100
AcDbEntity
  8
0
100
AcDbLine
 62
7
  6
CONTINUOUS
 10
102.1622783328
 20
131.3738726533
 11
105.1622783328
 21
131.3738726533
  0
LINE
  5
348
100
AcDbEntity
  8
0
100
AcDbLine
 62
7
  6
CONTINUOUS
 10
111.4559392351
 20
142.5738726533
 11
112.29993382
 21
142.3738726533
  0
LINE
  5
349
100
AcDbEntity
  8
0
100
AcDbLine
 62
7
  6
CONTINUOUS
 10
122.0163802991
 20
142.5738726533
 11
122.7238631303
 21
142.3738726533
  0
LINE
  5
34A
100
AcDbEntity
  8
0
100
AcDbLine
 62
7
  6
CONTINUOUS
 10
180.9192002764
 20
162.9265541506
 11
180.9192002764
 21
162.8738726533
  0
LINE
  5
34B
100
AcDbEntity
  8
0
100
AcDbLine
 62
7
  6
CONTINUOUS
 10
181.9578438829
 20
162.8738726533
 11
181.9578438829
 21
162.9265541506
  0
LINE
  5
34C
100
AcDbEntity
  8
0
100
AcDbLine
 62
7
  6
CONTINUOUS
 10
183.1945640111
 20
162.8738726533
 11
183.1945640111
 21
162.9265541506
  0
LINE
  5
34D
100
AcDbEntity
  8
0
100
AcDbLine
 62
7
  6
CONTINUOUS
 10
185.1103073774
 20
162.8738726533
 11
185.1103073774
 21
162.9265541506
  0
LINE
  5
34E
100
AcDbEntity
  8
0
100
AcDbLine
 62
7
  6
CONTINUOUS
 10
186.3470275055
 20
162.8738726533
 11
186.3470275055
 21
162.9265541506
  0
LINE
  5
34F
100
AcDbEntity
  8
0
100
AcDbLine
 62
7
  6
CONTINUOUS
 10
157.6622783328
 20
67.0738726533
 11
156.5075777944
 21
65.0738726533
  0
LINE
  5
350
100
AcDbEntity
  8
0
100
AcDbLine
 62
7
  6
CONTINUOUS
 10
138.9622783328
 20
62.0738726533
 11
139.1622783328
 21
62.2738726533
  0
LINE
  5
351
100
AcDbEntity
  8
0
100
AcDbLine
 62
7
  6
CONTINUOUS
 10
135.9622783328
 20
82.4806342763
 11
132.7622783328
 21
81.4871789426
  0
LINE
  5
352
100
AcDbEntity
  8
0
100
AcDbLine
 62
7
  6
CONTINUOUS
 10
134.6284019138
 20
81.6681427831
 11
133.2402145053
 21
81.2618970365
  0
LINE
  5
353
100
AcDbEntity
  8
0
100
AcDbLine
 62
7
  6
CONTINUOUS
 10
135.9622783328
 20
82.0503830594
 11
135.0368200923
 21
81.7826303357
  0
LINE
  5
354
100
AcDbEntity
  8
0
100
AcDbLine
 62
7
  6
CONTINUOUS
 10
105.8622783328
 20
133.2738726533
 11
117.8904996692
 21
133.2738726533
  0
LINE
  5
355
100
AcDbEntity
  8
0
100
AcDbLine
 62
7
  6
CONTINUOUS
 10
106.1622783328
 20
133.5738726533
 11
117.6107451433
 21
133.5738726533
  0
LINE
  5
356
100
AcDbEntity
  8
0
100
AcDbLine
 62
7
  6
CONTINUOUS
 10
108.8623419202
 20
134.5738726533
 11
116.6782300572
 21
134.5738726533
  0
LINE
  5
357
100
AcDbEntity
  8
0
100
AcDbLine
 62
7
  6
CONTINUOUS
 10
110.3081763666
 20
137.4965223841
 11
110.1622783328
 21
137.4965223841
  0
LINE
  5
358
100
AcDbEntity
  8
0
100
AcDbLine
 62
7
  6
CONTINUOUS
 10
113.4144272557
 20
138.0738726533
 11
110.1622783328
 21
138.0738726533
  0
LINE
  5
359
100
AcDbEntity
  8
0
100
AcDbLine
 62
7
  6
CONTINUOUS
 10
103.4547799986
 20
139.3738726533
 11
112.2021576437
 21
139.3738726533
  0
LINE
  5
35A
100
AcDbEntity
  8
0
100
AcDbLine
 62
7
  6
CONTINUOUS
 10
113.4946593095
 20
139.3738726533
 11
129.5868518523
 21
139.3738726533
  0
LINE
  5
35B
100
AcDbEntity
  8
0
100
AcDbLine
 62
7
  6
CONTINUOUS
 10
131.1622783328
 20
139.3738726533
 11
132.7622783328
 21
139.3738726533
  0
LINE
  5
35C
100
AcDbEntity
  8
0
100
AcDbLine
 62
7
  6
CONTINUOUS
 10
115.3081763666
 20
142.5738726533
 11
117.0078343378
 21
142.3738726533
  0
LINE
  5
35D
100
AcDbEntity
  8
0
100
AcDbLine
 62
7
  6
CONTINUOUS
 10
117.1622783328
 20
142.5738726533
 11
118.8379688666
 21
142.3738726533
  0
LINE
  5
35E
100
AcDbEntity
  8
0
100
AcDbLine
 62
7
  6
CONTINUOUS
 10
113.6355668191
 20
142.5738726533
 11
115.1928178633
 21
142.3738726533
  0
LINE
  5
35F
100
AcDbEntity
  8
0
100
AcDbLine
 62
7
  6
CONTINUOUS
 10
119.0163802991
 20
142.5738726533
 11
120.5040751307
 21
142.3738726533
  0
LINE
  5
360
100
AcDbEntity
  8
0
100
AcDbLine
 62
7
  6
CONTINUOUS
 10
112.3081763666
 20
142.5738726533
 11
113.5705859017
 21
142.3738726533
  0
LINE
  5
361
100
AcDbEntity
  8
0
100
AcDbLine
 62
7
  6
CONTINUOUS
 10
120.6889898466
 20
142.5738726533
 11
121.8430630405
 21
142.3738726533
  0
LINE
  5
362
100
AcDbEntity
  8
0
100
AcDbLine
 62
7
  6
CONTINUOUS
 10
187.3776276123
 20
162.9265541506
 11
187.3776276123
 21
162.8738726533
  0
LINE
  5
363
100
AcDbEntity
  8
0
100
AcDbLine
 62
7
  6
CONTINUOUS
 10
188.0646943502
 20
162.9265541506
 11
188.0646943502
 21
162.8738726533
  0
LINE
  5
364
100
AcDbEntity
  8
0
100
AcDbLine
 62
7
  6
CONTINUOUS
 10
189.3357678152
 20
162.8738726533
 11
189.3357678152
 21
162.9265541506
  0
LINE
  5
365
100
AcDbEntity
  8
0
100
AcDbLine
 62
7
  6
CONTINUOUS
 10
190.5932834718
 20
162.9265541506
 11
190.5932834718
 21
162.8738726533
  0
LINE
  5
366
100
AcDbEntity
  8
0
100
AcDbLine
 62
7
  6
CONTINUOUS
 10
191.2286135413
 20
162.9265541506
 11
191.2286135413
 21
162.8738726533
  0
LINE
  5
367
100
AcDbEntity
  8
0
100
AcDbLine
 62
7
  6
CONTINUOUS
 10
192.3245081249
 20
162.8738726533
 11
192.3245081249
 21
162.9265541506
  0
LINE
  5
368
100
AcDbEntity
  8
0
100
AcDbLine
 62
7
  6
CONTINUOUS
 10
193.3551082317
 20
162.9265541506
 11
193.3551082317
 21
162.8738726533
  0
LINE
  5
369
100
AcDbEntity
  8
0
100
AcDbLine
 62
7
  6
CONTINUOUS
 10
132.7622783328
 20
142.3738726533
 11
131.1622783328
 21
142.3738726533
  0
LINE
  5
36A
100
AcDbEntity
  8
0
100
AcDbLine
 62
7
  6
CONTINUOUS
 10
105.1622783328
 20
142.3738726533
 11
131.1354834136
 21
142.3738726533
  0
LINE
  5
36B
100
AcDbEntity
  8
0
100
AcDbLine
 62
7
  6
CONTINUOUS
 10
123.1622783328
 20
142.5738726533
 11
111.1622783328
 21
142.5738726533
  0
LINE
  5
36C
100
AcDbEntity
  8
0
100
AcDbLine
 62
7
  6
CONTINUOUS
 10
111.1622783328
 20
143.2274624918
 11
123.1622783328
 21
143.2274624918
  0
LINE
  5
36D
100
AcDbEntity
  8
0
100
AcDbLine
 62
7
  6
CONTINUOUS
 10
111.4622783328
 20
143.747077734
 11
122.8622783328
 21
143.747077734
  0
LINE
  5
36E
100
AcDbEntity
  8
0
100
AcDbLine
 62
7
  6
CONTINUOUS
 10
194.0421749696
 20
162.9265541506
 11
194.0421749696
 21
162.8738726533
  0
LINE
  5
36F
100
AcDbEntity
  8
0
100
AcDbLine
 62
7
  6
CONTINUOUS
 10
195.0040684026
 20
162.8738726533
 11
195.0040684026
 21
162.9265541506
  0
LINE
  5
370
100
AcDbEntity
  8
0
100
AcDbLine
 62
7
  6
CONTINUOUS
 10
196.3034841842
 20
162.9265541506
 11
196.3034841842
 21
162.8738726533
  0
LINE
  5
371
100
AcDbEntity
  8
0
100
AcDbLine
 62
7
  6
CONTINUOUS
 10
196.9309835317
 20
162.9265541506
 11
196.9309835317
 21
162.8738726533
  0
LINE
  5
372
100
AcDbEntity
  8
0
100
AcDbLine
 62
7
  6
CONTINUOUS
 10
197.1170518634
 20
162.8738726533
 11
197.1170518634
 21
162.9265541506
  0
LINE
  5
373
100
AcDbEntity
  8
0
100
AcDbLine
 62
7
  6
CONTINUOUS
 10
199.6243389728
 20
162.8738726533
 11
199.6243389728
 21
162.9265541506
  0
LINE
  5
374
100
AcDbEntity
  8
0
100
AcDbLine
 62
7
  6
CONTINUOUS
 10
199.8104073045
 20
162.9265541506
 11
199.8104073045
 21
162.8738726533
  0
LINE
  5
375
100
AcDbEntity
  8
0
100
AcDbLine
 62
7
  6
CONTINUOUS
 10
113.1622783328
 20
147.5738726533
 11
121.1622783328
 21
147.5738726533
  0
LINE
  5
376
100
AcDbEntity
  8
0
100
AcDbLine
 62
7
  6
CONTINUOUS
 10
200.4379066521
 20
162.9265541506
 11
200.4379066521
 21
162.8738726533
  0
LINE
  5
377
100
AcDbEntity
  8
0
100
AcDbLine
 62
7
  6
CONTINUOUS
 10
201.7373224336
 20
162.8738726533
 11
201.7373224336
 21
162.9265541506
  0
LINE
  5
378
100
AcDbEntity
  8
0
100
AcDbLine
 62
7
  6
CONTINUOUS
 10
203.5236959521
 20
162.8738726533
 11
203.5236959521
 21
162.9265541506
  0
LINE
  5
379
100
AcDbEntity
  8
0
100
AcDbLine
 62
7
  6
CONTINUOUS
 10
204.6230027326
 20
162.9265541506
 11
204.6230027326
 21
162.8738726533
  0
LINE
  5
37A
100
AcDbEntity
  8
0
100
AcDbLine
 62
7
  6
CONTINUOUS
 10
205.3100694705
 20
162.9265541506
 11
205.3100694705
 21
162.8738726533
  0
LINE
  5
37B
100
AcDbEntity
  8
0
100
AcDbLine
 62
7
  6
CONTINUOUS
 10
206.5467895987
 20
162.9265541506
 11
206.5467895987
 21
162.8738726533
  0
LINE
  5
37C
100
AcDbEntity
  8
0
100
AcDbLine
 62
7
  6
CONTINUOUS
 10
155.9622783328
 20
156.8738726533
 11
241.1622783328
 21
156.8738726533
  0
LINE
  5
37D
100
AcDbEntity
  8
0
100
AcDbLine
 62
7
  6
CONTINUOUS
 10
154.2475597071
 20
158.3738726533
 11
154.6800488098
 21
158.3738726533
  0
LINE
  5
37E
100
AcDbEntity
  8
0
100
AcDbLine
 62
7
  6
CONTINUOUS
 10
207.2338563365
 20
162.9265541506
 11
207.2338563365
 21
162.8738726533
  0
LINE
  5
37F
100
AcDbEntity
  8
0
100
AcDbLine
 62
7
  6
CONTINUOUS
 10
208.1957497695
 20
162.8738726533
 11
208.1957497695
 21
162.9265541506
  0
LINE
  5
380
100
AcDbEntity
  8
0
100
AcDbLine
 62
7
  6
CONTINUOUS
 10
213.0052169346
 20
162.9265541506
 11
213.0052169346
 21
162.8738726533
  0
LINE
  5
381
100
AcDbEntity
  8
0
100
AcDbLine
 62
7
  6
CONTINUOUS
 10
154.6622783328
 20
159.3738726533
 11
243.6622783328
 21
159.3738726533
  0
LINE
  5
382
100
AcDbEntity
  8
0
100
AcDbLine
 62
7
  6
CONTINUOUS
 10
154.6622783328
 20
160.3738726533
 11
243.6622783328
 21
160.3738726533
  0
LINE
  5
383
100
AcDbEntity
  8
0
100
AcDbLine
 62
7
  6
CONTINUOUS
 10
154.6800488098
 20
161.3738726533
 11
153.8333461447
 21
161.3738726533
  0
LINE
  5
384
100
AcDbEntity
  8
0
100
AcDbLine
 62
7
  6
CONTINUOUS
 10
155.9622783328
 20
162.8738726533
 11
241.1622783328
 21
162.8738726533
  0
LINE
  5
385
100
AcDbEntity
  8
0
100
AcDbLine
 62
7
  6
CONTINUOUS
 10
156.4056594207
 20
162.9265541506
 11
161.7500382901
 21
162.9265541506
  0
LINE
  5
386
100
AcDbEntity
  8
0
100
AcDbLine
 62
7
  6
CONTINUOUS
 10
162.5745183755
 20
162.9265541506
 11
167.9336389309
 21
162.9265541506
  0
LINE
  5
387
100
AcDbEntity
  8
0
100
AcDbLine
 62
7
  6
CONTINUOUS
 10
171.2315592726
 20
162.9265541506
 11
177.9648133036
 21
162.9265541506
  0
LINE
  5
388
100
AcDbEntity
  8
0
100
AcDbLine
 62
7
  6
CONTINUOUS
 10
179.0641200842
 20
162.9265541506
 11
185.1103073774
 21
162.9265541506
  0
LINE
  5
389
100
AcDbEntity
  8
0
100
AcDbLine
 62
7
  6
CONTINUOUS
 10
186.3470275055
 20
162.9265541506
 11
194.0421749696
 21
162.9265541506
  0
LINE
  5
38A
100
AcDbEntity
  8
0
100
AcDbLine
 62
7
  6
CONTINUOUS
 10
195.0040684026
 20
162.9265541506
 11
207.2338563365
 21
162.9265541506
  0
LINE
  5
38B
100
AcDbEntity
  8
0
100
AcDbLine
 62
7
  6
CONTINUOUS
 10
208.1957497695
 20
162.9265541506
 11
213.6922836724
 21
162.9265541506
  0
LINE
  5
38C
100
AcDbEntity
  8
0
100
AcDbLine
 62
7
  6
CONTINUOUS
 10
214.6541771054
 20
162.9265541506
 11
222.2033229082
 21
162.9265541506
  0
LINE
  5
38D
100
AcDbEntity
  8
0
100
AcDbLine
 62
7
  6
CONTINUOUS
 10
222.3750895517
 20
162.9265541506
 11
223.4056897199
 21
162.9265541506
  0
LINE
  5
38E
100
AcDbEntity
  8
0
100
AcDbLine
 62
7
  6
CONTINUOUS
 10
213.6922836724
 20
162.9265541506
 11
213.6922836724
 21
162.8738726533
  0
LINE
  5
38F
100
AcDbEntity
  8
0
100
AcDbLine
 62
7
  6
CONTINUOUS
 10
214.6541771054
 20
162.9265541506
 11
214.6541771054
 21
162.8738726533
  0
LINE
  5
390
100
AcDbEntity
  8
0
100
AcDbLine
 62
7
  6
CONTINUOUS
 10
218.1582174685
 20
162.8738726533
 11
218.1582174685
 21
162.9265541506
  0
LINE
  5
391
100
AcDbEntity
  8
0
100
AcDbLine
 62
7
  6
CONTINUOUS
 10
221.3874311365
 20
162.8738726533
 11
221.3874311365
 21
162.9265541506
  0
LINE
  5
392
100
AcDbEntity
  8
0
100
AcDbLine
 62
7
  6
CONTINUOUS
 10
221.7309645156
 20
162.8738726533
 11
221.7309645156
 21
162.9265541506
  0
LINE
  5
393
100
AcDbEntity
  8
0
100
AcDbLine
 62
7
  6
CONTINUOUS
 10
221.859789529
 20
162.8738726533
 11
221.859789529
 21
162.9265541506
  0
LINE
  5
394
100
AcDbEntity
  8
0
100
AcDbLine
 62
7
  6
CONTINUOUS
 10
222.2033229082
 20
162.8738726533
 11
222.2033229082
 21
162.9265541506
  0
LINE
  5
395
100
AcDbEntity
  8
0
100
AcDbLine
 62
7
  6
CONTINUOUS
 10
222.3750895517
 20
162.8738726533
 11
222.3750895517
 21
162.9265541506
  0
LINE
  5
396
100
AcDbEntity
  8
0
100
AcDbLine
 62
7
  6
CONTINUOUS
 10
222.5039146264
 20
162.8738726533
 11
222.5039146264
 21
162.9265541506
  0
LINE
  5
397
100
AcDbEntity
  8
0
100
AcDbLine
 62
7
  6
CONTINUOUS
 10
222.8045062833
 20
162.8738726533
 11
222.8045062833
 21
162.9265541506
  0
LINE
  5
398
100
AcDbEntity
  8
0
100
AcDbLine
 62
7
  6
CONTINUOUS
 10
222.9762729268
 20
162.8738726533
 11
222.9762729268
 21
162.9265541506
  0
LINE
  5
399
100
AcDbEntity
  8
0
100
AcDbLine
 62
7
  6
CONTINUOUS
 10
223.2768647065
 20
162.8738726533
 11
223.2768647065
 21
162.9265541506
  0
LINE
  5
39A
100
AcDbEntity
  8
0
100
AcDbLine
 62
7
  6
CONTINUOUS
 10
223.4056897199
 20
162.8738726533
 11
223.4056897199
 21
162.9265541506
  0
LINE
  5
39B
100
AcDbEntity
  8
0
100
AcDbLine
 62
7
  6
CONTINUOUS
 10
232.6622783328
 20
156.8738726533
 11
232.6622783328
 21
162.8738726533
  0
LINE
  5
39C
100
AcDbEntity
  8
0
100
AcDbLine
 62
7
  6
CONTINUOUS
 10
243.6622783328
 20
159.3738726533
 11
243.6622783328
 21
160.3738726533
  0
ARC
  5
39D
100
AcDbEntity
  8
0
100
AcDbCircle
 62
7
  6
CONTINUOUS
 10
90.3070436154
 20
62.2509141872
 40
3.0383487883
100
AcDbArc
 50
89.1356575695
 51
90.0053171792
  0
ARC
  5
39E
100
AcDbEntity
  8
0
100
AcDbCircle
 62
7
  6
CONTINUOUS
 10
82.1222783328
 20
90.1838726533
 40
2.42
100
AcDbArc
 50
180.0
 51
270.0
  0
ARC
  5
39F
100
AcDbEntity
  8
0
100
AcDbCircle
 62
7
  6
CONTINUOUS
 10
82.1222783328
 20
91.9438726533
 40
2.42
100
AcDbArc
 50
90.0
 51
180.0
  0
ARC
  5
3A0
100
AcDbEntity
  8
0
100
AcDbCircle
 62
7
  6
CONTINUOUS
 10
142.6730669946
 20
67.686969518
 40
2.3977065555
100
AcDbArc
 50
269.7484209449
 51
270.000228739
  0
ARC
  5
3A1
100
AcDbEntity
  8
0
100
AcDbCircle
 62
7
  6
CONTINUOUS
 10
121.4622783328
 20
88.8238726533
 40
2.09
100
AcDbArc
 50
79.5243183036
 51
180.0
  0
ARC
  5
3A2
100
AcDbEntity
  8
0
100
AcDbCircle
 62
7
  6
CONTINUOUS
 10
120.8022783328
 20
88.9938726533
 40
2.08
100
AcDbArc
 50
90.0
 51
180.0
  0
ARC
  5
3A3
100
AcDbEntity
  8
0
100
AcDbCircle
 62
7
  6
CONTINUOUS
 10
85.8922783328
 20
92.4938726533
 40
1.87
100
AcDbArc
 50
276.258362736
 51
90.0
  0
ARC
  5
3A4
100
AcDbEntity
  8
0
100
AcDbCircle
 62
7
  6
CONTINUOUS
 10
82.1222783328
 20
91.9438726533
 40
1.65
100
AcDbArc
 50
90.0
 51
180.0
  0
ARC
  5
3A5
100
AcDbEntity
  8
0
100
AcDbCircle
 62
7
  6
CONTINUOUS
 10
82.1222783328
 20
90.1838726533
 40
1.65
100
AcDbArc
 50
180.0
 51
270.0
  0
ARC
  5
3A6
100
AcDbEntity
  8
0
100
AcDbCircle
 62
7
  6
CONTINUOUS
 10
119.0472783328
 20
89.7429800956
 40
1.37
100
AcDbArc
 50
76.2771093722
 51
103.7228906278
  0
ARC
  5
3A7
100
AcDbEntity
  8
0
100
AcDbCircle
 62
7
  6
CONTINUOUS
 10
85.8922783328
 20
92.4938726533
 40
1.1
100
AcDbArc
 50
270.0
 51
90.0
  0
ARC
  5
3A8
100
AcDbEntity
  8
0
100
AcDbCircle
 62
7
  6
CONTINUOUS
 10
140.6231787016
 20
63.0738726533
 40
1.0
100
AcDbArc
 50
270.0
 51
350.0000003317
  0
ARC
  5
3A9
100
AcDbEntity
  8
0
100
AcDbCircle
 62
7
  6
CONTINUOUS
 10
93.239628602
 20
67.0738726533
 40
1.0
100
AcDbArc
 50
90.0
 51
150.0000000005
  0
ARC
  5
3AA
100
AcDbEntity
  8
0
100
AcDbCircle
 62
7
  6
CONTINUOUS
 10
90.3528772561
 20
66.0738726533
 40
1.0
100
AcDbArc
 50
270.0
 51
330.0
  0
ARC
  5
3AB
100
AcDbEntity
  8
0
100
AcDbCircle
 62
7
  6
CONTINUOUS
 10
104.0764918952
 20
64.0738726533
 40
1.0
100
AcDbArc
 50
224.9999999996
 51
270.0
  0
ARC
  5
3AC
100
AcDbEntity
  8
0
100
AcDbCircle
 62
7
  6
CONTINUOUS
 10
130.5764918952
 20
63.0738726533
 40
1.0
100
AcDbArc
 50
224.9999999997
 51
270.0
  0
ARC
  5
3AD
100
AcDbEntity
  8
0
100
AcDbCircle
 62
7
  6
CONTINUOUS
 10
98.2480647704
 20
67.0738726533
 40
1.0
100
AcDbArc
 50
45.0
 51
90.0
  0
ARC
  5
3AE
100
AcDbEntity
  8
0
100
AcDbCircle
 62
7
  6
CONTINUOUS
 10
128.7480647704
 20
62.0738726533
 40
1.0
100
AcDbArc
 50
44.9999999996
 51
90.0
  0
ARC
  5
3AF
100
AcDbEntity
  8
0
100
AcDbCircle
 62
7
  6
CONTINUOUS
 10
142.6625389799
 20
64.2738726533
 40
0.8
100
AcDbArc
 50
90.0
 51
170.0
  0
ARC
  5
3B0
100
AcDbEntity
  8
0
100
AcDbCircle
 62
7
  6
CONTINUOUS
 10
90.3069963298
 20
106.3654149307
 40
0.4930674687
100
AcDbArc
 50
84.6607876351
 51
90.0271352912
  0
ARC
  5
3B1
100
AcDbEntity
  8
0
100
AcDbCircle
 62
7
  6
CONTINUOUS
 10
90.3069963038
 20
75.7823303538
 40
0.4930674466
100
AcDbArc
 50
269.9728680462
 51
275.3392156341
  0
ARC
  5
3B2
100
AcDbEntity
  8
0
100
AcDbCircle
 62
7
  6
CONTINUOUS
 10
90.3069708648
 20
80.6486343185
 40
0.425238386
100
AcDbArc
 50
83.8025859797
 51
90.0281309663
  0
ARC
  5
3B3
100
AcDbEntity
  8
0
100
AcDbCircle
 62
7
  6
CONTINUOUS
 10
90.306971061
 20
101.4991103526
 40
0.4252377507
100
AcDbArc
 50
269.971853165
 51
276.1973967223
  0
ARC
  5
3B4
100
AcDbEntity
  8
0
100
AcDbCircle
 62
7
  6
CONTINUOUS
 10
142.673068375
 20
74.9014956579
 40
0.3877673047
100
AcDbArc
 50
89.9988029488
 51
91.5559951894
  0
ARC
  5
3B5
100
AcDbEntity
  8
0
100
AcDbCircle
 62
7
  6
CONTINUOUS
 10
142.6730683745
 20
107.2462496351
 40
0.387767291
100
AcDbArc
 50
268.4440048261
 51
270.0011970668
  0
ARC
  5
3B6
100
AcDbEntity
  8
0
100
AcDbCircle
 62
7
  6
CONTINUOUS
 10
142.6730688328
 20
100.7400182277
 40
0.3338544257
100
AcDbArc
 50
89.9986794352
 51
91.807423107
  0
ARC
  5
3B7
100
AcDbEntity
  8
0
100
AcDbCircle
 62
7
  6
CONTINUOUS
 10
142.6730688324
 20
81.4077270662
 40
0.333854413
100
AcDbArc
 50
268.1925768879
 51
270.0013205599
  0
ARC
  5
3B8
100
AcDbEntity
  8
0
100
AcDbCircle
 62
7
  6
CONTINUOUS
 10
90.3070445546
 20
119.8968151449
 40
3.0383328139
100
AcDbArc
 50
269.9946704023
 51
270.8643292629
  0
ARC
  5
3B9
100
AcDbEntity
  8
0
100
AcDbCircle
 62
7
  6
CONTINUOUS
 10
93.239628602
 20
115.0738726533
 40
1.0
100
AcDbArc
 50
209.9999999994
 51
270.0
  0
ARC
  5
3BA
100
AcDbEntity
  8
0
100
AcDbCircle
 62
7
  6
CONTINUOUS
 10
90.3528772561
 20
116.0738726533
 40
1.0
100
AcDbArc
 50
30.0
 51
90.0
  0
ARC
  5
3BB
100
AcDbEntity
  8
0
100
AcDbCircle
 62
7
  6
CONTINUOUS
 10
98.2480647704
 20
115.0738726533
 40
1.0
100
AcDbArc
 50
270.0
 51
315.0000000004
  0
ARC
  5
3BC
100
AcDbEntity
  8
0
100
AcDbCircle
 62
7
  6
CONTINUOUS
 10
61.8961071729
 20
148.5012103278
 40
55.5831179998
100
AcDbArc
 50
353.6709999501
 51
353.8783855052
  0
ARC
  5
3BD
100
AcDbEntity
  8
0
100
AcDbCircle
 62
7
  6
CONTINUOUS
 10
104.4719186874
 20
119.8688243545
 40
3.8036771697
100
AcDbArc
 50
46.6999175026
 51
48.0858490383
  0
ARC
  5
3BE
100
AcDbEntity
  8
0
100
AcDbCircle
 62
7
  6
CONTINUOUS
 10
104.5131706431
 20
119.9121713801
 40
3.7438390482
100
AcDbArc
 50
45.5596672904
 51
46.7044134818
  0
ARC
  5
3BF
100
AcDbEntity
  8
0
100
AcDbCircle
 62
7
  6
CONTINUOUS
 10
104.6214593291
 20
120.0352725663
 40
3.579919707
100
AcDbArc
 50
48.0872899124
 51
49.5969990037
  0
ARC
  5
3C0
100
AcDbEntity
  8
0
100
AcDbCircle
 62
7
  6
CONTINUOUS
 10
104.0764918952
 20
118.0738726533
 40
1.0
100
AcDbArc
 50
90.0
 51
135.0000000004
  0
ARC
  5
3C1
100
AcDbEntity
  8
0
100
AcDbCircle
 62
7
  6
CONTINUOUS
 10
106.9769057713
 20
123.5961639255
 40
0.6843103126
100
AcDbArc
 50
180.0505243339
 51
196.2798675672
  0
ARC
  5
3C2
100
AcDbEntity
  8
0
100
AcDbCircle
 62
7
  6
CONTINUOUS
 10
106.4122783328
 20
122.5851975187
 40
0.5
100
AcDbArc
 50
0.0
 51
31.3496491075
  0
ARC
  5
3C3
100
AcDbEntity
  8
0
100
AcDbCircle
 62
7
  6
CONTINUOUS
 10
105.6622783328
 20
129.8667658721
 40
0.5
100
AcDbArc
 50
0.0
 51
45.0000000015
  0
ARC
  5
3C4
100
AcDbEntity
  8
0
100
AcDbCircle
 62
7
  6
CONTINUOUS
 10
106.9659311439
 20
123.5960617023
 40
0.4792342061
100
AcDbArc
 50
180.0599234485
 51
196.6226619185
  0
ARC
  5
3C5
100
AcDbEntity
  8
0
100
AcDbCircle
 62
7
  6
CONTINUOUS
 10
106.8208886253
 20
122.6551106935
 40
0.3953374072
100
AcDbArc
 50
18.7652312061
 51
27.0808492755
  0
ARC
  5
3C6
100
AcDbEntity
  8
0
100
AcDbCircle
 62
7
  6
CONTINUOUS
 10
106.9335764555
 20
122.5900417695
 40
0.2009474012
100
AcDbArc
 50
358.6186336009
 51
11.9131778864
  0
ARC
  5
3C7
100
AcDbEntity
  8
0
100
AcDbCircle
 62
7
  6
CONTINUOUS
 10
105.9622783328
 20
129.7738726533
 40
0.2
100
AcDbArc
 50
270.0
 51
360.0
  0
ARC
  5
3C8
100
AcDbEntity
  8
0
100
AcDbCircle
 62
7
  6
CONTINUOUS
 10
102.3622783328
 20
125.6893427071
 40
0.2
100
AcDbArc
 50
180.0
 51
240.0
  0
ARC
  5
3C9
100
AcDbEntity
  8
0
100
AcDbCircle
 62
7
  6
CONTINUOUS
 10
102.3622783328
 20
129.3738726533
 40
0.2
100
AcDbArc
 50
90.0
 51
180.0
  0
ARC
  5
3CA
100
AcDbEntity
  8
0
100
AcDbCircle
 62
7
  6
CONTINUOUS
 10
142.6730669952
 20
114.4607757478
 40
2.3977065963
100
AcDbArc
 50
89.9997712719
 51
90.2515790656
  0
ARC
  5
3CB
100
AcDbEntity
  8
0
100
AcDbCircle
 62
7
  6
CONTINUOUS
 10
140.6231787016
 20
119.0738726533
 40
1.0
100
AcDbArc
 50
9.9999996683
 51
90.0
  0
ARC
  5
3CC
100
AcDbEntity
  8
0
100
AcDbCircle
 62
7
  6
CONTINUOUS
 10
130.5764918952
 20
119.0738726533
 40
1.0
100
AcDbArc
 50
90.0
 51
135.0000000004
  0
ARC
  5
3CD
100
AcDbEntity
  8
0
100
AcDbCircle
 62
7
  6
CONTINUOUS
 10
128.7480647704
 20
120.0738726533
 40
1.0
100
AcDbArc
 50
270.0
 51
315.0000000004
  0
ARC
  5
3CE
100
AcDbEntity
  8
0
100
AcDbCircle
 62
7
  6
CONTINUOUS
 10
142.6625389799
 20
117.8738726533
 40
0.8
100
AcDbArc
 50
190.0
 51
270.0
  0
ARC
  5
3CF
100
AcDbEntity
  8
0
100
AcDbCircle
 62
7
  6
CONTINUOUS
 10
127.6622783328
 20
123.5955604898
 40
0.5
100
AcDbArc
 50
300.0
 51
360.0
  0
ARC
  5
3D0
100
AcDbEntity
  8
0
100
AcDbCircle
 62
7
  6
CONTINUOUS
 10
127.9122783328
 20
122.5851975187
 40
0.5
100
AcDbArc
 50
120.0
 51
180.0
  0
ARC
  5
3D1
100
AcDbEntity
  8
0
100
AcDbCircle
 62
7
  6
CONTINUOUS
 10
132.7622783328
 20
143.3738726533
 40
4.0
100
AcDbArc
 50
270.0
 51
315.0
  0
ARC
  5
3D2
100
AcDbEntity
  8
0
100
AcDbCircle
 62
7
  6
CONTINUOUS
 10
105.1622783328
 20
139.3738726533
 40
3.0
100
AcDbArc
 50
90.0
 51
180.0
  0
ARC
  5
3D3
100
AcDbEntity
  8
0
100
AcDbCircle
 62
7
  6
CONTINUOUS
 10
132.7622783328
 20
143.3738726533
 40
1.0
100
AcDbArc
 50
270.0
 51
315.0
  0
ARC
  5
3D4
100
AcDbEntity
  8
0
100
AcDbCircle
 62
7
  6
CONTINUOUS
 10
122.5622783328
 20
143.2274624918
 40
0.6
100
AcDbArc
 50
0.0
 51
60.0
  0
ARC
  5
3D5
100
AcDbEntity
  8
0
100
AcDbCircle
 62
7
  6
CONTINUOUS
 10
111.7622783328
 20
143.2274624918
 40
0.6
100
AcDbArc
 50
120.0
 51
180.0
  0
ARC
  5
3D6
100
AcDbEntity
  8
0
100
AcDbCircle
 62
7
  6
CONTINUOUS
 10
105.6622783328
 20
138.8738726533
 40
0.5
100
AcDbArc
 50
90.0
 51
180.0
  0
ARC
  5
3D7
100
AcDbEntity
  8
0
100
AcDbCircle
 62
7
  6
CONTINUOUS
 10
153.8333461447
 20
157.3738726533
 40
4.0
100
AcDbArc
 50
90.0
 51
135.0
  0
ARC
  5
3D8
100
AcDbEntity
  8
0
100
AcDbCircle
 62
7
  6
CONTINUOUS
 10
241.1622783328
 20
160.3738726533
 40
2.5
100
AcDbArc
 50
0.0
 51
90.0
  0
ARC
  5
3D9
100
AcDbEntity
  8
0
100
AcDbCircle
 62
7
  6
CONTINUOUS
 10
241.1622783328
 20
159.3738726533
 40
2.5
100
AcDbArc
 50
270.0
 51
360.0
  0
ARC
  5
3DA
100
AcDbEntity
  8
0
100
AcDbCircle
 62
7
  6
CONTINUOUS
 10
154.2475597071
 20
156.3738726533
 40
2.0
100
AcDbArc
 50
90.0
 51
135.0
  0
ARC
  5
3DB
100
AcDbEntity
  8
0
100
AcDbCircle
 62
7
  6
CONTINUOUS
 10
155.9622783328
 20
158.1738726533
 40
1.3
100
AcDbArc
 50
180.0
 51
270.0
  0
ARC
  5
3DC
100
AcDbEntity
  8
0
100
AcDbCircle
 62
7
  6
CONTINUOUS
 10
155.9622783328
 20
161.5738726533
 40
1.3
100
AcDbArc
 50
90.0
 51
180.0
  0
SPLINE
  5
3DD
100
AcDbEntity
  8
0
100
AcDbSpline
 62
7
  6
CONTINUOUS
 70
0
 71
3
 72
13
 73
9
 74
0
 42
0.0000001
 43
0.0000001
 44
0.0000000001
 40
0.0
 40
0.0
 40
0.0
 40
0.0
 40
0.0740385779
 40
0.1675066337
 40
0.2783899907
 40
0.4042924489
 40
0.6899917858
 40
1.0
 40
1.0
 40
1.0
 40
1.0
 10
109.6691062924
 20
133.5738723221
 30
0.0
 10
109.8590496828
 20
133.5860078033
 30
0.0
 10
110.2890801882
 20
133.6087101848
 30
0.0
 10
111.004089327
 20
133.6391923732
 30
0.0
 10
111.8525219516
 20
133.6698827739
 30
0.0
 10
113.1949873574
 20
133.7128301812
 30
0.0
 10
115.049315697
 20
133.7644100755
 30
0.0
 10
116.5801856309
 20
133.8040116828
 30
0.0
 10
117.3768540774
 20
133.8246922993
 30
0.0
  0
SPLINE
  5
3DE
100
AcDbEntity
  8
0
100
AcDbSpline
 62
7
  6
CONTINUOUS
 70
0
 71
3
 72
9
 73
5
 74
0
 42
0.0000001
 43
0.0000001
 44
0.0000000001
 40
0.0
 40
0.0
 40
0.0
 40
0.0
 40
0.2530279889
 40
1.0
 40
1.0
 40
1.0
 40
1.0
 10
116.9891268456
 20
134.2404703828
 30
0.0
 10
116.7928536129
 20
134.2372893251
 30
0.0
 10
116.0171558312
 20
134.2247219843
 30
0.0
 10
115.2414594329
 20
134.212065515
 30
0.0
 10
114.662040349
 20
134.202347265
 30
0.0
  0
SPLINE
  5
3DF
100
AcDbEntity
  8
0
100
AcDbSpline
 62
7
  6
CONTINUOUS
 70
0
 71
3
 72
28
 73
24
 74
0
 42
0.0000001
 43
0.0000001
 44
0.0000000001
 40
0.0
 40
0.0
 40
0.0
 40
0.0
 40
0.2062272519
 40
0.3974551824
 40
0.4858968749
 40
0.5687936296
 40
0.645623207
 40
0.7159008288
 40
0.7791862023
 40
0.8350882222
 40
0.8832586534
 40
0.9043529737
 40
0.9234088404
 40
0.9403966306
 40
0.9552941295
 40
0.9680803484
 40
0.9787356879
 40
0.9872490135
 40
0.993616361
 40
0.9959966974
 40
0.9978448351
 40
0.9991698159
 40
1.0
 40
1.0
 40
1.0
 40
1.0
 10
114.662040349
 20
134.202347265
 30
0.0
 10
114.2252381896
 20
134.1950210435
 30
0.0
 10
113.3834081848
 20
134.1806112908
 30
0.0
 10
112.3542766066
 20
134.1617107325
 30
0.0
 10
111.5863827062
 20
134.146409372
 30
0.0
 10
111.0607916202
 20
134.1352548932
 30
0.0
 10
110.5736872621
 20
134.1241254057
 30
0.0
 10
110.1281379336
 20
134.1130232753
 30
0.0
 10
109.7269347701
 20
134.1019549658
 30
0.0
 10
109.3725813877
 20
134.0909268784
 30
0.0
 10
109.1076020358
 20
134.0814128275
 30
0.0
 10
108.9206664763
 20
134.0736826505
 30
0.0
 10
108.7997534383
 20
134.0681548555
 30
0.0
 10
108.6919822514
 20
134.0626389134
 30
0.0
 10
108.5975103823
 20
134.0571405114
 30
0.0
 10
108.5164789449
 20
134.0516633934
 30
0.0
 10
108.4489996011
 20
134.0462285284
 30
0.0
 10
108.3951785689
 20
134.0408310313
 30
0.0
 10
108.3588935358
 20
134.0361060498
 30
0.0
 10
108.3368174827
 20
134.0321002081
 30
0.0
 10
108.3253245096
 20
134.0294295487
 30
0.0
 10
108.317305744
 20
134.0268131763
 30
0.0
 10
108.3131116781
 20
134.0247011534
 30
0.0
 10
108.3118692144
 20
134.0234565411
 30
0.0
  0
SPLINE
  5
3E0
100
AcDbEntity
  8
0
100
AcDbSpline
 62
7
  6
CONTINUOUS
 70
0
 71
3
 72
10
 73
6
 74
0
 42
0.0000001
 43
0.0000001
 44
0.0000000001
 40
0.0
 40
0.0
 40
0.0
 40
0.0
 40
0.2489854757
 40
0.4985223433
 40
1.0
 40
1.0
 40
1.0
 40
1.0
 10
113.4178015442
 20
138.0705813369
 30
0.0
 10
113.1546614001
 20
138.0635066609
 30
0.0
 10
112.6281347477
 20
138.0263893298
 30
0.0
 10
111.5823210776
 20
137.8656030297
 30
0.0
 10
110.8127264368
 20
137.659365219
 30
0.0
 10
110.3081763666
 20
137.4965223841
 30
0.0
  0
SPLINE
  5
3E1
100
AcDbEntity
  8
0
100
AcDbSpline
 62
7
  6
CONTINUOUS
 70
0
 71
3
 72
30
 73
26
 74
0
 42
0.0000001
 43
0.0000001
 44
0.0000000001
 40
0.0
 40
0.0
 40
0.0
 40
0.0
 40
0.0007023624
 40
0.0018060984
 40
0.0034389758
 40
0.0056370872
 40
0.0084136016
 40
0.0117740936
 40
0.0202543792
 40
0.0310754152
 40
0.0442164456
 40
0.0596523297
 40
0.0773478472
 40
0.0972599878
 40
0.1193442606
 40
0.1698091145
 40
0.2282598304
 40
0.2941316878
 40
0.3667899861
 40
0.4455342206
 40
0.5296018646
 40
0.618180526
 40
0.710414635
 40
0.8054112809
 40
1.0
 40
1.0
 40
1.0
 40
1.0
 10
108.9622823647
 20
133.6848735258
 30
0.0
 10
108.9622806101
 20
133.6868044522
 30
0.0
 10
108.9652009742
 20
133.6914770805
 30
0.0
 10
108.9733903009
 20
133.6962278712
 30
0.0
 10
108.9859973272
 20
133.7013632902
 30
0.0
 10
109.0034660392
 20
133.7063971612
 30
0.0
 10
109.025801686
 20
133.7115485772
 30
0.0
 10
109.0652959373
 20
133.7190117769
 30
0.0
 10
109.1269689899
 20
133.7279862927
 30
0.0
 10
109.2155739122
 20
133.7382292303
 30
0.0
 10
109.3234011778
 20
133.7485322032
 30
0.0
 10
109.4501935585
 20
133.7588823303
 30
0.0
 10
109.5956526957
 20
133.769258674
 30
0.0
 10
109.7594285612
 20
133.7796573856
 30
0.0
 10
110.0132074478
 20
133.7941922575
 30
0.0
 10
110.3729128478
 20
133.8120423615
 30
0.0
 10
110.8529937032
 20
133.8327132969
 30
0.0
 10
111.3941363504
 20
133.8534359454
 30
0.0
 10
111.9911046425
 20
133.8741986113
 30
0.0
 10
112.6381234075
 20
133.8949865985
 30
0.0
 10
113.3289305983
 20
133.9157937948
 30
0.0
 10
114.0568394528
 20
133.9366142472
 30
0.0
 10
114.8148056504
 20
133.957444015
 30
0.0
 10
115.8641260187
 20
133.9854492159
 30
0.0
 10
116.6599834275
 20
134.0060887424
 30
0.0
 10
117.1947645821
 20
134.0199664371
 30
0.0
  0
SPLINE
  5
3E2
100
AcDbEntity
  8
0
100
AcDbSpline
 62
7
  6
CONTINUOUS
 70
0
 71
3
 72
9
 73
5
 74
0
 42
0.0000001
 43
0.0000001
 44
0.0000000001
 40
0.0
 40
0.0
 40
0.0
 40
0.0
 40
0.2530237507
 40
1.0
 40
1.0
 40
1.0
 40
1.0
 10
117.1622783328
 20
142.5738726533
 30
0.0
 10
117.2220887691
 20
142.5567400093
 30
0.0
 10
117.4587302859
 20
142.4899367122
 30
0.0
 10
117.6958582649
 20
142.4248473194
 30
0.0
 10
117.8723166946
 20
142.3738726533
 30
0.0
  0
SPLINE
  5
3E3
100
AcDbEntity
  8
0
100
AcDbSpline
 62
7
  6
CONTINUOUS
 70
0
 71
3
 72
11
 73
7
 74
0
 42
0.0000001
 43
0.0000001
 44
0.0000000001
 40
0.0
 40
0.0
 40
0.0
 40
0.0
 40
0.2514178059
 40
0.5017501979
 40
0.7511495642
 40
1.0
 40
1.0
 40
1.0
 40
1.0
 10
113.1622783328
 20
147.2166070634
 30
0.0
 10
113.3244784165
 20
147.2706737579
 30
0.0
 10
113.6512331567
 20
147.3697744713
 30
0.0
 10
114.149523795
 20
147.4843497138
 30
0.0
 10
114.6540013836
 20
147.5571606325
 30
0.0
 10
114.9930503449
 20
147.5738726533
 30
0.0
 10
115.1622783335
 20
147.5738726533
 30
0.0
  0
SPLINE
  5
3E4
100
AcDbEntity
  8
0
100
AcDbSpline
 62
7
  6
CONTINUOUS
 70
0
 71
3
 72
11
 73
7
 74
0
 42
0.0000001
 43
0.0000001
 44
0.0000000001
 40
0.0
 40
0.0
 40
0.0
 40
0.0
 40
0.2488504827
 40
0.4982499007
 40
0.7485823605
 40
1.0
 40
1.0
 40
1.0
 40
1.0
 10
115.1622783335
 20
147.5738726533
 30
0.0
 10
115.3315063539
 20
147.5738726533
 30
0.0
 10
115.670555384
 20
147.5571606441
 30
0.0
 10
116.175033075
 20
147.4843496465
 30
0.0
 10
116.6733236858
 20
147.3697744333
 30
0.0
 10
117.0000783567
 20
147.2706737221
 30
0.0
 10
117.1622783328
 20
147.2166070634
 30
0.0
  0
SPLINE
  5
3E5
100
AcDbEntity
  8
0
100
AcDbSpline
 62
7
  6
CONTINUOUS
 70
0
 71
3
 72
15
 73
11
 74
0
 42
0.0000001
 43
0.0000001
 44
0.0000000001
 40
0.0
 40
0.0
 40
0.0
 40
0.0
 40
0.1257074555
 40
0.2508731029
 40
0.375574375
 40
0.5000000233
 40
0.6244256674
 40
0.7491269306
 40
0.874292556
 40
1.0
 40
1.0
 40
1.0
 40
1.0
 10
117.1622783328
 20
144.3713076018
 30
0.0
 10
117.0000801671
 20
144.425373657
 30
0.0
 10
116.6733258353
 20
144.5244734414
 30
0.0
 10
116.1750465558
 20
144.6390503275
 30
0.0
 10
115.6705289602
 20
144.7118581948
 30
0.0
 10
115.162278244
 20
144.7369106807
 30
0.0
 10
114.6540275421
 20
144.7118581624
 30
0.0
 10
114.1495099958
 20
144.6390502933
 30
0.0
 10
113.6512307713
 20
144.5244734254
 30
0.0
 10
113.3244764838
 20
144.4253736521
 30
0.0
 10
113.1622783328
 20
144.3713076018
 30
0.0
  0
SPLINE
  5
3E6
100
AcDbEntity
  8
0
100
AcDbSpline
 62
7
  6
CONTINUOUS
 70
0
 71
3
 72
11
 73
7
 74
0
 42
0.0000001
 43
0.0000001
 44
0.0000000001
 40
0.0
 40
0.0
 40
0.0
 40
0.0
 40
0.2514175677
 40
0.5017500004
 40
0.7511494403
 40
1.0
 40
1.0
 40
1.0
 40
1.0
 10
117.1622783328
 20
147.2166070634
 30
0.0
 10
117.3244782627
 20
147.2706737067
 30
0.0
 10
117.6512328673
 20
147.3697744052
 30
0.0
 10
118.1495234257
 20
147.4843496102
 30
0.0
 10
118.6540011604
 20
147.5571606528
 30
0.0
 10
118.9930502593
 20
147.5738726533
 30
0.0
 10
119.1622783321
 20
147.5738726533
 30
0.0
  0
SPLINE
  5
3E7
100
AcDbEntity
  8
0
100
AcDbSpline
 62
7
  6
CONTINUOUS
 70
0
 71
3
 72
11
 73
7
 74
0
 42
0.0000001
 43
0.0000001
 44
0.0000000001
 40
0.0
 40
0.0
 40
0.0
 40
0.0
 40
0.2488505601
 40
0.4982499613
 40
0.7485822917
 40
1.0
 40
1.0
 40
1.0
 40
1.0
 10
119.1622783321
 20
147.5738726533
 30
0.0
 10
119.3315064054
 20
147.5738726533
 30
0.0
 10
119.6705554778
 20
147.55716065
 30
0.0
 10
120.1750331235
 20
147.4843496535
 30
0.0
 10
120.6733236786
 20
147.3697744316
 30
0.0
 10
121.000078312
 20
147.270673737
 30
0.0
 10
121.1622783328
 20
147.2166070634
 30
0.0
  0
SPLINE
  5
3E8
100
AcDbEntity
  8
0
100
AcDbSpline
 62
7
  6
CONTINUOUS
 70
0
 71
3
 72
15
 73
11
 74
0
 42
0.0000001
 43
0.0000001
 44
0.0000000001
 40
0.0
 40
0.0
 40
0.0
 40
0.0
 40
0.1257074555
 40
0.2508731029
 40
0.375574375
 40
0.5000000233
 40
0.6244256674
 40
0.7491269306
 40
0.874292556
 40
1.0
 40
1.0
 40
1.0
 40
1.0
 10
121.1622783328
 20
144.3713076018
 30
0.0
 10
121.0000801671
 20
144.425373657
 30
0.0
 10
120.6733258353
 20
144.5244734414
 30
0.0
 10
120.1750465558
 20
144.6390503275
 30
0.0
 10
119.6705289602
 20
144.7118581948
 30
0.0
 10
119.162278244
 20
144.7369106807
 30
0.0
 10
118.6540275421
 20
144.7118581624
 30
0.0
 10
118.1495099958
 20
144.6390502933
 30
0.0
 10
117.6512307713
 20
144.5244734254
 30
0.0
 10
117.3244764838
 20
144.4253736521
 30
0.0
 10
117.1622783328
 20
144.3713076018
 30
0.0
  0
LINE
  5
3E9
100
AcDbEntity
  8
0
100
AcDbLine
 62
7
  6
CONTINUOUS
 10
116.3690166918
 20
142.3738726533
 11
116.3767837683
 21
142.4481288288
  0
SPLINE
  5
3EA
100
AcDbEntity
  8
0
100
AcDbSpline
 62
7
  6
CONTINUOUS
 70
0
 71
3
 72
8
 73
4
 74
0
 42
0.0000001
 43
0.0000001
 44
0.0000000001
 40
0.0
 40
0.0
 40
0.0
 40
0.0
 40
1.0
 40
1.0
 40
1.0
 40
1.0
 10
154.6622783328
 20
158.7105476952
 30
0.0
 10
154.6622783328
 20
158.5981664623
 30
0.0
 10
154.6668647056
 20
158.4854778544
 30
0.0
 10
154.6800488098
 20
158.3738726533
 30
0.0
  0
SPLINE
  5
3EB
100
AcDbEntity
  8
0
100
AcDbSpline
 62
7
  6
CONTINUOUS
 70
0
 71
3
 72
8
 73
4
 74
0
 42
0.0000001
 43
0.0000001
 44
0.0000000001
 40
0.0
 40
0.0
 40
0.0
 40
0.0
 40
1.0
 40
1.0
 40
1.0
 40
1.0
 10
154.6800488098
 20
161.3738726533
 30
0.0
 10
154.6668647056
 20
161.2622674522
 30
0.0
 10
154.6622783328
 20
161.1495788443
 30
0.0
 10
154.6622783328
 20
161.0371976114
 30
0.0
  0
SPLINE
  5
3EC
100
AcDbEntity
  8
0
100
AcDbSpline
 62
7
  6
CONTINUOUS
 70
0
 71
3
 72
11
 73
7
 74
0
 42
0.0000001
 43
0.0000001
 44
0.0000000001
 40
0.0
 40
0.0
 40
0.0
 40
0.0
 40
0.2504242301
 40
0.5000000188
 40
0.7495757881
 40
1.0
 40
1.0
 40
1.0
 40
1.0
 10
142.6730777153
 20
106.8584823441
 30
0.0
 10
142.7825387087
 20
107.6884516211
 30
0.0
 10
142.9549195011
 20
109.3522515318
 30
0.0
 10
143.0452561555
 20
111.8584824723
 30
0.0
 10
142.9549203023
 20
114.364713423
 30
0.0
 10
142.7825387309
 20
116.0285131316
 30
0.0
 10
142.6730777153
 20
116.8584823441
 30
0.0
  0
SPLINE
  5
3ED
100
AcDbEntity
  8
0
100
AcDbSpline
 62
7
  6
CONTINUOUS
 70
0
 71
3
 72
11
 73
7
 74
0
 42
0.0000001
 43
0.0000001
 44
0.0000000001
 40
0.0
 40
0.0
 40
0.0
 40
0.0
 40
0.2498001903
 40
0.4991180689
 40
0.7489191672
 40
1.0
 40
1.0
 40
1.0
 40
1.0
 10
141.8746927775
 20
107.3869333394
 30
0.0
 10
141.9873654608
 20
108.2234042014
 30
0.0
 10
142.1652140969
 20
109.9017172803
 30
0.0
 10
142.2584379449
 20
112.4326350835
 30
0.0
 10
142.1648920861
 20
114.9678565788
 30
0.0
 10
141.9872414565
 20
116.6521613337
 30
0.0
 10
141.8746927775
 20
117.4930147164
 30
0.0
  0
SPLINE
  5
3EE
100
AcDbEntity
  8
0
100
AcDbSpline
 62
7
  6
CONTINUOUS
 70
0
 71
3
 72
11
 73
7
 74
0
 42
0.0000001
 43
0.0000001
 44
0.0000000001
 40
0.0
 40
0.0
 40
0.0
 40
0.0
 40
0.2560611039
 40
0.5083700527
 40
0.7559568348
 40
1.0
 40
1.0
 40
1.0
 40
1.0
 10
142.6625389799
 20
116.8584592305
 30
0.0
 10
142.5692713763
 20
116.8580493724
 30
0.0
 10
142.3823971539
 20
116.8890370781
 30
0.0
 10
142.1370920328
 20
117.0254314488
 30
0.0
 10
141.9554585527
 20
117.2337862653
 30
0.0
 10
141.8906918529
 20
117.405575316
 30
0.0
 10
141.8746927775
 20
117.4930147164
 30
0.0
  0
SPLINE
  5
3EF
100
AcDbEntity
  8
0
100
AcDbSpline
 62
7
  6
CONTINUOUS
 70
0
 71
3
 72
11
 73
7
 74
0
 42
0.0000001
 43
0.0000001
 44
0.0000000001
 40
0.0
 40
0.0
 40
0.0
 40
0.0
 40
0.2762326535
 40
0.539393502
 40
0.7804930221
 40
1.0
 40
1.0
 40
1.0
 40
1.0
 10
142.6625389799
 20
106.8586253275
 30
0.0
 10
142.5693647256
 20
106.8611580732
 30
0.0
 10
142.3871028458
 20
106.8904004234
 30
0.0
 10
142.1448390042
 20
107.0024082597
 30
0.0
 10
141.9612894112
 20
107.1702112386
 30
0.0
 10
141.8911810738
 20
107.3147240614
 30
0.0
 10
141.8746927775
 20
107.3869333394
 30
0.0
  0
SPLINE
  5
3F0
100
AcDbEntity
  8
0
100
AcDbSpline
 62
7
  6
CONTINUOUS
 70
0
 71
3
 72
9
 73
5
 74
0
 42
0.0000001
 43
0.0000001
 44
0.0000000001
 40
0.0
 40
0.0
 40
0.0
 40
0.0
 40
0.4999984096
 40
1.0
 40
1.0
 40
1.0
 40
1.0
 10
143.0151929413
 20
91.0738726533
 30
0.0
 10
143.0151930927
 20
92.7417385537
 30
0.0
 10
142.9551597753
 20
96.0777356688
 30
0.0
 10
142.7828237965
 20
99.4096106986
 30
0.0
 10
142.6730777153
 20
101.0738726533
 30
0.0
  0
SPLINE
  5
3F1
100
AcDbEntity
  8
0
100
AcDbSpline
 62
7
  6
CONTINUOUS
 70
0
 71
3
 72
9
 73
5
 74
0
 42
0.0000001
 43
0.0000001
 44
0.0000000001
 40
0.0
 40
0.0
 40
0.0
 40
0.0
 40
0.4999984819
 40
1.0
 40
1.0
 40
1.0
 40
1.0
 10
142.2273467389
 20
91.0738726533
 30
0.0
 10
142.2273468167
 20
92.7594801861
 30
0.0
 10
142.1653231549
 20
96.1309738998
 30
0.0
 10
141.9876058678
 20
99.4981223369
 30
0.0
 10
141.8746927775
 20
101.1799540452
 30
0.0
  0
SPLINE
  5
3F2
100
AcDbEntity
  8
0
100
AcDbSpline
 62
7
  6
CONTINUOUS
 70
0
 71
3
 72
13
 73
9
 74
0
 42
0.0000001
 43
0.0000001
 44
0.0000000001
 40
0.0
 40
0.0
 40
0.0
 40
0.0
 40
0.3428244957
 40
0.6430110138
 40
0.7663958155
 40
0.8679515165
 40
0.9457580188
 40
1.0
 40
1.0
 40
1.0
 40
1.0
 10
142.6625389799
 20
101.073706555
 30
0.0
 10
142.5705966004
 20
101.0708032499
 30
0.0
 10
142.3979387525
 20
101.0712022541
 30
0.0
 10
142.1925138814
 20
101.0866778743
 30
0.0
 10
142.0534061762
 20
101.1093544151
 30
0.0
 10
141.974239209
 20
101.1285426057
 30
0.0
 10
141.9155117686
 20
101.1502479801
 30
0.0
 10
141.8845523881
 20
101.1692479652
 30
0.0
 10
141.8746927775
 20
101.1799540452
 30
0.0
  0
SPLINE
  5
3F3
100
AcDbEntity
  8
0
100
AcDbSpline
 62
7
  6
CONTINUOUS
 70
0
 71
3
 72
9
 73
5
 74
0
 42
0.0000001
 43
0.0000001
 44
0.0000000001
 40
0.0
 40
0.0
 40
0.0
 40
0.0
 40
0.5000015904
 40
1.0
 40
1.0
 40
1.0
 40
1.0
 10
142.6730777153
 20
81.0738726533
 30
0.0
 10
142.782823797
 20
82.7381346079
 30
0.0
 10
142.9551597759
 20
86.0700096377
 30
0.0
 10
143.0151930919
 20
89.4060067528
 30
0.0
 10
143.0151929413
 20
91.0738726533
 30
0.0
  0
SPLINE
  5
3F4
100
AcDbEntity
  8
0
100
AcDbSpline
 62
7
  6
CONTINUOUS
 70
0
 71
3
 72
9
 73
5
 74
0
 42
0.0000001
 43
0.0000001
 44
0.0000000001
 40
0.0
 40
0.0
 40
0.0
 40
0.0
 40
0.5000015181
 40
1.0
 40
1.0
 40
1.0
 40
1.0
 10
141.8746927775
 20
80.9677912616
 30
0.0
 10
141.987605868
 20
82.6496229697
 30
0.0
 10
142.1653231551
 20
86.0167714068
 30
0.0
 10
142.2273468163
 20
89.3882651205
 30
0.0
 10
142.2273467389
 20
91.0738726533
 30
0.0
  0
SPLINE
  5
3F5
100
AcDbEntity
  8
0
100
AcDbSpline
 62
7
  6
CONTINUOUS
 70
0
 71
3
 72
13
 73
9
 74
0
 42
0.0000001
 43
0.0000001
 44
0.0000000001
 40
0.0
 40
0.0
 40
0.0
 40
0.0
 40
0.3428244969
 40
0.6430110148
 40
0.7663958167
 40
0.8679515179
 40
0.9457580195
 40
1.0
 40
1.0
 40
1.0
 40
1.0
 10
142.6625389799
 20
81.0740387516
 30
0.0
 10
142.5705966002
 20
81.0769420565
 30
0.0
 10
142.3979387523
 20
81.0765430519
 30
0.0
 10
142.1925138809
 20
81.0610674321
 30
0.0
 10
142.0534061762
 20
81.0383908893
 30
0.0
 10
141.9742392094
 20
81.0192026978
 30
0.0
 10
141.9155117689
 20
80.9974973252
 30
0.0
 10
141.884552388
 20
80.9784973414
 30
0.0
 10
141.8746927775
 20
80.9677912616
 30
0.0
  0
SPLINE
  5
3F6
100
AcDbEntity
  8
0
100
AcDbSpline
 62
7
  6
CONTINUOUS
 70
0
 71
3
 72
11
 73
7
 74
0
 42
0.0000001
 43
0.0000001
 44
0.0000000001
 40
0.0
 40
0.0
 40
0.0
 40
0.0
 40
0.2504242119
 40
0.4999999812
 40
0.7495757699
 40
1.0
 40
1.0
 40
1.0
 40
1.0
 10
142.6730777153
 20
65.2892629625
 30
0.0
 10
142.7825387313
 20
66.1192321749
 30
0.0
 10
142.9549203025
 20
67.7830318836
 30
0.0
 10
143.0452561552
 20
70.2892628343
 30
0.0
 10
142.9549195012
 20
72.7954937747
 30
0.0
 10
142.7825387082
 20
74.4592936855
 30
0.0
 10
142.6730777153
 20
75.2892629625
 30
0.0
  0
SPLINE
  5
3F7
100
AcDbEntity
  8
0
100
AcDbSpline
 62
7
  6
CONTINUOUS
 70
0
 71
3
 72
11
 73
7
 74
0
 42
0.0000001
 43
0.0000001
 44
0.0000000001
 40
0.0
 40
0.0
 40
0.0
 40
0.0
 40
0.2510808328
 40
0.5008819311
 40
0.7501998097
 40
1.0
 40
1.0
 40
1.0
 40
1.0
 10
141.8746927775
 20
64.6547305902
 30
0.0
 10
141.9872414567
 20
65.4955839729
 30
0.0
 10
142.164892086
 20
67.1798887279
 30
0.0
 10
142.2584379449
 20
69.7151102231
 30
0.0
 10
142.165214097
 20
72.2460280264
 30
0.0
 10
141.9873654605
 20
73.9243411052
 30
0.0
 10
141.8746927775
 20
74.7608119673
 30
0.0
  0
SPLINE
  5
3F8
100
AcDbEntity
  8
0
100
AcDbSpline
 62
7
  6
CONTINUOUS
 70
0
 71
3
 72
11
 73
7
 74
0
 42
0.0000001
 43
0.0000001
 44
0.0000000001
 40
0.0
 40
0.0
 40
0.0
 40
0.0
 40
0.2762326531
 40
0.5393935026
 40
0.780493024
 40
1.0
 40
1.0
 40
1.0
 40
1.0
 10
142.6625389799
 20
75.2891199791
 30
0.0
 10
142.5693647259
 20
75.2865872333
 30
0.0
 10
142.3871028461
 20
75.257344883
 30
0.0
 10
142.1448390039
 20
75.1453370464
 30
0.0
 10
141.9612894124
 20
74.9775340663
 30
0.0
 10
141.8911810736
 20
74.8330212447
 30
0.0
 10
141.8746927775
 20
74.7608119673
 30
0.0
  0
SPLINE
  5
3F9
100
AcDbEntity
  8
0
100
AcDbSpline
 62
7
  6
CONTINUOUS
 70
0
 71
3
 72
10
 73
6
 74
0
 42
0.0000001
 43
0.0000001
 44
0.0000000001
 40
0.0
 40
0.0
 40
0.0
 40
0.0
 40
0.5085818278
 40
0.7555737097
 40
1.0
 40
1.0
 40
1.0
 40
1.0
 10
156.5075777944
 20
106.8584823441
 30
0.0
 10
156.8629643356
 20
107.6586941534
 30
0.0
 10
157.3026998541
 20
108.8937634647
 30
0.0
 10
157.6103895591
 20
110.5907137503
 30
0.0
 10
157.6622783327
 20
111.4376758796
 30
0.0
 10
157.6622783328
 20
111.8584823417
 30
0.0
  0
SPLINE
  5
3FA
100
AcDbEntity
  8
0
100
AcDbSpline
 62
7
  6
CONTINUOUS
 70
0
 71
3
 72
11
 73
7
 74
0
 42
0.0000001
 43
0.0000001
 44
0.0000000001
 40
0.0
 40
0.0
 40
0.0
 40
0.0
 40
0.2560611046
 40
0.5083700528
 40
0.7559568347
 40
1.0
 40
1.0
 40
1.0
 40
1.0
 10
142.6625389799
 20
65.2892860761
 30
0.0
 10
142.5692713761
 20
65.2896959342
 30
0.0
 10
142.3823971536
 20
65.2587082283
 30
0.0
 10
142.1370920327
 20
65.1223138576
 30
0.0
 10
141.9554585528
 20
64.9139590412
 30
0.0
 10
141.8906918529
 20
64.7421699906
 30
0.0
 10
141.8746927775
 20
64.6547305902
 30
0.0
  0
SPLINE
  5
3FB
100
AcDbEntity
  8
0
100
AcDbSpline
 62
7
  6
CONTINUOUS
 70
0
 71
3
 72
10
 73
6
 74
0
 42
0.0000001
 43
0.0000001
 44
0.0000000001
 40
0.0
 40
0.0
 40
0.0
 40
0.0
 40
0.2444262976
 40
0.4914181851
 40
1.0
 40
1.0
 40
1.0
 40
1.0
 10
157.6622783328
 20
111.8584823417
 30
0.0
 10
157.6622783329
 20
112.2792888167
 30
0.0
 10
157.6103895555
 20
113.1262509689
 30
0.0
 10
157.3026998445
 20
114.8232012551
 30
0.0
 10
156.862964327
 20
116.0582705543
 30
0.0
 10
156.5075777944
 20
116.8584823441
 30
0.0
  0
SPLINE
  5
3FC
100
AcDbEntity
  8
0
100
AcDbSpline
 62
7
  6
CONTINUOUS
 70
0
 71
3
 72
10
 73
6
 74
0
 42
0.0000001
 43
0.0000001
 44
0.0000000001
 40
0.0
 40
0.0
 40
0.0
 40
0.0
 40
0.4999223001
 40
0.7499611543
 40
1.0
 40
1.0
 40
1.0
 40
1.0
 10
156.5075777944
 20
81.0738726533
 30
0.0
 10
156.8718513303
 20
82.7143173602
 30
0.0
 10
157.3089570484
 20
85.202829063
 30
0.0
 10
157.611050885
 20
88.551991983
 30
0.0
 10
157.6622783327
 20
90.2334100173
 30
0.0
 10
157.6622783328
 20
91.0738726486
 30
0.0
  0
SPLINE
  5
3FD
100
AcDbEntity
  8
0
100
AcDbSpline
 62
7
  6
CONTINUOUS
 70
0
 71
3
 72
10
 73
6
 74
0
 42
0.0000001
 43
0.0000001
 44
0.0000000001
 40
0.0
 40
0.0
 40
0.0
 40
0.0
 40
0.250038853
 40
0.5000777128
 40
1.0
 40
1.0
 40
1.0
 40
1.0
 10
157.6622783328
 20
91.0738726486
 30
0.0
 10
157.6622783329
 20
91.9143353053
 30
0.0
 10
157.6110508815
 20
93.5957533847
 30
0.0
 10
157.3089570389
 20
96.9449163074
 30
0.0
 10
156.8718513212
 20
99.4334279872
 30
0.0
 10
156.5075777944
 20
101.0738726533
 30
0.0
  0
SPLINE
  5
3FE
100
AcDbEntity
  8
0
100
AcDbSpline
 62
7
  6
CONTINUOUS
 70
0
 71
3
 72
10
 73
6
 74
0
 42
0.0000001
 43
0.0000001
 44
0.0000000001
 40
0.0
 40
0.0
 40
0.0
 40
0.0
 40
0.5085818278
 40
0.7555737097
 40
1.0
 40
1.0
 40
1.0
 40
1.0
 10
156.5075777944
 20
65.2892629625
 30
0.0
 10
156.8629643356
 20
66.0894747718
 30
0.0
 10
157.3026998541
 20
67.3245440831
 30
0.0
 10
157.6103895591
 20
69.0214943686
 30
0.0
 10
157.6622783327
 20
69.868456498
 30
0.0
 10
157.6622783328
 20
70.2892629601
 30
0.0
  0
SPLINE
  5
3FF
100
AcDbEntity
  8
0
100
AcDbSpline
 62
7
  6
CONTINUOUS
 70
0
 71
3
 72
10
 73
6
 74
0
 42
0.0000001
 43
0.0000001
 44
0.0000000001
 40
0.0
 40
0.0
 40
0.0
 40
0.0
 40
0.2444262976
 40
0.4914181851
 40
1.0
 40
1.0
 40
1.0
 40
1.0
 10
157.6622783328
 20
70.2892629601
 30
0.0
 10
157.6622783329
 20
70.710069435
 30
0.0
 10
157.6103895555
 20
71.5570315873
 30
0.0
 10
157.3026998445
 20
73.2539818735
 30
0.0
 10
156.862964327
 20
74.4890511726
 30
0.0
 10
156.5075777944
 20
75.2892629625
 30
0.0
  0
SPLINE
  5
400
100
AcDbEntity
  8
0
100
AcDbSpline
 62
7
  6
CONTINUOUS
 70
0
 71
3
 72
10
 73
6
 74
0
 42
0.0000001
 43
0.0000001
 44
0.0000000001
 40
0.0
 40
0.0
 40
0.0
 40
0.0
 40
0.7143811974
 40
0.9079629918
 40
1.0
 40
1.0
 40
1.0
 40
1.0
 10
131.1354834136
 20
142.3570039176
 30
0.0
 10
131.1422127472
 20
142.3582451865
 30
0.0
 10
131.1510968463
 20
142.3601333087
 30
0.0
 10
131.1595726418
 20
142.3631533161
 30
0.0
 10
131.1622783328
 20
142.3650823707
 30
0.0
 10
131.1622783328
 20
142.3659639672
 30
0.0
  0
SPLINE
  5
401
100
AcDbEntity
  8
0
100
AcDbSpline
 62
7
  6
CONTINUOUS
 70
0
 71
3
 72
8
 73
4
 74
0
 42
0.0000001
 43
0.0000001
 44
0.0000000001
 40
0.0
 40
0.0
 40
0.0
 40
0.0
 40
1.0
 40
1.0
 40
1.0
 40
1.0
 10
135.7631555349
 20
84.5178316985
 30
0.0
 10
135.8971052195
 20
84.35121144
 30
0.0
 10
135.9622783328
 20
84.1056172628
 30
0.0
 10
135.9622783328
 20
83.7769277257
 30
0.0
  0
SPLINE
  5
402
100
AcDbEntity
  8
0
100
AcDbSpline
 62
7
  6
CONTINUOUS
 70
0
 71
3
 72
8
 73
4
 74
0
 42
0.0000001
 43
0.0000001
 44
0.0000000001
 40
0.0
 40
0.0
 40
0.0
 40
0.0
 40
1.0
 40
1.0
 40
1.0
 40
1.0
 10
135.1975804473
 20
84.9125692815
 30
0.0
 10
135.4408934261
 20
84.8147011251
 30
0.0
 10
135.6298954393
 20
84.6835941762
 30
0.0
 10
135.7631555349
 20
84.5178316985
 30
0.0
  0
SPLINE
  5
403
100
AcDbEntity
  8
0
100
AcDbSpline
 62
7
  6
CONTINUOUS
 70
0
 71
3
 72
8
 73
4
 74
0
 42
0.0000001
 43
0.0000001
 44
0.0000000001
 40
0.0
 40
0.0
 40
0.0
 40
0.0
 40
1.0
 40
1.0
 40
1.0
 40
1.0
 10
134.3199157382
 20
85.0602946538
 30
0.0
 10
134.6609884883
 20
85.0602946538
 30
0.0
 10
134.9542674686
 20
85.0104374379
 30
0.0
 10
135.1975804473
 20
84.9125692815
 30
0.0
  0
SPLINE
  5
404
100
AcDbEntity
  8
0
100
AcDbSpline
 62
7
  6
CONTINUOUS
 70
0
 71
3
 72
8
 73
4
 74
0
 42
0.0000001
 43
0.0000001
 44
0.0000000001
 40
0.0
 40
0.0
 40
0.0
 40
0.0
 40
1.0
 40
1.0
 40
1.0
 40
1.0
 10
133.1776874624
 20
84.7477667818
 30
0.0
 10
133.455285802
 20
84.9550400991
 30
0.0
 10
133.8354623462
 20
85.0602946538
 30
0.0
 10
134.3199157382
 20
85.0602946538
 30
0.0
  0
SPLINE
  5
405
100
AcDbEntity
  8
0
100
AcDbSpline
 62
7
  6
CONTINUOUS
 70
0
 71
3
 72
8
 73
4
 74
0
 42
0.0000001
 43
0.0000001
 44
0.0000000001
 40
0.0
 40
0.0
 40
0.0
 40
0.0
 40
1.0
 40
1.0
 40
1.0
 40
1.0
 10
132.7622783328
 20
83.9486585683
 30
0.0
 10
132.7622783328
 20
84.2736555547
 30
0.0
 10
132.9013143207
 20
84.5414082784
 30
0.0
 10
133.1776874624
 20
84.7477667818
 30
0.0
  0
SPLINE
  5
406
100
AcDbEntity
  8
0
100
AcDbSpline
 62
7
  6
CONTINUOUS
 70
0
 71
3
 72
8
 73
4
 74
0
 42
0.0000001
 43
0.0000001
 44
0.0000000001
 40
0.0
 40
0.0
 40
0.0
 40
0.0
 40
1.0
 40
1.0
 40
1.0
 40
1.0
 10
133.2493303512
 20
84.2254680907
 30
0.0
 10
133.1967658664
 20
84.1333159322
 30
0.0
 10
133.1706966067
 20
83.9763572377
 30
0.0
 10
133.1706966067
 20
83.7510753316
 30
0.0
  0
SPLINE
  5
407
100
AcDbEntity
  8
0
100
AcDbSpline
 62
7
  6
CONTINUOUS
 70
0
 71
3
 72
8
 73
4
 74
0
 42
0.0000001
 43
0.0000001
 44
0.0000000001
 40
0.0
 40
0.0
 40
0.0
 40
0.0
 40
1.0
 40
1.0
 40
1.0
 40
1.0
 10
133.4683840596
 20
84.4619407367
 30
0.0
 10
133.374905553
 20
84.3955291814
 30
0.0
 10
133.3010427142
 20
84.3161263723
 30
0.0
 10
133.2493303512
 20
84.2254680907
 30
0.0
  0
SPLINE
  5
408
100
AcDbEntity
  8
0
100
AcDbSpline
 62
7
  6
CONTINUOUS
 70
0
 71
3
 72
8
 73
4
 74
0
 42
0.0000001
 43
0.0000001
 44
0.0000000001
 40
0.0
 40
0.0
 40
0.0
 40
0.0
 40
1.0
 40
1.0
 40
1.0
 40
1.0
 10
134.3416402484
 20
84.6743615026
 30
0.0
 10
133.957118764
 20
84.6743615026
 30
0.0
 10
133.6660121585
 20
84.6023450917
 30
0.0
 10
133.4683840596
 20
84.4619407367
 30
0.0
  0
SPLINE
  5
409
100
AcDbEntity
  8
0
100
AcDbSpline
 62
7
  6
CONTINUOUS
 70
0
 71
3
 72
8
 73
4
 74
0
 42
0.0000001
 43
0.0000001
 44
0.0000000001
 40
0.0
 40
0.0
 40
0.0
 40
0.0
 40
1.0
 40
1.0
 40
1.0
 40
1.0
 10
135.2346991645
 20
84.4714536134
 30
0.0
 10
135.0216129924
 20
84.6060382909
 30
0.0
 10
134.7239891673
 20
84.6743615026
 30
0.0
 10
134.3416402484
 20
84.6743615026
 30
0.0
  0
SPLINE
  5
40A
100
AcDbEntity
  8
0
100
AcDbSpline
 62
7
  6
CONTINUOUS
 70
0
 71
3
 72
8
 73
4
 74
0
 42
0.0000001
 43
0.0000001
 44
0.0000000001
 40
0.0
 40
0.0
 40
0.0
 40
0.0
 40
1.0
 40
1.0
 40
1.0
 40
1.0
 10
135.4686823497
 20
84.2439047063
 30
0.0
 10
135.412651744
 20
84.3327454442
 30
0.0
 10
135.3344439651
 20
84.4084550542
 30
0.0
 10
135.2346991645
 20
84.4714536134
 30
0.0
  0
SPLINE
  5
40B
100
AcDbEntity
  8
0
100
AcDbSpline
 62
7
  6
CONTINUOUS
 70
0
 71
3
 72
8
 73
4
 74
0
 42
0.0000001
 43
0.0000001
 44
0.0000000001
 40
0.0
 40
0.0
 40
0.0
 40
0.0
 40
1.0
 40
1.0
 40
1.0
 40
1.0
 10
135.5538601543
 20
83.7621549291
 30
0.0
 10
135.5538601543
 20
83.9929763097
 30
0.0
 10
135.5256184722
 20
84.1536282033
 30
0.0
 10
135.4686823497
 20
84.2439047063
 30
0.0
  0
SPLINE
  5
40C
100
AcDbEntity
  8
0
100
AcDbSpline
 62
7
  6
CONTINUOUS
 70
0
 71
3
 72
10
 73
6
 74
0
 42
0.0000001
 43
0.0000001
 44
0.0000000001
 40
0.0
 40
0.0
 40
0.0
 40
0.0
 40
0.5085818458
 40
0.755573716
 40
1.0
 40
1.0
 40
1.0
 40
1.0
 10
77.8169788712
 20
75.2892629625
 30
0.0
 10
77.4615923172
 20
74.4890511242
 30
0.0
 10
77.021856797
 20
73.2539817999
 30
0.0
 10
76.7141671019
 20
71.5570315115
 30
0.0
 10
76.6622783328
 20
70.7100694125
 30
0.0
 10
76.6622783328
 20
70.2892629609
 30
0.0
  0
SPLINE
  5
40D
100
AcDbEntity
  8
0
100
AcDbSpline
 62
7
  6
CONTINUOUS
 70
0
 71
3
 72
10
 73
6
 74
0
 42
0.0000001
 43
0.0000001
 44
0.0000000001
 40
0.0
 40
0.0
 40
0.0
 40
0.0
 40
0.2444262924
 40
0.49141817
 40
1.0
 40
1.0
 40
1.0
 40
1.0
 10
76.6622783328
 20
70.2892629609
 30
0.0
 10
76.6622783329
 20
69.8684564951
 30
0.0
 10
76.7141671072
 20
69.0214943695
 30
0.0
 10
77.0218568097
 20
67.3245440833
 30
0.0
 10
77.4615923284
 20
66.0894747754
 30
0.0
 10
77.8169788712
 20
65.2892629625
 30
0.0
  0
SPLINE
  5
40E
100
AcDbEntity
  8
0
100
AcDbSpline
 62
7
  6
CONTINUOUS
 70
0
 71
3
 72
9
 73
5
 74
0
 42
0.0000001
 43
0.0000001
 44
0.0000000001
 40
0.0
 40
0.0
 40
0.0
 40
0.0
 40
0.500031447
 40
1.0
 40
1.0
 40
1.0
 40
1.0
 10
77.8169788712
 20
101.0738726533
 30
0.0
 10
77.4527054932
 20
99.4334286572
 30
0.0
 10
76.8695887015
 20
96.1175456492
 30
0.0
 10
76.6622783328
 20
92.7540635051
 30
0.0
 10
76.6622783328
 20
91.0738726529
 30
0.0
  0
SPLINE
  5
40F
100
AcDbEntity
  8
0
100
AcDbSpline
 62
7
  6
CONTINUOUS
 70
0
 71
3
 72
9
 73
5
 74
0
 42
0.0000001
 43
0.0000001
 44
0.0000000001
 40
0.0
 40
0.0
 40
0.0
 40
0.0
 40
0.499968561
 40
1.0
 40
1.0
 40
1.0
 40
1.0
 10
76.6622783328
 20
91.0738726529
 30
0.0
 10
76.6622783328
 20
89.393681774
 30
0.0
 10
76.8695887056
 20
86.0301996301
 30
0.0
 10
77.4527054991
 20
82.714316623
 30
0.0
 10
77.8169788712
 20
81.0738726533
 30
0.0
  0
SPLINE
  5
410
100
AcDbEntity
  8
0
100
AcDbSpline
 62
7
  6
CONTINUOUS
 70
0
 71
3
 72
10
 73
6
 74
0
 42
0.0000001
 43
0.0000001
 44
0.0000000001
 40
0.0
 40
0.0
 40
0.0
 40
0.0
 40
0.5085818458
 40
0.755573716
 40
1.0
 40
1.0
 40
1.0
 40
1.0
 10
77.8169788712
 20
116.8584823441
 30
0.0
 10
77.4615923175
 20
116.0582705066
 30
0.0
 10
77.0218567976
 20
114.8232011834
 30
0.0
 10
76.7141671024
 20
113.1262508965
 30
0.0
 10
76.6622783329
 20
112.2792887983
 30
0.0
 10
76.6622783328
 20
111.8584823471
 30
0.0
  0
SPLINE
  5
411
100
AcDbEntity
  8
0
100
AcDbSpline
 62
7
  6
CONTINUOUS
 70
0
 71
3
 72
10
 73
6
 74
0
 42
0.0000001
 43
0.0000001
 44
0.0000000001
 40
0.0
 40
0.0
 40
0.0
 40
0.0
 40
0.2444262924
 40
0.49141817
 40
1.0
 40
1.0
 40
1.0
 40
1.0
 10
76.6622783328
 20
111.8584823471
 30
0.0
 10
76.6622783327
 20
111.4376758809
 30
0.0
 10
76.7141671067
 20
110.5907137546
 30
0.0
 10
77.0218568091
 20
108.8937634668
 30
0.0
 10
77.4615923281
 20
107.6586941578
 30
0.0
 10
77.8169788712
 20
106.8584823441
 30
0.0
  0
SPLINE
  5
412
100
AcDbEntity
  8
0
100
AcDbSpline
 62
7
  6
CONTINUOUS
 70
0
 71
3
 72
13
 73
9
 74
0
 42
0.0000001
 43
0.0000001
 44
0.0000000001
 40
0.0
 40
0.0
 40
0.0
 40
0.0
 40
0.2546127873
 40
0.3780134101
 40
0.5000234973
 40
0.6220281671
 40
0.7454184972
 40
1.0
 40
1.0
 40
1.0
 40
1.0
 10
90.3067628998
 20
65.2892629625
 30
0.0
 10
90.6743116528
 20
66.0875986935
 30
0.0
 10
91.1317047942
 20
67.321023666
 30
0.0
 10
91.4532516453
 20
69.0203643794
 30
0.0
 10
91.5345702082
 20
70.289492866
 30
0.0
 10
91.4532475753
 20
71.5585878467
 30
0.0
 10
91.1316330679
 20
73.2577511655
 30
0.0
 10
90.6742758593
 20
74.4910296364
 30
0.0
 10
90.3067628998
 20
75.2892629625
 30
0.0
  0
SPLINE
  5
413
100
AcDbEntity
  8
0
100
AcDbSpline
 62
7
  6
CONTINUOUS
 70
0
 71
3
 72
9
 73
5
 74
0
 42
0.0000001
 43
0.0000001
 44
0.0000000001
 40
0.0
 40
0.0
 40
0.0
 40
0.0
 40
0.5226689615
 40
1.0
 40
1.0
 40
1.0
 40
1.0
 10
90.3528772561
 20
75.2914022072
 30
0.0
 10
90.5269593158
 20
75.3077637117
 30
0.0
 10
90.8568136312
 20
75.4036944791
 30
0.0
 10
91.1266534876
 20
75.6235355575
 30
0.0
 10
91.2189026598
 20
75.7538755903
 30
0.0
  0
SPLINE
  5
414
100
AcDbEntity
  8
0
100
AcDbSpline
 62
7
  6
CONTINUOUS
 70
0
 71
3
 72
10
 73
6
 74
0
 42
0.0000001
 43
0.0000001
 44
0.0000000001
 40
0.0
 40
0.0
 40
0.0
 40
0.0
 40
0.2433406882
 40
0.4900931607
 40
1.0
 40
1.0
 40
1.0
 40
1.0
 10
92.3736031994
 20
70.7163553578
 30
0.0
 10
92.3738262624
 20
71.1382289199
 30
0.0
 10
92.3221304341
 20
71.988834283
 30
0.0
 10
92.0144217687
 20
73.6980039204
 30
0.0
 10
91.5746676528
 20
74.9446107257
 30
0.0
 10
91.2189026598
 20
75.7538755903
 30
0.0
  0
SPLINE
  5
415
100
AcDbEntity
  8
0
100
AcDbSpline
 62
7
  6
CONTINUOUS
 70
0
 71
3
 72
10
 73
6
 74
0
 42
0.0000001
 43
0.0000001
 44
0.0000000001
 40
0.0
 40
0.0
 40
0.0
 40
0.0
 40
0.5072737361
 40
0.7544838496
 40
1.0
 40
1.0
 40
1.0
 40
1.0
 10
91.2189026598
 20
65.759957974
 30
0.0
 10
91.574730169
 20
66.5497383526
 30
0.0
 10
92.0145564842
 20
67.7718724782
 30
0.0
 10
92.3214540237
 20
69.4547904806
 30
0.0
 10
92.3733815229
 20
70.2971041934
 30
0.0
 10
92.3736031994
 20
70.7163553578
 30
0.0
  0
SPLINE
  5
416
100
AcDbEntity
  8
0
100
AcDbSpline
 62
7
  6
CONTINUOUS
 70
0
 71
3
 72
9
 73
5
 74
0
 42
0.0000001
 43
0.0000001
 44
0.0000000001
 40
0.0
 40
0.0
 40
0.0
 40
0.0
 40
0.5070567186
 40
1.0
 40
1.0
 40
1.0
 40
1.0
 10
90.3528772561
 20
65.2889172545
 30
0.0
 10
90.5253303616
 20
65.2862993811
 30
0.0
 10
90.8732655496
 20
65.3686317298
 30
0.0
 10
91.1325057842
 20
65.6162582927
 30
0.0
 10
91.2189026598
 20
65.759957974
 30
0.0
  0
SPLINE
  5
417
100
AcDbEntity
  8
0
100
AcDbSpline
 62
7
  6
CONTINUOUS
 70
0
 71
3
 72
11
 73
7
 74
0
 42
0.0000001
 43
0.0000001
 44
0.0000000001
 40
0.0
 40
0.0
 40
0.0
 40
0.0
 40
0.2500179433
 40
0.5000000116
 40
0.749982079
 40
1.0
 40
1.0
 40
1.0
 40
1.0
 10
90.3067628998
 20
81.0738726533
 30
0.0
 10
90.683978623
 20
82.7125201343
 30
0.0
 10
91.2906412249
 20
86.0271731628
 30
0.0
 10
91.6159838618
 20
91.0738728908
 30
0.0
 10
91.2906415325
 20
96.120572502
 30
0.0
 10
90.6839787807
 20
99.4352253625
 30
0.0
 10
90.3067628998
 20
101.0738726533
 30
0.0
  0
SPLINE
  5
418
100
AcDbEntity
  8
0
100
AcDbSpline
 62
7
  6
CONTINUOUS
 70
0
 71
3
 72
10
 73
6
 74
0
 42
0.0000001
 43
0.0000001
 44
0.0000000001
 40
0.0
 40
0.0
 40
0.0
 40
0.0
 40
0.5790553017
 40
0.8163599814
 40
1.0
 40
1.0
 40
1.0
 40
1.0
 10
90.3528772561
 20
101.0763577467
 30
0.0
 10
90.5196287762
 20
101.0945618163
 30
0.0
 10
90.756474804
 20
101.1097747654
 30
0.0
 10
91.0459849464
 20
101.0975713055
 30
0.0
 10
91.1672977842
 20
101.0807076644
 30
0.0
 10
91.2189026598
 20
101.0677890296
 30
0.0
  0
SPLINE
  5
419
100
AcDbEntity
  8
0
100
AcDbSpline
 62
7
  6
CONTINUOUS
 70
0
 71
3
 72
9
 73
5
 74
0
 42
0.0000001
 43
0.0000001
 44
0.0000000001
 40
0.0
 40
0.0
 40
0.0
 40
0.0
 40
0.4999723361
 40
1.0
 40
1.0
 40
1.0
 40
1.0
 10
92.3736031982
 20
91.0738619758
 30
0.0
 10
92.3736040776
 20
92.7530681006
 30
0.0
 10
92.1667421085
 20
96.1145643576
 30
0.0
 10
91.5836544584
 20
99.4284862991
 30
0.0
 10
91.2189026598
 20
101.0677890296
 30
0.0
  0
SPLINE
  5
41A
100
AcDbEntity
  8
0
100
AcDbSpline
 62
7
  6
CONTINUOUS
 70
0
 71
3
 72
9
 73
5
 74
0
 42
0.0000001
 43
0.0000001
 44
0.0000000001
 40
0.0
 40
0.0
 40
0.0
 40
0.0
 40
0.5000276782
 40
1.0
 40
1.0
 40
1.0
 40
1.0
 10
91.2189026598
 20
81.079956364
 30
0.0
 10
91.5836536987
 20
82.719255659
 30
0.0
 10
92.1667409986
 20
86.0331704592
 30
0.0
 10
92.3736023189
 20
89.3946594656
 30
0.0
 10
92.3736031982
 20
91.0738619758
 30
0.0
  0
SPLINE
  5
41B
100
AcDbEntity
  8
0
100
AcDbSpline
 62
7
  6
CONTINUOUS
 70
0
 71
3
 72
10
 73
6
 74
0
 42
0.0000001
 43
0.0000001
 44
0.0000000001
 40
0.0
 40
0.0
 40
0.0
 40
0.0
 40
0.5790551926
 40
0.8163598596
 40
1.0
 40
1.0
 40
1.0
 40
1.0
 10
90.3528772561
 20
81.0713875423
 30
0.0
 10
90.5196287561
 20
81.0531834404
 30
0.0
 10
90.7564747279
 20
81.0379702877
 30
0.0
 10
91.0459849579
 20
81.0501735135
 30
0.0
 10
91.1672977445
 20
81.0670377225
 30
0.0
 10
91.2189026598
 20
81.079956364
 30
0.0
  0
SPLINE
  5
41C
100
AcDbEntity
  8
0
100
AcDbSpline
 62
7
  6
CONTINUOUS
 70
0
 71
3
 72
13
 73
9
 74
0
 42
0.0000001
 43
0.0000001
 44
0.0000000001
 40
0.0
 40
0.0
 40
0.0
 40
0.0
 40
0.2545826107
 40
0.3779735293
 40
0.4999788752
 40
0.621988947
 40
0.7453891197
 40
1.0
 40
1.0
 40
1.0
 40
1.0
 10
90.3067628998
 20
106.8584823441
 30
0.0
 10
90.6742774438
 20
107.6567190963
 30
0.0
 10
91.131634746
 20
108.8900036299
 30
0.0
 10
91.4532493584
 20
110.5891756576
 30
0.0
 10
91.534559162
 20
111.8582756609
 30
0.0
 10
91.4532454535
 20
113.1274042455
 30
0.0
 10
91.1317144375
 20
114.8267402481
 30
0.0
 10
90.6743103443
 20
116.060153312
 30
0.0
 10
90.3067628998
 20
116.8584823441
 30
0.0
  0
SPLINE
  5
41D
100
AcDbEntity
  8
0
100
AcDbSpline
 62
7
  6
CONTINUOUS
 70
0
 71
3
 72
9
 73
5
 74
0
 42
0.0000001
 43
0.0000001
 44
0.0000000001
 40
0.0
 40
0.0
 40
0.0
 40
0.0
 40
0.5070571829
 40
1.0
 40
1.0
 40
1.0
 40
1.0
 10
90.3528772561
 20
116.8588280397
 30
0.0
 10
90.5253304934
 20
116.8614458974
 30
0.0
 10
90.8732654971
 20
116.7791131253
 30
0.0
 10
91.1325058644
 20
116.5314869094
 30
0.0
 10
91.2189026598
 20
116.3877873941
 30
0.0
  0
SPLINE
  5
41E
100
AcDbEntity
  8
0
100
AcDbSpline
 62
7
  6
CONTINUOUS
 70
0
 71
3
 72
10
 73
6
 74
0
 42
0.0000001
 43
0.0000001
 44
0.0000000001
 40
0.0
 40
0.0
 40
0.0
 40
0.0
 40
0.2455106465
 40
0.4927262304
 40
1.0
 40
1.0
 40
1.0
 40
1.0
 10
92.3736032191
 20
111.4478992557
 30
0.0
 10
92.3727184431
 20
111.8657938801
 30
0.0
 10
92.3197538838
 20
112.7053100418
 30
0.0
 10
92.0122969364
 20
114.3825125948
 30
0.0
 10
91.5735882137
 20
115.6005433878
 30
0.0
 10
91.2189026598
 20
116.3877873941
 30
0.0
  0
SPLINE
  5
41F
100
AcDbEntity
  8
0
100
AcDbSpline
 62
7
  6
CONTINUOUS
 70
0
 71
3
 72
10
 73
6
 74
0
 42
0.0000001
 43
0.0000001
 44
0.0000000001
 40
0.0
 40
0.0
 40
0.0
 40
0.0
 40
0.5099200384
 40
0.7566638173
 40
1.0
 40
1.0
 40
1.0
 40
1.0
 10
91.2189026598
 20
106.3938697171
 30
0.0
 10
91.5758024487
 20
107.205715902
 30
0.0
 10
92.0166818701
 20
108.4564535813
 30
0.0
 10
92.3237859756
 20
110.171338914
 30
0.0
 10
92.3744992268
 20
111.0246997175
 30
0.0
 10
92.3736032191
 20
111.4478992557
 30
0.0
  0
SPLINE
  5
420
100
AcDbEntity
  8
0
100
AcDbSpline
 62
7
  6
CONTINUOUS
 70
0
 71
3
 72
9
 73
5
 74
0
 42
0.0000001
 43
0.0000001
 44
0.0000000001
 40
0.0
 40
0.0
 40
0.0
 40
0.0
 40
0.5226689626
 40
1.0
 40
1.0
 40
1.0
 40
1.0
 10
90.3528772561
 20
106.8563431019
 30
0.0
 10
90.5269593159
 20
106.8399815963
 30
0.0
 10
90.8568136272
 20
106.7440508212
 30
0.0
 10
91.1266534885
 20
106.5242097498
 30
0.0
 10
91.2189026598
 20
106.3938697171
 30
0.0
  0
SPLINE
  5
421
100
AcDbEntity
  8
0
100
AcDbSpline
 62
7
  6
CONTINUOUS
 70
0
 71
3
 72
26
 73
22
 74
0
 42
0.0000001
 43
0.0000001
 44
0.0000000001
 40
0.0
 40
0.0
 40
0.0
 40
0.0
 40
0.0002847771
 40
0.0011330379
 40
0.0025432807
 40
0.004514002
 40
0.0101308684
 40
0.0179716184
 40
0.0280242416
 40
0.0402753895
 40
0.0546982469
 40
0.0712582834
 40
0.1106517472
 40
0.1581755088
 40
0.2134943996
 40
0.2762401114
 40
0.3460429232
 40
0.4225153448
 40
0.593917058
 40
0.7874006353
 40
1.0
 40
1.0
 40
1.0
 40
1.0
 10
106.9122783328
 20
120.0738726533
 30
0.0
 10
106.9125429296
 20
120.0734742211
 30
0.0
 10
106.9147104676
 20
120.073220151
 30
0.0
 10
106.918233963
 20
120.0710602675
 30
0.0
 10
106.9249945468
 20
120.0685423387
 30
0.0
 10
106.9387605315
 20
120.0624580338
 30
0.0
 10
106.9627157458
 20
120.052456121
 30
0.0
 10
106.9990330334
 20
120.0370155189
 30
0.0
 10
107.045704871
 20
120.0173723262
 30
0.0
 10
107.102564396
 20
119.9934683208
 30
0.0
 10
107.1695579848
 20
119.9654579787
 30
0.0
 10
107.2787090903
 20
119.9201059645
 30
0.0
 10
107.4394797951
 20
119.8540994157
 30
0.0
 10
107.6610157376
 20
119.7647117364
 30
0.0
 10
107.9197062298
 20
119.6626063417
 30
0.0
 10
108.2142330376
 20
119.5494075652
 30
0.0
 10
108.543169656
 20
119.4267490376
 30
0.0
 10
109.0452226203
 20
119.2461312186
 30
0.0
 10
109.7477163694
 20
119.0091837602
 30
0.0
 10
110.6761540679
 20
118.7280526365
 30
0.0
 10
111.335987734
 20
118.5546258137
 30
0.0
 10
111.6831196994
 20
118.4709929956
 30
0.0
  0
SPLINE
  5
422
100
AcDbEntity
  8
0
100
AcDbSpline
 62
7
  6
CONTINUOUS
 70
0
 71
3
 72
32
 73
28
 74
0
 42
0.0000001
 43
0.0000001
 44
0.0000000001
 40
0.0
 40
0.0
 40
0.0
 40
0.0
 40
0.1560561517
 40
0.3249701082
 40
0.4107271841
 40
0.4952732496
 40
0.5771497386
 40
0.655035606
 40
0.72774989
 40
0.7941925585
 40
0.8532719183
 40
0.8797037618
 40
0.9038738852
 40
0.9256381381
 40
0.9448572728
 40
0.9613953669
 40
0.975122169
 40
0.9808976237
 40
0.9859307869
 40
0.9902088779
 40
0.9937205087
 40
0.9964598718
 40
0.9984225332
 40
0.9991112143
 40
0.9996040558
 40
0.9999005025
 40
1.0
 40
1.0
 40
1.0
 40
1.0
 10
111.6831196994
 20
118.4709929956
 30
0.0
 10
112.4973487125
 20
118.2748247548
 30
0.0
 10
114.2140285535
 20
117.9482858793
 30
0.0
 10
116.417918774
 20
117.7824553088
 30
0.0
 10
118.2391587048
 20
117.8149715702
 30
0.0
 10
119.5891740649
 20
117.9221187709
 30
0.0
 10
120.8886027359
 20
118.1022300271
 30
0.0
 10
122.1139802075
 20
118.3398609525
 30
0.0
 10
123.2459561307
 20
118.6162142291
 30
0.0
 10
124.2683844363
 20
118.9112955133
 30
0.0
 10
125.0436220767
 20
119.1648796034
 30
0.0
 10
125.5988718199
 20
119.360359313
 30
0.0
 10
125.9635106162
 20
119.4940879817
 30
0.0
 10
126.2904227949
 20
119.618186026
 30
0.0
 10
126.5779411314
 20
119.7305988532
 30
0.0
 10
126.8244389745
 20
119.8294358246
 30
0.0
 10
127.003480269
 20
119.9026278659
 30
0.0
 10
127.1251336944
 20
119.9530191479
 30
0.0
 10
127.1998613664
 20
119.9841923203
 30
0.0
 10
127.2633100773
 20
120.0108329792
 30
0.0
 10
127.3154083987
 20
120.0327421078
 30
0.0
 10
127.3559566905
 20
120.0499694174
 30
0.0
 10
127.3827049848
 20
120.061131231
 30
0.0
 10
127.3980772501
 20
120.0679228294
 30
0.0
 10
127.4056273807
 20
120.0707331912
 30
0.0
 10
127.4095621123
 20
120.0731451719
 30
0.0
 10
127.4119828709
 20
120.0734278577
 30
0.0
 10
127.4122783328
 20
120.0738726533
 30
0.0
  0
LINE
  5
423
100
AcDbEntity
  8
0
100
AcDbLine
 62
7
  6
CONTINUOUS
 10
102.3622783328
 20
125.6893427071
 11
102.1622783328
 21
125.6893427071
  0
LINE
  5
424
100
AcDbEntity
  8
0
100
AcDbLine
 62
7
  6
CONTINUOUS
 10
102.3622783328
 20
125.6893427071
 11
102.2911675287
 21
125.566306862
  0
LINE
  5
425
100
AcDbEntity
  8
0
100
AcDbLine
 62
7
  6
CONTINUOUS
 10
102.2911675287
 20
125.566306862
 11
102.2631599675
 21
125.5175792227
  0
LINE
  5
426
100
AcDbEntity
  8
0
100
AcDbLine
 62
7
  6
CONTINUOUS
 10
102.2631599675
 20
125.5175792227
 11
102.2622783328
 21
125.5161376264
  0
SPLINE
  5
427
100
AcDbEntity
  8
0
100
AcDbSpline
 62
7
  6
CONTINUOUS
 70
0
 71
3
 72
10
 73
6
 74
0
 42
0.0000001
 43
0.0000001
 44
0.0000000001
 40
0.0
 40
0.0
 40
0.0
 40
0.0
 40
0.3587532988
 40
0.6540875019
 40
1.0
 40
1.0
 40
1.0
 40
1.0
 10
106.200982789
 20
129.5738726533
 30
0.0
 10
106.2286607703
 20
129.5738724009
 30
0.0
 10
106.2662390402
 20
129.5215029888
 30
0.0
 10
106.2871991709
 20
129.4511012151
 30
0.0
 10
106.2925960241
 20
129.400559961
 30
0.0
 10
106.2925957248
 20
129.3738726533
 30
0.0
  0
SPLINE
  5
428
100
AcDbEntity
  8
0
100
AcDbSpline
 62
7
  6
CONTINUOUS
 70
0
 71
3
 72
9
 73
5
 74
0
 42
0.0000001
 43
0.0000001
 44
0.0000000001
 40
0.0
 40
0.0
 40
0.0
 40
0.0
 40
0.4961908344
 40
1.0
 40
1.0
 40
1.0
 40
1.0
 10
106.200982789
 20
129.5738726533
 30
0.0
 10
106.2510835991
 20
129.5738726533
 30
0.0
 10
106.3560251232
 20
129.6175629531
 30
0.0
 10
106.3967202094
 20
129.7230026138
 30
0.0
 10
106.3967202094
 20
129.7738726533
 30
0.0
  0
SPLINE
  5
429
100
AcDbEntity
  8
0
100
AcDbSpline
 62
7
  6
CONTINUOUS
 70
0
 71
3
 72
13
 73
9
 74
0
 42
0.0000001
 43
0.0000001
 44
0.0000000001
 40
0.0
 40
0.0
 40
0.0
 40
0.0
 40
0.042722948
 40
0.1087663705
 40
0.203301752
 40
0.3252759113
 40
0.6362831012
 40
1.0
 40
1.0
 40
1.0
 40
1.0
 10
106.3967202094
 20
129.7738726533
 30
0.0
 10
106.4027360794
 20
129.7738728602
 30
0.0
 10
106.4171628746
 20
129.7649500109
 30
0.0
 10
106.4319021755
 20
129.7403605139
 30
0.0
 10
106.4468930255
 20
129.703315138
 30
0.0
 10
106.4661312254
 20
129.6314750646
 30
0.0
 10
106.4823327193
 20
129.5201314995
 30
0.0
 10
106.4866951534
 20
129.4250880698
 30
0.0
 10
106.4866971999
 20
129.3738726533
 30
0.0
  0
SPLINE
  5
42A
100
AcDbEntity
  8
0
100
AcDbSpline
 62
7
  6
CONTINUOUS
 70
0
 71
3
 72
9
 73
5
 74
0
 42
0.0000001
 43
0.0000001
 44
0.0000000001
 40
0.0
 40
0.0
 40
0.0
 40
0.0
 40
0.497763607
 40
1.0
 40
1.0
 40
1.0
 40
1.0
 10
107.0388117902
 20
122.7583961516
 30
0.0
 10
107.061784021
 20
122.7451318151
 30
0.0
 10
107.1026982014
 20
122.7081926508
 30
0.0
 10
107.1246672777
 20
122.6577110606
 30
0.0
 10
107.1301957577
 20
122.6315231877
 30
0.0
  0
SPLINE
  5
42B
100
AcDbEntity
  8
0
100
AcDbSpline
 62
7
  6
CONTINUOUS
 70
0
 71
3
 72
9
 73
5
 74
0
 42
0.0000001
 43
0.0000001
 44
0.0000000001
 40
0.0
 40
0.0
 40
0.0
 40
0.0
 40
0.3531906591
 40
1.0
 40
1.0
 40
1.0
 40
1.0
 10
106.9418193256
 20
122.7613970307
 30
0.0
 10
106.9304503655
 20
122.771075804
 30
0.0
 10
106.8980901283
 20
122.79827781
 30
0.0
 10
106.8652800039
 20
122.8249468264
 30
0.0
 10
106.8437588869
 20
122.8418141131
 30
0.0
  0
LINE
  5
42C
100
AcDbEntity
  8
0
100
AcDbLine
 62
7
  6
CONTINUOUS
 10
106.8437588869
 20
122.8418141131
 11
106.8392824954
 21
122.8453271886
  0
SPLINE
  5
42D
100
AcDbEntity
  8
0
100
AcDbSpline
 62
7
  6
CONTINUOUS
 70
0
 71
3
 72
9
 73
5
 74
0
 42
0.0000001
 43
0.0000001
 44
0.0000000001
 40
0.0
 40
0.0
 40
0.0
 40
0.0
 40
0.4981079659
 40
1.0
 40
1.0
 40
1.0
 40
1.0
 10
107.0685301922
 20
122.7412466908
 30
0.0
 10
107.0882131444
 20
122.729883131
 30
0.0
 10
107.1238185425
 20
122.6995355659
 30
0.0
 10
107.146205871
 20
122.6584941281
 30
0.0
 10
107.1534686601
 20
122.636775953
 30
0.0
  0
SPLINE
  5
42E
100
AcDbEntity
  8
0
100
AcDbSpline
 62
7
  6
CONTINUOUS
 70
0
 71
3
 72
8
 73
4
 74
0
 42
0.0000001
 43
0.0000001
 44
0.0000000001
 40
0.0
 40
0.0
 40
0.0
 40
0.0
 40
1.0
 40
1.0
 40
1.0
 40
1.0
 10
107.1534686601
 20
122.636775953
 30
0.0
 10
107.1608138978
 20
122.6148112288
 30
0.0
 10
107.1642756347
 20
122.5911930057
 30
0.0
 10
107.1636282966
 20
122.5680417081
 30
0.0
  0
LINE
  5
42F
100
AcDbEntity
  8
0
100
AcDbLine
 62
7
  6
CONTINUOUS
 10
107.1636259059
 20
122.5680417081
 11
107.1344798734
 21
122.5851975187
  0
SPLINE
  5
430
100
AcDbEntity
  8
0
100
AcDbSpline
 62
7
  6
CONTINUOUS
 70
0
 71
3
 72
9
 73
5
 74
0
 42
0.0000001
 43
0.0000001
 44
0.0000000001
 40
0.0
 40
0.0
 40
0.0
 40
0.0
 40
0.4667324411
 40
1.0
 40
1.0
 40
1.0
 40
1.0
 10
107.0976806198
 20
122.743837263
 30
0.0
 10
107.0947045232
 20
122.7398844831
 30
0.0
 10
107.0841195955
 20
122.7336446571
 30
0.0
 10
107.0734263815
 20
122.7384206641
 30
0.0
 10
107.0685302488
 20
122.7412467889
 30
0.0
  0
SPLINE
  5
431
100
AcDbEntity
  8
0
100
AcDbSpline
 62
7
  6
CONTINUOUS
 70
0
 71
3
 72
8
 73
4
 74
0
 42
0.0000001
 43
0.0000001
 44
0.0000000001
 40
0.0
 40
0.0
 40
0.0
 40
0.0
 40
1.0
 40
1.0
 40
1.0
 40
1.0
 10
107.0976805048
 20
122.7438370637
 30
0.0
 10
107.1229497392
 20
122.7289152993
 30
0.0
 10
107.1456333589
 20
122.7084130762
 30
0.0
 10
107.1628573334
 20
122.684653279
 30
0.0
  0
SPLINE
  5
432
100
AcDbEntity
  8
0
100
AcDbSpline
 62
7
  6
CONTINUOUS
 70
0
 71
3
 72
8
 73
4
 74
0
 42
0.0000001
 43
0.0000001
 44
0.0000000001
 40
0.0
 40
0.0
 40
0.0
 40
0.0
 40
1.0
 40
1.0
 40
1.0
 40
1.0
 10
107.1628573334
 20
122.684653279
 30
0.0
 10
107.1755544172
 20
122.6671381499
 30
0.0
 10
107.1856529837
 20
122.6473812692
 30
0.0
 10
107.1921831777
 20
122.6267571995
 30
0.0
  0
SPLINE
  5
433
100
AcDbEntity
  8
0
100
AcDbSpline
 62
7
  6
CONTINUOUS
 70
0
 71
3
 72
8
 73
4
 74
0
 42
0.0000001
 43
0.0000001
 44
0.0000000001
 40
0.0
 40
0.0
 40
0.0
 40
0.0
 40
1.0
 40
1.0
 40
1.0
 40
1.0
 10
107.1921831777
 20
122.6267571995
 30
0.0
 10
107.1964471677
 20
122.6132903977
 30
0.0
 10
107.1992876889
 20
122.599273946
 30
0.0
 10
107.2004669077
 20
122.5851975187
 30
0.0
  0
SPLINE
  5
434
100
AcDbEntity
  8
0
100
AcDbSpline
 62
7
  6
CONTINUOUS
 70
0
 71
3
 72
10
 73
6
 74
0
 42
0.0000001
 43
0.0000001
 44
0.0000000001
 40
0.0
 40
0.0
 40
0.0
 40
0.0
 40
0.5780059244
 40
0.7877222163
 40
1.0
 40
1.0
 40
1.0
 40
1.0
 10
107.2004667325
 20
122.5851975187
 30
0.0
 10
107.1957479003
 20
122.5779234507
 30
0.0
 10
107.1878883145
 20
122.5676737136
 30
0.0
 10
107.1726265762
 20
122.5641506388
 30
0.0
 10
107.1663708442
 20
122.5664275687
 30
0.0
 10
107.1636259059
 20
122.5680417081
 30
0.0
  0
SPLINE
  5
435
100
AcDbEntity
  8
0
100
AcDbSpline
 62
7
  6
CONTINUOUS
 70
0
 71
3
 72
12
 73
8
 74
0
 42
0.0000001
 43
0.0000001
 44
0.0000000001
 40
0.0
 40
0.0
 40
0.0
 40
0.0
 40
0.2846118028
 40
0.5665193695
 40
0.7035200549
 40
0.8307701699
 40
1.0
 40
1.0
 40
1.0
 40
1.0
 10
106.9474364441
 20
122.929474553
 30
0.0
 10
106.9683081735
 20
122.9176291091
 30
0.0
 10
107.0084715092
 20
122.8914299399
 30
0.0
 10
107.0532113456
 20
122.8522709897
 30
0.0
 10
107.0824895325
 20
122.8159526589
 30
0.0
 10
107.1001078571
 20
122.7853660012
 30
0.0
 10
107.1061696621
 20
122.7553072111
 30
0.0
 10
107.0976806198
 20
122.743837263
 30
0.0
  0
SPLINE
  5
436
100
AcDbEntity
  8
0
100
AcDbSpline
 62
7
  6
CONTINUOUS
 70
0
 71
3
 72
9
 73
5
 74
0
 42
0.0000001
 43
0.0000001
 44
0.0000000001
 40
0.0
 40
0.0
 40
0.0
 40
0.0
 40
0.6767282763
 40
1.0
 40
1.0
 40
1.0
 40
1.0
 10
106.9474364428
 20
122.9294745507
 30
0.0
 10
106.9584309984
 20
122.9494076364
 30
0.0
 10
106.9743598872
 20
122.9790190882
 30
0.0
 10
106.9908355891
 20
123.0083839854
 30
0.0
 10
106.9954943422
 20
123.0182099059
 30
0.0
  0
SPLINE
  5
437
100
AcDbEntity
  8
0
100
AcDbSpline
 62
7
  6
CONTINUOUS
 70
0
 71
3
 72
9
 73
5
 74
0
 42
0.0000001
 43
0.0000001
 44
0.0000000001
 40
0.0
 40
0.0
 40
0.0
 40
0.0
 40
0.2542075616
 40
1.0
 40
1.0
 40
1.0
 40
1.0
 10
106.9954945182
 20
123.0182102206
 30
0.0
 10
107.0143861911
 20
123.007390835
 30
0.0
 10
107.0857630072
 20
122.9599682003
 30
0.0
 10
107.1438516856
 20
122.8919777953
 30
0.0
 10
107.1728832228
 20
122.8350869942
 30
0.0
  0
SPLINE
  5
438
100
AcDbEntity
  8
0
100
AcDbSpline
 62
7
  6
CONTINUOUS
 70
0
 71
3
 72
9
 73
5
 74
0
 42
0.0000001
 43
0.0000001
 44
0.0000000001
 40
0.0
 40
0.0
 40
0.0
 40
0.0
 40
0.5567158384
 40
1.0
 40
1.0
 40
1.0
 40
1.0
 10
107.1952117327
 20
122.7822872508
 30
0.0
 10
107.207107344
 20
122.7471608498
 30
0.0
 10
107.2192182288
 20
122.6807139897
 30
0.0
 10
107.2112291235
 20
122.612696089
 30
0.0
 10
107.2004667325
 20
122.5851975187
 30
0.0
  0
SPLINE
  5
439
100
AcDbEntity
  8
0
100
AcDbSpline
 62
7
  6
CONTINUOUS
 70
0
 71
3
 72
9
 73
5
 74
0
 42
0.0000001
 43
0.0000001
 44
0.0000000001
 40
0.0
 40
0.0
 40
0.0
 40
0.0
 40
0.6778349336
 40
1.0
 40
1.0
 40
1.0
 40
1.0
 10
106.6899027821
 20
123.0756762178
 30
0.0
 10
106.7007017605
 20
123.0952232928
 30
0.0
 10
106.7163186787
 20
123.1242158401
 30
0.0
 10
106.73248581
 20
123.1529591665
 30
0.0
 10
106.7370370942
 20
123.1625477868
 30
0.0
  0
LINE
  5
43A
100
AcDbEntity
  8
0
100
AcDbLine
 62
7
  6
CONTINUOUS
 10
106.7370370947
 20
123.1625477879
 11
106.9954945182
 21
123.0182102206
  0
SPLINE
  5
43B
100
AcDbEntity
  8
0
100
AcDbSpline
 62
7
  6
CONTINUOUS
 70
0
 71
3
 72
9
 73
5
 74
0
 42
0.0000001
 43
0.0000001
 44
0.0000000001
 40
0.0
 40
0.0
 40
0.0
 40
0.0
 40
0.2508127476
 40
1.0
 40
1.0
 40
1.0
 40
1.0
 10
106.3200336659
 20
123.4043316002
 30
0.0
 10
106.3435722704
 20
123.3700581689
 30
0.0
 10
106.447056588
 20
123.2400315447
 30
0.0
 10
106.5819345326
 20
123.1370546201
 30
0.0
 10
106.6899027823
 20
123.0756762182
 30
0.0
  0
SPLINE
  5
43C
100
AcDbEntity
  8
0
100
AcDbSpline
 62
7
  6
CONTINUOUS
 70
0
 71
3
 72
9
 73
5
 74
0
 42
0.0000001
 43
0.0000001
 44
0.0000000001
 40
0.0
 40
0.0
 40
0.0
 40
0.0
 40
0.4996401633
 40
1.0
 40
1.0
 40
1.0
 40
1.0
 10
106.5067243737
 20
123.4589684258
 30
0.0
 10
106.5250081894
 20
123.3978407964
 30
0.0
 10
106.5803022711
 20
123.2791452771
 30
0.0
 10
106.6809549338
 20
123.1931649715
 30
0.0
 10
106.7370370947
 20
123.1625477879
 30
0.0
  0
SPLINE
  5
43D
100
AcDbEntity
  8
0
100
AcDbSpline
 62
7
  6
CONTINUOUS
 70
0
 71
3
 72
43
 73
39
 74
0
 42
0.0000001
 43
0.0000001
 44
0.0000000001
 40
0.0
 40
0.0
 40
0.0
 40
0.0
 40
0.0006664401
 40
0.0014954015
 40
0.0026529683
 40
0.0059482575
 40
0.0105399343
 40
0.0164028326
 40
0.0235033495
 40
0.0318077951
 40
0.0412788504
 40
0.0635430408
 40
0.0899356573
 40
0.1200801765
 40
0.1536002864
 40
0.1901291409
 40
0.2293090431
 40
0.3142109792
 40
0.405461601
 40
0.500000347
 40
0.5945391121
 40
0.6857896566
 40
0.7706913246
 40
0.8098710559
 40
0.8463997645
 40
0.8799197812
 40
0.9100642745
 40
0.9364569067
 40
0.9587211305
 40
0.9681922003
 40
0.9764966534
 40
0.9835971729
 40
0.9894600736
 40
0.9940517558
 40
0.9973470429
 40
0.9985046064
 40
0.9993335642
 40
1.0
 40
1.0
 40
1.0
 40
1.0
 10
105.9122783328
 20
119.0738726533
 30
0.0
 10
105.9172855198
 20
119.0728053475
 30
0.0
 10
105.9277039584
 20
119.0676168449
 30
0.0
 10
105.9469652499
 20
119.0610674211
 30
0.0
 10
105.9848803983
 20
119.0465412545
 30
0.0
 10
106.0500836303
 20
119.0225896798
 30
0.0
 10
106.1491244364
 20
118.9858462279
 30
0.0
 10
106.275766107
 20
118.9394952835
 30
0.0
 10
106.4293819432
 20
118.8838495823
 30
0.0
 10
106.6093401252
 20
118.8195485993
 30
0.0
 10
106.899486226
 20
118.717433505
 30
0.0
 10
107.3220644782
 20
118.5730658176
 30
0.0
 10
107.8976497523
 20
118.3854664012
 30
0.0
 10
108.559067665
 20
118.1824578126
 30
0.0
 10
109.2993258591
 20
117.9714052168
 30
0.0
 10
110.1114749099
 20
117.7600473853
 30
0.0
 10
111.3133305107
 20
117.4804557544
 30
0.0
 10
112.9407952014
 20
117.1776312247
 30
0.0
 10
115.008216386
 20
116.9375641125
 30
0.0
 10
117.1622865085
 20
116.8524404122
 30
0.0
 10
119.3163560147
 20
116.9375649318
 30
0.0
 10
121.3837745712
 20
117.1776329677
 30
0.0
 10
123.0112352072
 20
117.4804575452
 30
0.0
 10
124.2130863383
 20
117.7600485542
 30
0.0
 10
125.0252323112
 20
117.9714056985
 30
0.0
 10
125.7654885683
 20
118.1824576627
 30
0.0
 10
126.4269057055
 20
118.3854660682
 30
0.0
 10
127.0024911764
 20
118.5730654514
 30
0.0
 10
127.4250698983
 20
118.717433279
 30
0.0
 10
127.7152163895
 20
118.8195485468
 30
0.0
 10
127.8951747551
 20
118.8838495803
 30
0.0
 10
128.0487906886
 20
118.9394952887
 30
0.0
 10
128.175432431
 20
118.9858462788
 30
0.0
 10
128.2744732626
 20
119.0225897598
 30
0.0
 10
128.3396764593
 20
119.0465414906
 30
0.0
 10
128.3775915922
 20
119.0610674208
 30
0.0
 10
128.3968527356
 20
119.0676171391
 30
0.0
 10
128.4072712663
 20
119.0728049411
 30
0.0
 10
128.4122783328
 20
119.0738726533
 30
0.0
  0
ELLIPSE
  5
43E
100
AcDbEntity
  8
0
100
AcDbEllipse
 62
7
  6
CONTINUOUS
 10
110.4946593095
 20
139.3738726533
 30
0.0
 11
3.0
 21
-0.0
 31
0.0
 40
1.0
 41
-0.0
 42
1.5707963268
  0
ELLIPSE
  5
43F
100
AcDbEntity
  8
0
100
AcDbEllipse
 62
7
  6
CONTINUOUS
 10
131.3189026598
 20
139.3738726533
 30
0.0
 11
-0.0
 21
3.0
 31
0.0
 40
0.5773502692
 41
0.1060960822
 42
1.5707963256
  0
ENDSEC
  0
SECTION
  2
OBJECTS
  0
DICTIONARY
  5
440
100
AcDbDictionary
  3
ACAD_GROUP
350
441
  3
ACAD_MLINESTYLE
350
442
  0
DICTIONARY
  5
441
102
{ACAD_REACTORS
330
440
102
}
100
AcDbDictionary
  0
DICTIONARY
  5
442
102
{ACAD_REACTORS
330
440
102
}
100
AcDbDictionary
  3
STANDARD
350
443
  0
MLINESTYLE
  5
443
102
{ACAD_REACTORS
330
442
102
}
100
AcDbMlineStyle
  2
STANDARD
 70
0
  3

 62
256
 51
90.0
 52
90.0
 71
2
 49
0.5
 62
256
  6
BYLAYER
 49
-0.5
 62
256
  6
BYLAYER
  0
ENDSEC
  0
EOF
