999
DXF file: C:\Users\64ciro\Desktop\FILE 3D-2D\ARMATEC\h340ll015_3077.dxf
999
Pro/ENGINEER 2017260 by Parametric Technology Corporation
  0
SECTION
  2
HEADER
  9
$ACADVER
  1
AC1014
  9
$DWGCODEPAGE
  3
ANSI_1252
  9
$EXTMAX
 10
297.0
 20
210.0
 30
0.0
  9
$EXTMIN
 10
0.0
 20
0.0
 30
0.0
  9
$LIMMIN
 10
0.0
 20
0.0
  9
$LIMMAX
 10
297.0
 20
210.0
  9
$VIEWCTR
 10
148.5
 20
105.0
  9
$VIEWSIZE
 40
210.0
  9
$CLAYER
  8
0
  9
$LTSCALE
 40
16.335
  9
$CELTYPE
  6
BYLAYER
  9
$DIMSCALE
 40
1.0
  9
$DIMASZ
 40
1.5
  9
$DIMEXO
 40
0.0625
  9
$DIMDLI
 40
11.286
  9
$DIMEXE
 40
0.125
  9
$DIMCEN
 40
2.673
  9
$DIMLFAC
 40
1.0
  9
$DIMBLK
  1
_CLOSED
  9
$DIMALT
 70
0
  9
$DIMALTF
 40
25.4
  9
$DIMTXT
 40
2.0
  9
$DIMTOL
 70
1
  9
$DIMLIM
 70
0
  9
$DIMTFAC
 40
1.0
  9
$DIMTP
 40
0.01
  9
$DIMTM
 40
0.01
  9
$DIMGAP
 40
0.625
  9
$AUNITS
 70
0
  9
$PDMODE
 70
3
  9
$PDSIZE
 40
0.3125
  9
$HANDSEED
  5
434
  9
$TILEMODE
 70
1
  9
$MEASUREMENT
 70
1
  0
ENDSEC
  0
SECTION
  2
CLASSES
  0
ENDSEC
  0
SECTION
  2
TABLES
  0
TABLE
  2
VPORT
  5
8
100
AcDbSymbolTable
 70
2
  0
VPORT
  5
1F4
100
AcDbSymbolTableRecord
100
AcDbViewportTableRecord
  2
*ACTIVE
 70
0
 10
0.0
 20
0.0
 11
1.0
 21
1.0
 12
148.5
 22
105.0
 13
0.0
 23
0.0
 14
1.0
 24
1.0
 15
0.0
 25
0.0
 16
0.0
 26
0.0
 36
1.0
 17
0.0
 27
0.0
 37
0.0
 40
210.0
 41
1.4142857143
 42
50.0
 43
0.0
 44
0.0
 50
0.0
 51
0.0
 71
0
 72
100
 73
1
 74
1
 75
0
 76
0
 77
0
 78
0
  0
ENDTAB
  0
TABLE
  2
LTYPE
  5
5
100
AcDbSymbolTable
 70
6
  0
LTYPE
  5
14
100
AcDbSymbolTableRecord
100
AcDbLinetypeTableRecord
  2
BYBLOCK
 70
0
  3

 72
65
 73
0
 40
0.0
  0
LTYPE
  5
15
100
AcDbSymbolTableRecord
100
AcDbLinetypeTableRecord
  2
BYLAYER
 70
0
  3

 72
65
 73
0
 40
0.0
  0
LTYPE
  5
16
100
AcDbSymbolTableRecord
100
AcDbLinetypeTableRecord
  2
CONTINUOUS
 70
64
  3
Solid line
 72
65
 73
0
 40
0.0
  0
LTYPE
  5
1F5
100
AcDbSymbolTableRecord
100
AcDbLinetypeTableRecord
  2
CENTER
 70
64
  3
____ _ ____ _ ____ _ ____ _ ____ _ ____ _ ____
 72
65
 73
4
 40
0.6
 49
0.375
 74
0
 49
-0.075
 74
0
 49
0.075
 74
0
 49
-0.075
 74
0
  0
LTYPE
  5
1F6
100
AcDbSymbolTableRecord
100
AcDbLinetypeTableRecord
  2
HIDDEN
 70
64
  3
- - - - - - - - - - - - - - - - - - - -
 72
65
 73
2
 40
0.2
 49
0.1
 74
0
 49
-0.1
 74
0
  0
LTYPE
  5
1F7
100
AcDbSymbolTableRecord
100
AcDbLinetypeTableRecord
  2
PHANTOM
 70
64
  3
_____ _ _ _____ _ _ _____ _ _ _____
 72
65
 73
6
 40
0.8
 49
0.45
 74
0
 49
-0.05
 74
0
 49
0.1
 74
0
 49
-0.05
 74
0
 49
0.1
 74
0
 49
-0.05
 74
0
  0
LTYPE
  5
1F8
100
AcDbSymbolTableRecord
100
AcDbLinetypeTableRecord
  2
DOT
 70
64
  3
. . . . . . . . . . . . . . . . . . . .
 72
65
 73
2
 40
0.2
 49
0.1
 74
0
 49
-0.1
 74
0
  0
LTYPE
  5
1F9
100
AcDbSymbolTableRecord
100
AcDbLinetypeTableRecord
  2
DASHED
 70
64
  3
- - - - - - - - - - - - - - - - - - - -
 72
65
 73
2
 40
0.2
 49
0.1
 74
0
 49
-0.1
 74
0
  0
ENDTAB
  0
TABLE
  2
LAYER
  5
2
100
AcDbSymbolTable
 70
36
  0
LAYER
  5
10
100
AcDbSymbolTableRecord
100
AcDbLayerTableRecord
  2
0
 70
0
 62
7
  6
CONTINUOUS
  0
LAYER
  5
1FA
100
AcDbSymbolTableRecord
100
AcDbLayerTableRecord
  2
DEFAULT_1
 70
0
 62
7
  6
CENTER
  0
LAYER
  5
1FB
100
AcDbSymbolTableRecord
100
AcDbLayerTableRecord
  2
DEFAULT_2
 70
0
 62
8
  6
HIDDEN
  0
LAYER
  5
1FC
100
AcDbSymbolTableRecord
100
AcDbLayerTableRecord
  2
DEFAULT_3
 70
0
 62
7
  6
PHANTOM
  0
LAYER
  5
1FD
100
AcDbSymbolTableRecord
100
AcDbLayerTableRecord
  2
ASSI
 70
0
 62
7
  6
CONTINUOUS
  0
LAYER
  5
1FE
100
AcDbSymbolTableRecord
100
AcDbLayerTableRecord
  2
COSMETICA
 70
0
 62
7
  6
CONTINUOUS
  0
LAYER
  5
1FF
100
AcDbSymbolTableRecord
100
AcDbLayerTableRecord
  2
CURVE
 70
0
 62
7
  6
CONTINUOUS
  0
LAYER
  5
200
100
AcDbSymbolTableRecord
100
AcDbLayerTableRecord
  2
DETTAGLI
 70
0
 62
7
  6
CONTINUOUS
  0
LAYER
  5
201
100
AcDbSymbolTableRecord
100
AcDbLayerTableRecord
  2
FILETTI
 70
0
 62
7
  6
CONTINUOUS
  0
LAYER
  5
202
100
AcDbSymbolTableRecord
100
AcDbLayerTableRecord
  2
GEOM
 70
0
 62
7
  6
CONTINUOUS
  0
LAYER
  5
203
100
AcDbSymbolTableRecord
100
AcDbLayerTableRecord
  2
GEOMETRIA_SOLIDA
 70
0
 62
7
  6
CONTINUOUS
  0
LAYER
  5
204
100
AcDbSymbolTableRecord
100
AcDbLayerTableRecord
  2
LAY0001
 70
0
 62
7
  6
CONTINUOUS
  0
LAYER
  5
205
100
AcDbSymbolTableRecord
100
AcDbLayerTableRecord
  2
LAY0002
 70
0
 62
7
  6
CONTINUOUS
  0
LAYER
  5
206
100
AcDbSymbolTableRecord
100
AcDbLayerTableRecord
  2
LAY0003
 70
0
 62
7
  6
CONTINUOUS
  0
LAYER
  5
207
100
AcDbSymbolTableRecord
100
AcDbLayerTableRecord
  2
NOGEOM
 70
0
 62
7
  6
CONTINUOUS
  0
LAYER
  5
208
100
AcDbSymbolTableRecord
100
AcDbLayerTableRecord
  2
PIANI
 70
0
 62
7
  6
CONTINUOUS
  0
LAYER
  5
209
100
AcDbSymbolTableRecord
100
AcDbLayerTableRecord
  2
QUOTE
 70
0
 62
7
  6
CONTINUOUS
  0
LAYER
  5
20A
100
AcDbSymbolTableRecord
100
AcDbLayerTableRecord
  2
RIF
 70
0
 62
7
  6
CONTINUOUS
  0
LAYER
  5
20B
100
AcDbSymbolTableRecord
100
AcDbLayerTableRecord
  2
SKETCH
 70
0
 62
7
  6
CONTINUOUS
  0
LAYER
  5
20C
100
AcDbSymbolTableRecord
100
AcDbLayerTableRecord
  2
TABELLA
 70
0
 62
7
  6
CONTINUOUS
  0
ENDTAB
  0
TABLE
  2
STYLE
  5
3
100
AcDbSymbolTable
 70
1
  0
STYLE
  5
11
100
AcDbSymbolTableRecord
100
AcDbTextStyleTableRecord
  2
STANDARD
 70
0
 40
0.0
 41
0.8
 50
0.0
 71
0
 42
0.2
  3
txt
  4

  0
STYLE
  5
20D
100
AcDbSymbolTableRecord
100
AcDbTextStyleTableRecord
  2
TEXTSTYLE_1
 70
0
 40
0.0
 41
0.8
 50
0.0
 71
0
 42
0.2
  3
gdt
  4

  0
ENDTAB
  0
TABLE
  2
VIEW
  5
6
100
AcDbSymbolTable
 70
0
  0
ENDTAB
  0
TABLE
  2
UCS
  5
7
100
AcDbSymbolTable
 70
0
  0
ENDTAB
  0
TABLE
  2
APPID
  5
9
100
AcDbSymbolTable
 70
1
  0
APPID
  5
20E
100
AcDbSymbolTableRecord
100
AcDbRegAppTableRecord
  2
ACAD
 70
0
  0
ENDTAB
  0
TABLE
  2
BLOCK_RECORD
  5
1
100
AcDbSymbolTable
 70
0
  0
BLOCK_RECORD
  5
1F
100
AcDbSymbolTableRecord
100
AcDbBlockTableRecord
  2
*MODEL_SPACE
  0
BLOCK_RECORD
  5
1B
100
AcDbSymbolTableRecord
100
AcDbBlockTableRecord
  2
*PAPER_SPACE
  0
ENDTAB
  0
TABLE
  2
DIMSTYLE
  5
A
100
AcDbSymbolTable
 70
1
  0
DIMSTYLE
105
20F
100
AcDbSymbolTableRecord
100
AcDbDimStyleTableRecord
  2
STANDARD
 70
0
  3

  4

  5
_CLOSED
  6
_CLOSED
  7
_CLOSED
 40
1.0
 41
1.5
 42
0.0625
 43
0.38
 44
0.125
 45
0.0
 46
0.0
 47
0.01
 48
0.01
140
2.0
141
0.09
142
0.0
143
25.4
144
1.0
145
0.0
146
1.0
147
0.625
 71
1.0
 72
0.0
 73
0
 74
0
 75
0
 76
0
 77
1
 78
8
 79
2
170
0
171
1
172
0
173
0
174
0
175
0
176
0
177
0
178
0
270
2
179
2
271
2
272
2
273
2
274
2
275
0
280
0
281
0
282
0
283
1
284
8
285
0
286
0
287
3
288
0
340
11
  0
ENDTAB
  0
ENDSEC
  0
SECTION
  2
BLOCKS
  0
BLOCK
  5
20
100
AcDbEntity
  8
0
100
AcDbBlockBegin
  2
*MODEL_SPACE
 70
0
 10
0.0
 20
0.0
 30
0.0
  3
*MODEL_SPACE
  1

  0
ENDBLK
  5
21
100
AcDbEntity
  8
0
100
AcDbBlockEnd
  0
BLOCK
  5
1C
100
AcDbEntity
  8
0
100
AcDbBlockBegin
  2
*PAPER_SPACE
 70
0
 10
0.0
 20
0.0
 30
0.0
  3
*PAPER_SPACE
  1

  0
ENDBLK
  5
1D
100
AcDbEntity
  8
0
100
AcDbBlockEnd
  0
ENDSEC
  0
SECTION
  2
ENTITIES
  0
LINE
  5
210
100
AcDbEntity
  8
0
100
AcDbLine
 62
7
  6
CONTINUOUS
 10
0.0
 20
0.0
 11
0.0
 21
210.0
  0
LINE
  5
211
100
AcDbEntity
  8
0
100
AcDbLine
 62
7
  6
CONTINUOUS
 10
0.0
 20
0.0
 11
297.0
 21
0.0
  0
LINE
  5
212
100
AcDbEntity
  8
0
100
AcDbLine
 62
7
  6
CONTINUOUS
 10
0.0
 20
210.0
 11
297.0
 21
210.0
  0
LINE
  5
213
100
AcDbEntity
  8
0
100
AcDbLine
 62
7
  6
CONTINUOUS
 10
297.0
 20
0.0
 11
297.0
 21
210.0
  0
LINE
  5
214
100
AcDbEntity
  8
0
100
AcDbLine
 62
7
  6
CONTINUOUS
 10
105.8559895145
 20
84.6003195543
 11
106.5488098375
 21
83.4003195543
  0
LINE
  5
215
100
AcDbEntity
  8
0
100
AcDbLine
 62
7
  6
CONTINUOUS
 10
105.8559895145
 20
84.6003195543
 11
105.8559895145
 21
110.6003195543
  0
LINE
  5
216
100
AcDbEntity
  8
0
100
AcDbLine
 62
7
  6
CONTINUOUS
 10
106.5488098375
 20
83.4003195543
 11
106.5488098375
 21
83.4854179337
  0
LINE
  5
217
100
AcDbEntity
  8
0
100
AcDbLine
 62
7
  6
CONTINUOUS
 10
106.5488098375
 20
89.1985606765
 11
106.5488098375
 21
91.8871768115
  0
LINE
  5
218
100
AcDbEntity
  8
0
100
AcDbLine
 62
7
  6
CONTINUOUS
 10
106.5488098375
 20
103.3134622972
 11
106.5488098375
 21
106.0020784321
  0
LINE
  5
219
100
AcDbEntity
  8
0
100
AcDbLine
 62
7
  6
CONTINUOUS
 10
106.5488098375
 20
111.7152211749
 11
106.5488098375
 21
111.8003195543
  0
LINE
  5
21A
100
AcDbEntity
  8
0
100
AcDbLine
 62
7
  6
CONTINUOUS
 10
107.1659895145
 20
98.4303195543
 11
107.1659895145
 21
96.8303195543
  0
LINE
  5
21B
100
AcDbEntity
  8
0
100
AcDbLine
 62
7
  6
CONTINUOUS
 10
107.8659895145
 20
96.8303195543
 11
107.8659895145
 21
98.4303195543
  0
LINE
  5
21C
100
AcDbEntity
  8
0
100
AcDbLine
 62
7
  6
CONTINUOUS
 10
112.1534845294
 20
97.2401892898
 11
113.7843121396
 21
94.6303195543
  0
LINE
  5
21D
100
AcDbEntity
  8
0
100
AcDbLine
 62
7
  6
CONTINUOUS
 10
114.609737022
 20
94.6303195543
 11
112.9789094118
 21
97.2401892898
  0
LINE
  5
21E
100
AcDbEntity
  8
0
100
AcDbLine
 62
7
  6
CONTINUOUS
 10
110.409737022
 20
99.9303195543
 11
110.409737022
 21
95.3303195543
  0
LINE
  5
21F
100
AcDbEntity
  8
0
100
AcDbLine
 62
7
  6
CONTINUOUS
 10
111.109737022
 20
94.6303195543
 11
111.109737022
 21
97.2401892898
  0
LINE
  5
220
100
AcDbEntity
  8
0
100
AcDbLine
 62
7
  6
CONTINUOUS
 10
111.109737022
 20
97.9303195543
 11
111.109737022
 21
99.9303195543
  0
LINE
  5
221
100
AcDbEntity
  8
0
100
AcDbLine
 62
7
  6
CONTINUOUS
 10
121.7903040895
 20
85.3660049793
 11
123.6216749394
 21
83.5346341294
  0
LINE
  5
222
100
AcDbEntity
  8
0
100
AcDbLine
 62
7
  6
CONTINUOUS
 10
115.7971437877
 20
106.0008375951
 11
115.7971437877
 21
103.3148712888
  0
LINE
  5
223
100
AcDbEntity
  8
0
100
AcDbLine
 62
7
  6
CONTINUOUS
 10
115.7971437877
 20
91.8857678102
 11
115.7971437877
 21
89.1998015054
  0
LINE
  5
224
100
AcDbEntity
  8
0
100
AcDbLine
 62
7
  6
CONTINUOUS
 10
115.7971437877
 20
83.4003195543
 11
115.7971437877
 21
83.48524977
  0
LINE
  5
225
100
AcDbEntity
  8
0
100
AcDbLine
 62
7
  6
CONTINUOUS
 10
115.7971437877
 20
111.7153893375
 11
115.7971437877
 21
111.8003195543
  0
LINE
  5
226
100
AcDbEntity
  8
0
100
AcDbLine
 62
7
  6
CONTINUOUS
 10
116.2301564895
 20
111.5503195543
 11
116.2301564895
 21
111.4779084721
  0
LINE
  5
227
100
AcDbEntity
  8
0
100
AcDbLine
 62
7
  6
CONTINUOUS
 10
116.2301564895
 20
105.7684510219
 11
116.2301564895
 21
103.3097770425
  0
LINE
  5
228
100
AcDbEntity
  8
0
100
AcDbLine
 62
7
  6
CONTINUOUS
 10
116.2301564895
 20
91.8908621154
 11
116.2301564895
 21
89.4321881288
  0
LINE
  5
229
100
AcDbEntity
  8
0
100
AcDbLine
 62
7
  6
CONTINUOUS
 10
116.2301564895
 20
83.7227306417
 11
116.2301564895
 21
83.6503195543
  0
LINE
  5
22A
100
AcDbEntity
  8
0
100
AcDbLine
 62
7
  6
CONTINUOUS
 10
116.3559895145
 20
118.8003195543
 11
116.3559895145
 21
116.1157896082
  0
LINE
  5
22B
100
AcDbEntity
  8
0
100
AcDbLine
 62
7
  6
CONTINUOUS
 10
116.5559895145
 20
116.1157896082
 11
116.5559895145
 21
119.0003195543
  0
LINE
  5
22C
100
AcDbEntity
  8
0
100
AcDbLine
 62
7
  6
CONTINUOUS
 10
116.8559895145
 20
115.1003195543
 11
116.8559895145
 21
115.7116444197
  0
LINE
  5
22D
100
AcDbEntity
  8
0
100
AcDbLine
 62
7
  6
CONTINUOUS
 10
116.8559895145
 20
119.0003195543
 11
116.8559895145
 21
129.1003195543
  0
LINE
  5
22E
100
AcDbEntity
  8
0
100
AcDbLine
 62
7
  6
CONTINUOUS
 10
117.1250494068
 20
110.0003195543
 11
117.1250494068
 21
85.2003195543
  0
LINE
  5
22F
100
AcDbEntity
  8
0
100
AcDbLine
 62
7
  6
CONTINUOUS
 10
117.8178697298
 20
109.6003195543
 11
117.8178697298
 21
85.6003195543
  0
LINE
  5
230
100
AcDbEntity
  8
0
100
AcDbLine
 62
7
  6
CONTINUOUS
 10
105.8559895145
 20
110.6003195543
 11
106.5488098375
 21
111.8003195543
  0
LINE
  5
231
100
AcDbEntity
  8
0
100
AcDbLine
 62
7
  6
CONTINUOUS
 10
134.2903040895
 20
83.0660049793
 11
135.0216749394
 21
82.3346341294
  0
LINE
  5
232
100
AcDbEntity
  8
0
100
AcDbLine
 62
7
  6
CONTINUOUS
 10
119.8559895145
 20
119.0003195543
 11
119.8559895145
 21
128.6003195543
  0
LINE
  5
233
100
AcDbEntity
  8
0
100
AcDbLine
 62
7
  6
CONTINUOUS
 10
120.6059895145
 20
122.7003195543
 11
120.6059895145
 21
119.7503195543
  0
LINE
  5
234
100
AcDbEntity
  8
0
100
AcDbLine
 62
7
  6
CONTINUOUS
 10
120.8559895145
 20
119.2932127731
 11
120.8559895145
 21
119.2003195543
  0
LINE
  5
235
100
AcDbEntity
  8
0
100
AcDbLine
 62
7
  6
CONTINUOUS
 10
121.0393377554
 20
118.8003195543
 11
121.0393377554
 21
116.2574263355
  0
LINE
  5
236
100
AcDbEntity
  8
0
100
AcDbLine
 62
7
  6
CONTINUOUS
 10
121.2246186646
 20
109.5162916089
 11
121.2246186646
 21
85.6003195543
  0
LINE
  5
237
100
AcDbEntity
  8
0
100
AcDbLine
 62
7
  6
CONTINUOUS
 10
121.2314336679
 20
118.8003195543
 11
121.2314336679
 21
116.2574263355
  0
LINE
  5
238
100
AcDbEntity
  8
0
100
AcDbLine
 62
7
  6
CONTINUOUS
 10
121.6059895145
 20
112.8537605872
 11
121.6059895145
 21
110.1003195543
  0
LINE
  5
239
100
AcDbEntity
  8
0
100
AcDbLine
 62
7
  6
CONTINUOUS
 10
121.7903040895
 20
109.6003870147
 11
121.7903040895
 21
85.3660049793
  0
LINE
  5
23A
100
AcDbEntity
  8
0
100
AcDbLine
 62
7
  6
CONTINUOUS
 10
121.8229654315
 20
115.0932127731
 11
121.8229654315
 21
113.0748996446
  0
LINE
  5
23B
100
AcDbEntity
  8
0
100
AcDbLine
 62
7
  6
CONTINUOUS
 10
122.0136475339
 20
115.0932127731
 11
122.0136475339
 21
113.0748996446
  0
LINE
  5
23C
100
AcDbEntity
  8
0
100
AcDbLine
 62
7
  6
CONTINUOUS
 10
123.6216749394
 20
83.5346341294
 11
123.6216749394
 21
110.4155421411
  0
LINE
  5
23D
100
AcDbEntity
  8
0
100
AcDbLine
 62
7
  6
CONTINUOUS
 10
123.8559895145
 20
123.0003195543
 11
123.8559895145
 21
126.0003195543
  0
LINE
  5
23E
100
AcDbEntity
  8
0
100
AcDbLine
 62
7
  6
CONTINUOUS
 10
118.0728715227
 20
129.1003195543
 11
116.8559895145
 21
127.7953733649
  0
LINE
  5
23F
100
AcDbEntity
  8
0
100
AcDbLine
 62
7
  6
CONTINUOUS
 10
118.744411793
 20
129.1003195543
 11
116.8559895145
 21
127.0752345915
  0
LINE
  5
240
100
AcDbEntity
  8
0
100
AcDbLine
 62
7
  6
CONTINUOUS
 10
116.2301564895
 20
111.5503195543
 11
117.1250494068
 21
110.0003195543
  0
LINE
  5
241
100
AcDbEntity
  8
0
100
AcDbLine
 62
7
  6
CONTINUOUS
 10
125.8590025437
 20
98.2803195543
 11
126.7438955932
 21
96.5436191591
  0
LINE
  5
242
100
AcDbEntity
  8
0
100
AcDbLine
 62
7
  6
CONTINUOUS
 10
126.3303795635
 20
98.2803195543
 11
126.9795841031
 21
97.0061839047
  0
LINE
  5
243
100
AcDbEntity
  8
0
100
AcDbLine
 62
7
  6
CONTINUOUS
 10
126.8292780007
 20
132.3003195543
 11
126.8465350726
 21
132.1003195543
  0
LINE
  5
244
100
AcDbEntity
  8
0
100
AcDbLine
 62
7
  6
CONTINUOUS
 10
124.1873603644
 20
110.2547823893
 11
124.1873603644
 21
83.3003195543
  0
LINE
  5
245
100
AcDbEntity
  8
0
100
AcDbLine
 62
7
  6
CONTINUOUS
 10
124.3249150818
 20
125.5673068524
 11
124.3249150818
 21
123.0003195543
  0
LINE
  5
246
100
AcDbEntity
  8
0
100
AcDbLine
 62
7
  6
CONTINUOUS
 10
124.3559895145
 20
132.9539093928
 11
124.3559895145
 21
132.3003195543
  0
LINE
  5
247
100
AcDbEntity
  8
0
100
AcDbLine
 62
7
  6
CONTINUOUS
 10
124.8490025437
 20
100.1303195543
 11
124.8490025437
 21
95.0903195543
  0
LINE
  5
248
100
AcDbEntity
  8
0
100
AcDbLine
 62
7
  6
CONTINUOUS
 10
125.2690025437
 20
99.7103195543
 11
125.2690025437
 21
95.5103195543
  0
LINE
  5
249
100
AcDbEntity
  8
0
100
AcDbLine
 62
7
  6
CONTINUOUS
 10
125.8559895145
 20
128.6003195543
 11
125.8559895145
 21
126.0003195543
  0
LINE
  5
24A
100
AcDbEntity
  8
0
100
AcDbLine
 62
7
  6
CONTINUOUS
 10
126.3559895145
 20
134.0977545028
 11
126.3559895145
 21
137.3003195543
  0
LINE
  5
24B
100
AcDbEntity
  8
0
100
AcDbLine
 62
7
  6
CONTINUOUS
 10
127.8753762597
 20
129.1003195543
 11
127.8753762597
 21
128.1493733644
  0
LINE
  5
24C
100
AcDbEntity
  8
0
100
AcDbLine
 62
7
  6
CONTINUOUS
 10
128.5018875482
 20
132.3003195543
 11
128.4838920417
 21
132.1003195543
  0
LINE
  5
24D
100
AcDbEntity
  8
0
100
AcDbLine
 62
7
  6
CONTINUOUS
 10
130.3559895145
 20
132.3003195543
 11
130.304502955
 21
132.1003195543
  0
LINE
  5
24E
100
AcDbEntity
  8
0
100
AcDbLine
 62
7
  6
CONTINUOUS
 10
129.0717565833
 20
99.1203195543
 11
129.0717565833
 21
98.7003195543
  0
LINE
  5
24F
100
AcDbEntity
  8
0
100
AcDbLine
 62
7
  6
CONTINUOUS
 10
129.0717565833
 20
98.2803195543
 11
129.0717565833
 21
96.1503195543
  0
LINE
  5
250
100
AcDbEntity
  8
0
100
AcDbLine
 62
7
  6
CONTINUOUS
 10
129.4917565833
 20
99.1203195543
 11
129.4917565833
 21
98.7003195543
  0
LINE
  5
251
100
AcDbEntity
  8
0
100
AcDbLine
 62
7
  6
CONTINUOUS
 10
129.4917565833
 20
98.2803195543
 11
129.4917565833
 21
96.1503195543
  0
LINE
  5
252
100
AcDbEntity
  8
0
100
AcDbLine
 62
7
  6
CONTINUOUS
 10
129.8870639471
 20
125.2841024351
 11
129.8870639471
 21
123.0003195543
  0
LINE
  5
253
100
AcDbEntity
  8
0
100
AcDbLine
 62
7
  6
CONTINUOUS
 10
130.0817565833
 20
98.2803195543
 11
130.0817565833
 21
97.6003195543
  0
LINE
  5
254
100
AcDbEntity
  8
0
100
AcDbLine
 62
7
  6
CONTINUOUS
 10
130.0817565833
 20
96.2603195543
 11
130.0817565833
 21
96.1503195543
  0
LINE
  5
255
100
AcDbEntity
  8
DEFAULT_1
100
AcDbLine
 62
2
  6
CENTER
 10
130.3559895145
 20
137.4003195543
 11
130.3559895145
 21
136.9430539644
  0
LINE
  5
256
100
AcDbEntity
  8
0
100
AcDbLine
 62
7
  6
CONTINUOUS
 10
130.3559895145
 20
134.0977545028
 11
130.3559895145
 21
136.9430539644
  0
LINE
  5
257
100
AcDbEntity
  8
0
100
AcDbLine
 62
7
  6
CONTINUOUS
 10
130.5017565833
 20
98.2803195543
 11
130.5017565833
 21
97.8603195543
  0
LINE
  5
258
100
AcDbEntity
  8
0
100
AcDbLine
 62
7
  6
CONTINUOUS
 10
130.8249150818
 20
124.2783802236
 11
130.8249150818
 21
123.0003195543
  0
LINE
  5
259
100
AcDbEntity
  8
0
100
AcDbLine
 62
7
  6
CONTINUOUS
 10
131.6817565833
 20
98.0303195543
 11
131.6817565833
 21
97.6003195543
  0
LINE
  5
25A
100
AcDbEntity
  8
0
100
AcDbLine
 62
7
  6
CONTINUOUS
 10
132.1017565833
 20
98.0303195543
 11
132.1017565833
 21
97.4889755968
  0
LINE
  5
25B
100
AcDbEntity
  8
0
100
AcDbLine
 62
7
  6
CONTINUOUS
 10
132.8290025437
 20
99.7103195543
 11
132.8290025437
 21
95.5103195543
  0
LINE
  5
25C
100
AcDbEntity
  8
0
100
AcDbLine
 62
7
  6
CONTINUOUS
 10
132.8559895145
 20
115.1003195543
 11
132.8559895145
 21
122.1003195543
  0
LINE
  5
25D
100
AcDbEntity
  8
0
100
AcDbLine
 62
7
  6
CONTINUOUS
 10
132.2100914807
 20
132.3003195543
 11
132.1301537315
 21
132.1003195543
  0
LINE
  5
25E
100
AcDbEntity
  8
0
100
AcDbLine
 62
7
  6
CONTINUOUS
 10
136.3559895145
 20
132.3003195543
 11
136.2557648605
 21
132.1003195543
  0
LINE
  5
25F
100
AcDbEntity
  8
0
100
AcDbLine
 62
7
  6
CONTINUOUS
 10
133.8827010282
 20
132.3003195543
 11
133.7821369532
 21
132.1003195543
  0
LINE
  5
260
100
AcDbEntity
  8
0
100
AcDbLine
 62
7
  6
CONTINUOUS
 10
136.0623286122
 20
132.3003195543
 11
135.9510990802
 21
132.1003195543
  0
LINE
  5
261
100
AcDbEntity
  8
0
100
AcDbLine
 62
7
  6
CONTINUOUS
 10
135.2100914807
 20
132.3003195543
 11
135.0987449921
 21
132.1003195543
  0
LINE
  5
262
100
AcDbEntity
  8
0
100
AcDbLine
 62
7
  6
CONTINUOUS
 10
126.342186713
 20
129.0865167528
 11
125.8559895145
 21
128.6003195543
  0
LINE
  5
263
100
AcDbEntity
  8
0
100
AcDbLine
 62
7
  6
CONTINUOUS
 10
120.9059895145
 20
123.0003195543
 11
120.6059895145
 21
122.7003195543
  0
LINE
  5
264
100
AcDbEntity
  8
0
100
AcDbLine
 62
7
  6
CONTINUOUS
 10
126.3559895145
 20
134.4550200927
 11
124.6559895145
 21
133.4735246351
  0
LINE
  5
265
100
AcDbEntity
  8
0
100
AcDbLine
 62
7
  6
CONTINUOUS
 10
142.7958234839
 20
82.1003195543
 11
141.8559895145
 21
82.1003195543
  0
LINE
  5
266
100
AcDbEntity
  8
0
100
AcDbLine
 62
7
  6
CONTINUOUS
 10
135.5873603644
 20
82.1003195543
 11
141.5559895145
 21
82.1003195543
  0
LINE
  5
267
100
AcDbEntity
  8
0
100
AcDbLine
 62
7
  6
CONTINUOUS
 10
124.1873603644
 20
83.3003195543
 11
133.7246186646
 21
83.3003195543
  0
LINE
  5
268
100
AcDbEntity
  8
0
100
AcDbLine
 62
7
  6
CONTINUOUS
 10
154.1631691914
 20
83.4003195543
 11
144.1792545881
 21
83.4003195543
  0
LINE
  5
269
100
AcDbEntity
  8
0
100
AcDbLine
 62
7
  6
CONTINUOUS
 10
115.7971437877
 20
83.4003195543
 11
106.5488098375
 21
83.4003195543
  0
LINE
  5
26A
100
AcDbEntity
  8
0
100
AcDbLine
 62
7
  6
CONTINUOUS
 10
154.1631691914
 20
83.4854179337
 11
144.1941317622
 21
83.4854179337
  0
LINE
  5
26B
100
AcDbEntity
  8
0
100
AcDbLine
 62
7
  6
CONTINUOUS
 10
115.7718986614
 20
83.4854179337
 11
106.5488098375
 21
83.4854179337
  0
LINE
  5
26C
100
AcDbEntity
  8
0
100
AcDbLine
 62
7
  6
CONTINUOUS
 10
117.8178697298
 20
85.6003195543
 11
121.2246186646
 21
85.6003195543
  0
LINE
  5
26D
100
AcDbEntity
  8
0
100
AcDbLine
 62
7
  6
CONTINUOUS
 10
137.0559895145
 20
90.3791723139
 11
139.1927851843
 21
89.9122530629
  0
LINE
  5
26E
100
AcDbEntity
  8
0
100
AcDbLine
 62
7
  6
CONTINUOUS
 10
137.5176324056
 20
90.4838265974
 11
139.5559895145
 21
90.0330080521
  0
LINE
  5
26F
100
AcDbEntity
  8
0
100
AcDbLine
 62
7
  6
CONTINUOUS
 10
137.0559895145
 20
91.5671713053
 11
139.5559895145
 21
90.9484457188
  0
LINE
  5
270
100
AcDbEntity
  8
0
100
AcDbLine
 62
7
  6
CONTINUOUS
 10
125.5018875482
 20
132.3003195543
 11
125.5527079562
 21
132.1003195543
  0
LINE
  5
271
100
AcDbEntity
  8
0
100
AcDbLine
 62
7
  6
CONTINUOUS
 10
133.2490025437
 20
100.1303195543
 11
133.2490025437
 21
95.0903195543
  0
LINE
  5
272
100
AcDbEntity
  8
0
100
AcDbLine
 62
7
  6
CONTINUOUS
 10
133.7246186646
 20
83.3003195543
 11
133.7246186646
 21
109.2280869129
  0
LINE
  5
273
100
AcDbEntity
  8
0
100
AcDbLine
 62
7
  6
CONTINUOUS
 10
134.2903040895
 20
109.5133159057
 11
134.2903040895
 21
83.0660049793
  0
LINE
  5
274
100
AcDbEntity
  8
0
100
AcDbLine
 62
7
  6
CONTINUOUS
 10
134.3559895145
 20
134.0977545028
 11
134.3559895145
 21
137.3003195543
  0
LINE
  5
275
100
AcDbEntity
  8
0
100
AcDbLine
 62
7
  6
CONTINUOUS
 10
135.0216749394
 20
82.3346341294
 11
135.0216749394
 21
110.603033333
  0
LINE
  5
276
100
AcDbEntity
  8
0
100
AcDbLine
 62
7
  6
CONTINUOUS
 10
135.5873603644
 20
82.1003195543
 11
135.5873603644
 21
111.2251172905
  0
LINE
  5
277
100
AcDbEntity
  8
0
100
AcDbLine
 62
7
  6
CONTINUOUS
 10
136.3559895145
 20
132.9539093928
 11
136.3559895145
 21
132.3003195543
  0
LINE
  5
278
100
AcDbEntity
  8
0
100
AcDbLine
 62
7
  6
CONTINUOUS
 10
137.0559895145
 20
106.1003203823
 11
137.0559895145
 21
105.8070589005
  0
LINE
  5
279
100
AcDbEntity
  8
0
100
AcDbLine
 62
7
  6
CONTINUOUS
 10
137.0559895145
 20
104.8536686906
 11
137.0559895145
 21
104.5604072088
  0
LINE
  5
27A
100
AcDbEntity
  8
0
100
AcDbLine
 62
7
  6
CONTINUOUS
 10
137.0559895145
 20
103.6173677843
 11
137.0559895145
 21
103.3770088806
  0
LINE
  5
27B
100
AcDbEntity
  8
0
100
AcDbLine
 62
7
  6
CONTINUOUS
 10
137.0559895145
 20
102.5328730117
 11
137.0559895145
 21
102.2511117742
  0
LINE
  5
27C
100
AcDbEntity
  8
0
100
AcDbLine
 62
7
  6
CONTINUOUS
 10
137.0559895145
 20
101.5725836245
 11
137.0559895145
 21
100.2212778513
  0
LINE
  5
27D
100
AcDbEntity
  8
0
100
AcDbLine
 62
7
  6
CONTINUOUS
 10
137.0559895145
 20
99.9751676137
 11
137.0559895145
 21
99.7348079021
  0
LINE
  5
27E
100
AcDbEntity
  8
0
100
AcDbLine
 62
7
  6
CONTINUOUS
 10
137.0559895145
 20
98.6204118479
 11
137.0559895145
 21
98.3800521364
  0
LINE
  5
27F
100
AcDbEntity
  8
0
100
AcDbLine
 62
7
  6
CONTINUOUS
 10
137.0559895145
 20
97.543967327
 11
137.0559895145
 21
97.2783065932
  0
LINE
  5
280
100
AcDbEntity
  8
0
100
AcDbLine
 62
7
  6
CONTINUOUS
 10
137.0559895145
 20
96.8918904664
 11
137.0559895145
 21
96.6515307549
  0
LINE
  5
281
100
AcDbEntity
  8
0
100
AcDbLine
 62
7
  6
CONTINUOUS
 10
137.0559895145
 20
95.6199381564
 11
137.0559895145
 21
94.3813371204
  0
LINE
  5
282
100
AcDbEntity
  8
0
100
AcDbLine
 62
7
  6
CONTINUOUS
 10
137.0559895145
 20
93.3819459331
 11
137.0559895145
 21
92.679267028
  0
LINE
  5
283
100
AcDbEntity
  8
0
100
AcDbLine
 62
7
  6
CONTINUOUS
 10
137.0559895145
 20
91.8489329467
 11
137.0559895145
 21
91.5671713053
  0
LINE
  5
284
100
AcDbEntity
  8
0
100
AcDbLine
 62
7
  6
CONTINUOUS
 10
137.0559895145
 20
90.7241865109
 11
137.0559895145
 21
90.3791723139
  0
LINE
  5
285
100
AcDbEntity
  8
0
100
AcDbLine
 62
7
  6
CONTINUOUS
 10
137.0559895145
 20
89.4453337614
 11
137.0559895145
 21
89.1003195644
  0
LINE
  5
286
100
AcDbEntity
  8
0
100
AcDbLine
 62
7
  6
CONTINUOUS
 10
137.375066291
 20
101.5725836245
 11
137.375066291
 21
101.0171105937
  0
LINE
  5
287
100
AcDbEntity
  8
0
100
AcDbLine
 62
7
  6
CONTINUOUS
 10
137.375066291
 20
100.7767508821
 11
137.375066291
 21
100.2212778513
  0
LINE
  5
288
100
AcDbEntity
  8
0
100
AcDbLine
 62
7
  6
CONTINUOUS
 10
137.375066291
 20
95.6199381564
 11
137.375066291
 21
94.6216972358
  0
LINE
  5
289
100
AcDbEntity
  8
0
100
AcDbLine
 62
7
  6
CONTINUOUS
 10
137.375066291
 20
93.2588908143
 11
137.375066291
 21
92.9196271434
  0
LINE
  5
28A
100
AcDbEntity
  8
0
100
AcDbLine
 62
7
  6
CONTINUOUS
 10
121.730848509
 20
115.3053448075
 11
121.8658121985
 21
115.446766728
  0
LINE
  5
28B
100
AcDbEntity
  8
0
100
AcDbLine
 62
7
  6
CONTINUOUS
 10
121.2529930055
 20
115.7624515887
 11
121.3885761035
 21
115.9038729427
  0
LINE
  5
28C
100
AcDbEntity
  8
0
100
AcDbLine
 62
7
  6
CONTINUOUS
 10
137.0559895145
 20
89.1003195644
 11
139.5559895145
 21
89.1003195644
  0
LINE
  5
28D
100
AcDbEntity
  8
0
100
AcDbLine
 62
7
  6
CONTINUOUS
 10
154.1631691914
 20
89.1985606765
 11
144.1941311982
 21
89.1985606765
  0
LINE
  5
28E
100
AcDbEntity
  8
0
100
AcDbLine
 62
7
  6
CONTINUOUS
 10
115.7718986614
 20
89.1985606765
 11
106.5488098375
 21
89.1985606765
  0
LINE
  5
28F
100
AcDbEntity
  8
0
100
AcDbLine
 62
7
  6
CONTINUOUS
 10
137.5227241324
 20
89.3406794779
 11
139.5559895145
 21
89.3406794779
  0
LINE
  5
290
100
AcDbEntity
  8
0
100
AcDbLine
 62
7
  6
CONTINUOUS
 10
138.8329752641
 20
91.3831637605
 11
139.5559895145
 21
91.2164067842
  0
LINE
  5
291
100
AcDbEntity
  8
0
100
AcDbLine
 62
7
  6
CONTINUOUS
 10
137.4293771492
 20
91.7086270574
 11
138.5138985621
 21
91.454466568
  0
LINE
  5
292
100
AcDbEntity
  8
0
100
AcDbLine
 62
7
  6
CONTINUOUS
 10
120.6059895145
 20
119.7503195543
 11
120.7095429051
 21
119.6467661637
  0
LINE
  5
293
100
AcDbEntity
  8
0
100
AcDbLine
 62
7
  6
CONTINUOUS
 10
124.3559895145
 20
132.3003195543
 11
124.4562141684
 21
132.1003195543
  0
LINE
  5
294
100
AcDbEntity
  8
0
100
AcDbLine
 62
7
  6
CONTINUOUS
 10
124.6496504167
 20
132.3003195543
 11
124.7290595051
 21
132.1003195543
  0
LINE
  5
295
100
AcDbEntity
  8
0
100
AcDbLine
 62
7
  6
CONTINUOUS
 10
138.1065665292
 20
95.5451853563
 11
138.1065665292
 21
94.6216972358
  0
LINE
  5
296
100
AcDbEntity
  8
0
100
AcDbLine
 62
7
  6
CONTINUOUS
 10
138.4256433057
 20
95.5451853563
 11
138.4256433057
 21
94.6216972358
  0
LINE
  5
297
100
AcDbEntity
  8
0
100
AcDbLine
 62
7
  6
CONTINUOUS
 10
138.5138985621
 20
102.6455781529
 11
138.5138985621
 21
102.1384074408
  0
LINE
  5
298
100
AcDbEntity
  8
0
100
AcDbLine
 62
7
  6
CONTINUOUS
 10
138.5138985621
 20
91.961637482
 11
138.5138985621
 21
91.454466568
  0
LINE
  5
299
100
AcDbEntity
  8
0
100
AcDbLine
 62
7
  6
CONTINUOUS
 10
138.8329752641
 20
102.7168801526
 11
138.8329752641
 21
102.0671038255
  0
LINE
  5
29A
100
AcDbEntity
  8
0
100
AcDbLine
 62
7
  6
CONTINUOUS
 10
138.8329752641
 20
92.0329404915
 11
138.8329752641
 21
91.3831637605
  0
LINE
  5
29B
100
AcDbEntity
  8
0
100
AcDbLine
 62
7
  6
CONTINUOUS
 10
139.1059895145
 20
115.0932127731
 11
139.1059895145
 21
113.6003195543
  0
LINE
  5
29C
100
AcDbEntity
  8
0
100
AcDbLine
 62
7
  6
CONTINUOUS
 10
139.2369128125
 20
104.4615036533
 11
139.2369128125
 21
103.6173677843
  0
LINE
  5
29D
100
AcDbEntity
  8
0
100
AcDbLine
 62
7
  6
CONTINUOUS
 10
139.2369128125
 20
95.6325890714
 11
139.2369128125
 21
94.6216972358
  0
LINE
  5
29E
100
AcDbEntity
  8
0
100
AcDbLine
 62
7
  6
CONTINUOUS
 10
139.2369128125
 20
93.2657912033
 11
139.2369128125
 21
92.9196271434
  0
LINE
  5
29F
100
AcDbEntity
  8
0
100
AcDbLine
 62
7
  6
CONTINUOUS
 10
139.5559895145
 20
105.4505440552
 11
139.5559895145
 21
105.2101835359
  0
LINE
  5
2A0
100
AcDbEntity
  8
0
100
AcDbLine
 62
7
  6
CONTINUOUS
 10
139.5559895145
 20
104.4615036533
 11
139.5559895145
 21
103.3770088806
  0
LINE
  5
2A1
100
AcDbEntity
  8
0
100
AcDbLine
 62
7
  6
CONTINUOUS
 10
139.5559895145
 20
103.1515985982
 11
139.5559895145
 21
102.8836381386
  0
LINE
  5
2A2
100
AcDbEntity
  8
0
100
AcDbLine
 62
7
  6
CONTINUOUS
 10
139.5559895145
 20
101.900347455
 11
139.5559895145
 21
101.6323861877
  0
LINE
  5
2A3
100
AcDbEntity
  8
0
100
AcDbLine
 62
7
  6
CONTINUOUS
 10
139.5559895145
 20
101.0171105937
 11
139.5559895145
 21
100.7767508821
  0
LINE
  5
2A4
100
AcDbEntity
  8
0
100
AcDbLine
 62
7
  6
CONTINUOUS
 10
139.5559895145
 20
99.9751676137
 11
139.5559895145
 21
99.7348079021
  0
LINE
  5
2A5
100
AcDbEntity
  8
0
100
AcDbLine
 62
7
  6
CONTINUOUS
 10
139.5559895145
 20
98.6204118479
 11
139.5559895145
 21
98.3547511141
  0
LINE
  5
2A6
100
AcDbEntity
  8
0
100
AcDbLine
 62
7
  6
CONTINUOUS
 10
139.5559895145
 20
97.5186663048
 11
139.5559895145
 21
97.2783065932
  0
LINE
  5
2A7
100
AcDbEntity
  8
0
100
AcDbLine
 62
7
  6
CONTINUOUS
 10
139.5559895145
 20
96.8918904664
 11
139.5559895145
 21
96.6515307549
  0
LINE
  5
2A8
100
AcDbEntity
  8
0
100
AcDbLine
 62
7
  6
CONTINUOUS
 10
139.5559895145
 20
95.6325890714
 11
139.5559895145
 21
94.3813371204
  0
LINE
  5
2A9
100
AcDbEntity
  8
0
100
AcDbLine
 62
7
  6
CONTINUOUS
 10
139.5559895145
 20
93.2749917219
 11
139.5559895145
 21
92.679267028
  0
LINE
  5
2AA
100
AcDbEntity
  8
0
100
AcDbLine
 62
7
  6
CONTINUOUS
 10
139.5559895145
 20
92.4676583312
 11
139.5559895145
 21
92.1996972658
  0
LINE
  5
2AB
100
AcDbEntity
  8
0
100
AcDbLine
 62
7
  6
CONTINUOUS
 10
139.5559895145
 20
91.2164067842
 11
139.5559895145
 21
90.9484457188
  0
LINE
  5
2AC
100
AcDbEntity
  8
0
100
AcDbLine
 62
7
  6
CONTINUOUS
 10
139.5559895145
 20
90.7241865109
 11
139.5559895145
 21
90.4838265974
  0
LINE
  5
2AD
100
AcDbEntity
  8
0
100
AcDbLine
 62
7
  6
CONTINUOUS
 10
139.5559895145
 20
90.0330080521
 11
139.5559895145
 21
89.7926481386
  0
LINE
  5
2AE
100
AcDbEntity
  8
0
100
AcDbLine
 62
7
  6
CONTINUOUS
 10
139.5559895145
 20
89.3406794779
 11
139.5559895145
 21
89.1003195644
  0
LINE
  5
2AF
100
AcDbEntity
  8
0
100
AcDbLine
 62
7
  6
CONTINUOUS
 10
139.8559895145
 20
119.2932127731
 11
139.8559895145
 21
116.2574263355
  0
LINE
  5
2B0
100
AcDbEntity
  8
0
100
AcDbLine
 62
7
  6
CONTINUOUS
 10
140.1059895145
 20
120.3797790211
 11
140.1059895145
 21
119.7503195543
  0
LINE
  5
2B1
100
AcDbEntity
  8
0
100
AcDbLine
 62
7
  6
CONTINUOUS
 10
141.5559895145
 20
82.1003195543
 11
141.5559895145
 21
113.1003195543
  0
LINE
  5
2B2
100
AcDbEntity
  8
0
100
AcDbLine
 62
7
  6
CONTINUOUS
 10
141.8559895145
 20
82.1004458114
 11
141.8559895145
 21
113.1001932972
  0
LINE
  5
2B3
100
AcDbEntity
  8
0
100
AcDbLine
 62
7
  6
CONTINUOUS
 10
143.4397299937
 20
128.5622087088
 11
142.2447373218
 21
125.75824632
  0
LINE
  5
2B4
100
AcDbEntity
  8
0
100
AcDbLine
 62
7
  6
CONTINUOUS
 10
143.2451241273
 20
127.745527443
 11
137.8559895145
 21
115.1003195543
  0
LINE
  5
2B5
100
AcDbEntity
  8
0
100
AcDbLine
 62
7
  6
CONTINUOUS
 10
126.9795841031
 20
97.0061839047
 11
126.7438955932
 21
96.5436191591
  0
LINE
  5
2B6
100
AcDbEntity
  8
0
100
AcDbLine
 62
7
  6
CONTINUOUS
 10
128.0103795635
 20
98.2803195543
 11
126.9250903561
 21
96.1503195543
  0
LINE
  5
2B7
100
AcDbEntity
  8
0
100
AcDbLine
 62
7
  6
CONTINUOUS
 10
128.4817565833
 20
98.2803195543
 11
127.3964673759
 21
96.1503195543
  0
LINE
  5
2B8
100
AcDbEntity
  8
0
100
AcDbLine
 62
7
  6
CONTINUOUS
 10
116.2301564895
 20
83.6503195543
 11
117.1250494068
 21
85.2003195543
  0
LINE
  5
2B9
100
AcDbEntity
  8
0
100
AcDbLine
 62
7
  6
CONTINUOUS
 10
137.5176324056
 20
90.4838265974
 11
139.5559895145
 21
90.4838265974
  0
LINE
  5
2BA
100
AcDbEntity
  8
0
100
AcDbLine
 62
7
  6
CONTINUOUS
 10
137.0559895145
 20
90.7241865109
 11
139.5559895145
 21
90.7241865109
  0
LINE
  5
2BB
100
AcDbEntity
  8
0
100
AcDbLine
 62
7
  6
CONTINUOUS
 10
154.1631691914
 20
91.8871768115
 11
144.1941318405
 21
91.8871768115
  0
LINE
  5
2BC
100
AcDbEntity
  8
0
100
AcDbLine
 62
7
  6
CONTINUOUS
 10
115.7718986614
 20
91.8871768115
 11
106.5488098375
 21
91.8871768115
  0
LINE
  5
2BD
100
AcDbEntity
  8
0
100
AcDbLine
 62
7
  6
CONTINUOUS
 10
137.0559895145
 20
92.679267028
 11
139.5559895145
 21
92.679267028
  0
LINE
  5
2BE
100
AcDbEntity
  8
0
100
AcDbLine
 62
7
  6
CONTINUOUS
 10
137.375066291
 20
92.9196271434
 11
139.2369128125
 21
92.9196271434
  0
LINE
  5
2BF
100
AcDbEntity
  8
0
100
AcDbLine
 62
7
  6
CONTINUOUS
 10
137.0559895145
 20
94.3813371204
 11
139.5559895145
 21
94.3813371204
  0
LINE
  5
2C0
100
AcDbEntity
  8
0
100
AcDbLine
 62
7
  6
CONTINUOUS
 10
137.375066291
 20
94.6216972358
 11
138.1065665292
 21
94.6216972358
  0
LINE
  5
2C1
100
AcDbEntity
  8
0
100
AcDbLine
 62
7
  6
CONTINUOUS
 10
138.4256433057
 20
94.6216972358
 11
139.2369128125
 21
94.6216972358
  0
LINE
  5
2C2
100
AcDbEntity
  8
0
100
AcDbLine
 62
7
  6
CONTINUOUS
 10
109.3659895145
 20
94.6303195543
 11
111.109737022
 21
94.6303195543
  0
LINE
  5
2C3
100
AcDbEntity
  8
0
100
AcDbLine
 62
7
  6
CONTINUOUS
 10
113.7843121396
 20
94.6303195543
 11
114.609737022
 21
94.6303195543
  0
LINE
  5
2C4
100
AcDbEntity
  8
0
100
AcDbLine
 62
7
  6
CONTINUOUS
 10
116.4559895145
 20
115.9425845274
 11
121.806578378
 21
112.8534206067
  0
LINE
  5
2C5
100
AcDbEntity
  8
0
100
AcDbLine
 62
7
  6
CONTINUOUS
 10
116.5559895145
 20
116.1157896082
 11
121.8229654315
 21
113.0748996446
  0
LINE
  5
2C6
100
AcDbEntity
  8
0
100
AcDbLine
 62
7
  6
CONTINUOUS
 10
142.2447373218
 20
129.1003195543
 11
142.2447373218
 21
125.75824632
  0
LINE
  5
2C7
100
AcDbEntity
  8
0
100
AcDbLine
 62
7
  6
CONTINUOUS
 10
142.7958234839
 20
113.1003195543
 11
142.7958234839
 21
82.1003195543
  0
LINE
  5
2C8
100
AcDbEntity
  8
0
100
AcDbLine
 62
7
  6
CONTINUOUS
 10
143.5475775818
 20
112.5739356655
 11
143.5475775818
 21
82.6267034432
  0
LINE
  5
2C9
100
AcDbEntity
  8
0
100
AcDbLine
 62
7
  6
CONTINUOUS
 10
143.7094082777
 20
83.071329626
 11
143.7094082777
 21
83.170214855
  0
LINE
  5
2CA
100
AcDbEntity
  8
0
100
AcDbLine
 62
7
  6
CONTINUOUS
 10
143.7094082777
 20
88.9197569089
 11
143.7094082777
 21
91.8507773646
  0
LINE
  5
2CB
100
AcDbEntity
  8
0
100
AcDbLine
 62
7
  6
CONTINUOUS
 10
143.7094082777
 20
103.3498617441
 11
143.7094082777
 21
106.2808821999
  0
LINE
  5
2CC
100
AcDbEntity
  8
0
100
AcDbLine
 62
7
  6
CONTINUOUS
 10
143.7094082777
 20
112.0304242536
 11
143.7094082777
 21
112.1293094827
  0
LINE
  5
2CD
100
AcDbEntity
  8
0
100
AcDbLine
 62
7
  6
CONTINUOUS
 10
144.1792545881
 20
83.4003195543
 11
144.1792545881
 21
83.4854774154
  0
LINE
  5
2CE
100
AcDbEntity
  8
0
100
AcDbLine
 62
7
  6
CONTINUOUS
 10
144.1792545881
 20
89.1981217328
 11
144.1792545881
 21
91.8876749605
  0
LINE
  5
2CF
100
AcDbEntity
  8
0
100
AcDbLine
 62
7
  6
CONTINUOUS
 10
144.1792545881
 20
103.3129641481
 11
144.1792545881
 21
106.0025173759
  0
LINE
  5
2D0
100
AcDbEntity
  8
0
100
AcDbLine
 62
7
  6
CONTINUOUS
 10
144.1792545881
 20
111.7151616933
 11
144.1792545881
 21
111.8003195543
  0
LINE
  5
2D1
100
AcDbEntity
  8
0
100
AcDbLine
 62
7
  6
CONTINUOUS
 10
144.2328397805
 20
132.1003195543
 11
144.2328397805
 21
129.1003195543
  0
LINE
  5
2D2
100
AcDbEntity
  8
0
100
AcDbLine
 62
7
  6
CONTINUOUS
 10
144.6996299938
 20
132.1003195543
 11
144.6996299938
 21
129.1003195543
  0
LINE
  5
2D3
100
AcDbEntity
  8
0
100
AcDbLine
 62
7
  6
CONTINUOUS
 10
163.227143394
 20
148.6714699931
 11
149.6220339576
 21
132.4575319446
  0
LINE
  5
2D4
100
AcDbEntity
  8
0
100
AcDbLine
 62
7
  6
CONTINUOUS
 10
151.9201672869
 20
130.5291691156
 11
165.2255399384
 21
146.3858947737
  0
LINE
  5
2D5
100
AcDbEntity
  8
0
100
AcDbLine
 62
7
  6
CONTINUOUS
 10
140.1059895145
 20
119.7503195543
 11
140.0024361239
 21
119.6467661637
  0
LINE
  5
2D6
100
AcDbEntity
  8
0
100
AcDbLine
 62
7
  6
CONTINUOUS
 10
139.5559895145
 20
92.4676583312
 11
137.0559895145
 21
91.8489329467
  0
LINE
  5
2D7
100
AcDbEntity
  8
0
100
AcDbLine
 62
7
  6
CONTINUOUS
 10
138.5138985621
 20
91.961637482
 11
137.4293771492
 21
91.7086270574
  0
LINE
  5
2D8
100
AcDbEntity
  8
0
100
AcDbLine
 62
7
  6
CONTINUOUS
 10
139.5559895145
 20
92.1996972658
 11
138.8329752641
 21
92.0329404915
  0
LINE
  5
2D9
100
AcDbEntity
  8
0
100
AcDbLine
 62
7
  6
CONTINUOUS
 10
139.5559895145
 20
89.7926481386
 11
137.5227241324
 21
89.3406794779
  0
LINE
  5
2DA
100
AcDbEntity
  8
0
100
AcDbLine
 62
7
  6
CONTINUOUS
 10
139.1927851843
 20
89.9122530629
 11
137.0559895145
 21
89.4453337614
  0
LINE
  5
2DB
100
AcDbEntity
  8
0
100
AcDbLine
 62
7
  6
CONTINUOUS
 10
124.8490025437
 20
95.0903195543
 11
133.2490025437
 21
95.0903195543
  0
LINE
  5
2DC
100
AcDbEntity
  8
0
100
AcDbLine
 62
7
  6
CONTINUOUS
 10
110.409737022
 20
95.3303195543
 11
109.3659895145
 21
95.3303195543
  0
LINE
  5
2DD
100
AcDbEntity
  8
0
100
AcDbLine
 62
7
  6
CONTINUOUS
 10
125.2690025437
 20
95.5103195543
 11
132.8290025437
 21
95.5103195543
  0
LINE
  5
2DE
100
AcDbEntity
  8
0
100
AcDbLine
 62
7
  6
CONTINUOUS
 10
138.1065665292
 20
95.5451853563
 11
138.4256433057
 21
95.5451853563
  0
LINE
  5
2DF
100
AcDbEntity
  8
0
100
AcDbLine
 62
7
  6
CONTINUOUS
 10
137.0559895145
 20
95.6199381564
 11
137.375066291
 21
95.6199381564
  0
LINE
  5
2E0
100
AcDbEntity
  8
0
100
AcDbLine
 62
7
  6
CONTINUOUS
 10
139.2369128125
 20
95.6325890714
 11
139.5559895145
 21
95.6325890714
  0
LINE
  5
2E1
100
AcDbEntity
  8
0
100
AcDbLine
 62
7
  6
CONTINUOUS
 10
126.9250903561
 20
96.1503195543
 11
127.3964673759
 21
96.1503195543
  0
LINE
  5
2E2
100
AcDbEntity
  8
0
100
AcDbLine
 62
7
  6
CONTINUOUS
 10
129.0717565833
 20
96.1503195543
 11
129.4917565833
 21
96.1503195543
  0
LINE
  5
2E3
100
AcDbEntity
  8
0
100
AcDbLine
 62
7
  6
CONTINUOUS
 10
130.0817565833
 20
96.1503195543
 11
130.5017565833
 21
96.1503195543
  0
LINE
  5
2E4
100
AcDbEntity
  8
0
100
AcDbLine
 62
7
  6
CONTINUOUS
 10
137.0559895145
 20
96.6515307549
 11
139.5559895145
 21
96.6515307549
  0
LINE
  5
2E5
100
AcDbEntity
  8
0
100
AcDbLine
 62
7
  6
CONTINUOUS
 10
137.0559895145
 20
96.8918904664
 11
139.5559895145
 21
96.8918904664
  0
LINE
  5
2E6
100
AcDbEntity
  8
0
100
AcDbLine
 62
7
  6
CONTINUOUS
 10
111.109737022
 20
97.2401892898
 11
112.1534845294
 21
97.2401892898
  0
LINE
  5
2E7
100
AcDbEntity
  8
0
100
AcDbLine
 62
7
  6
CONTINUOUS
 10
137.0559895145
 20
97.2783065932
 11
139.5559895145
 21
97.2783065932
  0
LINE
  5
2E8
100
AcDbEntity
  8
0
100
AcDbLine
 62
7
  6
CONTINUOUS
 10
137.5651544439
 20
97.5186663048
 11
139.5559895145
 21
97.5186663048
  0
LINE
  5
2E9
100
AcDbEntity
  8
0
100
AcDbLine
 62
7
  6
CONTINUOUS
 10
131.4217565833
 20
97.6003195543
 11
131.6817565833
 21
97.6003195543
  0
LINE
  5
2EA
100
AcDbEntity
  8
0
100
AcDbLine
 62
7
  6
CONTINUOUS
 10
112.7959895145
 20
97.9303195543
 11
111.109737022
 21
97.9303195543
  0
LINE
  5
2EB
100
AcDbEntity
  8
0
100
AcDbLine
 62
7
  6
CONTINUOUS
 10
131.6817565833
 20
98.0303195543
 11
132.1017565833
 21
98.0303195543
  0
LINE
  5
2EC
100
AcDbEntity
  8
0
100
AcDbLine
 62
7
  6
CONTINUOUS
 10
125.8590025437
 20
98.2803195543
 11
126.3303795635
 21
98.2803195543
  0
LINE
  5
2ED
100
AcDbEntity
  8
0
100
AcDbLine
 62
7
  6
CONTINUOUS
 10
128.0103795635
 20
98.2803195543
 11
128.4817565833
 21
98.2803195543
  0
LINE
  5
2EE
100
AcDbEntity
  8
0
100
AcDbLine
 62
7
  6
CONTINUOUS
 10
129.0717565833
 20
98.2803195543
 11
129.4917565833
 21
98.2803195543
  0
LINE
  5
2EF
100
AcDbEntity
  8
0
100
AcDbLine
 62
7
  6
CONTINUOUS
 10
130.0817565833
 20
98.2803195543
 11
130.5017565833
 21
98.2803195543
  0
LINE
  5
2F0
100
AcDbEntity
  8
0
100
AcDbLine
 62
7
  6
CONTINUOUS
 10
137.0559895145
 20
98.3800521364
 11
139.0247607337
 21
98.3800521364
  0
LINE
  5
2F1
100
AcDbEntity
  8
0
100
AcDbLine
 62
7
  6
CONTINUOUS
 10
137.0559895145
 20
98.6204118479
 11
139.5559895145
 21
98.6204118479
  0
LINE
  5
2F2
100
AcDbEntity
  8
0
100
AcDbLine
 62
7
  6
CONTINUOUS
 10
129.0717565833
 20
98.7003195543
 11
129.4917565833
 21
98.7003195543
  0
LINE
  5
2F3
100
AcDbEntity
  8
0
100
AcDbLine
 62
7
  6
CONTINUOUS
 10
129.0717565833
 20
99.1203195543
 11
129.4917565833
 21
99.1203195543
  0
LINE
  5
2F4
100
AcDbEntity
  8
0
100
AcDbLine
 62
7
  6
CONTINUOUS
 10
138.8329752641
 20
102.0671038255
 11
139.5559895145
 21
101.900347455
  0
LINE
  5
2F5
100
AcDbEntity
  8
0
100
AcDbLine
 62
7
  6
CONTINUOUS
 10
137.4293771492
 20
102.3925679302
 11
138.5138985621
 21
102.1384074408
  0
LINE
  5
2F6
100
AcDbEntity
  8
0
100
AcDbLine
 62
7
  6
CONTINUOUS
 10
137.0559895145
 20
102.2511117742
 11
139.5559895145
 21
101.6323861877
  0
LINE
  5
2F7
100
AcDbEntity
  8
0
100
AcDbLine
 62
7
  6
CONTINUOUS
 10
137.0559895145
 20
105.8070589005
 11
138.2474355506
 21
105.3309389289
  0
LINE
  5
2F8
100
AcDbEntity
  8
0
100
AcDbLine
 62
7
  6
CONTINUOUS
 10
137.0559895145
 20
106.1003203823
 11
138.5699066626
 21
105.4505440552
  0
LINE
  5
2F9
100
AcDbEntity
  8
0
100
AcDbLine
 62
7
  6
CONTINUOUS
 10
132.8559895145
 20
122.1003195543
 11
126.3283839115
 21
129.1003195543
  0
LINE
  5
2FA
100
AcDbEntity
  8
0
100
AcDbLine
 62
7
  6
CONTINUOUS
 10
127.8753762597
 20
128.1493733644
 11
126.9886045914
 21
129.1003195543
  0
LINE
  5
2FB
100
AcDbEntity
  8
0
100
AcDbLine
 62
7
  6
CONTINUOUS
 10
143.7094082777
 20
112.1293094827
 11
143.5475775816
 21
112.5739356662
  0
LINE
  5
2FC
100
AcDbEntity
  8
0
100
AcDbLine
 62
7
  6
CONTINUOUS
 10
139.7095429051
 20
115.9038729449
 11
139.2524361239
 21
115.4467661637
  0
LINE
  5
2FD
100
AcDbEntity
  8
0
100
AcDbLine
 62
7
  6
CONTINUOUS
 10
125.2690025437
 20
99.7103195543
 11
132.8290025437
 21
99.7103195543
  0
LINE
  5
2FE
100
AcDbEntity
  8
0
100
AcDbLine
 62
7
  6
CONTINUOUS
 10
137.0559895145
 20
99.7348079021
 11
139.5559895145
 21
99.7348079021
  0
LINE
  5
2FF
100
AcDbEntity
  8
0
100
AcDbLine
 62
7
  6
CONTINUOUS
 10
109.3659895145
 20
99.9303195543
 11
110.409737022
 21
99.9303195543
  0
LINE
  5
300
100
AcDbEntity
  8
0
100
AcDbLine
 62
7
  6
CONTINUOUS
 10
111.109737022
 20
99.9303195543
 11
112.7959895145
 21
99.9303195543
  0
LINE
  5
301
100
AcDbEntity
  8
0
100
AcDbLine
 62
7
  6
CONTINUOUS
 10
137.0559895145
 20
99.9751676137
 11
139.5559895145
 21
99.9751676137
  0
LINE
  5
302
100
AcDbEntity
  8
0
100
AcDbLine
 62
7
  6
CONTINUOUS
 10
124.8490025437
 20
100.1303195543
 11
133.2490025437
 21
100.1303195543
  0
LINE
  5
303
100
AcDbEntity
  8
0
100
AcDbLine
 62
7
  6
CONTINUOUS
 10
137.0559895145
 20
100.2212778513
 11
137.375066291
 21
100.2212778513
  0
LINE
  5
304
100
AcDbEntity
  8
0
100
AcDbLine
 62
7
  6
CONTINUOUS
 10
112.7959895145
 20
100.6303195543
 11
109.3659895145
 21
100.6303195543
  0
LINE
  5
305
100
AcDbEntity
  8
0
100
AcDbLine
 62
7
  6
CONTINUOUS
 10
137.375066291
 20
100.7767508821
 11
139.5559895145
 21
100.7767508821
  0
LINE
  5
306
100
AcDbEntity
  8
0
100
AcDbLine
 62
7
  6
CONTINUOUS
 10
137.375066291
 20
101.0171105937
 11
139.5559895145
 21
101.0171105937
  0
LINE
  5
307
100
AcDbEntity
  8
0
100
AcDbLine
 62
7
  6
CONTINUOUS
 10
137.0559895145
 20
101.5725836245
 11
137.375066291
 21
101.5725836245
  0
LINE
  5
308
100
AcDbEntity
  8
0
100
AcDbLine
 62
7
  6
CONTINUOUS
 10
154.1631691914
 20
103.3134622972
 11
144.1941318395
 21
103.3134622972
  0
LINE
  5
309
100
AcDbEntity
  8
0
100
AcDbLine
 62
7
  6
CONTINUOUS
 10
115.7718986614
 20
103.3134622972
 11
106.5488098375
 21
103.3134622972
  0
LINE
  5
30A
100
AcDbEntity
  8
0
100
AcDbLine
 62
7
  6
CONTINUOUS
 10
137.0559895145
 20
103.3770088806
 11
139.5559895145
 21
103.3770088806
  0
LINE
  5
30B
100
AcDbEntity
  8
0
100
AcDbLine
 62
7
  6
CONTINUOUS
 10
137.0559895145
 20
103.6173677843
 11
139.2369128125
 21
103.6173677843
  0
LINE
  5
30C
100
AcDbEntity
  8
0
100
AcDbLine
 62
7
  6
CONTINUOUS
 10
154.1631691914
 20
83.4003195543
 11
154.1631691914
 21
83.4854179337
  0
LINE
  5
30D
100
AcDbEntity
  8
0
100
AcDbLine
 62
7
  6
CONTINUOUS
 10
154.1631691914
 20
89.1985606765
 11
154.1631691914
 21
91.8871768115
  0
LINE
  5
30E
100
AcDbEntity
  8
0
100
AcDbLine
 62
7
  6
CONTINUOUS
 10
154.1631691914
 20
103.3134622972
 11
154.1631691914
 21
106.0020784321
  0
LINE
  5
30F
100
AcDbEntity
  8
0
100
AcDbLine
 62
7
  6
CONTINUOUS
 10
154.1631691914
 20
111.7152211749
 11
154.1631691914
 21
111.8003195543
  0
LINE
  5
310
100
AcDbEntity
  8
0
100
AcDbLine
 62
7
  6
CONTINUOUS
 10
154.8559895145
 20
84.6004725005
 11
154.8559895145
 21
110.6003195543
  0
LINE
  5
311
100
AcDbEntity
  8
0
100
AcDbLine
 62
7
  6
CONTINUOUS
 10
139.2369128125
 20
104.4615036533
 11
139.5559895145
 21
104.4615036533
  0
LINE
  5
312
100
AcDbEntity
  8
0
100
AcDbLine
 62
7
  6
CONTINUOUS
 10
138.5699066626
 20
105.2101835359
 11
139.5559895145
 21
105.2101835359
  0
LINE
  5
313
100
AcDbEntity
  8
0
100
AcDbLine
 62
7
  6
CONTINUOUS
 10
138.5699066626
 20
105.4505440552
 11
139.5559895145
 21
105.4505440552
  0
LINE
  5
314
100
AcDbEntity
  8
0
100
AcDbLine
 62
7
  6
CONTINUOUS
 10
154.1631691914
 20
106.0020784321
 11
144.1941311982
 21
106.0020784321
  0
LINE
  5
315
100
AcDbEntity
  8
0
100
AcDbLine
 62
7
  6
CONTINUOUS
 10
115.7718986614
 20
106.0020784321
 11
106.5488098375
 21
106.0020784321
  0
LINE
  5
316
100
AcDbEntity
  8
0
100
AcDbLine
 62
7
  6
CONTINUOUS
 10
136.0623286122
 20
132.3003195543
 11
136.2539677318
 21
132.1003195543
  0
LINE
  5
317
100
AcDbEntity
  8
0
100
AcDbLine
 62
7
  6
CONTINUOUS
 10
154.8559895145
 20
110.6003195543
 11
154.1631691914
 21
111.8003195543
  0
LINE
  5
318
100
AcDbEntity
  8
0
100
AcDbLine
 62
7
  6
CONTINUOUS
 10
143.7094082777
 20
83.071329626
 11
143.5475775816
 21
82.6267034425
  0
LINE
  5
319
100
AcDbEntity
  8
0
100
AcDbLine
 62
7
  6
CONTINUOUS
 10
139.5559895145
 20
103.1515985982
 11
137.0559895145
 21
102.5328730117
  0
LINE
  5
31A
100
AcDbEntity
  8
0
100
AcDbLine
 62
7
  6
CONTINUOUS
 10
138.5138985621
 20
102.6455781529
 11
137.4293771492
 21
102.3925679302
  0
LINE
  5
31B
100
AcDbEntity
  8
0
100
AcDbLine
 62
7
  6
CONTINUOUS
 10
139.5559895145
 20
102.8836381386
 11
138.8329752641
 21
102.7168801526
  0
LINE
  5
31C
100
AcDbEntity
  8
0
100
AcDbLine
 62
7
  6
CONTINUOUS
 10
117.8178697298
 20
109.6003195543
 11
121.1059895145
 21
109.6003195543
  0
LINE
  5
31D
100
AcDbEntity
  8
0
100
AcDbLine
 62
7
  6
CONTINUOUS
 10
154.1631691914
 20
111.7152211749
 11
144.1941317589
 21
111.7152211749
  0
LINE
  5
31E
100
AcDbEntity
  8
0
100
AcDbLine
 62
7
  6
CONTINUOUS
 10
115.7718986614
 20
111.7152211749
 11
106.5488098375
 21
111.7152211749
  0
LINE
  5
31F
100
AcDbEntity
  8
0
100
AcDbLine
 62
7
  6
CONTINUOUS
 10
154.1631691914
 20
111.8003195543
 11
144.1792545881
 21
111.8003195543
  0
LINE
  5
320
100
AcDbEntity
  8
0
100
AcDbLine
 62
7
  6
CONTINUOUS
 10
115.7971437877
 20
111.8003195543
 11
106.5488098375
 21
111.8003195543
  0
LWPOLYLINE
  5
321
100
AcDbEntity
  8
0
100
AcDbPolyline
 62
7
  6
CONTINUOUS
 90
16
 70
0
 10
139.6059893207
 20
113.1003165464
 10
139.5656588846
 20
113.1019453742
 10
139.5117684374
 20
113.1092734841
 10
139.4589927158
 20
113.122411381
 10
139.4079561372
 20
113.1412036228
 10
139.3592625417
 20
113.1654278687
 10
139.3134880491
 20
113.1947975085
 10
139.2711742421
 20
113.2289650542
 10
139.2328217575
 20
113.2675262519
 10
139.1988843635
 20
113.3100248644
 10
139.1697635929
 20
113.3559580672
 10
139.14580399
 20
113.4047823979
 10
139.1272890334
 20
113.4559201899
 10
139.1144377831
 20
113.5087664039
 10
139.1074022892
 20
113.5626957844
 10
139.1059850032
 20
113.6003197759
  0
LINE
  5
322
100
AcDbEntity
  8
0
100
AcDbLine
 62
7
  6
CONTINUOUS
 10
124.3559895145
 20
132.3003195543
 11
124.6989530787
 21
132.1003195543
  0
LINE
  5
323
100
AcDbEntity
  8
0
100
AcDbLine
 62
7
  6
CONTINUOUS
 10
121.8229654315
 20
113.0748996448
 11
122.0136475339
 21
113.0748996446
  0
LINE
  5
324
100
AcDbEntity
  8
0
100
AcDbLine
 62
7
  6
CONTINUOUS
 10
142.7958234839
 20
113.1003195543
 11
141.8559895145
 21
113.1003195543
  0
LINE
  5
325
100
AcDbEntity
  8
0
100
AcDbLine
 62
7
  6
CONTINUOUS
 10
139.6059895145
 20
113.1003195543
 11
141.5559895145
 21
113.1003195543
  0
LINE
  5
326
100
AcDbEntity
  8
0
100
AcDbLine
 62
7
  6
CONTINUOUS
 10
139.1059895145
 20
115.0932127731
 11
137.934228421
 21
115.0932127731
  0
LINE
  5
327
100
AcDbEntity
  8
0
100
AcDbLine
 62
7
  6
CONTINUOUS
 10
121.8229654315
 20
115.0932127731
 11
132.8559895145
 21
115.0932127731
  0
LINE
  5
328
100
AcDbEntity
  8
0
100
AcDbLine
 62
7
  6
CONTINUOUS
 10
116.8559895145
 20
115.1003195543
 11
117.9148352413
 21
115.1003195543
  0
LINE
  5
329
100
AcDbEntity
  8
0
100
AcDbLine
 62
7
  6
CONTINUOUS
 10
132.8559895145
 20
115.1003195543
 11
137.8559895145
 21
115.1003195543
  0
LINE
  5
32A
100
AcDbEntity
  8
0
100
AcDbLine
 62
7
  6
CONTINUOUS
 10
121.86581166
 20
115.4467661637
 11
132.8559895145
 21
115.4467661637
  0
LINE
  5
32B
100
AcDbEntity
  8
0
100
AcDbLine
 62
7
  6
CONTINUOUS
 10
138.0036381281
 20
115.4467661637
 11
139.2524361239
 21
115.4467661637
  0
LINE
  5
32C
100
AcDbEntity
  8
0
100
AcDbLine
 62
7
  6
CONTINUOUS
 10
139.7095429051
 20
115.9038729449
 11
138.1984478931
 21
115.9038729449
  0
LINE
  5
32D
100
AcDbEntity
  8
0
100
AcDbLine
 62
7
  6
CONTINUOUS
 10
132.8559895145
 20
115.9038729449
 11
121.3885761056
 21
115.9038729449
  0
LINE
  5
32E
100
AcDbEntity
  8
0
100
AcDbLine
 62
7
  6
CONTINUOUS
 10
121.0393377554
 20
116.2574263355
 11
132.8559895145
 21
116.2574263355
  0
LINE
  5
32F
100
AcDbEntity
  8
0
100
AcDbLine
 62
7
  6
CONTINUOUS
 10
138.3491252747
 20
116.2574263355
 11
139.8559895145
 21
116.2574263355
  0
LINE
  5
330
100
AcDbEntity
  8
0
100
AcDbLine
 62
7
  6
CONTINUOUS
 10
134.3559895145
 20
134.4550200927
 11
136.0559895145
 21
133.4735246351
  0
LINE
  5
331
100
AcDbEntity
  8
0
100
AcDbLine
 62
7
  6
CONTINUOUS
 10
164.8559895145
 20
147.4369945963
 11
164.8559895145
 21
149.7636445124
  0
LINE
  5
332
100
AcDbEntity
  8
0
100
AcDbLine
 62
7
  6
CONTINUOUS
 10
164.8559895145
 20
150.1003195543
 11
164.8559895145
 21
150.3003195543
  0
LINE
  5
333
100
AcDbEntity
  8
0
100
AcDbLine
 62
7
  6
CONTINUOUS
 10
166.1559895145
 20
145.6003195543
 11
166.1559895145
 21
151.6003195543
  0
LINE
  5
334
100
AcDbEntity
  8
0
100
AcDbLine
 62
7
  6
CONTINUOUS
 10
166.4896036782
 20
151.6003195543
 11
166.4896036782
 21
151.6128668286
  0
LINE
  5
335
100
AcDbEntity
  8
0
100
AcDbLine
 62
7
  6
CONTINUOUS
 10
138.5699066626
 20
105.2101835359
 11
137.0559895145
 21
104.5604072088
  0
LINE
  5
336
100
AcDbEntity
  8
0
100
AcDbLine
 62
7
  6
CONTINUOUS
 10
138.2474355506
 20
105.3309389289
 11
137.0559895145
 21
104.8536686906
  0
LINE
  5
337
100
AcDbEntity
  8
0
100
AcDbLine
 62
7
  6
CONTINUOUS
 10
116.3559895145
 20
118.8003195543
 11
121.2314336679
 21
118.8003195543
  0
LINE
  5
338
100
AcDbEntity
  8
0
100
AcDbLine
 62
7
  6
CONTINUOUS
 10
120.932614323
 20
119.0003195543
 11
116.5559895145
 21
119.0003195543
  0
LINE
  5
339
100
AcDbEntity
  8
0
100
AcDbLine
 62
7
  6
CONTINUOUS
 10
120.8559895145
 20
119.2003195543
 11
121.1269107187
 21
119.2003195543
  0
LINE
  5
33A
100
AcDbEntity
  8
0
100
AcDbLine
 62
7
  6
CONTINUOUS
 10
139.8559895145
 20
119.2932127731
 11
139.6429167182
 21
119.2932127731
  0
LINE
  5
33B
100
AcDbEntity
  8
0
100
AcDbLine
 62
7
  6
CONTINUOUS
 10
132.8559895145
 20
119.2932127731
 11
120.8559895145
 21
119.2932127731
  0
LINE
  5
33C
100
AcDbEntity
  8
0
100
AcDbLine
 62
7
  6
CONTINUOUS
 10
140.0024361239
 20
119.6467661637
 11
139.7935945273
 21
119.6467671668
  0
LINE
  5
33D
100
AcDbEntity
  8
0
100
AcDbLine
 62
7
  6
CONTINUOUS
 10
132.8559895145
 20
119.6467661418
 11
120.7095429051
 21
119.6467661637
  0
LINE
  5
33E
100
AcDbEntity
  8
0
100
AcDbLine
 62
7
  6
CONTINUOUS
 10
140.1059895145
 20
119.7503195543
 11
139.8377264831
 21
119.7503195543
  0
LINE
  5
33F
100
AcDbEntity
  8
0
100
AcDbLine
 62
7
  6
CONTINUOUS
 10
132.8559895145
 20
119.7503195543
 11
120.6059895145
 21
119.7503195543
  0
LINE
  5
340
100
AcDbEntity
  8
0
100
AcDbLine
 62
7
  6
CONTINUOUS
 10
170.0791118739
 20
151.6003195543
 11
170.0791118739
 21
151.6128668286
  0
LINE
  5
341
100
AcDbEntity
  8
0
100
AcDbLine
 62
7
  6
CONTINUOUS
 10
170.6328671551
 20
151.6003195543
 11
170.6328671551
 21
151.6128668286
  0
LINE
  5
342
100
AcDbEntity
  8
0
100
AcDbLine
 62
7
  6
CONTINUOUS
 10
154.8559895145
 20
84.6003195543
 11
154.1631691914
 21
83.4003195543
  0
LINE
  5
343
100
AcDbEntity
  8
0
100
AcDbLine
 62
7
  6
CONTINUOUS
 10
139.0247607337
 20
98.3800521364
 11
137.0559895145
 21
97.543967327
  0
LINE
  5
344
100
AcDbEntity
  8
0
100
AcDbLine
 62
7
  6
CONTINUOUS
 10
139.5559895145
 20
98.3547511141
 11
137.5651544439
 21
97.5186663048
  0
LINE
  5
345
100
AcDbEntity
  8
0
100
AcDbLine
 62
7
  6
CONTINUOUS
 10
116.8559895145
 20
122.1003195543
 11
119.8559895145
 21
122.1003195543
  0
LINE
  5
346
100
AcDbEntity
  8
0
100
AcDbLine
 62
7
  6
CONTINUOUS
 10
120.6059895145
 20
122.7003195543
 11
132.2964804628
 21
122.7003195543
  0
LINE
  5
347
100
AcDbEntity
  8
0
100
AcDbLine
 62
7
  6
CONTINUOUS
 10
120.9059895145
 20
123.0003195543
 11
132.0167259369
 21
123.0003195543
  0
LINE
  5
348
100
AcDbEntity
  8
0
100
AcDbLine
 62
7
  6
CONTINUOUS
 10
124.3249150818
 20
125.5673068524
 11
123.8559895145
 21
125.5673068524
  0
LINE
  5
349
100
AcDbEntity
  8
0
100
AcDbLine
 62
7
  6
CONTINUOUS
 10
129.2191806785
 20
126.0003195543
 11
123.8559895145
 21
126.0003195543
  0
LINE
  5
34A
100
AcDbEntity
  8
0
100
AcDbLine
 62
7
  6
CONTINUOUS
 10
125.5018875482
 20
132.3003195543
 11
126.7642970833
 21
132.1003195543
  0
LINE
  5
34B
100
AcDbEntity
  8
0
100
AcDbLine
 62
7
  6
CONTINUOUS
 10
124.6496504167
 20
132.3003195543
 11
125.4936450016
 21
132.1003195543
  0
LINE
  5
34C
100
AcDbEntity
  8
0
100
AcDbLine
 62
7
  6
CONTINUOUS
 10
135.2100914807
 20
132.3003195543
 11
135.9175743119
 21
132.1003195543
  0
LINE
  5
34D
100
AcDbEntity
  8
0
100
AcDbLine
 62
7
  6
CONTINUOUS
 10
174.2223753507
 20
151.6003195543
 11
174.2223753507
 21
151.6128668286
  0
LINE
  5
34E
100
AcDbEntity
  8
0
100
AcDbLine
 62
7
  6
CONTINUOUS
 10
174.232276483
 20
151.6003195543
 11
174.232276483
 21
151.6128668286
  0
LINE
  5
34F
100
AcDbEntity
  8
0
100
AcDbLine
 62
7
  6
CONTINUOUS
 10
176.4472976079
 20
151.6003195543
 11
176.4472976079
 21
151.6128668286
  0
LINE
  5
350
100
AcDbEntity
  8
0
100
AcDbLine
 62
7
  6
CONTINUOUS
 10
177.8664656038
 20
151.6003195543
 11
177.8664656038
 21
151.6128668286
  0
LINE
  5
351
100
AcDbEntity
  8
0
100
AcDbLine
 62
7
  6
CONTINUOUS
 10
125.8559895145
 20
128.6003195543
 11
126.7946414546
 21
128.6003195543
  0
LINE
  5
352
100
AcDbEntity
  8
0
100
AcDbLine
 62
7
  6
CONTINUOUS
 10
118.0728715227
 20
129.1003195543
 11
126.9886045914
 21
129.1003195543
  0
LINE
  5
353
100
AcDbEntity
  8
0
100
AcDbLine
 62
7
  6
CONTINUOUS
 10
127.8753762597
 20
129.1003195543
 11
142.2447373218
 21
129.1003195543
  0
LINE
  5
354
100
AcDbEntity
  8
0
100
AcDbLine
 62
7
  6
CONTINUOUS
 10
143.7801934619
 20
129.1003195543
 11
148.8559895145
 21
129.1003195543
  0
LINE
  5
355
100
AcDbEntity
  8
0
100
AcDbLine
 62
7
  6
CONTINUOUS
 10
128.5018875482
 20
132.3003195543
 11
130.2015455195
 21
132.1003195543
  0
LINE
  5
356
100
AcDbEntity
  8
0
100
AcDbLine
 62
7
  6
CONTINUOUS
 10
130.3559895145
 20
132.3003195543
 11
132.0316800482
 21
132.1003195543
  0
LINE
  5
357
100
AcDbEntity
  8
0
100
AcDbLine
 62
7
  6
CONTINUOUS
 10
126.8292780007
 20
132.3003195543
 11
128.386529045
 21
132.1003195543
  0
LINE
  5
358
100
AcDbEntity
  8
0
100
AcDbLine
 62
7
  6
CONTINUOUS
 10
132.2100914807
 20
132.3003195543
 11
133.6977863123
 21
132.1003195543
  0
LINE
  5
359
100
AcDbEntity
  8
0
100
AcDbLine
 62
7
  6
CONTINUOUS
 10
133.8827010282
 20
132.3003195543
 11
135.0367742222
 21
132.1003195543
  0
LINE
  5
35A
100
AcDbEntity
  8
0
100
AcDbLine
 62
7
  6
CONTINUOUS
 10
179.5504644086
 20
151.6003195543
 11
179.5504644086
 21
151.6128668286
  0
LINE
  5
35B
100
AcDbEntity
  8
0
100
AcDbLine
 62
7
  6
CONTINUOUS
 10
180.9696324045
 20
151.6003195543
 11
180.9696324045
 21
151.6128668286
  0
LINE
  5
35C
100
AcDbEntity
  8
0
100
AcDbLine
 62
7
  6
CONTINUOUS
 10
181.7079727795
 20
151.6003195543
 11
181.7079727795
 21
151.6128668286
  0
LINE
  5
35D
100
AcDbEntity
  8
0
100
AcDbLine
 62
7
  6
CONTINUOUS
 10
119.8559895145
 20
132.1003195543
 11
148.8559895145
 21
132.1003195543
  0
LINE
  5
35E
100
AcDbEntity
  8
0
100
AcDbLine
 62
7
  6
CONTINUOUS
 10
136.3559895145
 20
132.3003195543
 11
124.3559895145
 21
132.3003195543
  0
LINE
  5
35F
100
AcDbEntity
  8
0
100
AcDbLine
 62
7
  6
CONTINUOUS
 10
124.3559895145
 20
132.9539093928
 11
136.3559895145
 21
132.9539093928
  0
LINE
  5
360
100
AcDbEntity
  8
0
100
AcDbLine
 62
7
  6
CONTINUOUS
 10
124.6559895145
 20
133.4735246351
 11
136.0559895145
 21
133.4735246351
  0
LINE
  5
361
100
AcDbEntity
  8
0
100
AcDbLine
 62
7
  6
CONTINUOUS
 10
183.6515186143
 20
151.6003195543
 11
183.6515186143
 21
151.6128668286
  0
LINE
  5
362
100
AcDbEntity
  8
0
100
AcDbLine
 62
7
  6
CONTINUOUS
 10
184.4821515361
 20
151.6003195543
 11
184.4821515361
 21
151.6128668286
  0
LINE
  5
363
100
AcDbEntity
  8
0
100
AcDbLine
 62
7
  6
CONTINUOUS
 10
185.7688448418
 20
151.6003195543
 11
185.7688448418
 21
151.6128668286
  0
LINE
  5
364
100
AcDbEntity
  8
0
100
AcDbLine
 62
7
  6
CONTINUOUS
 10
186.5994777636
 20
151.6003195543
 11
186.5994777636
 21
151.6128668286
  0
LINE
  5
365
100
AcDbEntity
  8
0
100
AcDbLine
 62
7
  6
CONTINUOUS
 10
126.3559895145
 20
137.3003195543
 11
134.3559895145
 21
137.3003195543
  0
LINE
  5
366
100
AcDbEntity
  8
0
100
AcDbLine
 62
7
  6
CONTINUOUS
 10
188.606840658
 20
151.6003195543
 11
188.606840658
 21
151.6128668286
  0
LINE
  5
367
100
AcDbEntity
  8
0
100
AcDbLine
 62
7
  6
CONTINUOUS
 10
190.6142035524
 20
151.6003195543
 11
190.6142035524
 21
151.6128668286
  0
LINE
  5
368
100
AcDbEntity
  8
0
100
AcDbLine
 62
7
  6
CONTINUOUS
 10
192.4139082164
 20
151.6003195543
 11
192.4139082164
 21
151.6128668286
  0
LINE
  5
369
100
AcDbEntity
  8
0
100
AcDbLine
 62
7
  6
CONTINUOUS
 10
193.8330762123
 20
151.6003195543
 11
193.8330762123
 21
151.6128668286
  0
LINE
  5
36A
100
AcDbEntity
  8
0
100
AcDbLine
 62
7
  6
CONTINUOUS
 10
195.5170750171
 20
151.6003195543
 11
195.5170750171
 21
151.6128668286
  0
LINE
  5
36B
100
AcDbEntity
  8
0
100
AcDbLine
 62
7
  6
CONTINUOUS
 10
166.1559895145
 20
145.6003195543
 11
219.3559895145
 21
145.6003195543
  0
LINE
  5
36C
100
AcDbEntity
  8
0
100
AcDbLine
 62
7
  6
CONTINUOUS
 10
164.8559895145
 20
148.1003195543
 11
221.8559895145
 21
148.1003195543
  0
LINE
  5
36D
100
AcDbEntity
  8
0
100
AcDbLine
 62
7
  6
CONTINUOUS
 10
196.936243013
 20
151.6003195543
 11
196.936243013
 21
151.6128668286
  0
LINE
  5
36E
100
AcDbEntity
  8
0
100
AcDbLine
 62
7
  6
CONTINUOUS
 10
198.1360461223
 20
151.6003195543
 11
198.1360461223
 21
151.6128668286
  0
LINE
  5
36F
100
AcDbEntity
  8
0
100
AcDbLine
 62
7
  6
CONTINUOUS
 10
164.8559895145
 20
149.1003195543
 11
221.8559895145
 21
149.1003195543
  0
LINE
  5
370
100
AcDbEntity
  8
0
100
AcDbLine
 62
7
  6
CONTINUOUS
 10
164.8559895145
 20
150.1003195543
 11
164.8737599915
 21
150.1003195543
  0
LINE
  5
371
100
AcDbEntity
  8
0
100
AcDbLine
 62
7
  6
CONTINUOUS
 10
166.1559895145
 20
151.6003195543
 11
219.3559895145
 21
151.6003195543
  0
LINE
  5
372
100
AcDbEntity
  8
0
100
AcDbLine
 62
7
  6
CONTINUOUS
 10
166.4896036782
 20
151.6128668286
 11
170.0791118739
 21
151.6128668286
  0
LINE
  5
373
100
AcDbEntity
  8
0
100
AcDbLine
 62
7
  6
CONTINUOUS
 10
170.6328671551
 20
151.6128668286
 11
174.232276483
 21
151.6128668286
  0
LINE
  5
374
100
AcDbEntity
  8
0
100
AcDbLine
 62
7
  6
CONTINUOUS
 10
176.4472976079
 20
151.6128668286
 11
180.9696324045
 21
151.6128668286
  0
LINE
  5
375
100
AcDbEntity
  8
0
100
AcDbLine
 62
7
  6
CONTINUOUS
 10
181.7079727795
 20
151.6128668286
 11
185.7688448418
 21
151.6128668286
  0
LINE
  5
376
100
AcDbEntity
  8
0
100
AcDbLine
 62
7
  6
CONTINUOUS
 10
186.5994777636
 20
151.6128668286
 11
191.7678603883
 21
151.6128668286
  0
LINE
  5
377
100
AcDbEntity
  8
0
100
AcDbLine
 62
7
  6
CONTINUOUS
 10
192.4139082164
 20
151.6128668286
 11
200.6279448878
 21
151.6128668286
  0
LINE
  5
378
100
AcDbEntity
  8
0
100
AcDbLine
 62
7
  6
CONTINUOUS
 10
201.2739927159
 20
151.6128668286
 11
204.9656945907
 21
151.6128668286
  0
LINE
  5
379
100
AcDbEntity
  8
0
100
AcDbLine
 62
7
  6
CONTINUOUS
 10
205.6117424188
 20
151.6128668286
 11
210.6820642262
 21
151.6128668286
  0
LINE
  5
37A
100
AcDbEntity
  8
0
100
AcDbLine
 62
7
  6
CONTINUOUS
 10
210.7974298823
 20
151.6128668286
 11
211.4896240251
 21
151.6128668286
  0
LINE
  5
37B
100
AcDbEntity
  8
0
100
AcDbLine
 62
7
  6
CONTINUOUS
 10
201.2739927159
 20
151.6003195543
 11
201.2739927159
 21
151.6128668286
  0
LINE
  5
37C
100
AcDbEntity
  8
0
100
AcDbLine
 62
7
  6
CONTINUOUS
 10
207.965202364
 20
151.6003195543
 11
207.965202364
 21
151.6128668286
  0
LINE
  5
37D
100
AcDbEntity
  8
0
100
AcDbLine
 62
7
  6
CONTINUOUS
 10
210.1340772154
 20
151.6003195543
 11
210.1340772154
 21
151.6128668286
  0
LINE
  5
37E
100
AcDbEntity
  8
0
100
AcDbLine
 62
7
  6
CONTINUOUS
 10
210.3648085895
 20
151.6003195543
 11
210.3648085895
 21
151.6128668286
  0
LINE
  5
37F
100
AcDbEntity
  8
0
100
AcDbLine
 62
7
  6
CONTINUOUS
 10
210.4513328522
 20
151.6003195543
 11
210.4513328522
 21
151.6128668286
  0
LINE
  5
380
100
AcDbEntity
  8
0
100
AcDbLine
 62
7
  6
CONTINUOUS
 10
210.6820642262
 20
151.6003195543
 11
210.6820642262
 21
151.6128668286
  0
LINE
  5
381
100
AcDbEntity
  8
0
100
AcDbLine
 62
7
  6
CONTINUOUS
 10
210.7974298823
 20
151.6003195543
 11
210.7974298823
 21
151.6128668286
  0
LINE
  5
382
100
AcDbEntity
  8
0
100
AcDbLine
 62
7
  6
CONTINUOUS
 10
210.8839541863
 20
151.6003195543
 11
210.8839541863
 21
151.6128668286
  0
LINE
  5
383
100
AcDbEntity
  8
0
100
AcDbLine
 62
7
  6
CONTINUOUS
 10
211.085844105
 20
151.6003195543
 11
211.085844105
 21
151.6128668286
  0
LINE
  5
384
100
AcDbEntity
  8
0
100
AcDbLine
 62
7
  6
CONTINUOUS
 10
211.2012097611
 20
151.6003195543
 11
211.2012097611
 21
151.6128668286
  0
LINE
  5
385
100
AcDbEntity
  8
0
100
AcDbLine
 62
7
  6
CONTINUOUS
 10
211.4030997624
 20
151.6003195543
 11
211.4030997624
 21
151.6128668286
  0
LINE
  5
386
100
AcDbEntity
  8
0
100
AcDbLine
 62
7
  6
CONTINUOUS
 10
211.4896240251
 20
151.6003195543
 11
211.4896240251
 21
151.6128668286
  0
LINE
  5
387
100
AcDbEntity
  8
0
100
AcDbLine
 62
7
  6
CONTINUOUS
 10
212.3559895145
 20
145.6003195543
 11
212.3559895145
 21
151.6003195543
  0
LINE
  5
388
100
AcDbEntity
  8
0
100
AcDbLine
 62
7
  6
CONTINUOUS
 10
221.8559895145
 20
149.1003195543
 11
221.8559895145
 21
148.1003195543
  0
ARC
  5
389
100
AcDbEntity
  8
0
100
AcDbCircle
 62
7
  6
CONTINUOUS
 10
109.3659895145
 20
96.8303195543
 40
2.2
100
AcDbArc
 50
180.0
 51
270.0
  0
ARC
  5
38A
100
AcDbEntity
  8
0
100
AcDbCircle
 62
7
  6
CONTINUOUS
 10
109.3659895145
 20
98.4303195543
 40
2.2
100
AcDbArc
 50
90.0
 51
180.0
  0
ARC
  5
38B
100
AcDbEntity
  8
0
100
AcDbCircle
 62
7
  6
CONTINUOUS
 10
115.7720660436
 20
81.6155333186
 40
1.8698846227
100
AcDbArc
 50
89.2315611588
 51
90.0051441866
  0
ARC
  5
38C
100
AcDbEntity
  8
0
100
AcDbCircle
 62
7
  6
CONTINUOUS
 10
112.7959895145
 20
98.9303195543
 40
1.7
100
AcDbArc
 50
276.1769810032
 51
90.0
  0
ARC
  5
38D
100
AcDbEntity
  8
0
100
AcDbCircle
 62
7
  6
CONTINUOUS
 10
109.3659895145
 20
98.4303195543
 40
1.5
100
AcDbArc
 50
90.0
 51
180.0
  0
ARC
  5
38E
100
AcDbEntity
  8
0
100
AcDbCircle
 62
7
  6
CONTINUOUS
 10
109.3659895145
 20
96.8303195543
 40
1.5
100
AcDbArc
 50
180.0
 51
270.0
  0
ARC
  5
38F
100
AcDbEntity
  8
0
100
AcDbCircle
 62
7
  6
CONTINUOUS
 10
112.7959895145
 20
98.9303195543
 40
1.0
100
AcDbArc
 50
270.0
 51
90.0
  0
ARC
  5
390
100
AcDbEntity
  8
0
100
AcDbCircle
 62
7
  6
CONTINUOUS
 10
117.8178697298
 20
84.8003195543
 40
0.8
100
AcDbArc
 50
90.0
 51
150.0000000004
  0
ARC
  5
391
100
AcDbEntity
  8
0
100
AcDbCircle
 62
7
  6
CONTINUOUS
 10
124.1873603644
 20
84.1003195543
 40
0.8
100
AcDbArc
 50
225.0
 51
270.0
  0
ARC
  5
392
100
AcDbEntity
  8
0
100
AcDbCircle
 62
7
  6
CONTINUOUS
 10
121.2246186646
 20
84.8003195543
 40
0.8
100
AcDbArc
 50
45.0
 51
90.0
  0
ARC
  5
393
100
AcDbEntity
  8
0
100
AcDbCircle
 62
7
  6
CONTINUOUS
 10
115.7971437877
 20
83.9003195543
 40
0.5
100
AcDbArc
 50
270.0
 51
330.0
  0
ARC
  5
394
100
AcDbEntity
  8
0
100
AcDbCircle
 62
7
  6
CONTINUOUS
 10
115.7720348225
 20
105.7474192207
 40
0.2546592481
100
AcDbArc
 50
84.3415407763
 51
90.0307479315
  0
ARC
  5
395
100
AcDbEntity
  8
0
100
AcDbCircle
 62
7
  6
CONTINUOUS
 10
115.7720349261
 20
89.453219448
 40
0.2546588082
100
AcDbArc
 50
269.9692399575
 51
275.6584456091
  0
ARC
  5
396
100
AcDbEntity
  8
0
100
AcDbCircle
 62
7
  6
CONTINUOUS
 10
115.7720229032
 20
91.6625394845
 40
0.2246373616
100
AcDbArc
 50
83.5792621785
 51
90.0318176548
  0
ARC
  5
397
100
AcDbEntity
  8
0
100
AcDbCircle
 62
7
  6
CONTINUOUS
 10
115.772023011
 20
103.5380992236
 40
0.2246369611
100
AcDbArc
 50
269.9681678706
 51
276.4207216432
  0
ARC
  5
398
100
AcDbEntity
  8
0
100
AcDbCircle
 62
7
  6
CONTINUOUS
 10
119.8559895145
 20
129.1003195543
 40
3.0
100
AcDbArc
 50
90.0
 51
180.0
  0
ARC
  5
399
100
AcDbEntity
  8
0
100
AcDbCircle
 62
7
  6
CONTINUOUS
 10
115.772066144
 20
113.5851026552
 40
1.8698814878
100
AcDbArc
 50
269.9948542352
 51
270.7684370533
  0
ARC
  5
39A
100
AcDbEntity
  8
0
100
AcDbCircle
 62
7
  6
CONTINUOUS
 10
117.8178697298
 20
110.4003195543
 40
0.8
100
AcDbArc
 50
209.9999999996
 51
270.0
  0
ARC
  5
39B
100
AcDbEntity
  8
0
100
AcDbCircle
 62
7
  6
CONTINUOUS
 10
124.9559895145
 20
132.9539093928
 40
0.6
100
AcDbArc
 50
120.0
 51
180.0
  0
ARC
  5
39C
100
AcDbEntity
  8
0
100
AcDbCircle
 62
7
  6
CONTINUOUS
 10
120.3559895145
 20
119.2932127731
 40
0.5
100
AcDbArc
 50
0.0
 51
45.0000000023
  0
ARC
  5
39D
100
AcDbEntity
  8
0
100
AcDbCircle
 62
7
  6
CONTINUOUS
 10
115.7971437877
 20
111.3003195543
 40
0.5
100
AcDbArc
 50
30.0
 51
90.0
  0
ARC
  5
39E
100
AcDbEntity
  8
0
100
AcDbCircle
 62
7
  6
CONTINUOUS
 10
120.3559895145
 20
128.6003195543
 40
0.5
100
AcDbArc
 50
90.0
 51
180.0
  0
ARC
  5
39F
100
AcDbEntity
  8
0
100
AcDbCircle
 62
7
  6
CONTINUOUS
 10
121.1059906831
 20
110.1003184734
 40
0.4999999369
100
AcDbArc
 50
269.9998656135
 51
0.0001252709
  0
ARC
  5
3A0
100
AcDbEntity
  8
0
100
AcDbCircle
 62
7
  6
CONTINUOUS
 10
121.516037541
 20
115.0928256028
 40
0.4976101435
100
AcDbArc
 50
0.0445795344
 51
45.3392237787
  0
ARC
  5
3A1
100
AcDbEntity
  8
0
100
AcDbCircle
 62
7
  6
CONTINUOUS
 10
120.6559895145
 20
119.2003195543
 40
0.2
100
AcDbArc
 50
292.5
 51
360.0
  0
ARC
  5
3A2
100
AcDbEntity
  8
0
100
AcDbCircle
 62
7
  6
CONTINUOUS
 10
116.5559895145
 20
118.8003195543
 40
0.2
100
AcDbArc
 50
90.0
 51
180.0
  0
ARC
  5
3A3
100
AcDbEntity
  8
0
100
AcDbCircle
 62
7
  6
CONTINUOUS
 10
116.5559895145
 20
116.1157896082
 40
0.2
100
AcDbArc
 50
180.0
 51
240.0
  0
ARC
  5
3A4
100
AcDbEntity
  8
0
100
AcDbCircle
 62
7
  6
CONTINUOUS
 10
121.4059899211
 20
112.8537603525
 40
0.1999999909
100
AcDbArc
 50
0.0000673543
 51
60.0001154502
  0
ARC
  5
3A5
100
AcDbEntity
  8
0
100
AcDbCircle
 62
7
  6
CONTINUOUS
 10
144.1940864225
 20
85.334599985
 40
1.8491820518
100
AcDbArc
 50
269.5404397179
 51
270.0014048219
  0
ARC
  5
3A6
100
AcDbEntity
  8
0
100
AcDbCircle
 62
7
  6
CONTINUOUS
 10
131.8617565833
 20
96.1503195543
 40
1.36
100
AcDbArc
 50
79.8357513783
 51
180.0
  0
ARC
  5
3A7
100
AcDbEntity
  8
0
100
AcDbCircle
 62
7
  6
CONTINUOUS
 10
131.4217565833
 20
96.2603195543
 40
1.34
100
AcDbArc
 50
90.0
 51
180.0
  0
ARC
  5
3A8
100
AcDbEntity
  8
0
100
AcDbCircle
 62
7
  6
CONTINUOUS
 10
130.741812864
 20
97.0033055625
 40
0.89
100
AcDbArc
 50
105.6479723129
 51
137.8709878568
  0
ARC
  5
3A9
100
AcDbEntity
  8
0
100
AcDbCircle
 62
7
  6
CONTINUOUS
 10
142.7958234839
 20
82.9003195543
 40
0.8
100
AcDbArc
 50
270.0
 51
340.0000002156
  0
ARC
  5
3AA
100
AcDbEntity
  8
0
100
AcDbCircle
 62
7
  6
CONTINUOUS
 10
141.5559895145
 20
82.9003195543
 40
0.8
100
AcDbArc
 50
270.0
 51
292.024312837
  0
ARC
  5
3AB
100
AcDbEntity
  8
0
100
AcDbCircle
 62
7
  6
CONTINUOUS
 10
135.5873603644
 20
82.9003195543
 40
0.8
100
AcDbArc
 50
225.0
 51
270.0
  0
ARC
  5
3AC
100
AcDbEntity
  8
0
100
AcDbCircle
 62
7
  6
CONTINUOUS
 10
133.7246186646
 20
82.5003195543
 40
0.8
100
AcDbArc
 50
45.0
 51
90.0
  0
ARC
  5
3AD
100
AcDbEntity
  8
0
100
AcDbCircle
 62
7
  6
CONTINUOUS
 10
144.1792545881
 20
82.9003195543
 40
0.5
100
AcDbArc
 50
90.0
 51
160.0
  0
ARC
  5
3AE
100
AcDbEntity
  8
0
100
AcDbCircle
 62
7
  6
CONTINUOUS
 10
144.1941017311
 20
88.9472420321
 40
0.2513186462
100
AcDbArc
 50
89.9933302484
 51
93.3868327922
  0
ARC
  5
3AF
100
AcDbEntity
  8
0
100
AcDbCircle
 62
7
  6
CONTINUOUS
 10
144.1941017319
 20
106.2533970721
 40
0.2513186417
100
AcDbArc
 50
266.6131669669
 51
270.0066695116
  0
ARC
  5
3B0
100
AcDbEntity
  8
0
100
AcDbCircle
 62
7
  6
CONTINUOUS
 10
144.1940992097
 20
103.0920327333
 40
0.2214295663
100
AcDbArc
 50
89.9915569147
 51
93.8439878218
  0
ARC
  5
3B1
100
AcDbEntity
  8
0
100
AcDbCircle
 62
7
  6
CONTINUOUS
 10
144.1940992081
 20
92.1086063754
 40
0.2214295663
100
AcDbArc
 50
266.1560125941
 51
270.0084437758
  0
ARC
  5
3B2
100
AcDbEntity
  8
0
100
AcDbCircle
 62
7
  6
CONTINUOUS
 10
148.8559895145
 20
133.1003195543
 40
4.0
100
AcDbArc
 50
270.0
 51
320.0
  0
ARC
  5
3B3
100
AcDbEntity
  8
0
100
AcDbCircle
 62
7
  6
CONTINUOUS
 10
144.1940864179
 20
109.8660391105
 40
1.849182065
100
AcDbArc
 50
89.9985951371
 51
90.4595601362
  0
ARC
  5
3B4
100
AcDbEntity
  8
0
100
AcDbCircle
 62
7
  6
CONTINUOUS
 10
148.8559895145
 20
133.1003195543
 40
1.0
100
AcDbArc
 50
270.0
 51
320.0
  0
ARC
  5
3B5
100
AcDbEntity
  8
0
100
AcDbCircle
 62
7
  6
CONTINUOUS
 10
142.7958234839
 20
112.3003195543
 40
0.8
100
AcDbArc
 50
19.9999997844
 51
90.0
  0
ARC
  5
3B6
100
AcDbEntity
  8
0
100
AcDbCircle
 62
7
  6
CONTINUOUS
 10
141.5559895145
 20
112.3003195543
 40
0.8
100
AcDbArc
 50
67.975687163
 51
90.0
  0
ARC
  5
3B7
100
AcDbEntity
  8
0
100
AcDbCircle
 62
7
  6
CONTINUOUS
 10
135.7559895145
 20
132.9539093928
 40
0.6
100
AcDbArc
 50
0.0
 51
60.0
  0
ARC
  5
3B8
100
AcDbEntity
  8
0
100
AcDbCircle
 62
7
  6
CONTINUOUS
 10
144.1792545881
 20
112.3003195543
 40
0.5
100
AcDbArc
 50
200.0
 51
270.0
  0
ARC
  5
3B9
100
AcDbEntity
  8
0
100
AcDbCircle
 62
7
  6
CONTINUOUS
 10
139.3559895145
 20
116.2574263355
 40
0.5
100
AcDbArc
 50
315.0
 51
360.0
  0
ARC
  5
3BA
100
AcDbEntity
  8
0
100
AcDbCircle
 62
7
  6
CONTINUOUS
 10
140.3559895145
 20
119.2932127731
 40
0.5
100
AcDbArc
 50
134.9999999981
 51
180.0
  0
ARC
  5
3BB
100
AcDbEntity
  8
0
100
AcDbCircle
 62
7
  6
CONTINUOUS
 10
139.6059895145
 20
115.0932127731
 40
0.5
100
AcDbArc
 50
135.0
 51
180.0
  0
ARC
  5
3BC
100
AcDbEntity
  8
0
100
AcDbCircle
 62
7
  6
CONTINUOUS
 10
75.0898183444
 20
138.2276572299
 40
55.5831180101
100
AcDbArc
 50
353.6709999501
 51
353.8783855052
  0
ARC
  5
3BD
100
AcDbEntity
  8
0
100
AcDbCircle
 62
7
  6
CONTINUOUS
 10
166.2913211664
 20
146.1003195543
 40
4.0
100
AcDbArc
 50
111.0331393818
 51
140.0
  0
ARC
  5
3BE
100
AcDbEntity
  8
0
100
AcDbCircle
 62
7
  6
CONTINUOUS
 10
168.7113409592
 20
149.7646331309
 40
3.8553515715
100
AcDbArc
 50
179.0238597861
 51
180.0146922186
  0
ARC
  5
3BF
100
AcDbEntity
  8
0
100
AcDbCircle
 62
7
  6
CONTINUOUS
 10
219.3559895145
 20
148.1003195543
 40
2.5
100
AcDbArc
 50
270.0
 51
360.0
  0
ARC
  5
3C0
100
AcDbEntity
  8
0
100
AcDbCircle
 62
7
  6
CONTINUOUS
 10
219.3559895145
 20
149.1003195543
 40
2.5
100
AcDbArc
 50
0.0
 51
90.0
  0
ARC
  5
3C1
100
AcDbEntity
  8
0
100
AcDbCircle
 62
7
  6
CONTINUOUS
 10
166.1559895145
 20
150.3003195543
 40
1.3
100
AcDbArc
 50
90.0
 51
180.0
  0
ARC
  5
3C2
100
AcDbEntity
  8
0
100
AcDbCircle
 62
7
  6
CONTINUOUS
 10
166.1559895145
 20
146.9003195543
 40
1.3
100
AcDbArc
 50
212.8904173777
 51
270.0
  0
ARC
  5
3C3
100
AcDbEntity
  8
0
100
AcDbCircle
 62
7
  6
CONTINUOUS
 10
390.3308360132
 20
-61.5396406497
 40
307.9218536157
100
AcDbArc
 50
146.0101086645
 51
146.254309906
  0
ARC
  5
3C4
100
AcDbEntity
  8
0
100
AcDbCircle
 62
7
  6
CONTINUOUS
 10
370.108924928
 20
-37.9448860308
 40
278.7440161373
100
AcDbArc
 50
147.723939643
 51
147.9912334988
  0
ARC
  5
3C5
100
AcDbEntity
  8
0
100
AcDbCircle
 62
7
  6
CONTINUOUS
 10
330.0415448941
 20
333.267231183
 40
301.301992839
100
AcDbArc
 50
226.1713143249
 51
226.2969787944
  0
ARC
  5
3C6
100
AcDbEntity
  8
0
100
AcDbCircle
 62
7
  6
CONTINUOUS
 10
321.1668046231
 20
324.2723070295
 40
288.8631023364
100
AcDbArc
 50
226.2057193718
 51
226.33688398
  0
SPLINE
  5
3C7
100
AcDbEntity
  8
0
100
AcDbSpline
 62
7
  6
CONTINUOUS
 70
0
 71
3
 72
10
 73
6
 74
0
 42
0.0000001
 43
0.0000001
 44
0.0000000001
 40
0.0
 40
0.0
 40
0.0
 40
0.0
 40
0.2491739154
 40
0.4987551285
 40
1.0
 40
1.0
 40
1.0
 40
1.0
 10
127.1059895143
 20
126.0003195543
 30
0.0
 10
126.8715036325
 20
126.0003195543
 30
0.0
 10
126.4019005936
 20
125.9806218323
 30
0.0
 10
125.4671915778
 20
125.8651388967
 30
0.0
 10
124.7773017383
 20
125.700893331
 30
0.0
 10
124.3249150818
 20
125.5673068524
 30
0.0
  0
SPLINE
  5
3C8
100
AcDbEntity
  8
0
100
AcDbSpline
 62
7
  6
CONTINUOUS
 70
0
 71
3
 72
10
 73
6
 74
0
 42
0.0000001
 43
0.0000001
 44
0.0000000001
 40
0.0
 40
0.0
 40
0.0
 40
0.0
 40
0.5009790074
 40
0.7506478506
 40
1.0
 40
1.0
 40
1.0
 40
1.0
 10
129.5305139393
 20
125.667033021
 30
0.0
 10
129.1343761978
 20
125.7715024159
 30
0.0
 10
128.5317034495
 20
125.8978080856
 30
0.0
 10
127.7181486423
 20
125.9854490964
 30
0.0
 10
127.3099001996
 20
126.0003195543
 30
0.0
 10
127.1059895143
 20
126.0003195543
 30
0.0
  0
SPLINE
  5
3C9
100
AcDbEntity
  8
0
100
AcDbSpline
 62
7
  6
CONTINUOUS
 70
0
 71
3
 72
9
 73
5
 74
0
 42
0.0000001
 43
0.0000001
 44
0.0000000001
 40
0.0
 40
0.0
 40
0.0
 40
0.0
 40
0.2530237507
 40
1.0
 40
1.0
 40
1.0
 40
1.0
 10
130.3559895145
 20
132.3003195543
 30
0.0
 10
130.4157999507
 20
132.2831869103
 30
0.0
 10
130.6524414675
 20
132.2163836132
 30
0.0
 10
130.8895694465
 20
132.1512942204
 30
0.0
 10
131.0660278762
 20
132.1003195543
 30
0.0
  0
SPLINE
  5
3CA
100
AcDbEntity
  8
0
100
AcDbSpline
 62
7
  6
CONTINUOUS
 70
0
 71
3
 72
11
 73
7
 74
0
 42
0.0000001
 43
0.0000001
 44
0.0000000001
 40
0.0
 40
0.0
 40
0.0
 40
0.0
 40
0.2514178059
 40
0.5017501979
 40
0.7511495642
 40
1.0
 40
1.0
 40
1.0
 40
1.0
 10
126.3559895145
 20
136.9430539644
 30
0.0
 10
126.5181895981
 20
136.997120659
 30
0.0
 10
126.8449443384
 20
137.0962213723
 30
0.0
 10
127.3432349766
 20
137.2107966149
 30
0.0
 10
127.8477125653
 20
137.2836075336
 30
0.0
 10
128.1867615265
 20
137.3003195543
 30
0.0
 10
128.3559895152
 20
137.3003195543
 30
0.0
  0
SPLINE
  5
3CB
100
AcDbEntity
  8
0
100
AcDbSpline
 62
7
  6
CONTINUOUS
 70
0
 71
3
 72
11
 73
7
 74
0
 42
0.0000001
 43
0.0000001
 44
0.0000000001
 40
0.0
 40
0.0
 40
0.0
 40
0.0
 40
0.2488504827
 40
0.4982499007
 40
0.7485823605
 40
1.0
 40
1.0
 40
1.0
 40
1.0
 10
128.3559895152
 20
137.3003195543
 30
0.0
 10
128.5252175355
 20
137.3003195543
 30
0.0
 10
128.8642665656
 20
137.2836075452
 30
0.0
 10
129.3687442567
 20
137.2107965476
 30
0.0
 10
129.8670348675
 20
137.0962213343
 30
0.0
 10
130.1937895384
 20
136.9971206231
 30
0.0
 10
130.3559895145
 20
136.9430539644
 30
0.0
  0
SPLINE
  5
3CC
100
AcDbEntity
  8
0
100
AcDbSpline
 62
7
  6
CONTINUOUS
 70
0
 71
3
 72
15
 73
11
 74
0
 42
0.0000001
 43
0.0000001
 44
0.0000000001
 40
0.0
 40
0.0
 40
0.0
 40
0.0
 40
0.1257074555
 40
0.2508731029
 40
0.375574375
 40
0.5000000233
 40
0.6244256674
 40
0.7491269306
 40
0.874292556
 40
1.0
 40
1.0
 40
1.0
 40
1.0
 10
130.3559895145
 20
134.0977545028
 30
0.0
 10
130.1937913487
 20
134.151820558
 30
0.0
 10
129.867037017
 20
134.2509203424
 30
0.0
 10
129.3687577374
 20
134.3654972286
 30
0.0
 10
128.8642401418
 20
134.4383050959
 30
0.0
 10
128.3559894257
 20
134.4633575818
 30
0.0
 10
127.8477387238
 20
134.4383050634
 30
0.0
 10
127.3432211774
 20
134.3654971944
 30
0.0
 10
126.8449419529
 20
134.2509203265
 30
0.0
 10
126.5181876654
 20
134.1518205531
 30
0.0
 10
126.3559895145
 20
134.0977545028
 30
0.0
  0
SPLINE
  5
3CD
100
AcDbEntity
  8
0
100
AcDbSpline
 62
7
  6
CONTINUOUS
 70
0
 71
3
 72
11
 73
7
 74
0
 42
0.0000001
 43
0.0000001
 44
0.0000000001
 40
0.0
 40
0.0
 40
0.0
 40
0.0
 40
0.2514175677
 40
0.5017500004
 40
0.7511494403
 40
1.0
 40
1.0
 40
1.0
 40
1.0
 10
130.3559895145
 20
136.9430539644
 30
0.0
 10
130.5181894443
 20
136.9971206077
 30
0.0
 10
130.844944049
 20
137.0962213063
 30
0.0
 10
131.3432346074
 20
137.2107965113
 30
0.0
 10
131.847712342
 20
137.2836075538
 30
0.0
 10
132.1867614409
 20
137.3003195543
 30
0.0
 10
132.3559895137
 20
137.3003195543
 30
0.0
  0
SPLINE
  5
3CE
100
AcDbEntity
  8
0
100
AcDbSpline
 62
7
  6
CONTINUOUS
 70
0
 71
3
 72
11
 73
7
 74
0
 42
0.0000001
 43
0.0000001
 44
0.0000000001
 40
0.0
 40
0.0
 40
0.0
 40
0.0
 40
0.2488505601
 40
0.4982499613
 40
0.7485822917
 40
1.0
 40
1.0
 40
1.0
 40
1.0
 10
132.3559895137
 20
137.3003195543
 30
0.0
 10
132.525217587
 20
137.3003195543
 30
0.0
 10
132.8642666594
 20
137.283607551
 30
0.0
 10
133.3687443051
 20
137.2107965546
 30
0.0
 10
133.8670348603
 20
137.0962213326
 30
0.0
 10
134.1937894937
 20
136.997120638
 30
0.0
 10
134.3559895145
 20
136.9430539644
 30
0.0
  0
SPLINE
  5
3CF
100
AcDbEntity
  8
0
100
AcDbSpline
 62
7
  6
CONTINUOUS
 70
0
 71
3
 72
15
 73
11
 74
0
 42
0.0000001
 43
0.0000001
 44
0.0000000001
 40
0.0
 40
0.0
 40
0.0
 40
0.0
 40
0.1257074555
 40
0.2508731029
 40
0.375574375
 40
0.5000000233
 40
0.6244256674
 40
0.7491269306
 40
0.874292556
 40
1.0
 40
1.0
 40
1.0
 40
1.0
 10
134.3559895145
 20
134.0977545028
 30
0.0
 10
134.1937913487
 20
134.151820558
 30
0.0
 10
133.867037017
 20
134.2509203424
 30
0.0
 10
133.3687577374
 20
134.3654972286
 30
0.0
 10
132.8642401418
 20
134.4383050959
 30
0.0
 10
132.3559894257
 20
134.4633575818
 30
0.0
 10
131.8477387238
 20
134.4383050634
 30
0.0
 10
131.3432211774
 20
134.3654971944
 30
0.0
 10
130.8449419529
 20
134.2509203265
 30
0.0
 10
130.5181876654
 20
134.1518205531
 30
0.0
 10
130.3559895145
 20
134.0977545028
 30
0.0
  0
LINE
  5
3D0
100
AcDbEntity
  8
0
100
AcDbLine
 62
7
  6
CONTINUOUS
 10
129.5627278735
 20
132.1003195543
 11
129.5704949499
 21
132.1745757299
  0
SPLINE
  5
3D1
100
AcDbEntity
  8
0
100
AcDbSpline
 62
7
  6
CONTINUOUS
 70
0
 71
3
 72
8
 73
4
 74
0
 42
0.0000001
 43
0.0000001
 44
0.0000000001
 40
0.0
 40
0.0
 40
0.0
 40
0.0
 40
1.0
 40
1.0
 40
1.0
 40
1.0
 10
164.8737599915
 20
150.1003195543
 30
0.0
 10
164.8631798774
 20
150.0107574779
 30
0.0
 10
164.8581084348
 20
149.9204843901
 30
0.0
 10
164.856548891
 20
149.8303130411
 30
0.0
  0
SPLINE
  5
3D2
100
AcDbEntity
  8
0
100
AcDbSpline
 62
7
  6
CONTINUOUS
 70
0
 71
3
 72
8
 73
4
 74
0
 42
0.0000001
 43
0.0000001
 44
0.0000000001
 40
0.0
 40
0.0
 40
0.0
 40
0.0
 40
1.0
 40
1.0
 40
1.0
 40
1.0
 10
164.8559895145
 20
147.4369945963
 30
0.0
 10
164.8559895145
 20
147.3246133633
 30
0.0
 10
164.8605758872
 20
147.2119247555
 30
0.0
 10
164.8737599915
 20
147.1003195543
 30
0.0
  0
SPLINE
  5
3D3
100
AcDbEntity
  8
0
100
AcDbSpline
 62
7
  6
CONTINUOUS
 70
0
 71
3
 72
10
 73
6
 74
0
 42
0.0000001
 43
0.0000001
 44
0.0000000001
 40
0.0
 40
0.0
 40
0.0
 40
0.0
 40
0.4999170456
 40
0.7499585154
 40
1.0
 40
1.0
 40
1.0
 40
1.0
 10
154.1631691914
 20
91.8871768115
 30
0.0
 10
154.3805712982
 20
92.8230944776
 30
0.0
 10
154.642950249
 20
94.2440131004
 30
0.0
 10
154.8250531163
 20
96.1582767816
 30
0.0
 10
154.8559895145
 20
97.1197421719
 30
0.0
 10
154.8559895145
 20
97.6003195546
 30
0.0
  0
SPLINE
  5
3D4
100
AcDbEntity
  8
0
100
AcDbSpline
 62
7
  6
CONTINUOUS
 70
0
 71
3
 72
10
 73
6
 74
0
 42
0.0000001
 43
0.0000001
 44
0.0000000001
 40
0.0
 40
0.0
 40
0.0
 40
0.0
 40
0.2500414917
 40
0.5000829686
 40
1.0
 40
1.0
 40
1.0
 40
1.0
 10
154.8559895145
 20
97.6003195546
 30
0.0
 10
154.8559895145
 20
98.080896951
 30
0.0
 10
154.8250531137
 20
99.0423623686
 30
0.0
 10
154.6429502428
 20
100.9566260493
 30
0.0
 10
154.380571292
 20
102.3775446577
 30
0.0
 10
154.1631691914
 20
103.3134622972
 30
0.0
  0
SPLINE
  5
3D5
100
AcDbEntity
  8
0
100
AcDbSpline
 62
7
  6
CONTINUOUS
 70
0
 71
3
 72
10
 73
6
 74
0
 42
0.0000001
 43
0.0000001
 44
0.0000000001
 40
0.0
 40
0.0
 40
0.0
 40
0.0
 40
0.5093603238
 40
0.7560986243
 40
1.0
 40
1.0
 40
1.0
 40
1.0
 10
154.1631691914
 20
83.4854179337
 30
0.0
 10
154.3749200084
 20
83.9412123449
 30
0.0
 10
154.6388178124
 20
84.6456469005
 30
0.0
 10
154.8246119108
 20
85.6166390502
 30
0.0
 10
154.8559895145
 20
86.1013344685
 30
0.0
 10
154.8559895145
 20
86.3419893053
 30
0.0
  0
SPLINE
  5
3D6
100
AcDbEntity
  8
0
100
AcDbSpline
 62
7
  6
CONTINUOUS
 70
0
 71
3
 72
9
 73
5
 74
0
 42
0.0000001
 43
0.0000001
 44
0.0000000001
 40
0.0
 40
0.0
 40
0.0
 40
0.0
 40
0.5000116672
 40
1.0
 40
1.0
 40
1.0
 40
1.0
 10
144.1941318405
 20
91.8871768115
 30
0.0
 10
144.3283158616
 20
92.8331158441
 30
0.0
 10
144.5411340196
 20
94.7335038821
 30
0.0
 10
144.6160189672
 20
96.6449553254
 30
0.0
 10
144.6160188692
 20
97.6003195543
 30
0.0
  0
SPLINE
  5
3D7
100
AcDbEntity
  8
0
100
AcDbSpline
 62
7
  6
CONTINUOUS
 70
0
 71
3
 72
12
 73
8
 74
0
 42
0.0000001
 43
0.0000001
 44
0.0000000001
 40
0.0
 40
0.0
 40
0.0
 40
0.0
 40
0.3199398618
 40
0.6078611056
 40
0.8398206709
 40
0.9295345486
 40
1.0
 40
1.0
 40
1.0
 40
1.0
 10
144.1792545881
 20
91.8876749605
 30
0.0
 10
144.1287563406
 20
91.8910764322
 30
0.0
 10
144.0325632899
 20
91.8945794028
 30
0.0
 10
143.8997202496
 20
91.890323268
 30
0.0
 10
143.8036360572
 20
91.8791303646
 30
0.0
 10
143.7432913472
 20
91.8645388975
 30
0.0
 10
143.7193735882
 20
91.8557724572
 30
0.0
 10
143.7094082777
 20
91.850777114
 30
0.0
  0
SPLINE
  5
3D8
100
AcDbEntity
  8
0
100
AcDbSpline
 62
7
  6
CONTINUOUS
 70
0
 71
3
 72
9
 73
5
 74
0
 42
0.0000001
 43
0.0000001
 44
0.0000000001
 40
0.0
 40
0.0
 40
0.0
 40
0.0
 40
0.500011969
 40
1.0
 40
1.0
 40
1.0
 40
1.0
 10
143.7094082777
 20
91.8507773646
 30
0.0
 10
143.8478391554
 20
92.8024417271
 30
0.0
 10
144.0682636063
 20
94.7146504181
 30
0.0
 10
144.1461726119
 20
96.6386857274
 30
0.0
 10
144.1461725588
 20
97.6003195543
 30
0.0
  0
SPLINE
  5
3D9
100
AcDbEntity
  8
0
100
AcDbSpline
 62
7
  6
CONTINUOUS
 70
0
 71
3
 72
11
 73
7
 74
0
 42
0.0000001
 43
0.0000001
 44
0.0000000001
 40
0.0
 40
0.0
 40
0.0
 40
0.0
 40
0.251930381
 40
0.5000085946
 40
0.7480808823
 40
1.0
 40
1.0
 40
1.0
 40
1.0
 10
144.1941317622
 20
83.4854179337
 30
0.0
 10
144.3268224849
 20
83.9531211596
 30
0.0
 10
144.5396719018
 20
84.8973055642
 30
0.0
 10
144.6538832994
 20
86.3420281342
 30
0.0
 10
144.5396810864
 20
87.7867318018
 30
0.0
 10
144.326814133
 20
88.7308778343
 30
0.0
 10
144.1941311982
 20
89.1985606765
 30
0.0
  0
SPLINE
  5
3DA
100
AcDbEntity
  8
0
100
AcDbSpline
 62
7
  6
CONTINUOUS
 70
0
 71
3
 72
13
 73
9
 74
0
 42
0.0000001
 43
0.0000001
 44
0.0000000001
 40
0.0
 40
0.0
 40
0.0
 40
0.0
 40
0.2534007557
 40
0.378142432
 40
0.5020403515
 40
0.6256421513
 40
0.7495336374
 40
1.0
 40
1.0
 40
1.0
 40
1.0
 10
143.7094082777
 20
83.170214855
 30
0.0
 10
143.8460982882
 20
83.6435371324
 30
0.0
 10
144.0118011425
 20
84.3625642806
 30
0.0
 10
144.1267287974
 20
85.3326235346
 30
0.0
 10
144.1558404976
 20
86.0565408378
 30
0.0
 10
144.1268544539
 20
86.7788163906
 30
0.0
 10
144.012224925
 20
87.7409341214
 30
0.0
 10
143.8463692791
 20
88.4524550863
 30
0.0
 10
143.7094082777
 20
88.9197569089
 30
0.0
  0
SPLINE
  5
3DB
100
AcDbEntity
  8
0
100
AcDbSpline
 62
7
  6
CONTINUOUS
 70
0
 71
3
 72
11
 73
7
 74
0
 42
0.0000001
 43
0.0000001
 44
0.0000000001
 40
0.0
 40
0.0
 40
0.0
 40
0.0
 40
0.2703290727
 40
0.5317785007
 40
0.7760074703
 40
1.0
 40
1.0
 40
1.0
 40
1.0
 10
144.1792545881
 20
89.1981217328
 30
0.0
 10
144.1279717433
 20
89.1950801807
 30
0.0
 10
144.0274020882
 20
89.1773421083
 30
0.0
 10
143.8907236079
 20
89.1183675319
 30
0.0
 10
143.7798400214
 20
89.0324846963
 30
0.0
 10
143.7273383539
 20
88.9583636622
 30
0.0
 10
143.7094082777
 20
88.9197569089
 30
0.0
  0
SPLINE
  5
3DC
100
AcDbEntity
  8
0
100
AcDbSpline
 62
7
  6
CONTINUOUS
 70
0
 71
3
 72
10
 73
6
 74
0
 42
0.0000001
 43
0.0000001
 44
0.0000000001
 40
0.0
 40
0.0
 40
0.0
 40
0.0
 40
0.2439013827
 40
0.4906396903
 40
1.0
 40
1.0
 40
1.0
 40
1.0
 10
154.8559895145
 20
86.3419893053
 30
0.0
 10
154.8559895145
 20
86.5826441489
 30
0.0
 10
154.8246119082
 20
87.0673395811
 30
0.0
 10
154.638817806
 20
88.0383317301
 30
0.0
 10
154.3749200026
 20
88.742766278
 30
0.0
 10
154.1631691914
 20
89.1985606765
 30
0.0
  0
SPLINE
  5
3DD
100
AcDbEntity
  8
0
100
AcDbSpline
 62
7
  6
CONTINUOUS
 70
0
 71
3
 72
11
 73
7
 74
0
 42
0.0000001
 43
0.0000001
 44
0.0000000001
 40
0.0
 40
0.0
 40
0.0
 40
0.0
 40
0.2554742349
 40
0.5073703995
 40
0.7552316352
 40
1.0
 40
1.0
 40
1.0
 40
1.0
 10
144.1792545881
 20
83.4854774154
 30
0.0
 10
144.1281607859
 20
83.4858884939
 30
0.0
 10
144.0259002433
 20
83.4714082494
 30
0.0
 10
143.8873553732
 20
83.4058228366
 30
0.0
 10
143.7762380572
 20
83.3033348947
 30
0.0
 10
143.726666513
 20
83.2160261094
 30
0.0
 10
143.7094082777
 20
83.1702148386
 30
0.0
  0
SPLINE
  5
3DE
100
AcDbEntity
  8
0
100
AcDbSpline
 62
7
  6
CONTINUOUS
 70
0
 71
3
 72
10
 73
6
 74
0
 42
0.0000001
 43
0.0000001
 44
0.0000000001
 40
0.0
 40
0.0
 40
0.0
 40
0.0
 40
0.5093603238
 40
0.7560986243
 40
1.0
 40
1.0
 40
1.0
 40
1.0
 10
154.1631691914
 20
106.0020784321
 30
0.0
 10
154.3749200084
 20
106.4578728433
 30
0.0
 10
154.6388178124
 20
107.1623073989
 30
0.0
 10
154.8246119108
 20
108.1332995486
 30
0.0
 10
154.8559895145
 20
108.6179949669
 30
0.0
 10
154.8559895145
 20
108.8586498037
 30
0.0
  0
SPLINE
  5
3DF
100
AcDbEntity
  8
0
100
AcDbSpline
 62
7
  6
CONTINUOUS
 70
0
 71
3
 72
11
 73
7
 74
0
 42
0.0000001
 43
0.0000001
 44
0.0000000001
 40
0.0
 40
0.0
 40
0.0
 40
0.0
 40
0.2519191169
 40
0.4999914019
 40
0.7480696137
 40
1.0
 40
1.0
 40
1.0
 40
1.0
 10
144.1941311982
 20
106.0020784321
 30
0.0
 10
144.3268141324
 20
106.4697612727
 30
0.0
 10
144.5396810817
 20
107.4139072978
 30
0.0
 10
144.6538833112
 20
108.8586109558
 30
0.0
 10
144.5396718728
 20
110.3033335223
 30
0.0
 10
144.3268224917
 20
111.2475179413
 30
0.0
 10
144.1941317589
 20
111.7152211749
 30
0.0
  0
SPLINE
  5
3E0
100
AcDbEntity
  8
0
100
AcDbSpline
 62
7
  6
CONTINUOUS
 70
0
 71
3
 72
13
 73
9
 74
0
 42
0.0000001
 43
0.0000001
 44
0.0000000001
 40
0.0
 40
0.0
 40
0.0
 40
0.0
 40
0.2504663618
 40
0.3743578469
 40
0.4979596453
 40
0.6218575635
 40
0.7465992396
 40
1.0
 40
1.0
 40
1.0
 40
1.0
 10
143.7094082777
 20
106.2808821999
 30
0.0
 10
143.8463692785
 20
106.7481840211
 30
0.0
 10
144.012224923
 20
107.4597049823
 30
0.0
 10
144.1268544545
 20
108.4218227064
 30
0.0
 10
144.1558404969
 20
109.1440982519
 30
0.0
 10
144.1267287945
 20
109.8680155493
 30
0.0
 10
144.0118011373
 20
110.8380748086
 30
0.0
 10
143.8460982934
 20
111.5571019684
 30
0.0
 10
143.7094082777
 20
112.0304242536
 30
0.0
  0
SPLINE
  5
3E1
100
AcDbEntity
  8
0
100
AcDbSpline
 62
7
  6
CONTINUOUS
 70
0
 71
3
 72
11
 73
7
 74
0
 42
0.0000001
 43
0.0000001
 44
0.0000000001
 40
0.0
 40
0.0
 40
0.0
 40
0.0
 40
0.2554742367
 40
0.5073704043
 40
0.7552316478
 40
1.0
 40
1.0
 40
1.0
 40
1.0
 10
144.1792545881
 20
111.7151616933
 30
0.0
 10
144.1281607856
 20
111.7147506149
 30
0.0
 10
144.0259002424
 20
111.7292308598
 30
0.0
 10
143.8873553702
 20
111.7948162742
 30
0.0
 10
143.7762380574
 20
111.8973042184
 30
0.0
 10
143.7266665121
 20
111.9846130014
 30
0.0
 10
143.7094082777
 20
112.0304242697
 30
0.0
  0
SPLINE
  5
3E2
100
AcDbEntity
  8
0
100
AcDbSpline
 62
7
  6
CONTINUOUS
 70
0
 71
3
 72
11
 73
7
 74
0
 42
0.0000001
 43
0.0000001
 44
0.0000000001
 40
0.0
 40
0.0
 40
0.0
 40
0.0
 40
0.2703290726
 40
0.5317785002
 40
0.776007469
 40
1.0
 40
1.0
 40
1.0
 40
1.0
 10
144.1792545881
 20
106.0025173759
 30
0.0
 10
144.1279717433
 20
106.005558928
 30
0.0
 10
144.0274020881
 20
106.0232970002
 30
0.0
 10
143.8907236081
 20
106.0822715766
 30
0.0
 10
143.7798400206
 20
106.1681544114
 30
0.0
 10
143.727338354
 20
106.2422754464
 30
0.0
 10
143.7094082777
 20
106.2808821999
 30
0.0
  0
SPLINE
  5
3E3
100
AcDbEntity
  8
0
100
AcDbSpline
 62
7
  6
CONTINUOUS
 70
0
 71
3
 72
9
 73
5
 74
0
 42
0.0000001
 43
0.0000001
 44
0.0000000001
 40
0.0
 40
0.0
 40
0.0
 40
0.0
 40
0.4999883328
 40
1.0
 40
1.0
 40
1.0
 40
1.0
 10
144.6160188692
 20
97.6003195543
 30
0.0
 10
144.6160189674
 20
98.5556837832
 30
0.0
 10
144.541134019
 20
100.4671352265
 30
0.0
 10
144.328315863
 20
102.3675232649
 30
0.0
 10
144.1941318395
 20
103.3134622972
 30
0.0
  0
SPLINE
  5
3E4
100
AcDbEntity
  8
0
100
AcDbSpline
 62
7
  6
CONTINUOUS
 70
0
 71
3
 72
9
 73
5
 74
0
 42
0.0000001
 43
0.0000001
 44
0.0000000001
 40
0.0
 40
0.0
 40
0.0
 40
0.0
 40
0.499988031
 40
1.0
 40
1.0
 40
1.0
 40
1.0
 10
144.1461725588
 20
97.6003195543
 30
0.0
 10
144.146172612
 20
98.5619533812
 30
0.0
 10
144.0682636056
 20
100.4859886904
 30
0.0
 10
143.8478391567
 20
102.3981973817
 30
0.0
 10
143.7094082777
 20
103.3498617441
 30
0.0
  0
SPLINE
  5
3E5
100
AcDbEntity
  8
0
100
AcDbSpline
 62
7
  6
CONTINUOUS
 70
0
 71
3
 72
12
 73
8
 74
0
 42
0.0000001
 43
0.0000001
 44
0.0000000001
 40
0.0
 40
0.0
 40
0.0
 40
0.0
 40
0.3199398633
 40
0.6078611088
 40
0.8398206773
 40
0.9295345518
 40
1.0
 40
1.0
 40
1.0
 40
1.0
 10
144.1792545881
 20
103.3129641481
 30
0.0
 10
144.1287563405
 20
103.3095626766
 30
0.0
 10
144.0325632898
 20
103.3060597074
 30
0.0
 10
143.8997202483
 20
103.3103158399
 30
0.0
 10
143.8036360577
 20
103.3215087544
 30
0.0
 10
143.7432913472
 20
103.3361002143
 30
0.0
 10
143.7193735878
 20
103.3448666509
 30
0.0
 10
143.7094082777
 20
103.3498619937
 30
0.0
  0
SPLINE
  5
3E6
100
AcDbEntity
  8
0
100
AcDbSpline
 62
7
  6
CONTINUOUS
 70
0
 71
3
 72
10
 73
6
 74
0
 42
0.0000001
 43
0.0000001
 44
0.0000000001
 40
0.0
 40
0.0
 40
0.0
 40
0.0
 40
0.2439013827
 40
0.4906396903
 40
1.0
 40
1.0
 40
1.0
 40
1.0
 10
154.8559895145
 20
108.8586498037
 30
0.0
 10
154.8559895145
 20
109.0993046473
 30
0.0
 10
154.8246119082
 20
109.5840000795
 30
0.0
 10
154.638817806
 20
110.5549922285
 30
0.0
 10
154.3749200026
 20
111.2594267764
 30
0.0
 10
154.1631691914
 20
111.7152211749
 30
0.0
  0
SPLINE
  5
3E7
100
AcDbEntity
  8
0
100
AcDbSpline
 62
7
  6
CONTINUOUS
 70
0
 71
3
 72
8
 73
4
 74
0
 42
0.0000001
 43
0.0000001
 44
0.0000000001
 40
0.0
 40
0.0
 40
0.0
 40
0.0
 40
1.0
 40
1.0
 40
1.0
 40
1.0
 10
137.4364989039
 20
93.5543432945
 30
0.0
 10
137.3954329001
 20
93.4969508001
 30
0.0
 10
137.375066291
 20
93.3991967036
 30
0.0
 10
137.375066291
 20
93.2588908143
 30
0.0
  0
SPLINE
  5
3E8
100
AcDbEntity
  8
0
100
AcDbSpline
 62
7
  6
CONTINUOUS
 70
0
 71
3
 72
8
 73
4
 74
0
 42
0.0000001
 43
0.0000001
 44
0.0000000001
 40
0.0
 40
0.0
 40
0.0
 40
0.0
 40
1.0
 40
1.0
 40
1.0
 40
1.0
 10
137.6076346135
 20
93.7016187924
 30
0.0
 10
137.5346045302
 20
93.6602575819
 30
0.0
 10
137.4768991874
 20
93.6108054003
 30
0.0
 10
137.4364989039
 20
93.5543432945
 30
0.0
  0
SPLINE
  5
3E9
100
AcDbEntity
  8
0
100
AcDbSpline
 62
7
  6
CONTINUOUS
 70
0
 71
3
 72
8
 73
4
 74
0
 42
0.0000001
 43
0.0000001
 44
0.0000000001
 40
0.0
 40
0.0
 40
0.0
 40
0.0
 40
1.0
 40
1.0
 40
1.0
 40
1.0
 10
138.289866011
 20
93.8339147453
 30
0.0
 10
137.9894586014
 20
93.8339147453
 30
0.0
 10
137.7620315658
 20
93.7890628229
 30
0.0
 10
137.6076346135
 20
93.7016187924
 30
0.0
  0
SPLINE
  5
3EA
100
AcDbEntity
  8
0
100
AcDbSpline
 62
7
  6
CONTINUOUS
 70
0
 71
3
 72
8
 73
4
 74
0
 42
0.0000001
 43
0.0000001
 44
0.0000000001
 40
0.0
 40
0.0
 40
0.0
 40
0.0
 40
1.0
 40
1.0
 40
1.0
 40
1.0
 10
138.9875682892
 20
93.7075434254
 30
0.0
 10
138.8210947173
 20
93.7913629526
 30
0.0
 10
138.5885761039
 20
93.8339147453
 30
0.0
 10
138.289866011
 20
93.8339147453
 30
0.0
  0
SPLINE
  5
3EB
100
AcDbEntity
  8
0
100
AcDbSpline
 62
7
  6
CONTINUOUS
 70
0
 71
3
 72
8
 73
4
 74
0
 42
0.0000001
 43
0.0000001
 44
0.0000000001
 40
0.0
 40
0.0
 40
0.0
 40
0.0
 40
1.0
 40
1.0
 40
1.0
 40
1.0
 10
139.1703676526
 20
93.5658256448
 30
0.0
 10
139.126593742
 20
93.6211557818
 30
0.0
 10
139.0654939147
 20
93.6683078338
 30
0.0
 10
138.9875682892
 20
93.7075434254
 30
0.0
  0
SPLINE
  5
3EC
100
AcDbEntity
  8
0
100
AcDbSpline
 62
7
  6
CONTINUOUS
 70
0
 71
3
 72
8
 73
4
 74
0
 42
0.0000001
 43
0.0000001
 44
0.0000000001
 40
0.0
 40
0.0
 40
0.0
 40
0.0
 40
1.0
 40
1.0
 40
1.0
 40
1.0
 10
139.2369128125
 20
93.2657912033
 30
0.0
 10
139.2369128125
 20
93.409547085
 30
0.0
 10
139.2148489984
 20
93.5096013112
 30
0.0
 10
139.1703676526
 20
93.5658256448
 30
0.0
  0
SPLINE
  5
3ED
100
AcDbEntity
  8
0
100
AcDbSpline
 62
7
  6
CONTINUOUS
 70
0
 71
3
 72
8
 73
4
 74
0
 42
0.0000001
 43
0.0000001
 44
0.0000000001
 40
0.0
 40
0.0
 40
0.0
 40
0.0
 40
1.0
 40
1.0
 40
1.0
 40
1.0
 10
138.9585692914
 20
93.9822708863
 30
0.0
 10
139.1486575561
 20
93.9213184603
 30
0.0
 10
139.2963153789
 20
93.8396648675
 30
0.0
 10
139.4004248286
 20
93.7364277623
 30
0.0
  0
SPLINE
  5
3EE
100
AcDbEntity
  8
0
100
AcDbSpline
 62
7
  6
CONTINUOUS
 70
0
 71
3
 72
8
 73
4
 74
0
 42
0.0000001
 43
0.0000001
 44
0.0000000001
 40
0.0
 40
0.0
 40
0.0
 40
0.0
 40
1.0
 40
1.0
 40
1.0
 40
1.0
 10
138.2728937374
 20
94.0742744568
 30
0.0
 10
138.5393568234
 20
94.0742744568
 30
0.0
 10
138.7684810268
 20
94.0432233124
 30
0.0
 10
138.9585692914
 20
93.9822708863
 30
0.0
  0
SPLINE
  5
3EF
100
AcDbEntity
  8
0
100
AcDbSpline
 62
7
  6
CONTINUOUS
 70
0
 71
3
 72
8
 73
4
 74
0
 42
0.0000001
 43
0.0000001
 44
0.0000000001
 40
0.0
 40
0.0
 40
0.0
 40
0.0
 40
1.0
 40
1.0
 40
1.0
 40
1.0
 10
137.380527897
 20
93.8796316568
 30
0.0
 10
137.5974015998
 20
94.0087217715
 30
0.0
 10
137.8944145249
 20
94.0742744568
 30
0.0
 10
138.2728937374
 20
94.0742744568
 30
0.0
  0
SPLINE
  5
3F0
100
AcDbEntity
  8
0
100
AcDbSpline
 62
7
  6
CONTINUOUS
 70
0
 71
3
 72
8
 73
4
 74
0
 42
0.0000001
 43
0.0000001
 44
0.0000000001
 40
0.0
 40
0.0
 40
0.0
 40
0.0
 40
1.0
 40
1.0
 40
1.0
 40
1.0
 10
137.0559895145
 20
93.3819459331
 30
0.0
 10
137.0559895145
 20
93.5843545151
 30
0.0
 10
137.16461138
 20
93.7511112895
 30
0.0
 10
137.380527897
 20
93.8796316568
 30
0.0
  0
SPLINE
  5
3F1
100
AcDbEntity
  8
0
100
AcDbSpline
 62
7
  6
CONTINUOUS
 70
0
 71
3
 72
8
 73
4
 74
0
 42
0.0000001
 43
0.0000001
 44
0.0000000001
 40
0.0
 40
0.0
 40
0.0
 40
0.0
 40
1.0
 40
1.0
 40
1.0
 40
1.0
 10
139.4004248286
 20
93.7364277623
 30
0.0
 10
139.5050730197
 20
93.63265643
 30
0.0
 10
139.5559895145
 20
93.4797000297
 30
0.0
 10
139.5559895145
 20
93.2749917219
 30
0.0
  0
SPLINE
  5
3F2
100
AcDbEntity
  8
0
100
AcDbSpline
 62
7
  6
CONTINUOUS
 70
0
 71
3
 72
9
 73
5
 74
0
 42
0.0000001
 43
0.0000001
 44
0.0000000001
 40
0.0
 40
0.0
 40
0.0
 40
0.0
 40
0.5000379307
 40
1.0
 40
1.0
 40
1.0
 40
1.0
 10
106.5488098375
 20
103.3134622972
 30
0.0
 10
106.3314078641
 20
102.377545205
 30
0.0
 10
105.9813592727
 20
100.4843443937
 30
0.0
 10
105.8559895145
 20
98.5610090585
 30
0.0
 10
105.8559895144
 20
97.6003195554
 30
0.0
  0
SPLINE
  5
3F3
100
AcDbEntity
  8
0
100
AcDbSpline
 62
7
  6
CONTINUOUS
 70
0
 71
3
 72
9
 73
5
 74
0
 42
0.0000001
 43
0.0000001
 44
0.0000000001
 40
0.0
 40
0.0
 40
0.0
 40
0.0
 40
0.499962081
 40
1.0
 40
1.0
 40
1.0
 40
1.0
 10
105.8559895144
 20
97.6003195554
 30
0.0
 10
105.8559895144
 20
96.6396300294
 30
0.0
 10
105.9813592761
 20
94.7162946935
 30
0.0
 10
106.3314078691
 20
92.8230938821
 30
0.0
 10
106.5488098375
 20
91.8871768115
 30
0.0
  0
SPLINE
  5
3F4
100
AcDbEntity
  8
0
100
AcDbSpline
 62
7
  6
CONTINUOUS
 70
0
 71
3
 72
10
 73
6
 74
0
 42
0.0000001
 43
0.0000001
 44
0.0000000001
 40
0.0
 40
0.0
 40
0.0
 40
0.0
 40
0.5093603338
 40
0.7560986436
 40
1.0
 40
1.0
 40
1.0
 40
1.0
 10
106.5488098375
 20
111.7152211749
 30
0.0
 10
106.3370590163
 20
111.2594267548
 30
0.0
 10
106.0731612017
 20
110.554992182
 30
0.0
 10
105.8873671157
 20
109.5840000295
 30
0.0
 10
105.8559895145
 20
109.0993046213
 30
0.0
 10
105.8559895145
 20
108.8586498036
 30
0.0
  0
SPLINE
  5
3F5
100
AcDbEntity
  8
0
100
AcDbSpline
 62
7
  6
CONTINUOUS
 70
0
 71
3
 72
10
 73
6
 74
0
 42
0.0000001
 43
0.0000001
 44
0.0000000001
 40
0.0
 40
0.0
 40
0.0
 40
0.0
 40
0.2439013685
 40
0.490639689
 40
1.0
 40
1.0
 40
1.0
 40
1.0
 10
105.8559895145
 20
108.8586498036
 30
0.0
 10
105.8559895145
 20
108.617994974
 30
0.0
 10
105.8873671199
 20
108.1332995433
 30
0.0
 10
106.0731612123
 20
107.1623073918
 30
0.0
 10
106.3370590258
 20
106.4578728319
 30
0.0
 10
106.5488098375
 20
106.0020784321
 30
0.0
  0
SPLINE
  5
3F6
100
AcDbEntity
  8
0
100
AcDbSpline
 62
7
  6
CONTINUOUS
 70
0
 71
3
 72
14
 73
10
 74
0
 42
0.0000001
 43
0.0000001
 44
0.0000000001
 40
0.0
 40
0.0
 40
0.0
 40
0.0
 40
0.2258041048
 40
0.3494579156
 40
0.4780713269
 40
0.6097319335
 40
0.7421663488
 40
0.8729739045
 40
1.0
 40
1.0
 40
1.0
 40
1.0
 10
124.1873603644
 20
110.2547823893
 30
0.0
 10
124.8589116278
 20
109.9491682818
 30
0.0
 10
125.9225962046
 20
109.5249327001
 30
0.0
 10
127.4267237991
 20
109.0980603726
 30
0.0
 10
128.6605956922
 20
108.8611553922
 30
0.0
 10
129.941102577
 20
108.7469983326
 30
0.0
 10
131.2338165292
 20
108.7723750624
 30
0.0
 10
132.501013097
 20
108.9334232926
 30
0.0
 10
133.3239522497
 20
109.1197235724
 30
0.0
 10
133.7246186646
 20
109.2280869129
 30
0.0
  0
SPLINE
  5
3F7
100
AcDbEntity
  8
0
100
AcDbSpline
 62
7
  6
CONTINUOUS
 70
0
 71
3
 72
10
 73
6
 74
0
 42
0.0000001
 43
0.0000001
 44
0.0000000001
 40
0.0
 40
0.0
 40
0.0
 40
0.0
 40
0.2234897635
 40
0.4729800124
 40
1.0
 40
1.0
 40
1.0
 40
1.0
 10
124.1873603644
 20
110.2547822978
 30
0.0
 10
124.2258033756
 20
110.2724860163
 30
0.0
 10
124.3011095303
 20
110.3234940415
 30
0.0
 10
124.4297314418
 20
110.4636439234
 30
0.0
 10
124.4955469285
 20
110.6006887963
 30
0.0
 10
124.5207997902
 20
110.6972461248
 30
0.0
  0
SPLINE
  5
3F8
100
AcDbEntity
  8
0
100
AcDbSpline
 62
7
  6
CONTINUOUS
 70
0
 71
3
 72
14
 73
10
 74
0
 42
0.0000001
 43
0.0000001
 44
0.0000000001
 40
0.0
 40
0.0
 40
0.0
 40
0.0
 40
0.2249730562
 40
0.3484090636
 40
0.4770627705
 40
0.6090090958
 40
0.7418269061
 40
0.8729130077
 40
1.0
 40
1.0
 40
1.0
 40
1.0
 10
124.5207997779
 20
110.6972461248
 30
0.0
 10
125.1464991573
 20
110.3857020977
 30
0.0
 10
126.1413582647
 20
109.9503635686
 30
0.0
 10
127.5574214149
 20
109.5073820011
 30
0.0
 10
128.7265669018
 20
109.258686489
 30
0.0
 10
129.9455881847
 20
109.137052685
 30
0.0
 10
131.1782344573
 20
109.1619834921
 30
0.0
 10
132.383954088
 20
109.3293105949
 30
0.0
 10
133.1639116749
 20
109.5226157223
 30
0.0
 10
133.5425306024
 20
109.6346522052
 30
0.0
  0
SPLINE
  5
3F9
100
AcDbEntity
  8
0
100
AcDbSpline
 62
7
  6
CONTINUOUS
 70
0
 71
3
 72
11
 73
7
 74
0
 42
0.0000001
 43
0.0000001
 44
0.0000000001
 40
0.0
 40
0.0
 40
0.0
 40
0.0
 40
0.2291845095
 40
0.4667261496
 40
0.722867773
 40
1.0
 40
1.0
 40
1.0
 40
1.0
 10
123.6216749394
 20
110.4155421411
 30
0.0
 10
123.6655418798
 20
110.4309398039
 30
0.0
 10
123.7625173118
 20
110.4414183954
 30
0.0
 10
123.907242353
 20
110.4107944438
 30
0.0
 10
124.0510317137
 20
110.3472588744
 30
0.0
 10
124.1421633028
 20
110.2882128545
 30
0.0
 10
124.1873603644
 20
110.2547823893
 30
0.0
  0
SPLINE
  5
3FA
100
AcDbEntity
  8
0
100
AcDbSpline
 62
7
  6
CONTINUOUS
 70
0
 71
3
 72
9
 73
5
 74
0
 42
0.0000001
 43
0.0000001
 44
0.0000000001
 40
0.0
 40
0.0
 40
0.0
 40
0.0
 40
0.4713428461
 40
1.0
 40
1.0
 40
1.0
 40
1.0
 10
123.6216932129
 20
110.4155254974
 30
0.0
 10
123.6459980848
 20
110.4610738961
 30
0.0
 10
123.6745434583
 20
110.5703356279
 30
0.0
 10
123.6642547591
 20
110.6812370418
 30
0.0
 10
123.6512548687
 20
110.737664047
 30
0.0
  0
SPLINE
  5
3FB
100
AcDbEntity
  8
0
100
AcDbSpline
 62
7
  6
CONTINUOUS
 70
0
 71
3
 72
11
 73
7
 74
0
 42
0.0000001
 43
0.0000001
 44
0.0000000001
 40
0.0
 40
0.0
 40
0.0
 40
0.0
 40
0.2399538049
 40
0.4808281355
 40
0.7328419202
 40
1.0
 40
1.0
 40
1.0
 40
1.0
 10
123.651249547
 20
110.737664047
 30
0.0
 10
123.7135884392
 20
110.7744315041
 30
0.0
 10
123.8526429495
 20
110.8259716819
 30
0.0
 10
124.075963067
 20
110.8362852157
 30
0.0
 10
124.3026610784
 20
110.7922465464
 30
0.0
 10
124.4486671677
 20
110.7331611275
 30
0.0
 10
124.5207997779
 20
110.6972461248
 30
0.0
  0
SPLINE
  5
3FC
100
AcDbEntity
  8
0
100
AcDbSpline
 62
7
  6
CONTINUOUS
 70
0
 71
3
 72
9
 73
5
 74
0
 42
0.0000001
 43
0.0000001
 44
0.0000000001
 40
0.0
 40
0.0
 40
0.0
 40
0.0
 40
0.1700477234
 40
1.0
 40
1.0
 40
1.0
 40
1.0
 10
121.7903040895
 20
109.6003870147
 30
0.0
 10
121.8987307567
 20
109.63468514
 30
0.0
 10
122.5319170579
 20
109.8502677063
 30
0.0
 10
123.1387649012
 20
110.1419163109
 30
0.0
 10
123.6216749394
 20
110.4155421411
 30
0.0
  0
SPLINE
  5
3FD
100
AcDbEntity
  8
0
100
AcDbSpline
 62
7
  6
CONTINUOUS
 70
0
 71
3
 72
9
 73
5
 74
0
 42
0.0000001
 43
0.0000001
 44
0.0000000001
 40
0.0
 40
0.0
 40
0.0
 40
0.0
 40
0.4964371419
 40
1.0
 40
1.0
 40
1.0
 40
1.0
 10
121.7903058422
 20
109.6003852956
 30
0.0
 10
121.832405032
 20
109.6463489292
 30
0.0
 10
121.8994146238
 20
109.7567445501
 30
0.0
 10
121.9201930382
 20
109.8839603711
 30
0.0
 10
121.9188736753
 20
109.9471710141
 30
0.0
  0
SPLINE
  5
3FE
100
AcDbEntity
  8
0
100
AcDbSpline
 62
7
  6
CONTINUOUS
 70
0
 71
3
 72
9
 73
5
 74
0
 42
0.0000001
 43
0.0000001
 44
0.0000000001
 40
0.0
 40
0.0
 40
0.0
 40
0.0
 40
0.1683323242
 40
1.0
 40
1.0
 40
1.0
 40
1.0
 10
121.918871716
 20
109.9471710141
 30
0.0
 10
122.0209119271
 20
109.9792209975
 30
0.0
 10
122.6224636236
 20
110.1842315268
 30
0.0
 10
123.1960975203
 20
110.4692045626
 30
0.0
 10
123.651249547
 20
110.737664047
 30
0.0
  0
SPLINE
  5
3FF
100
AcDbEntity
  8
0
100
AcDbSpline
 62
7
  6
CONTINUOUS
 70
0
 71
3
 72
10
 73
6
 74
0
 42
0.0000001
 43
0.0000001
 44
0.0000000001
 40
0.0
 40
0.0
 40
0.0
 40
0.0
 40
0.4491094868
 40
0.7092669
 40
1.0
 40
1.0
 40
1.0
 40
1.0
 10
121.2246186646
 20
109.5162916089
 30
0.0
 10
121.3098620607
 20
109.4937224396
 30
0.0
 10
121.4519225097
 20
109.4779758614
 30
0.0
 10
121.6458634319
 20
109.5168228317
 30
0.0
 10
121.7443834695
 20
109.5664770268
 30
0.0
 10
121.7903040895
 20
109.6003870147
 30
0.0
  0
SPLINE
  5
400
100
AcDbEntity
  8
0
100
AcDbSpline
 62
7
  6
CONTINUOUS
 70
0
 71
3
 72
11
 73
7
 74
0
 42
0.0000001
 43
0.0000001
 44
0.0000000001
 40
0.0
 40
0.0
 40
0.0
 40
0.0
 40
0.2487143113
 40
0.499057722
 40
0.749949042
 40
1.0
 40
1.0
 40
1.0
 40
1.0
 10
121.2246186646
 20
109.5162893284
 30
0.0
 10
121.2883067238
 20
109.5174975024
 30
0.0
 10
121.416922204
 20
109.5454238602
 30
0.0
 10
121.5792523933
 20
109.6563813023
 30
0.0
 10
121.6893532651
 20
109.8196644953
 30
0.0
 10
121.7170061213
 20
109.9487598409
 30
0.0
 10
121.7182064519
 20
110.0127904445
 30
0.0
  0
SPLINE
  5
401
100
AcDbEntity
  8
0
100
AcDbSpline
 62
7
  6
CONTINUOUS
 70
0
 71
3
 72
9
 73
5
 74
0
 42
0.0000001
 43
0.0000001
 44
0.0000000001
 40
0.0
 40
0.0
 40
0.0
 40
0.0
 40
0.474069307
 40
1.0
 40
1.0
 40
1.0
 40
1.0
 10
121.7182062781
 20
110.0127904445
 30
0.0
 10
121.7451795811
 20
109.9918193734
 30
0.0
 10
121.804848204
 20
109.9525287624
 30
0.0
 10
121.8827184593
 20
109.9357840311
 30
0.0
 10
121.918871716
 20
109.9471710141
 30
0.0
  0
LINE
  5
402
100
AcDbEntity
  8
0
100
AcDbLine
 62
7
  6
CONTINUOUS
 10
121.6059895145
 20
110.1003195543
 11
121.7182062781
 21
110.0127904445
  0
SPLINE
  5
403
100
AcDbEntity
  8
0
100
AcDbSpline
 62
7
  6
CONTINUOUS
 70
0
 71
3
 72
22
 73
18
 74
0
 42
0.0000001
 43
0.0000001
 44
0.0000000001
 40
0.0
 40
0.0
 40
0.0
 40
0.0
 40
0.2072637803
 40
0.3977071953
 40
0.5683441834
 40
0.7157591731
 40
0.7795942709
 40
0.8361983417
 40
0.8850994005
 40
0.9258338023
 40
0.9579963414
 40
0.9707544845
 40
0.9812399832
 40
0.9894222582
 40
0.9952859594
 40
0.9988166784
 40
1.0
 40
1.0
 40
1.0
 40
1.0
 10
135.5873603644
 20
111.2251172905
 30
0.0
 10
135.8759112228
 20
111.3290923271
 30
0.0
 10
136.4251242082
 20
111.5412112221
 30
0.0
 10
137.1975441655
 20
111.8743527925
 30
0.0
 10
137.8789529354
 20
112.1938162402
 30
0.0
 10
138.3845933538
 20
112.446292415
 30
0.0
 10
138.7365181918
 20
112.6286794379
 30
0.0
 10
138.9580665506
 20
112.7457867145
 30
0.0
 10
139.1486731985
 20
112.8482665112
 30
0.0
 10
139.3069411092
 20
112.9345054823
 30
0.0
 10
139.4179603183
 20
112.9956767856
 30
0.0
 10
139.489676353
 20
113.0354100669
 30
0.0
 10
139.5302826543
 20
113.0580935435
 30
0.0
 10
139.5620715093
 20
113.0755824549
 30
0.0
 10
139.5845907768
 20
113.0887005814
 30
0.0
 10
139.5985777618
 20
113.0955890738
 30
0.0
 10
139.6043207562
 20
113.0997889029
 30
0.0
 10
139.6059895145
 20
113.1003195543
 30
0.0
  0
SPLINE
  5
404
100
AcDbEntity
  8
0
100
AcDbSpline
 62
7
  6
CONTINUOUS
 70
0
 71
3
 72
10
 73
6
 74
0
 42
0.0000001
 43
0.0000001
 44
0.0000000001
 40
0.0
 40
0.0
 40
0.0
 40
0.0
 40
0.2147510379
 40
0.4617187593
 40
1.0
 40
1.0
 40
1.0
 40
1.0
 10
135.5873603644
 20
111.2251169918
 30
0.0
 10
135.5548305372
 20
111.2449977006
 30
0.0
 10
135.4917499835
 20
111.2990513958
 30
0.0
 10
135.3834894206
 20
111.4405079726
 30
0.0
 10
135.3280203207
 20
111.5719866081
 30
0.0
 10
135.3045833808
 20
111.6646268949
 30
0.0
  0
SPLINE
  5
405
100
AcDbEntity
  8
0
100
AcDbSpline
 62
7
  6
CONTINUOUS
 70
0
 71
3
 72
27
 73
23
 74
0
 42
0.0000001
 43
0.0000001
 44
0.0000000001
 40
0.0
 40
0.0
 40
0.0
 40
0.0
 40
0.2079337251
 40
0.3986774375
 40
0.5693369014
 40
0.6461109411
 40
0.7165879653
 40
0.7802966648
 40
0.8367605852
 40
0.8855186695
 40
0.9261176296
 40
0.9432308642
 40
0.9581631025
 40
0.9708721878
 40
0.98131631
 40
0.9894659507
 40
0.9926755638
 40
0.9953059872
 40
0.9973554318
 40
0.9988221084
 40
0.9997042275
 40
1.0
 40
1.0
 40
1.0
 40
1.0
 10
135.3045835617
 20
111.6646268949
 30
0.0
 10
135.5800825863
 20
111.7729568508
 30
0.0
 10
136.103287042
 20
111.9936241269
 30
0.0
 10
136.8366723905
 20
112.3391875403
 30
0.0
 10
137.3920058565
 20
112.623594468
 30
0.0
 10
137.7906000903
 20
112.8380254238
 30
0.0
 10
138.0534672367
 20
112.983314809
 30
0.0
 10
138.2896923024
 20
113.1169985682
 30
0.0
 10
138.498000859
 20
113.2372109599
 30
0.0
 10
138.6770471821
 20
113.3422925591
 30
0.0
 10
138.8073209717
 20
113.4197877327
 30
0.0
 10
138.8960128313
 20
113.4729861155
 30
0.0
 10
138.9505823717
 20
113.5058787845
 30
0.0
 10
138.9969704029
 20
113.5339538628
 30
0.0
 10
139.0350608085
 20
113.5570850469
 30
0.0
 10
139.0615921191
 20
113.5732057296
 30
0.0
 10
139.078584407
 20
113.5835844233
 30
0.0
 10
139.0882073939
 20
113.5894009237
 30
0.0
 10
139.0955877127
 20
113.5940460748
 30
0.0
 10
139.1011290556
 20
113.5971216948
 30
0.0
 10
139.1039889657
 20
113.5994246734
 30
0.0
 10
139.10578215
 20
113.5999530652
 30
0.0
 10
139.1059895145
 20
113.6003195543
 30
0.0
  0
SPLINE
  5
406
100
AcDbEntity
  8
0
100
AcDbSpline
 62
7
  6
CONTINUOUS
 70
0
 71
3
 72
9
 73
5
 74
0
 42
0.0000001
 43
0.0000001
 44
0.0000000001
 40
0.0
 40
0.0
 40
0.0
 40
0.0
 40
0.5234447142
 40
1.0
 40
1.0
 40
1.0
 40
1.0
 10
135.0216749394
 20
110.603033333
 30
0.0
 10
135.0912395943
 20
110.7337219252
 30
0.0
 10
135.2528188615
 20
110.9692748609
 30
0.0
 10
135.4710475481
 20
111.1570066396
 30
0.0
 10
135.5873603644
 20
111.2251172905
 30
0.0
  0
SPLINE
  5
407
100
AcDbEntity
  8
0
100
AcDbSpline
 62
7
  6
CONTINUOUS
 70
0
 71
3
 72
12
 73
8
 74
0
 42
0.0000001
 43
0.0000001
 44
0.0000000001
 40
0.0
 40
0.0
 40
0.0
 40
0.0
 40
0.0785175196
 40
0.1775172376
 40
0.4255314792
 40
0.7130297828
 40
1.0
 40
1.0
 40
1.0
 40
1.0
 10
135.0216856469
 20
110.6030242124
 30
0.0
 10
135.00420368
 20
110.6029815459
 30
0.0
 10
134.9647310207
 20
110.608305011
 30
0.0
 10
134.8733647133
 20
110.6338185307
 30
0.0
 10
134.7438884221
 20
110.6921084202
 30
0.0
 10
134.5863828415
 20
110.7859142021
 30
0.0
 10
134.4836491811
 20
110.8627153044
 30
0.0
 10
134.4350337139
 20
110.904176283
 30
0.0
  0
SPLINE
  5
408
100
AcDbEntity
  8
0
100
AcDbSpline
 62
7
  6
CONTINUOUS
 70
0
 71
3
 72
9
 73
5
 74
0
 42
0.0000001
 43
0.0000001
 44
0.0000000001
 40
0.0
 40
0.0
 40
0.0
 40
0.0
 40
0.5171220775
 40
1.0
 40
1.0
 40
1.0
 40
1.0
 10
134.4350333308
 20
110.9041762831
 30
0.0
 10
134.5426380242
 20
111.0745932789
 30
0.0
 10
134.7949561226
 20
111.3785689373
 30
0.0
 10
135.1294379052
 20
111.5957575263
 30
0.0
 10
135.3045835617
 20
111.6646268949
 30
0.0
  0
SPLINE
  5
409
100
AcDbEntity
  8
0
100
AcDbSpline
 62
7
  6
CONTINUOUS
 70
0
 71
3
 72
12
 73
8
 74
0
 42
0.0000001
 43
0.0000001
 44
0.0000000001
 40
0.0
 40
0.0
 40
0.0
 40
0.0
 40
0.0785855983
 40
0.1773030873
 40
0.4235593204
 40
0.7098063342
 40
1.0
 40
1.0
 40
1.0
 40
1.0
 10
134.2903040714
 20
109.5133159206
 30
0.0
 10
134.2740942161
 20
109.5153640179
 30
0.0
 10
134.2380309167
 20
109.5237476887
 30
0.0
 10
134.1547381566
 20
109.5525279702
 30
0.0
 10
134.0360853191
 20
109.6095103157
 30
0.0
 10
133.888884945
 20
109.6968426022
 30
0.0
 10
133.7908343801
 20
109.7660802929
 30
0.0
 10
133.74319605
 20
109.8031046144
 30
0.0
  0
SPLINE
  5
40A
100
AcDbEntity
  8
0
100
AcDbSpline
 62
7
  6
CONTINUOUS
 70
0
 71
3
 72
9
 73
5
 74
0
 42
0.0000001
 43
0.0000001
 44
0.0000000001
 40
0.0
 40
0.0
 40
0.0
 40
0.0
 40
0.499986119
 40
1.0
 40
1.0
 40
1.0
 40
1.0
 10
133.7246186646
 20
109.2280869129
 30
0.0
 10
133.8313614301
 20
109.2389522192
 30
0.0
 10
134.0421988437
 20
109.3023052689
 30
0.0
 10
134.217144541
 20
109.4348236654
 30
0.0
 10
134.2903040895
 20
109.5133159057
 30
0.0
  0
SPLINE
  5
40B
100
AcDbEntity
  8
0
100
AcDbSpline
 62
7
  6
CONTINUOUS
 70
0
 71
3
 72
10
 73
6
 74
0
 42
0.0000001
 43
0.0000001
 44
0.0000000001
 40
0.0
 40
0.0
 40
0.0
 40
0.0
 40
0.2096965055
 40
0.4547916851
 40
1.0
 40
1.0
 40
1.0
 40
1.0
 10
133.7246186628
 20
109.2280970029
 30
0.0
 10
133.704657276
 20
109.2522527192
 30
0.0
 10
133.6666160438
 20
109.30897736
 30
0.0
 10
133.5991404495
 20
109.4424975848
 30
0.0
 10
133.5617474316
 20
109.5554773334
 30
0.0
 10
133.5425303509
 20
109.6346522051
 30
0.0
  0
SPLINE
  5
40C
100
AcDbEntity
  8
0
100
AcDbSpline
 62
7
  6
CONTINUOUS
 70
0
 71
3
 72
9
 73
5
 74
0
 42
0.0000001
 43
0.0000001
 44
0.0000000001
 40
0.0
 40
0.0
 40
0.0
 40
0.0
 40
0.7435100055
 40
1.0
 40
1.0
 40
1.0
 40
1.0
 10
133.5425306024
 20
109.6346522052
 30
0.0
 10
133.6054475797
 20
109.6532751783
 30
0.0
 10
133.6800546127
 20
109.712468105
 30
0.0
 10
133.7311989691
 20
109.7839100276
 30
0.0
 10
133.7431960403
 20
109.8031046144
 30
0.0
  0
SPLINE
  5
40D
100
AcDbEntity
  8
0
100
AcDbSpline
 62
7
  6
CONTINUOUS
 70
0
 71
3
 72
13
 73
9
 74
0
 42
0.0000001
 43
0.0000001
 44
0.0000000001
 40
0.0
 40
0.0
 40
0.0
 40
0.0
 40
0.2549828856
 40
0.3782546147
 40
0.5000000975
 40
0.6217455277
 40
0.745017148
 40
1.0
 40
1.0
 40
1.0
 40
1.0
 10
115.7718986614
 20
83.4854179337
 30
0.0
 10
115.9901769447
 20
83.940175019
 30
0.0
 10
116.2637059098
 20
84.6435973403
 30
0.0
 10
116.4572186526
 20
85.6158814108
 30
0.0
 10
116.5061986371
 20
86.341989816
 30
0.0
 10
116.4572191403
 20
87.0680980766
 30
0.0
 10
116.2637057761
 20
88.0403816431
 30
0.0
 10
115.9901769799
 20
88.7438036817
 30
0.0
 10
115.7718986614
 20
89.1985606765
 30
0.0
  0
SPLINE
  5
40E
100
AcDbEntity
  8
0
100
AcDbSpline
 62
7
  6
CONTINUOUS
 70
0
 71
3
 72
9
 73
5
 74
0
 42
0.0000001
 43
0.0000001
 44
0.0000000001
 40
0.0
 40
0.0
 40
0.0
 40
0.0
 40
0.5231709531
 40
1.0
 40
1.0
 40
1.0
 40
1.0
 10
115.7971437877
 20
89.1998015054
 30
0.0
 10
115.8842832101
 20
89.2084881398
 30
0.0
 10
116.0490321093
 20
89.2571642142
 30
0.0
 10
116.1839738218
 20
89.3670921082
 30
0.0
 10
116.2301564895
 20
89.4321881288
 30
0.0
  0
SPLINE
  5
40F
100
AcDbEntity
  8
0
100
AcDbSpline
 62
7
  6
CONTINUOUS
 70
0
 71
3
 72
13
 73
9
 74
0
 42
0.0000001
 43
0.0000001
 44
0.0000000001
 40
0.0
 40
0.0
 40
0.0
 40
0.0
 40
0.2525191189
 40
0.3752283976
 40
0.4969443101
 40
0.619121503
 40
0.7431382134
 40
1.0
 40
1.0
 40
1.0
 40
1.0
 10
116.2301564895
 20
83.7227306417
 30
0.0
 10
116.442363713
 20
84.173281111
 30
0.0
 10
116.7065626006
 20
84.8713338659
 30
0.0
 10
116.8918005933
 20
85.8358641999
 30
0.0
 10
116.9385254334
 20
86.5594158789
 30
0.0
 10
116.8914718058
 20
87.2855020296
 30
0.0
 10
116.705606089
 20
88.2621200641
 30
0.0
 10
116.4419265264
 20
88.9719867724
 30
0.0
 10
116.2301564895
 20
89.4321881288
 30
0.0
  0
SPLINE
  5
410
100
AcDbEntity
  8
0
100
AcDbSpline
 62
7
  6
CONTINUOUS
 70
0
 71
3
 72
9
 73
5
 74
0
 42
0.0000001
 43
0.0000001
 44
0.0000000001
 40
0.0
 40
0.0
 40
0.0
 40
0.0
 40
0.5066582923
 40
1.0
 40
1.0
 40
1.0
 40
1.0
 10
115.7971437877
 20
83.48524977
 30
0.0
 10
115.8834760422
 20
83.4840840426
 30
0.0
 10
116.0577248178
 20
83.5259698183
 30
0.0
 10
116.1870312127
 20
83.6505633681
 30
0.0
 10
116.2301564895
 20
83.7227306417
 30
0.0
  0
SPLINE
  5
411
100
AcDbEntity
  8
0
100
AcDbSpline
 62
7
  6
CONTINUOUS
 70
0
 71
3
 72
13
 73
9
 74
0
 42
0.0000001
 43
0.0000001
 44
0.0000000001
 40
0.0
 40
0.0
 40
0.0
 40
0.0
 40
0.2499562932
 40
0.3749779409
 40
0.5000000021
 40
0.6250220616
 40
0.7500437074
 40
1.0
 40
1.0
 40
1.0
 40
1.0
 10
115.7718986614
 20
91.8871768115
 30
0.0
 10
115.9962740545
 20
92.8220963601
 30
0.0
 10
116.2682971566
 20
94.2423347907
 30
0.0
 10
116.4577135807
 20
96.157323984
 30
0.0
 10
116.5060530899
 20
97.6003195815
 30
0.0
 10
116.4577137044
 20
99.0433151769
 30
0.0
 10
116.2682973382
 20
100.9583043625
 30
0.0
 10
115.9962741382
 20
102.378542771
 30
0.0
 10
115.7718986614
 20
103.3134622972
 30
0.0
  0
SPLINE
  5
412
100
AcDbEntity
  8
0
100
AcDbSpline
 62
7
  6
CONTINUOUS
 70
0
 71
3
 72
10
 73
6
 74
0
 42
0.0000001
 43
0.0000001
 44
0.0000000001
 40
0.0
 40
0.0
 40
0.0
 40
0.0
 40
0.579154239
 40
0.8162942193
 40
1.0
 40
1.0
 40
1.0
 40
1.0
 10
115.7971437877
 20
103.3148712888
 30
0.0
 10
115.8805270919
 20
103.3243093947
 30
0.0
 10
115.9990125032
 20
103.3321239608
 30
0.0
 10
116.1438037284
 20
103.3255074184
 30
0.0
 10
116.2044198036
 20
103.3165689484
 30
0.0
 10
116.2301564895
 20
103.3097770425
 30
0.0
  0
SPLINE
  5
413
100
AcDbEntity
  8
0
100
AcDbSpline
 62
7
  6
CONTINUOUS
 70
0
 71
3
 72
11
 73
7
 74
0
 42
0.0000001
 43
0.0000001
 44
0.0000000001
 40
0.0
 40
0.0
 40
0.0
 40
0.0
 40
0.2500169141
 40
0.5000000008
 40
0.7499830842
 40
1.0
 40
1.0
 40
1.0
 40
1.0
 10
116.2301564895
 20
91.8908621154
 30
0.0
 10
116.447838378
 20
92.8260848146
 30
0.0
 10
116.7978769856
 20
94.7183541485
 30
0.0
 10
116.9854912481
 20
97.6003195753
 30
0.0
 10
116.7978770652
 20
100.482285023
 30
0.0
 10
116.4478383648
 20
102.3745543333
 30
0.0
 10
116.2301564895
 20
103.3097770425
 30
0.0
  0
SPLINE
  5
414
100
AcDbEntity
  8
0
100
AcDbSpline
 62
7
  6
CONTINUOUS
 70
0
 71
3
 72
10
 73
6
 74
0
 42
0.0000001
 43
0.0000001
 44
0.0000000001
 40
0.0
 40
0.0
 40
0.0
 40
0.0
 40
0.5791541054
 40
0.8162940705
 40
1.0
 40
1.0
 40
1.0
 40
1.0
 10
115.7971437877
 20
91.8857678102
 30
0.0
 10
115.8805270795
 20
91.8763296845
 30
0.0
 10
115.9990124569
 20
91.8685149983
 30
0.0
 10
116.1438037354
 20
91.8751314072
 30
0.0
 10
116.2044197794
 20
91.8840702051
 30
0.0
 10
116.2301564895
 20
91.8908621154
 30
0.0
  0
SPLINE
  5
415
100
AcDbEntity
  8
0
100
AcDbSpline
 62
7
  6
CONTINUOUS
 70
0
 71
3
 72
13
 73
9
 74
0
 42
0.0000001
 43
0.0000001
 44
0.0000000001
 40
0.0
 40
0.0
 40
0.0
 40
0.0
 40
0.2549828484
 40
0.3782544703
 40
0.4999999041
 40
0.6217453896
 40
0.7450171223
 40
1.0
 40
1.0
 40
1.0
 40
1.0
 10
115.7718986614
 20
106.0020784321
 30
0.0
 10
115.9901769098
 20
106.4568354527
 30
0.0
 10
116.2637056008
 20
107.160257518
 30
0.0
 10
116.4572190126
 20
108.1325410716
 30
0.0
 10
116.5061986403
 20
108.8586493389
 30
0.0
 10
116.4572187475
 20
109.5847577701
 30
0.0
 10
116.2637061305
 20
110.55704187
 30
0.0
 10
115.990176992
 20
111.2604641294
 30
0.0
 10
115.7718986614
 20
111.7152211749
 30
0.0
  0
SPLINE
  5
416
100
AcDbEntity
  8
0
100
AcDbSpline
 62
7
  6
CONTINUOUS
 70
0
 71
3
 72
9
 73
5
 74
0
 42
0.0000001
 43
0.0000001
 44
0.0000000001
 40
0.0
 40
0.0
 40
0.0
 40
0.0
 40
0.5066584026
 40
1.0
 40
1.0
 40
1.0
 40
1.0
 10
115.7971437877
 20
111.7153893375
 30
0.0
 10
115.8834760583
 20
111.7165550627
 30
0.0
 10
116.0577248137
 20
111.6746692401
 30
0.0
 10
116.1870312242
 20
111.5500757276
 30
0.0
 10
116.2301564895
 20
111.4779084721
 30
0.0
  0
SPLINE
  5
417
100
AcDbEntity
  8
0
100
AcDbSpline
 62
7
  6
CONTINUOUS
 70
0
 71
3
 72
13
 73
9
 74
0
 42
0.0000001
 43
0.0000001
 44
0.0000000001
 40
0.0
 40
0.0
 40
0.0
 40
0.0
 40
0.2568617972
 40
0.3808785055
 40
0.5030556916
 40
0.6247715979
 40
0.7474808783
 40
1.0
 40
1.0
 40
1.0
 40
1.0
 10
116.2301564895
 20
105.7684510219
 30
0.0
 10
116.4419265507
 20
106.2286523863
 30
0.0
 10
116.7056060303
 20
106.9385191408
 30
0.0
 10
116.8914717495
 20
107.9151371646
 30
0.0
 10
116.9385254382
 20
108.6412232771
 30
0.0
 10
116.8918006157
 20
109.3647749299
 30
0.0
 10
116.7065626686
 20
110.3293052654
 30
0.0
 10
116.4423636992
 20
111.027357994
 30
0.0
 10
116.2301564895
 20
111.4779084721
 30
0.0
  0
SPLINE
  5
418
100
AcDbEntity
  8
0
100
AcDbSpline
 62
7
  6
CONTINUOUS
 70
0
 71
3
 72
9
 73
5
 74
0
 42
0.0000001
 43
0.0000001
 44
0.0000000001
 40
0.0
 40
0.0
 40
0.0
 40
0.0
 40
0.5231710462
 40
1.0
 40
1.0
 40
1.0
 40
1.0
 10
115.7971437877
 20
106.0008375951
 30
0.0
 10
115.8842832085
 20
105.9921509419
 30
0.0
 10
116.0490319658
 20
105.9434746466
 30
0.0
 10
116.1839738402
 20
105.8335470193
 30
0.0
 10
116.2301564895
 20
105.7684510219
 30
0.0
  0
SPLINE
  5
419
100
AcDbEntity
  8
0
100
AcDbSpline
 62
7
  6
CONTINUOUS
 70
0
 71
3
 72
16
 73
12
 74
0
 42
0.0000001
 43
0.0000001
 44
0.0000000001
 40
0.0
 40
0.0
 40
0.0
 40
0.0
 40
0.1829683349
 40
0.3611529576
 40
0.5284607843
 40
0.6773770286
 40
0.7999477159
 40
0.8904297805
 40
0.9504760603
 40
0.9747239063
 40
1.0
 40
1.0
 40
1.0
 40
1.0
 10
122.0136475339
 20
113.0748996446
 30
0.0
 10
122.0136483075
 20
113.047941319
 30
0.0
 10
122.0124059807
 20
112.994718345
 30
0.0
 10
122.0065650536
 20
112.9170396119
 30
0.0
 10
121.9966364549
 20
112.8448038427
 30
0.0
 10
121.9829854332
 20
112.7815702792
 30
0.0
 10
121.9658659261
 20
112.7307440445
 30
0.0
 10
121.9471697819
 20
112.6952313287
 30
0.0
 10
121.9266213688
 20
112.6767467089
 30
0.0
 10
121.9099375948
 20
112.6755382895
 30
0.0
 10
121.9029660371
 20
112.6783602463
 30
0.0
 10
121.8997606951
 20
112.6802563111
 30
0.0
  0
SPLINE
  5
41A
100
AcDbEntity
  8
0
100
AcDbSpline
 62
7
  6
CONTINUOUS
 70
0
 71
3
 72
13
 73
9
 74
0
 42
0.0000001
 43
0.0000001
 44
0.0000000001
 40
0.0
 40
0.0
 40
0.0
 40
0.0
 40
0.1132397095
 40
0.2088389688
 40
0.3306672874
 40
0.4757147481
 40
0.6395002875
 40
1.0
 40
1.0
 40
1.0
 40
1.0
 10
121.1269107187
 20
119.2003195543
 30
0.0
 10
121.1430429306
 20
119.2003168995
 30
0.0
 10
121.1660753542
 20
119.1716689516
 30
0.0
 10
121.1845539255
 20
119.1306709969
 30
0.0
 10
121.2005723499
 20
119.0806973849
 30
0.0
 10
121.2136224629
 20
119.0209399326
 30
0.0
 10
121.2275215655
 20
118.9264501761
 30
0.0
 10
121.2314336561
 20
118.851676608
 30
0.0
 10
121.2314336679
 20
118.8003195543
 30
0.0
  0
SPLINE
  5
41B
100
AcDbEntity
  8
0
100
AcDbSpline
 62
7
  6
CONTINUOUS
 70
0
 71
3
 72
9
 73
5
 74
0
 42
0.0000001
 43
0.0000001
 44
0.0000000001
 40
0.0
 40
0.0
 40
0.0
 40
0.0
 40
0.5002583609
 40
1.0
 40
1.0
 40
1.0
 40
1.0
 10
121.730848509
 20
115.3053448075
 30
0.0
 10
121.7593302494
 20
115.2781634778
 30
0.0
 10
121.8062693907
 20
115.2120929617
 30
0.0
 10
121.8229664938
 20
115.132542581
 30
0.0
 10
121.8229654315
 20
115.0932127731
 30
0.0
  0
SPLINE
  5
41C
100
AcDbEntity
  8
0
100
AcDbSpline
 62
7
  6
CONTINUOUS
 70
0
 71
3
 72
9
 73
5
 74
0
 42
0.0000001
 43
0.0000001
 44
0.0000000001
 40
0.0
 40
0.0
 40
0.0
 40
0.0
 40
0.5000954794
 40
1.0
 40
1.0
 40
1.0
 40
1.0
 10
121.0393377554
 20
116.2574263355
 30
0.0
 10
121.0393125805
 20
116.1656908298
 30
0.0
 10
121.0779207269
 20
115.9802872318
 30
0.0
 10
121.1867977652
 20
115.8259115626
 30
0.0
 10
121.2529930055
 20
115.7624515887
 30
0.0
  0
SPLINE
  5
41D
100
AcDbEntity
  8
0
100
AcDbSpline
 62
7
  6
CONTINUOUS
 70
0
 71
3
 72
9
 73
5
 74
0
 42
0.0000001
 43
0.0000001
 44
0.0000000001
 40
0.0
 40
0.0
 40
0.0
 40
0.0
 40
0.5003852163
 40
1.0
 40
1.0
 40
1.0
 40
1.0
 10
121.2314336679
 20
116.2574263355
 30
0.0
 10
121.2314239399
 20
116.191497893
 30
0.0
 10
121.2602430947
 20
116.0582499639
 30
0.0
 10
121.3403773334
 20
115.9487066786
 30
0.0
 10
121.3885761056
 20
115.9038729449
 30
0.0
  0
SPLINE
  5
41E
100
AcDbEntity
  8
0
100
AcDbSpline
 62
7
  6
CONTINUOUS
 70
0
 71
3
 72
9
 73
5
 74
0
 42
0.0000001
 43
0.0000001
 44
0.0000000001
 40
0.0
 40
0.0
 40
0.0
 40
0.0
 40
0.4948935214
 40
1.0
 40
1.0
 40
1.0
 40
1.0
 10
121.8065769498
 20
112.8534205781
 30
0.0
 10
121.8357553625
 20
112.8365744144
 30
0.0
 10
121.8859382248
 20
112.7847462474
 30
0.0
 10
121.9011700019
 20
112.7145790346
 30
0.0
 10
121.8998598048
 20
112.6802163773
 30
0.0
  0
LINE
  5
41F
100
AcDbEntity
  8
0
100
AcDbLine
 62
7
  6
CONTINUOUS
 10
121.8997606951
 20
112.6802563111
 11
121.6141144697
 21
112.84896211
  0
LINE
  5
420
100
AcDbEntity
  8
0
100
AcDbLine
 62
7
  6
CONTINUOUS
 10
121.6141144697
 20
112.84896211
 11
121.6059895141
 21
112.853760588
  0
SPLINE
  5
421
100
AcDbEntity
  8
0
100
AcDbSpline
 62
7
  6
CONTINUOUS
 70
0
 71
3
 72
11
 73
7
 74
0
 42
0.0000001
 43
0.0000001
 44
0.0000000001
 40
0.0
 40
0.0
 40
0.0
 40
0.0
 40
0.2466499534
 40
0.4952754838
 40
0.7466684311
 40
1.0
 40
1.0
 40
1.0
 40
1.0
 10
120.9326143229
 20
119.0003195543
 30
0.0
 10
120.9579131874
 20
119.0003195543
 30
0.0
 10
121.0092908086
 20
119.01083544
 30
0.0
 10
121.0738748955
 20
119.0555638868
 30
0.0
 10
121.1168985931
 20
119.1220216024
 30
0.0
 10
121.1269107182
 20
119.1743353572
 30
0.0
 10
121.1269107187
 20
119.2003195543
 30
0.0
  0
SPLINE
  5
422
100
AcDbEntity
  8
0
100
AcDbSpline
 62
7
  6
CONTINUOUS
 70
0
 71
3
 72
11
 73
7
 74
0
 42
0.0000001
 43
0.0000001
 44
0.0000000001
 40
0.0
 40
0.0
 40
0.0
 40
0.0
 40
0.3374892317
 40
0.4901560797
 40
0.6269671755
 40
1.0
 40
1.0
 40
1.0
 40
1.0
 10
121.0393377554
 20
118.8003195543
 30
0.0
 10
121.0393526309
 20
118.8274148162
 30
0.0
 10
121.0348616133
 20
118.8669146662
 30
0.0
 10
121.0193812519
 20
118.9152981149
 30
0.0
 10
120.9973695376
 20
118.9622966035
 30
0.0
 10
120.9625632003
 20
119.0003195543
 30
0.0
 10
120.932614323
 20
119.0003195543
 30
0.0
  0
SPLINE
  5
423
100
AcDbEntity
  8
0
100
AcDbSpline
 62
7
  6
CONTINUOUS
 70
0
 71
3
 72
15
 73
11
 74
0
 42
0.0000001
 43
0.0000001
 44
0.0000000001
 40
0.0
 40
0.0
 40
0.0
 40
0.0
 40
0.3359032572
 40
0.496989708
 40
0.644543701
 40
0.7669875184
 40
0.8539374776
 40
0.8883335498
 40
0.9218788833
 40
1.0
 40
1.0
 40
1.0
 40
1.0
 10
121.8229703012
 20
113.0748968331
 30
0.0
 10
121.8332490855
 20
113.0466389278
 30
0.0
 10
121.8454375684
 20
113.0036735056
 30
0.0
 10
121.8561084725
 20
112.9469476195
 30
0.0
 10
121.8590866942
 20
112.9083085992
 30
0.0
 10
121.8567696128
 20
112.8764272159
 30
0.0
 10
121.8476278263
 20
112.8552351801
 30
0.0
 10
121.8356886625
 20
112.8473216787
 30
0.0
 10
121.8223306171
 20
112.8457468084
 30
0.0
 10
121.8126319251
 20
112.8499256345
 30
0.0
 10
121.8065755952
 20
112.8534222134
 30
0.0
  0
LINE
  5
424
100
AcDbEntity
  8
0
100
AcDbLine
 62
7
  6
CONTINUOUS
 10
116.5559895145
 20
116.1157896082
 11
116.4559895145
 21
115.9425845274
  0
LINE
  5
425
100
AcDbEntity
  8
0
100
AcDbLine
 62
7
  6
CONTINUOUS
 10
116.5559895145
 20
116.1157896082
 11
116.3559895145
 21
116.1157896082
  0
LINE
  5
426
100
AcDbEntity
  8
0
100
AcDbLine
 62
7
  6
CONTINUOUS
 10
121.1059895145
 20
109.6003195543
 11
121.2246186646
 21
109.5162916089
  0
SPLINE
  5
427
100
AcDbEntity
  8
0
100
AcDbSpline
 62
7
  6
CONTINUOUS
 70
0
 71
3
 72
10
 73
6
 74
0
 42
0.0000001
 43
0.0000001
 44
0.0000000001
 40
0.0
 40
0.0
 40
0.0
 40
0.0
 40
0.5093603338
 40
0.7560986436
 40
1.0
 40
1.0
 40
1.0
 40
1.0
 10
106.5488098375
 20
89.1985606765
 30
0.0
 10
106.3370590163
 20
88.7427662564
 30
0.0
 10
106.0731612017
 20
88.0383316836
 30
0.0
 10
105.8873671157
 20
87.0673395311
 30
0.0
 10
105.8559895145
 20
86.582644123
 30
0.0
 10
105.8559895145
 20
86.3419893053
 30
0.0
  0
SPLINE
  5
428
100
AcDbEntity
  8
0
100
AcDbSpline
 62
7
  6
CONTINUOUS
 70
0
 71
3
 72
10
 73
6
 74
0
 42
0.0000001
 43
0.0000001
 44
0.0000000001
 40
0.0
 40
0.0
 40
0.0
 40
0.0
 40
0.2439013685
 40
0.490639689
 40
1.0
 40
1.0
 40
1.0
 40
1.0
 10
105.8559895145
 20
86.3419893053
 30
0.0
 10
105.8559895145
 20
86.1013344756
 30
0.0
 10
105.8873671199
 20
85.6166390449
 30
0.0
 10
106.0731612123
 20
84.6456468934
 30
0.0
 10
106.3370590258
 20
83.9412123335
 30
0.0
 10
106.5488098375
 20
83.4854179337
 30
0.0
  0
SPLINE
  5
429
100
AcDbEntity
  8
0
100
AcDbSpline
 62
7
  6
CONTINUOUS
 70
0
 71
3
 72
9
 73
5
 74
0
 42
0.0000001
 43
0.0000001
 44
0.0000000001
 40
0.0
 40
0.0
 40
0.0
 40
0.0
 40
0.2373325247
 40
1.0
 40
1.0
 40
1.0
 40
1.0
 10
143.4397299937
 20
128.5622087088
 30
0.0
 10
143.4324546066
 20
128.5258143549
 30
0.0
 10
143.4048769453
 20
128.3718757965
 30
0.0
 10
143.3823200958
 20
128.2169866661
 30
0.0
 10
143.3575526555
 20
128.1003195543
 30
0.0
  0
ELLIPSE
  5
42A
100
AcDbEntity
  8
0
100
AcDbEllipse
 62
7
  6
CONTINUOUS
 10
142.3251844332
 20
128.1375873356
 30
0.0
 11
0.5486916773
 21
1.2874646535
 31
0.0
 40
0.7145358838
 41
-1.5707963268
 42
-1.3028918007
  0
ELLIPSE
  5
42B
100
AcDbEntity
  8
0
100
AcDbEllipse
 62
7
  6
CONTINUOUS
 10
143.7801934619
 20
128.1003195543
 30
0.0
 11
-0.0
 21
1.0
 31
0.0
 40
0.383864035
 41
0.0
 42
1.0906723322
  0
ELLIPSE
  5
42C
100
AcDbEntity
  8
0
100
AcDbEllipse
 62
7
  6
CONTINUOUS
 10
143.3963294269
 20
129.1003195543
 30
0.0
 11
0.0
 21
3.0
 31
0.0
 40
0.383864035
 41
0.0
 42
1.5707963268
  0
ELLIPSE
  5
42D
100
AcDbEntity
  8
0
100
AcDbEllipse
 62
7
  6
CONTINUOUS
 10
124.8753762597
 20
129.1003195543
 30
0.0
 11
3.0
 21
0.0
 31
0.0
 40
1.0
 41
-0.0
 42
1.5707963268
  0
ELLIPSE
  5
42E
100
AcDbEntity
  8
0
100
AcDbEllipse
 62
7
  6
CONTINUOUS
 10
141.1735923281
 20
125.4354611839
 30
0.0
 11
-0.5486916773
 21
-1.2874646535
 31
0.0
 40
0.7145358838
 41
1.5707963268
 42
2.1085963504
  0
ELLIPSE
  5
42F
100
AcDbEntity
  8
0
100
AcDbEllipse
 62
7
  6
CONTINUOUS
 10
129.289589822
 20
127.3910941776
 30
0.0
 11
-1.2104221425
 21
1.2980188316
 31
0.0
 40
0.563438437
 41
0.5435120867
 42
1.5707963268
  0
ENDSEC
  0
SECTION
  2
OBJECTS
  0
DICTIONARY
  5
430
100
AcDbDictionary
  3
ACAD_GROUP
350
431
  3
ACAD_MLINESTYLE
350
432
  0
DICTIONARY
  5
431
102
{ACAD_REACTORS
330
430
102
}
100
AcDbDictionary
  0
DICTIONARY
  5
432
102
{ACAD_REACTORS
330
430
102
}
100
AcDbDictionary
  3
STANDARD
350
433
  0
MLINESTYLE
  5
433
102
{ACAD_REACTORS
330
432
102
}
100
AcDbMlineStyle
  2
STANDARD
 70
0
  3

 62
256
 51
90.0
 52
90.0
 71
2
 49
0.5
 62
256
  6
BYLAYER
 49
-0.5
 62
256
  6
BYLAYER
  0
ENDSEC
  0
EOF
