999
DXF file: C:\Users\64ciro\Desktop\FILE 3D-2D\ARMATEC\h36lll054_3082.dxf
999
Pro/ENGINEER 2017260 by Parametric Technology Corporation
  0
SECTION
  2
HEADER
  9
$ACADVER
  1
AC1014
  9
$DWGCODEPAGE
  3
ANSI_1252
  9
$EXTMAX
 10
297.0
 20
210.0
 30
0.0
  9
$EXTMIN
 10
0.0
 20
0.0
 30
0.0
  9
$LIMMIN
 10
0.0
 20
0.0
  9
$LIMMAX
 10
297.0
 20
210.0
  9
$VIEWCTR
 10
148.5
 20
105.0
  9
$VIEWSIZE
 40
210.0
  9
$CLAYER
  8
0
  9
$LTSCALE
 40
16.335
  9
$CELTYPE
  6
BYLAYER
  9
$DIMSCALE
 40
1.0
  9
$DIMASZ
 40
1.5
  9
$DIMEXO
 40
0.0625
  9
$DIMDLI
 40
11.286
  9
$DIMEXE
 40
0.125
  9
$DIMCEN
 40
2.673
  9
$DIMLFAC
 40
1.0
  9
$DIMBLK
  1
_CLOSED
  9
$DIMALT
 70
0
  9
$DIMALTF
 40
25.4
  9
$DIMTXT
 40
2.4
  9
$DIMTOL
 70
1
  9
$DIMLIM
 70
0
  9
$DIMTFAC
 40
1.0
  9
$DIMTP
 40
0.01
  9
$DIMTM
 40
0.01
  9
$DIMGAP
 40
0.625
  9
$AUNITS
 70
0
  9
$PDMODE
 70
3
  9
$PDSIZE
 40
0.3125
  9
$HANDSEED
  5
4BD
  9
$TILEMODE
 70
1
  9
$MEASUREMENT
 70
1
  0
ENDSEC
  0
SECTION
  2
CLASSES
  0
ENDSEC
  0
SECTION
  2
TABLES
  0
TABLE
  2
VPORT
  5
8
100
AcDbSymbolTable
 70
2
  0
VPORT
  5
1F4
100
AcDbSymbolTableRecord
100
AcDbViewportTableRecord
  2
*ACTIVE
 70
0
 10
0.0
 20
0.0
 11
1.0
 21
1.0
 12
148.5
 22
105.0
 13
0.0
 23
0.0
 14
1.0
 24
1.0
 15
0.0
 25
0.0
 16
0.0
 26
0.0
 36
1.0
 17
0.0
 27
0.0
 37
0.0
 40
210.0
 41
1.4142857143
 42
50.0
 43
0.0
 44
0.0
 50
0.0
 51
0.0
 71
0
 72
100
 73
1
 74
1
 75
0
 76
0
 77
0
 78
0
  0
ENDTAB
  0
TABLE
  2
LTYPE
  5
5
100
AcDbSymbolTable
 70
6
  0
LTYPE
  5
14
100
AcDbSymbolTableRecord
100
AcDbLinetypeTableRecord
  2
BYBLOCK
 70
0
  3

 72
65
 73
0
 40
0.0
  0
LTYPE
  5
15
100
AcDbSymbolTableRecord
100
AcDbLinetypeTableRecord
  2
BYLAYER
 70
0
  3

 72
65
 73
0
 40
0.0
  0
LTYPE
  5
16
100
AcDbSymbolTableRecord
100
AcDbLinetypeTableRecord
  2
CONTINUOUS
 70
64
  3
Solid line
 72
65
 73
0
 40
0.0
  0
LTYPE
  5
1F5
100
AcDbSymbolTableRecord
100
AcDbLinetypeTableRecord
  2
CENTER
 70
64
  3
____ _ ____ _ ____ _ ____ _ ____ _ ____ _ ____
 72
65
 73
4
 40
0.6
 49
0.375
 74
0
 49
-0.075
 74
0
 49
0.075
 74
0
 49
-0.075
 74
0
  0
LTYPE
  5
1F6
100
AcDbSymbolTableRecord
100
AcDbLinetypeTableRecord
  2
HIDDEN
 70
64
  3
- - - - - - - - - - - - - - - - - - - -
 72
65
 73
2
 40
0.2
 49
0.1
 74
0
 49
-0.1
 74
0
  0
LTYPE
  5
1F7
100
AcDbSymbolTableRecord
100
AcDbLinetypeTableRecord
  2
PHANTOM
 70
64
  3
_____ _ _ _____ _ _ _____ _ _ _____
 72
65
 73
6
 40
0.8
 49
0.45
 74
0
 49
-0.05
 74
0
 49
0.1
 74
0
 49
-0.05
 74
0
 49
0.1
 74
0
 49
-0.05
 74
0
  0
LTYPE
  5
1F8
100
AcDbSymbolTableRecord
100
AcDbLinetypeTableRecord
  2
DOT
 70
64
  3
. . . . . . . . . . . . . . . . . . . .
 72
65
 73
2
 40
0.2
 49
0.1
 74
0
 49
-0.1
 74
0
  0
LTYPE
  5
1F9
100
AcDbSymbolTableRecord
100
AcDbLinetypeTableRecord
  2
DASHED
 70
64
  3
- - - - - - - - - - - - - - - - - - - -
 72
65
 73
2
 40
0.2
 49
0.1
 74
0
 49
-0.1
 74
0
  0
ENDTAB
  0
TABLE
  2
LAYER
  5
2
100
AcDbSymbolTable
 70
36
  0
LAYER
  5
10
100
AcDbSymbolTableRecord
100
AcDbLayerTableRecord
  2
0
 70
0
 62
7
  6
CONTINUOUS
  0
LAYER
  5
1FA
100
AcDbSymbolTableRecord
100
AcDbLayerTableRecord
  2
DEFAULT_1
 70
0
 62
7
  6
CENTER
  0
LAYER
  5
1FB
100
AcDbSymbolTableRecord
100
AcDbLayerTableRecord
  2
DEFAULT_2
 70
0
 62
8
  6
HIDDEN
  0
LAYER
  5
1FC
100
AcDbSymbolTableRecord
100
AcDbLayerTableRecord
  2
DEFAULT_3
 70
0
 62
7
  6
PHANTOM
  0
LAYER
  5
1FD
100
AcDbSymbolTableRecord
100
AcDbLayerTableRecord
  2
ASSI
 70
0
 62
7
  6
CONTINUOUS
  0
LAYER
  5
1FE
100
AcDbSymbolTableRecord
100
AcDbLayerTableRecord
  2
COSMETICA
 70
0
 62
7
  6
CONTINUOUS
  0
LAYER
  5
1FF
100
AcDbSymbolTableRecord
100
AcDbLayerTableRecord
  2
CSYS
 70
0
 62
7
  6
CONTINUOUS
  0
LAYER
  5
200
100
AcDbSymbolTableRecord
100
AcDbLayerTableRecord
  2
CURVE
 70
0
 62
7
  6
CONTINUOUS
  0
LAYER
  5
201
100
AcDbSymbolTableRecord
100
AcDbLayerTableRecord
  2
DETTAGLI
 70
0
 62
7
  6
CONTINUOUS
  0
LAYER
  5
202
100
AcDbSymbolTableRecord
100
AcDbLayerTableRecord
  2
FILETTI
 70
0
 62
7
  6
CONTINUOUS
  0
LAYER
  5
203
100
AcDbSymbolTableRecord
100
AcDbLayerTableRecord
  2
GEOM
 70
0
 62
7
  6
CONTINUOUS
  0
LAYER
  5
204
100
AcDbSymbolTableRecord
100
AcDbLayerTableRecord
  2
GEOMETRIA_SOLIDA
 70
0
 62
7
  6
CONTINUOUS
  0
LAYER
  5
205
100
AcDbSymbolTableRecord
100
AcDbLayerTableRecord
  2
NOGEOM
 70
0
 62
7
  6
CONTINUOUS
  0
LAYER
  5
206
100
AcDbSymbolTableRecord
100
AcDbLayerTableRecord
  2
PIANI
 70
0
 62
7
  6
CONTINUOUS
  0
LAYER
  5
207
100
AcDbSymbolTableRecord
100
AcDbLayerTableRecord
  2
QUOTE
 70
0
 62
7
  6
CONTINUOUS
  0
LAYER
  5
208
100
AcDbSymbolTableRecord
100
AcDbLayerTableRecord
  2
RACCORDI
 70
0
 62
7
  6
CONTINUOUS
  0
LAYER
  5
209
100
AcDbSymbolTableRecord
100
AcDbLayerTableRecord
  2
RIF
 70
0
 62
7
  6
CONTINUOUS
  0
LAYER
  5
20A
100
AcDbSymbolTableRecord
100
AcDbLayerTableRecord
  2
SMUSSI
 70
0
 62
7
  6
CONTINUOUS
  0
LAYER
  5
20B
100
AcDbSymbolTableRecord
100
AcDbLayerTableRecord
  2
TABELLE
 70
0
 62
7
  6
CONTINUOUS
  0
ENDTAB
  0
TABLE
  2
STYLE
  5
3
100
AcDbSymbolTable
 70
1
  0
STYLE
  5
11
100
AcDbSymbolTableRecord
100
AcDbTextStyleTableRecord
  2
STANDARD
 70
0
 40
0.0
 41
0.8
 50
0.0
 71
0
 42
0.2
  3
txt
  4

  0
STYLE
  5
20C
100
AcDbSymbolTableRecord
100
AcDbTextStyleTableRecord
  2
TEXTSTYLE_1
 70
0
 40
0.0
 41
0.8
 50
0.0
 71
0
 42
0.2
  3
gdt
  4

  0
ENDTAB
  0
TABLE
  2
VIEW
  5
6
100
AcDbSymbolTable
 70
0
  0
ENDTAB
  0
TABLE
  2
UCS
  5
7
100
AcDbSymbolTable
 70
0
  0
ENDTAB
  0
TABLE
  2
APPID
  5
9
100
AcDbSymbolTable
 70
1
  0
APPID
  5
20D
100
AcDbSymbolTableRecord
100
AcDbRegAppTableRecord
  2
ACAD
 70
0
  0
ENDTAB
  0
TABLE
  2
BLOCK_RECORD
  5
1
100
AcDbSymbolTable
 70
0
  0
BLOCK_RECORD
  5
1F
100
AcDbSymbolTableRecord
100
AcDbBlockTableRecord
  2
*MODEL_SPACE
  0
BLOCK_RECORD
  5
1B
100
AcDbSymbolTableRecord
100
AcDbBlockTableRecord
  2
*PAPER_SPACE
  0
ENDTAB
  0
TABLE
  2
DIMSTYLE
  5
A
100
AcDbSymbolTable
 70
1
  0
DIMSTYLE
105
20E
100
AcDbSymbolTableRecord
100
AcDbDimStyleTableRecord
  2
STANDARD
 70
0
  3

  4

  5
_CLOSED
  6
_CLOSED
  7
_CLOSED
 40
1.0
 41
1.5
 42
0.0625
 43
0.38
 44
0.125
 45
0.0
 46
0.0
 47
0.01
 48
0.01
140
2.4
141
0.09
142
0.0
143
25.4
144
1.0
145
0.0
146
1.0
147
0.625
 71
1.0
 72
0.0
 73
0
 74
0
 75
0
 76
0
 77
1
 78
8
 79
2
170
0
171
1
172
0
173
0
174
0
175
0
176
0
177
0
178
0
270
2
179
2
271
2
272
2
273
2
274
2
275
0
280
0
281
0
282
0
283
1
284
8
285
0
286
0
287
3
288
0
340
11
  0
ENDTAB
  0
ENDSEC
  0
SECTION
  2
BLOCKS
  0
BLOCK
  5
20
100
AcDbEntity
  8
0
100
AcDbBlockBegin
  2
*MODEL_SPACE
 70
0
 10
0.0
 20
0.0
 30
0.0
  3
*MODEL_SPACE
  1

  0
ENDBLK
  5
21
100
AcDbEntity
  8
0
100
AcDbBlockEnd
  0
BLOCK
  5
1C
100
AcDbEntity
  8
0
100
AcDbBlockBegin
  2
*PAPER_SPACE
 70
0
 10
0.0
 20
0.0
 30
0.0
  3
*PAPER_SPACE
  1

  0
ENDBLK
  5
1D
100
AcDbEntity
  8
0
100
AcDbBlockEnd
  0
ENDSEC
  0
SECTION
  2
ENTITIES
  0
LINE
  5
20F
100
AcDbEntity
  8
0
100
AcDbLine
 62
7
  6
CONTINUOUS
 10
0.0
 20
0.0
 11
0.0
 21
210.0
  0
LINE
  5
210
100
AcDbEntity
  8
0
100
AcDbLine
 62
7
  6
CONTINUOUS
 10
0.0
 20
0.0
 11
297.0
 21
0.0
  0
LINE
  5
211
100
AcDbEntity
  8
0
100
AcDbLine
 62
7
  6
CONTINUOUS
 10
0.0
 20
210.0
 11
297.0
 21
210.0
  0
LINE
  5
212
100
AcDbEntity
  8
0
100
AcDbLine
 62
7
  6
CONTINUOUS
 10
297.0
 20
0.0
 11
297.0
 21
210.0
  0
LINE
  5
213
100
AcDbEntity
  8
0
100
AcDbLine
 62
7
  6
CONTINUOUS
 10
40.8371598258
 20
105.7485188095
 11
40.8371598258
 21
35.1485188095
  0
LINE
  5
214
100
AcDbEntity
  8
0
100
AcDbLine
 62
7
  6
CONTINUOUS
 10
66.2980798382
 20
37.630703348
 11
66.3029576513
 21
37.6260188095
  0
LINE
  5
215
100
AcDbEntity
  8
0
100
AcDbLine
 62
7
  6
CONTINUOUS
 10
68.1120798382
 20
37.630703348
 11
68.1169576513
 21
37.6260188095
  0
LINE
  5
216
100
AcDbEntity
  8
0
100
AcDbLine
 62
7
  6
CONTINUOUS
 10
41.5371598258
 20
34.4485188095
 11
41.5371598258
 21
106.4485188095
  0
LINE
  5
217
100
AcDbEntity
  8
GEOM
100
AcDbLine
 62
7
  6
CONTINUOUS
 10
43.5484846912
 20
106.4485188095
 11
43.5484846912
 21
34.4485188095
  0
LINE
  5
218
100
AcDbEntity
  8
GEOM
100
AcDbLine
 62
7
  6
CONTINUOUS
 10
43.9814973931
 20
106.4485188095
 11
43.9814973931
 21
98.9095667522
  0
LINE
  5
219
100
AcDbEntity
  8
GEOM
100
AcDbLine
 62
7
  6
CONTINUOUS
 10
43.9814973931
 20
92.8991591121
 11
43.9814973931
 21
74.6985188095
  0
LINE
  5
21A
100
AcDbEntity
  8
GEOM
100
AcDbLine
 62
7
  6
CONTINUOUS
 10
43.9814973931
 20
66.1985188095
 11
43.9814973931
 21
47.9978785068
  0
LINE
  5
21B
100
AcDbEntity
  8
GEOM
100
AcDbLine
 62
7
  6
CONTINUOUS
 10
43.9814973931
 20
41.9874708667
 11
43.9814973931
 21
34.4485188095
  0
LINE
  5
21C
100
AcDbEntity
  8
0
100
AcDbLine
 62
7
  6
CONTINUOUS
 10
44.9918603642
 20
106.4485188095
 11
44.9918603642
 21
104.5066881992
  0
LINE
  5
21D
100
AcDbEntity
  8
0
100
AcDbLine
 62
7
  6
CONTINUOUS
 10
44.9918603642
 20
87.3020376651
 11
44.9918603642
 21
82.6140438701
  0
LINE
  5
21E
100
AcDbEntity
  8
0
100
AcDbLine
 62
7
  6
CONTINUOUS
 10
44.9918603642
 20
58.2829937489
 11
44.9918603642
 21
53.5949999538
  0
LINE
  5
21F
100
AcDbEntity
  8
0
100
AcDbLine
 62
7
  6
CONTINUOUS
 10
44.9918603642
 20
36.3903494197
 11
44.9918603642
 21
34.4485188095
  0
LINE
  5
220
100
AcDbEntity
  8
0
100
AcDbLine
 62
7
  6
CONTINUOUS
 10
69.9260798382
 20
37.630703348
 11
69.9309576513
 21
37.6260188095
  0
LINE
  5
221
100
AcDbEntity
  8
0
100
AcDbLine
 62
7
  6
CONTINUOUS
 10
65.6930019365
 20
38.7928752017
 11
66.2980798382
 21
37.630703348
  0
LINE
  5
222
100
AcDbEntity
  8
0
100
AcDbLine
 62
7
  6
CONTINUOUS
 10
67.5070019365
 20
38.7928752017
 11
68.1120798382
 21
37.630703348
  0
LINE
  5
223
100
AcDbEntity
  8
0
100
AcDbLine
 62
7
  6
CONTINUOUS
 10
69.3210019365
 20
38.7928752017
 11
69.9260798382
 21
37.630703348
  0
LWPOLYLINE
  5
224
100
AcDbEntity
  8
0
100
AcDbPolyline
 62
7
  6
CONTINUOUS
 90
5
 70
0
 10
91.9673025458
 20
36.1476526552
 10
92.3191247365
 20
35.9824817009
 10
92.6532711505
 20
35.7839354069
 10
92.9665841718
 20
35.5538837813
 10
93.2737465139
 20
35.2769599367
  0
LINE
  5
225
100
AcDbEntity
  8
0
100
AcDbLine
 62
7
  6
CONTINUOUS
 10
93.2737327011
 20
35.2769459342
 11
100.5163733882
 21
28.0343052471
  0
LINE
  5
226
100
AcDbEntity
  8
0
100
AcDbLine
 62
7
  6
CONTINUOUS
 10
63.6824592874
 20
106.4485188095
 11
63.6824592874
 21
104.5066881992
  0
LINE
  5
227
100
AcDbEntity
  8
0
100
AcDbLine
 62
7
  6
CONTINUOUS
 10
63.6824592874
 20
87.3020376651
 11
63.6824592874
 21
82.6140438701
  0
LINE
  5
228
100
AcDbEntity
  8
0
100
AcDbLine
 62
7
  6
CONTINUOUS
 10
63.6824592874
 20
58.2829937489
 11
63.6824592874
 21
53.5949999538
  0
LINE
  5
229
100
AcDbEntity
  8
0
100
AcDbLine
 62
7
  6
CONTINUOUS
 10
63.6824592874
 20
36.3903494197
 11
63.6824592874
 21
34.4485188095
  0
LINE
  5
22A
100
AcDbEntity
  8
0
100
AcDbLine
 62
7
  6
CONTINUOUS
 10
64.8371598258
 20
34.4485188095
 11
64.8371598258
 21
106.4485188095
  0
LINE
  5
22B
100
AcDbEntity
  8
0
100
AcDbLine
 62
7
  6
CONTINUOUS
 10
149.5134846912
 20
25.9485188095
 11
155.5002825721
 21
25.9485188095
  0
LINE
  5
22C
100
AcDbEntity
  8
0
100
AcDbLine
 62
7
  6
CONTINUOUS
 10
141.3421093195
 20
26.6985188095
 11
148.6763268009
 21
26.6985188095
  0
LINE
  5
22D
100
AcDbEntity
  8
0
100
AcDbLine
 62
7
  6
CONTINUOUS
 10
101.9305869506
 20
27.4485188095
 11
140.0122103321
 21
27.4485188095
  0
LINE
  5
22E
100
AcDbEntity
  8
0
100
AcDbLine
 62
7
  6
CONTINUOUS
 10
71.1021598258
 20
36.4485188095
 11
71.1021598258
 21
104.4485188095
  0
LINE
  5
22F
100
AcDbEntity
  8
0
100
AcDbLine
 62
7
  6
CONTINUOUS
 10
71.9742098069
 20
37.6200916847
 11
71.9742169923
 21
36.4485188095
  0
LINE
  5
230
100
AcDbEntity
  8
0
100
AcDbLine
 62
7
  6
CONTINUOUS
 10
71.9742305781
 20
55.1936848135
 11
71.9742220644
 21
58.0221119383
  0
LINE
  5
231
100
AcDbEntity
  8
0
100
AcDbLine
 62
7
  6
CONTINUOUS
 10
71.9742225623
 20
82.8749256807
 11
71.9742288282
 21
85.7033528049
  0
LINE
  5
232
100
AcDbEntity
  8
0
100
AcDbLine
 62
7
  6
CONTINUOUS
 10
71.9742102931
 20
103.2769459342
 11
71.9742391013
 21
104.4485188095
  0
LINE
  5
233
100
AcDbEntity
  8
0
100
AcDbLine
 62
7
  6
CONTINUOUS
 10
65.3910798382
 20
103.266334271
 11
64.8371598258
 21
102.2024208176
  0
LINE
  5
234
100
AcDbEntity
  8
0
100
AcDbLine
 62
7
  6
CONTINUOUS
 10
101.1021598258
 20
172.0724194883
 11
101.375789646
 21
172.3985188095
  0
LINE
  5
235
100
AcDbEntity
  8
0
100
AcDbLine
 62
7
  6
CONTINUOUS
 10
115.1021598258
 20
178.7532193479
 11
113.4021598258
 21
177.7717238902
  0
LINE
  5
236
100
AcDbEntity
  8
0
100
AcDbLine
 62
7
  6
CONTINUOUS
 10
110.1021598258
 20
171.3211685403
 11
111.1021598258
 21
171.8985188095
  0
LINE
  5
237
100
AcDbEntity
  8
0
100
AcDbLine
 62
7
  6
CONTINUOUS
 10
198.6671598258
 20
34.4485188095
 11
196.6558349604
 21
34.4485188095
  0
LINE
  5
238
100
AcDbEntity
  8
GEOM
100
AcDbLine
 62
7
  6
CONTINUOUS
 10
196.6558349604
 20
34.4485188095
 11
195.2124592874
 21
34.4485188095
  0
LINE
  5
239
100
AcDbEntity
  8
0
100
AcDbLine
 62
7
  6
CONTINUOUS
 10
195.2124592874
 20
34.4485188095
 11
175.3671598258
 21
34.4485188095
  0
LINE
  5
23A
100
AcDbEntity
  8
GEOM
100
AcDbLine
 62
7
  6
CONTINUOUS
 10
44.9918603642
 20
34.4485188095
 11
43.5484846912
 21
34.4485188095
  0
LINE
  5
23B
100
AcDbEntity
  8
0
100
AcDbLine
 62
7
  6
CONTINUOUS
 10
41.5371598258
 20
34.4485188095
 11
43.5484846912
 21
34.4485188095
  0
LINE
  5
23C
100
AcDbEntity
  8
0
100
AcDbLine
 62
7
  6
CONTINUOUS
 10
44.9918603642
 20
34.4485188095
 11
64.8371598258
 21
34.4485188095
  0
LINE
  5
23D
100
AcDbEntity
  8
0
100
AcDbLine
 62
7
  6
CONTINUOUS
 10
195.2124592874
 20
36.3903494197
 11
176.5218603642
 21
36.3903494197
  0
LINE
  5
23E
100
AcDbEntity
  8
0
100
AcDbLine
 62
7
  6
CONTINUOUS
 10
44.9918603642
 20
36.3903494197
 11
63.6824592874
 21
36.3903494197
  0
LINE
  5
23F
100
AcDbEntity
  8
0
100
AcDbLine
 62
7
  6
CONTINUOUS
 10
71.1021598258
 20
36.4485188095
 11
92.4255100494
 21
36.4485188095
  0
LINE
  5
240
100
AcDbEntity
  8
0
100
AcDbLine
 62
7
  6
CONTINUOUS
 10
158.5392210032
 20
36.4485188095
 11
168.7978578814
 21
36.4485188095
  0
LWPOLYLINE
  5
241
100
AcDbEntity
  8
0
100
AcDbPolyline
 62
7
  6
CONTINUOUS
 90
5
 70
0
 10
90.451549793
 20
36.4485075753
 10
90.8396564653
 20
36.4290296624
 10
91.2240588223
 20
36.3719806137
 10
91.6011278019
 20
36.2778938513
 10
91.9673025458
 20
36.1476526552
  0
LINE
  5
242
100
AcDbEntity
  8
0
100
AcDbLine
 62
7
  6
CONTINUOUS
 10
66.4101155406
 20
102.1041624172
 11
65.8050376389
 21
103.2663342709
  0
LINE
  5
243
100
AcDbEntity
  8
0
100
AcDbLine
 62
7
  6
CONTINUOUS
 10
68.2241155406
 20
102.1041624172
 11
67.6190376389
 21
103.2663342709
  0
LINE
  5
244
100
AcDbEntity
  8
0
100
AcDbLine
 62
7
  6
CONTINUOUS
 10
70.0381155406
 20
102.1041624172
 11
69.4330376389
 21
103.2663342709
  0
LINE
  5
245
100
AcDbEntity
  8
0
100
AcDbLine
 62
7
  6
CONTINUOUS
 10
67.2050798382
 20
103.266334271
 11
66.6000019365
 21
102.1041624172
  0
LINE
  5
246
100
AcDbEntity
  8
0
100
AcDbLine
 62
7
  6
CONTINUOUS
 10
69.0190798382
 20
103.266334271
 11
68.4140019365
 21
102.1041624172
  0
LINE
  5
247
100
AcDbEntity
  8
0
100
AcDbLine
 62
7
  6
CONTINUOUS
 10
70.8330798382
 20
103.266334271
 11
70.2280019365
 21
102.1041624172
  0
LINE
  5
248
100
AcDbEntity
  8
0
100
AcDbLine
 62
7
  6
CONTINUOUS
 10
113.6021598258
 20
172.3985188095
 11
113.2021598258
 21
171.9985188095
  0
LINE
  5
249
100
AcDbEntity
  8
0
100
AcDbLine
 62
7
  6
CONTINUOUS
 10
110.1021598258
 20
168.3985188095
 11
109.1895985981
 21
167.4859575818
  0
LINE
  5
24A
100
AcDbEntity
  8
0
100
AcDbLine
 62
7
  6
CONTINUOUS
 10
106.5021598258
 20
164.4485188095
 11
107.5021598258
 21
165.4485188095
  0
LINE
  5
24B
100
AcDbEntity
  8
0
100
AcDbLine
 62
7
  6
CONTINUOUS
 10
102.9247670866
 20
156.8330183299
 11
102.571213696
 21
156.4794649393
  0
LINE
  5
24C
100
AcDbEntity
  8
0
100
AcDbLine
 62
7
  6
CONTINUOUS
 10
109.9103435599
 20
166.9235432113
 11
109.1097470196
 21
166.5064687025
  0
LINE
  5
24D
100
AcDbEntity
  8
0
100
AcDbLine
 62
7
  6
CONTINUOUS
 10
109.91034285
 20
165.5865368776
 11
109.6454198226
 21
165.4485188095
  0
LINE
  5
24E
100
AcDbEntity
  8
0
100
AcDbLine
 62
7
  6
CONTINUOUS
 10
175.3671598258
 20
37.5935188095
 11
175.1896246113
 21
37.5935188095
  0
LINE
  5
24F
100
AcDbEntity
  8
0
100
AcDbLine
 62
7
  6
CONTINUOUS
 10
173.8136950403
 20
37.5935188095
 11
173.3756246114
 21
37.5935188095
  0
LINE
  5
250
100
AcDbEntity
  8
0
100
AcDbLine
 62
7
  6
CONTINUOUS
 10
171.9996950403
 20
37.5935188095
 11
171.5616246114
 21
37.5935188095
  0
LINE
  5
251
100
AcDbEntity
  8
0
100
AcDbLine
 62
7
  6
CONTINUOUS
 10
170.1856950403
 20
37.5935188095
 11
168.9321598258
 21
37.5935188095
  0
LINE
  5
252
100
AcDbEntity
  8
0
100
AcDbLine
 62
7
  6
CONTINUOUS
 10
71.9742177691
 20
37.6200916847
 11
92.4254990125
 21
37.6200969936
  0
LINE
  5
253
100
AcDbEntity
  8
0
100
AcDbLine
 62
7
  6
CONTINUOUS
 10
71.1021598258
 20
37.6260188095
 11
69.9309576513
 21
37.6260188095
  0
LINE
  5
254
100
AcDbEntity
  8
0
100
AcDbLine
 62
7
  6
CONTINUOUS
 10
68.5211598258
 20
37.6260188095
 11
68.1169576513
 21
37.6260188095
  0
LINE
  5
255
100
AcDbEntity
  8
0
100
AcDbLine
 62
7
  6
CONTINUOUS
 10
66.7071598258
 20
37.6260188095
 11
66.3029576513
 21
37.6260188095
  0
LINE
  5
256
100
AcDbEntity
  8
0
100
AcDbLine
 62
7
  6
CONTINUOUS
 10
64.8931598258
 20
37.6260188095
 11
64.8371598258
 21
37.6260188095
  0
LINE
  5
257
100
AcDbEntity
  8
0
100
AcDbLine
 62
7
  6
CONTINUOUS
 10
158.5392210032
 20
38.0402879838
 11
168.2622868447
 21
38.0402879838
  0
LINE
  5
258
100
AcDbEntity
  8
0
100
AcDbLine
 62
7
  6
CONTINUOUS
 10
65.4980587386
 20
38.7880188095
 11
65.6980587386
 21
38.7880188095
  0
LINE
  5
259
100
AcDbEntity
  8
0
100
AcDbLine
 62
7
  6
CONTINUOUS
 10
67.3120587386
 20
38.7880188095
 11
67.5120587386
 21
38.7880188095
  0
LINE
  5
25A
100
AcDbEntity
  8
0
100
AcDbLine
 62
7
  6
CONTINUOUS
 10
69.1260587386
 20
38.7880188095
 11
69.3260587386
 21
38.7880188095
  0
LINE
  5
25B
100
AcDbEntity
  8
0
100
AcDbLine
 62
7
  6
CONTINUOUS
 10
65.8050376389
 20
103.2663342709
 11
65.8001598258
 21
103.2710188095
  0
LINE
  5
25C
100
AcDbEntity
  8
0
100
AcDbLine
 62
7
  6
CONTINUOUS
 10
140.507185079
 20
27.2434935563
 11
140.8471345726
 21
26.9035440626
  0
LINE
  5
25D
100
AcDbEntity
  8
0
100
AcDbLine
 62
7
  6
CONTINUOUS
 10
92.4254989583
 20
37.6200969936
 11
92.4255025374
 21
36.4485188096
  0
LINE
  5
25E
100
AcDbEntity
  8
0
100
AcDbLine
 62
7
  6
CONTINUOUS
 10
92.4255000873
 20
82.8749182612
 11
92.4254974873
 21
85.7033576444
  0
LINE
  5
25F
100
AcDbEntity
  8
0
100
AcDbLine
 62
7
  6
CONTINUOUS
 10
92.425499022
 20
103.2769406184
 11
92.4255032214
 21
104.4485188095
  0
LINE
  5
260
100
AcDbEntity
  8
0
100
AcDbLine
 62
7
  6
CONTINUOUS
 10
92.425497644
 20
55.1936799651
 11
92.4255001084
 21
58.0221193651
  0
LINE
  5
261
100
AcDbEntity
  8
0
100
AcDbLine
 62
7
  6
CONTINUOUS
 10
124.2166565919
 20
176.5985188095
 11
124.1090102202
 21
176.3985188095
  0
LINE
  5
262
100
AcDbEntity
  8
0
100
AcDbLine
 62
7
  6
CONTINUOUS
 10
125.7652787864
 20
176.5985188095
 11
125.6487721641
 21
176.3985188095
  0
LINE
  5
263
100
AcDbEntity
  8
0
100
AcDbLine
 62
7
  6
CONTINUOUS
 10
154.5519072941
 20
191.9340527154
 11
139.309266607
 21
176.6914120283
  0
LINE
  5
264
100
AcDbEntity
  8
0
100
AcDbLine
 62
7
  6
CONTINUOUS
 10
195.2124592874
 20
53.5949999538
 11
176.5218603642
 21
53.5949999538
  0
LINE
  5
265
100
AcDbEntity
  8
0
100
AcDbLine
 62
7
  6
CONTINUOUS
 10
44.9918603642
 20
53.5949999538
 11
63.6824592874
 21
53.5949999538
  0
LINE
  5
266
100
AcDbEntity
  8
0
100
AcDbLine
 62
7
  6
CONTINUOUS
 10
158.5392210032
 20
54.7734885145
 11
168.2622868447
 21
54.7734885145
  0
LINE
  5
267
100
AcDbEntity
  8
0
100
AcDbLine
 62
7
  6
CONTINUOUS
 10
92.4254954433
 20
55.1936799651
 11
71.9742731184
 21
55.1936848135
  0
LINE
  5
268
100
AcDbEntity
  8
0
100
AcDbLine
 62
7
  6
CONTINUOUS
 10
67.6190376389
 20
103.2663342709
 11
67.6141598258
 21
103.2710188095
  0
LINE
  5
269
100
AcDbEntity
  8
0
100
AcDbLine
 62
7
  6
CONTINUOUS
 10
69.4330376389
 20
103.2663342709
 11
69.4281598258
 21
103.2710188095
  0
LINE
  5
26A
100
AcDbEntity
  8
0
100
AcDbLine
 62
7
  6
CONTINUOUS
 10
100.5163733882
 20
28.0343052471
 11
100.5163733882
 21
112.8627323718
  0
LINE
  5
26B
100
AcDbEntity
  8
0
100
AcDbLine
 62
7
  6
CONTINUOUS
 10
101.1021598258
 20
155.3985188095
 11
101.1021598258
 21
172.3985188095
  0
LINE
  5
26C
100
AcDbEntity
  8
0
100
AcDbLine
 62
7
  6
CONTINUOUS
 10
101.9305869506
 20
27.4485188095
 11
101.9305869506
 21
113.4485188095
  0
LINE
  5
26D
100
AcDbEntity
  8
0
100
AcDbLine
 62
7
  6
CONTINUOUS
 10
102.1021598258
 20
159.6259115487
 11
102.1021598258
 21
157.2892538934
  0
LINE
  5
26E
100
AcDbEntity
  8
0
100
AcDbLine
 62
7
  6
CONTINUOUS
 10
102.9247670866
 20
159.6259115487
 11
102.9247670866
 21
156.8330183299
  0
LINE
  5
26F
100
AcDbEntity
  8
0
100
AcDbLine
 62
7
  6
CONTINUOUS
 10
103.4183211238
 20
160.4485188095
 11
103.4183280033
 21
160.1194759052
  0
LINE
  5
270
100
AcDbEntity
  8
0
100
AcDbLine
 62
7
  6
CONTINUOUS
 10
105.1021598258
 20
160.4485188095
 11
105.1021598258
 21
171.8985188095
  0
LINE
  5
271
100
AcDbEntity
  8
0
100
AcDbLine
 62
7
  6
CONTINUOUS
 10
120.1021598258
 20
176.5985188095
 11
120.0419467309
 21
176.3985188095
  0
LINE
  5
272
100
AcDbEntity
  8
0
100
AcDbLine
 62
7
  6
CONTINUOUS
 10
122.2652787864
 20
176.5985188095
 11
122.1770298424
 21
176.3985188095
  0
LINE
  5
273
100
AcDbEntity
  8
0
100
AcDbLine
 62
7
  6
CONTINUOUS
 10
127.1021598258
 20
176.5985188095
 11
127.001897095
 21
176.3985188095
  0
LINE
  5
274
100
AcDbEntity
  8
0
100
AcDbLine
 62
7
  6
CONTINUOUS
 10
126.7595554399
 20
176.5985188095
 11
126.6455930467
 21
176.3985188095
  0
LINE
  5
275
100
AcDbEntity
  8
0
100
AcDbLine
 62
7
  6
CONTINUOUS
 10
142.1376937317
 20
173.8629849035
 11
157.0874412
 21
188.8127323718
  0
LINE
  5
276
100
AcDbEntity
  8
0
100
AcDbLine
 62
7
  6
CONTINUOUS
 10
133.7021598258
 20
160.5485188095
 11
133.6503470435
 21
160.4967060272
  0
LINE
  5
277
100
AcDbEntity
  8
0
100
AcDbLine
 62
7
  6
CONTINUOUS
 10
92.4255013906
 20
58.0221193651
 11
71.9742316569
 21
58.0221119383
  0
LINE
  5
278
100
AcDbEntity
  8
0
100
AcDbLine
 62
7
  6
CONTINUOUS
 10
195.2124592874
 20
58.2829937489
 11
176.5218603642
 21
58.2829937489
  0
LINE
  5
279
100
AcDbEntity
  8
0
100
AcDbLine
 62
7
  6
CONTINUOUS
 10
44.9918603642
 20
58.2829937489
 11
63.6824592874
 21
58.2829937489
  0
LINE
  5
27A
100
AcDbEntity
  8
0
100
AcDbLine
 62
7
  6
CONTINUOUS
 10
158.5392210032
 20
58.6163592433
 11
168.2622868447
 21
58.6163592433
  0
LINE
  5
27B
100
AcDbEntity
  8
0
100
AcDbLine
 62
7
  6
CONTINUOUS
 10
107.624111608
 20
62.7135188095
 11
133.624111608
 21
62.7135188095
  0
LINE
  5
27C
100
AcDbEntity
  8
0
100
AcDbLine
 62
7
  6
CONTINUOUS
 10
108.924111608
 20
64.0135188095
 11
132.324111608
 21
64.0135188095
  0
LINE
  5
27D
100
AcDbEntity
  8
0
100
AcDbLine
 62
7
  6
CONTINUOUS
 10
110.744111608
 20
72.5935188095
 11
113.4900140189
 21
67.2043818908
  0
LINE
  5
27E
100
AcDbEntity
  8
0
100
AcDbLine
 62
7
  6
CONTINUOUS
 10
112.2031357169
 20
72.5935188095
 11
114.2195260733
 21
68.6361299127
  0
LINE
  5
27F
100
AcDbEntity
  8
0
100
AcDbLine
 62
7
  6
CONTINUOUS
 10
106.5021598258
 20
160.4485188095
 11
106.5021598258
 21
164.4485188095
  0
LINE
  5
280
100
AcDbEntity
  8
0
100
AcDbLine
 62
7
  6
CONTINUOUS
 10
106.5715678654
 20
160.4485188095
 11
106.5715678653
 21
160.1194759052
  0
LINE
  5
281
100
AcDbEntity
  8
0
100
AcDbLine
 62
7
  6
CONTINUOUS
 10
106.9112538675
 20
152.8465315489
 11
106.9112538675
 21
160.2294661395
  0
LINE
  5
282
100
AcDbEntity
  8
0
100
AcDbLine
 62
7
  6
CONTINUOUS
 10
107.1021598258
 20
151.6585693158
 11
107.1021598258
 21
115.4485188095
  0
LINE
  5
283
100
AcDbEntity
  8
0
100
AcDbLine
 62
7
  6
CONTINUOUS
 10
107.1038218377
 20
152.8465315489
 11
107.1038218377
 21
160.3803717927
  0
LINE
  5
284
100
AcDbEntity
  8
0
100
AcDbLine
 62
7
  6
CONTINUOUS
 10
107.624111608
 20
78.3135188095
 11
107.624111608
 21
62.7135188095
  0
LINE
  5
285
100
AcDbEntity
  8
0
100
AcDbLine
 62
7
  6
CONTINUOUS
 10
108.924111608
 20
77.0135188095
 11
108.924111608
 21
64.0135188095
  0
LINE
  5
286
100
AcDbEntity
  8
0
100
AcDbLine
 62
7
  6
CONTINUOUS
 10
109.1021598258
 20
166.4985648697
 11
109.1021598258
 21
166.1944686188
  0
LINE
  5
287
100
AcDbEntity
  8
0
100
AcDbLine
 62
7
  6
CONTINUOUS
 10
109.9021626649
 20
167.1150201021
 11
109.9021626649
 21
166.9192811039
  0
LINE
  5
288
100
AcDbEntity
  8
0
100
AcDbLine
 62
7
  6
CONTINUOUS
 10
109.902161962
 20
165.7780137764
 11
109.902161962
 21
165.5822747742
  0
LINE
  5
289
100
AcDbEntity
  8
0
100
AcDbLine
 62
7
  6
CONTINUOUS
 10
110.1021598258
 20
168.3985188095
 11
110.1021598258
 21
171.3211685403
  0
LINE
  5
28A
100
AcDbEntity
  8
0
100
AcDbLine
 62
7
  6
CONTINUOUS
 10
110.12848172
 20
168.3985188095
 11
110.12848172
 21
171.3211685403
  0
LINE
  5
28B
100
AcDbEntity
  8
0
100
AcDbLine
 62
7
  6
CONTINUOUS
 10
113.1021598258
 20
177.252108648
 11
113.1021598258
 21
176.5985188095
  0
LINE
  5
28C
100
AcDbEntity
  8
0
100
AcDbLine
 62
7
  6
CONTINUOUS
 10
113.2021598258
 20
171.9985188095
 11
113.2021598258
 21
171.8985188095
  0
LINE
  5
28D
100
AcDbEntity
  8
0
100
AcDbLine
 62
7
  6
CONTINUOUS
 10
114.4873806635
 20
168.3985188095
 11
114.4873806635
 21
171.3211685403
  0
LINE
  5
28E
100
AcDbEntity
  8
0
100
AcDbLine
 62
7
  6
CONTINUOUS
 10
115.1021598258
 20
178.3066373605
 11
115.1021598258
 21
182.0985188095
  0
LINE
  5
28F
100
AcDbEntity
  8
0
100
AcDbLine
 62
7
  6
CONTINUOUS
 10
115.4847933342
 20
172.3985188095
 11
115.4847933342
 21
172.0724194883
  0
LWPOLYLINE
  5
290
100
AcDbEntity
  8
0
100
AcDbPolyline
 62
7
  6
CONTINUOUS
 90
17
 70
0
 10
107.1022037682
 20
115.4485199097
 10
107.1009927642
 20
115.3789026466
 10
107.0817310535
 20
115.1630596944
 10
107.0392292787
 20
114.950565471
 10
106.9739858893
 20
114.7439153726
 10
106.8867670915
 20
114.5455372191
 10
106.7785968604
 20
114.3577600682
 10
106.6507451389
 20
114.1827884965
 10
106.5047141132
 20
114.0226779019
 10
106.3422186243
 20
113.8793076931
 10
106.1651667015
 20
113.7543606391
 10
105.9756386091
 20
113.6493038641
 10
105.7758596873
 20
113.5653697532
 10
105.5681756955
 20
113.5035427636
 10
105.3550268497
 20
113.4645479498
 10
105.1389161166
 20
113.4488414333
 10
105.1021573174
 20
113.4485045804
  0
LINE
  5
291
100
AcDbEntity
  8
0
100
AcDbLine
 62
7
  6
CONTINUOUS
 10
117.9390408652
 20
176.5985188095
 11
117.9127576966
 21
176.3985188095
  0
LINE
  5
292
100
AcDbEntity
  8
0
100
AcDbLine
 62
7
  6
CONTINUOUS
 10
64.8980376389
 20
37.630703348
 11
65.5031155406
 21
38.7928752017
  0
LINE
  5
293
100
AcDbEntity
  8
0
100
AcDbLine
 62
7
  6
CONTINUOUS
 10
66.7120376389
 20
37.630703348
 11
67.3171155406
 21
38.7928752017
  0
LINE
  5
294
100
AcDbEntity
  8
0
100
AcDbLine
 62
7
  6
CONTINUOUS
 10
68.5260376389
 20
37.630703348
 11
69.1311155406
 21
38.7928752017
  0
LINE
  5
295
100
AcDbEntity
  8
0
100
AcDbLine
 62
7
  6
CONTINUOUS
 10
133.3971345726
 20
152.2434935563
 11
133.307185079
 21
152.1535440626
  0
LINE
  5
296
100
AcDbEntity
  8
0
100
AcDbLine
 62
7
  6
CONTINUOUS
 10
93.2737327011
 20
105.6200916847
 11
100.5163733882
 21
112.8627323718
  0
LINE
  5
297
100
AcDbEntity
  8
0
100
AcDbLine
 62
7
  6
CONTINUOUS
 10
114.0249819867
 20
65.9635188095
 11
115.4840060957
 21
65.9635188095
  0
LINE
  5
298
100
AcDbEntity
  8
0
100
AcDbLine
 62
7
  6
CONTINUOUS
 10
120.6821598258
 20
65.9635188095
 11
121.9821598258
 21
65.9635188095
  0
LINE
  5
299
100
AcDbEntity
  8
0
100
AcDbLine
 62
7
  6
CONTINUOUS
 10
123.8021598258
 20
65.9635188095
 11
125.1021598258
 21
65.9635188095
  0
LINE
  5
29A
100
AcDbEntity
  8
0
100
AcDbLine
 62
7
  6
CONTINUOUS
 10
171.1201246114
 20
69.0833063384
 11
169.7441950403
 21
69.0833063384
  0
LINE
  5
29B
100
AcDbEntity
  8
0
100
AcDbLine
 62
7
  6
CONTINUOUS
 10
127.9621598258
 20
70.4485188095
 11
128.7421598258
 21
70.4485188095
  0
LINE
  5
29C
100
AcDbEntity
  8
0
100
AcDbLine
 62
7
  6
CONTINUOUS
 10
128.7421598258
 20
71.8135188095
 11
130.0421598258
 21
71.8135188095
  0
LINE
  5
29D
100
AcDbEntity
  8
0
100
AcDbLine
 62
7
  6
CONTINUOUS
 10
110.744111608
 20
72.5935188095
 11
112.2031357169
 21
72.5935188095
  0
LINE
  5
29E
100
AcDbEntity
  8
0
100
AcDbLine
 62
7
  6
CONTINUOUS
 10
117.4031357169
 20
72.5935188095
 11
118.8621598258
 21
72.5935188095
  0
LINE
  5
29F
100
AcDbEntity
  8
0
100
AcDbLine
 62
7
  6
CONTINUOUS
 10
120.6821598258
 20
72.5935188095
 11
121.9821598258
 21
72.5935188095
  0
LINE
  5
2A0
100
AcDbEntity
  8
0
100
AcDbLine
 62
7
  6
CONTINUOUS
 10
123.8021598258
 20
72.5935188095
 11
125.1021598258
 21
72.5935188095
  0
LINE
  5
2A1
100
AcDbEntity
  8
0
100
AcDbLine
 62
7
  6
CONTINUOUS
 10
120.6821598258
 20
73.8935188095
 11
121.9821598258
 21
73.8935188095
  0
LINE
  5
2A2
100
AcDbEntity
  8
0
100
AcDbLine
 62
7
  6
CONTINUOUS
 10
173.3707516224
 20
37.5981987162
 11
173.3756477352
 21
37.5935189149
  0
LINE
  5
2A3
100
AcDbEntity
  8
0
100
AcDbLine
 62
7
  6
CONTINUOUS
 10
175.1847516224
 20
37.5981987162
 11
175.1896248268
 21
37.5935188095
  0
LINE
  5
2A4
100
AcDbEntity
  8
0
100
AcDbLine
 62
7
  6
CONTINUOUS
 10
171.5567516224
 20
37.5981987162
 11
171.561606583
 21
37.5935188735
  0
LINE
  5
2A5
100
AcDbEntity
  8
0
100
AcDbLine
 62
7
  6
CONTINUOUS
 10
149.2825445835
 20
26.3485188095
 11
149.5134846912
 21
25.9485188095
  0
LINE
  5
2A6
100
AcDbEntity
  8
0
100
AcDbLine
 62
7
  6
CONTINUOUS
 10
115.9876630598
 20
176.5985188095
 11
115.9978825972
 21
176.3985188095
  0
LINE
  5
2A7
100
AcDbEntity
  8
0
100
AcDbLine
 62
7
  6
CONTINUOUS
 10
115.7432608823
 20
168.3985188095
 11
115.7432608823
 21
171.3211685403
  0
LINE
  5
2A8
100
AcDbEntity
  8
0
100
AcDbLine
 62
7
  6
CONTINUOUS
 10
117.2834098258
 20
148.2985188095
 11
117.2834098258
 21
147.0985188095
  0
LINE
  5
2A9
100
AcDbEntity
  8
0
100
AcDbLine
 62
7
  6
CONTINUOUS
 10
117.724382048
 20
128.404074365
 11
117.724382048
 21
124.404074365
  0
LINE
  5
2AA
100
AcDbEntity
  8
0
100
AcDbLine
 62
7
  6
CONTINUOUS
 10
117.8084098258
 20
148.2985188095
 11
117.8084098258
 21
147.0985188095
  0
LINE
  5
2AB
100
AcDbEntity
  8
0
100
AcDbLine
 62
7
  6
CONTINUOUS
 10
118.3466042703
 20
127.7818521428
 11
118.3466042703
 21
126.4574076984
  0
LINE
  5
2AC
100
AcDbEntity
  8
0
100
AcDbLine
 62
7
  6
CONTINUOUS
 10
118.3466042703
 20
125.8351854761
 11
118.3466042703
 21
124.404074365
  0
LINE
  5
2AD
100
AcDbEntity
  8
0
100
AcDbLine
 62
7
  6
CONTINUOUS
 10
118.5910487147
 20
121.4906539595
 11
118.5910487147
 21
118.4485188095
  0
LINE
  5
2AE
100
AcDbEntity
  8
0
100
AcDbLine
 62
7
  6
CONTINUOUS
 10
119.2132709369
 20
122.4485188095
 11
119.2132709369
 21
118.4485188095
  0
LINE
  5
2AF
100
AcDbEntity
  8
0
100
AcDbLine
 62
7
  6
CONTINUOUS
 10
119.2799376036
 20
127.4707410317
 11
119.2799376036
 21
126.7685188095
  0
LINE
  5
2B0
100
AcDbEntity
  8
0
100
AcDbLine
 62
7
  6
CONTINUOUS
 10
119.7771598258
 20
149.4235188095
 11
119.7771598258
 21
145.9735188095
  0
LINE
  5
2B1
100
AcDbEntity
  8
0
100
AcDbLine
 62
7
  6
CONTINUOUS
 10
119.9021598258
 20
127.4707410317
 11
119.9021598258
 21
126.7685188095
  0
LINE
  5
2B2
100
AcDbEntity
  8
0
100
AcDbLine
 62
7
  6
CONTINUOUS
 10
120.1021598258
 20
121.204074365
 11
120.1021598258
 21
119.6929632539
  0
LINE
  5
2B3
100
AcDbEntity
  8
0
100
AcDbLine
 62
7
  6
CONTINUOUS
 10
120.1021598258
 20
178.3066373605
 11
120.1021598258
 21
181.6519368221
  0
LINE
  5
2B4
100
AcDbEntity
  8
0
100
AcDbLine
 62
7
  6
CONTINUOUS
 10
120.3021598258
 20
149.4235188095
 11
120.3021598258
 21
147.9235188095
  0
LINE
  5
2B5
100
AcDbEntity
  8
0
100
AcDbLine
 62
7
  6
CONTINUOUS
 10
120.3021598258
 20
147.413821027
 11
120.3021598258
 21
145.4485188095
  0
LINE
  5
2B6
100
AcDbEntity
  8
0
100
AcDbLine
 62
7
  6
CONTINUOUS
 10
120.3110487147
 20
128.404074365
 11
120.3110487147
 21
124.404074365
  0
LINE
  5
2B7
100
AcDbEntity
  8
0
100
AcDbLine
 62
7
  6
CONTINUOUS
 10
120.6821598258
 20
75.1935188095
 11
120.6821598258
 21
73.8935188095
  0
LINE
  5
2B8
100
AcDbEntity
  8
0
100
AcDbLine
 62
7
  6
CONTINUOUS
 10
120.6821598258
 20
72.5935188095
 11
120.6821598258
 21
65.9635188095
  0
LINE
  5
2B9
100
AcDbEntity
  8
0
100
AcDbLine
 62
7
  6
CONTINUOUS
 10
120.724382048
 20
121.204074365
 11
120.724382048
 21
120.7706837564
  0
LINE
  5
2BA
100
AcDbEntity
  8
0
100
AcDbLine
 62
7
  6
CONTINUOUS
 10
120.9332709369
 20
126.6190631032
 11
120.9332709369
 21
124.404074365
  0
LINE
  5
2BB
100
AcDbEntity
  8
0
100
AcDbLine
 62
7
  6
CONTINUOUS
 10
121.8666042703
 20
128.404074365
 11
121.8666042703
 21
126.1890856269
  0
LINE
  5
2BC
100
AcDbEntity
  8
0
100
AcDbLine
 62
7
  6
CONTINUOUS
 10
121.9821598258
 20
75.1935188095
 11
121.9821598258
 21
73.8935188095
  0
LINE
  5
2BD
100
AcDbEntity
  8
0
100
AcDbLine
 62
7
  6
CONTINUOUS
 10
121.9821598258
 20
72.5935188095
 11
121.9821598258
 21
65.9635188095
  0
LINE
  5
2BE
100
AcDbEntity
  8
0
100
AcDbLine
 62
7
  6
CONTINUOUS
 10
122.4888264925
 20
128.404074365
 11
122.4888264925
 21
124.404074365
  0
LINE
  5
2BF
100
AcDbEntity
  8
0
100
AcDbLine
 62
7
  6
CONTINUOUS
 10
123.6021598258
 20
155.3985188095
 11
123.6021598258
 21
162.3985188095
  0
LINE
  5
2C0
100
AcDbEntity
  8
0
100
AcDbLine
 62
7
  6
CONTINUOUS
 10
123.8021598258
 20
72.5935188095
 11
123.8021598258
 21
70.0947429471
  0
LINE
  5
2C1
100
AcDbEntity
  8
0
100
AcDbLine
 62
7
  6
CONTINUOUS
 10
123.8021598258
 20
66.2885188095
 11
123.8021598258
 21
65.9635188095
  0
LINE
  5
2C2
100
AcDbEntity
  8
0
100
AcDbLine
 62
7
  6
CONTINUOUS
 10
133.9833576723
 20
164.9478023094
 11
136.2927587491
 21
171.2928296203
  0
LINE
  5
2C3
100
AcDbEntity
  8
0
100
AcDbLine
 62
7
  6
CONTINUOUS
 10
131.1021598258
 20
155.3985188095
 11
135.6477349963
 21
167.8873839488
  0
LINE
  5
2C4
100
AcDbEntity
  8
0
100
AcDbLine
 62
7
  6
CONTINUOUS
 10
118.5021598258
 20
122.4485188095
 11
117.5844375276
 21
121.1378755386
  0
LINE
  5
2C5
100
AcDbEntity
  8
0
100
AcDbLine
 62
7
  6
CONTINUOUS
 10
118.5910487147
 20
121.4906539595
 11
118.094132133
 21
120.7809835338
  0
LWPOLYLINE
  5
2C6
100
AcDbEntity
  8
0
100
AcDbPolyline
 62
7
  6
CONTINUOUS
 90
5
 70
0
 10
93.2737465139
 20
105.6200776823
 10
92.9665798171
 20
105.3431503021
 10
92.6532671413
 20
105.1130995581
 10
92.3191211965
 20
104.9145540411
 10
91.9672995814
 20
104.7493837441
  0
LINE
  5
2C7
100
AcDbEntity
  8
0
100
AcDbLine
 62
7
  6
CONTINUOUS
 10
120.6821598258
 20
75.1935188095
 11
121.9821598258
 21
75.1935188095
  0
LINE
  5
2C8
100
AcDbEntity
  8
0
100
AcDbLine
 62
7
  6
CONTINUOUS
 10
108.924111608
 20
77.0135188095
 11
132.324111608
 21
77.0135188095
  0
LINE
  5
2C9
100
AcDbEntity
  8
0
100
AcDbLine
 62
7
  6
CONTINUOUS
 10
107.624111608
 20
78.3135188095
 11
133.624111608
 21
78.3135188095
  0
LINE
  5
2CA
100
AcDbEntity
  8
0
100
AcDbLine
 62
7
  6
CONTINUOUS
 10
158.5392210032
 20
82.2806783757
 11
168.2622868447
 21
82.2806783757
  0
LINE
  5
2CB
100
AcDbEntity
  8
0
100
AcDbLine
 62
7
  6
CONTINUOUS
 10
195.2124592874
 20
82.6140438701
 11
176.5218603642
 21
82.6140438701
  0
LINE
  5
2CC
100
AcDbEntity
  8
0
100
AcDbLine
 62
7
  6
CONTINUOUS
 10
44.9918603642
 20
82.6140438701
 11
63.6824592874
 21
82.6140438701
  0
LINE
  5
2CD
100
AcDbEntity
  8
0
100
AcDbLine
 62
7
  6
CONTINUOUS
 10
92.4255013691
 20
82.8749182612
 11
71.9742321555
 21
82.8749256807
  0
LINE
  5
2CE
100
AcDbEntity
  8
0
100
AcDbLine
 62
7
  6
CONTINUOUS
 10
125.1021598258
 20
72.5935188095
 11
125.1021598258
 21
71.2935188095
  0
LINE
  5
2CF
100
AcDbEntity
  8
0
100
AcDbLine
 62
7
  6
CONTINUOUS
 10
125.1021598258
 20
178.3066373605
 11
125.1021598258
 21
182.0985188095
  0
LINE
  5
2D0
100
AcDbEntity
  8
0
100
AcDbLine
 62
7
  6
CONTINUOUS
 10
127.1021598258
 20
177.252108648
 11
127.1021598258
 21
176.5985188095
  0
LINE
  5
2D1
100
AcDbEntity
  8
0
100
AcDbLine
 62
7
  6
CONTINUOUS
 10
128.7421598258
 20
71.8135188095
 11
128.7421598258
 21
70.4485188095
  0
LINE
  5
2D2
100
AcDbEntity
  8
0
100
AcDbLine
 62
7
  6
CONTINUOUS
 10
130.0421598258
 20
71.8135188095
 11
130.0421598258
 21
70.0888430392
  0
LINE
  5
2D3
100
AcDbEntity
  8
0
100
AcDbLine
 62
7
  6
CONTINUOUS
 10
132.324111608
 20
77.0135188095
 11
132.324111608
 21
64.0135188095
  0
LINE
  5
2D4
100
AcDbEntity
  8
0
100
AcDbLine
 62
7
  6
CONTINUOUS
 10
133.1021598258
 20
151.6585693158
 11
133.1021598258
 21
115.4485188095
  0
LINE
  5
2D5
100
AcDbEntity
  8
0
100
AcDbLine
 62
7
  6
CONTINUOUS
 10
133.6021598258
 20
160.3803717927
 11
133.6021598258
 21
152.7384683031
  0
LINE
  5
2D6
100
AcDbEntity
  8
0
100
AcDbLine
 62
7
  6
CONTINUOUS
 10
133.624111608
 20
78.3135188095
 11
133.624111608
 21
62.7135188095
  0
LINE
  5
2D7
100
AcDbEntity
  8
0
100
AcDbLine
 62
7
  6
CONTINUOUS
 10
133.7021598258
 20
160.5485188095
 11
133.7021598258
 21
162.5419601001
  0
LINE
  5
2D8
100
AcDbEntity
  8
0
100
AcDbLine
 62
7
  6
CONTINUOUS
 10
133.9833576723
 20
172.3985188095
 11
133.9833576723
 21
164.9478023094
  0
LINE
  5
2D9
100
AcDbEntity
  8
0
100
AcDbLine
 62
7
  6
CONTINUOUS
 10
92.4254952856
 20
85.7033576444
 11
71.9742710414
 21
85.7033528054
  0
LINE
  5
2DA
100
AcDbEntity
  8
0
100
AcDbLine
 62
7
  6
CONTINUOUS
 10
158.5392210032
 20
86.1235491045
 11
168.2622868447
 21
86.1235491045
  0
LINE
  5
2DB
100
AcDbEntity
  8
0
100
AcDbLine
 62
7
  6
CONTINUOUS
 10
195.2124592874
 20
87.3020376651
 11
176.5218603642
 21
87.3020376651
  0
LINE
  5
2DC
100
AcDbEntity
  8
0
100
AcDbLine
 62
7
  6
CONTINUOUS
 10
44.9918603642
 20
87.3020376651
 11
63.6824592874
 21
87.3020376651
  0
LINE
  5
2DD
100
AcDbEntity
  8
0
100
AcDbLine
 62
7
  6
CONTINUOUS
 10
122.11100134
 20
124.404074365
 11
120.9332709369
 21
126.6190631032
  0
LINE
  5
2DE
100
AcDbEntity
  8
0
100
AcDbLine
 62
7
  6
CONTINUOUS
 10
121.8666042703
 20
126.1890856269
 11
120.6888738671
 21
128.404074365
  0
LINE
  5
2DF
100
AcDbEntity
  8
0
100
AcDbLine
 62
7
  6
CONTINUOUS
 10
114.4390408652
 20
176.5985188095
 11
114.4847627492
 21
176.3985188095
  0
LINE
  5
2E0
100
AcDbEntity
  8
0
100
AcDbLine
 62
7
  6
CONTINUOUS
 10
136.2927587491
 20
171.2928296203
 11
136.2927587491
 21
171.3985188095
  0
LINE
  5
2E1
100
AcDbEntity
  8
0
100
AcDbLine
 62
7
  6
CONTINUOUS
 10
138.6021598258
 20
172.3985188095
 11
138.6021598258
 21
176.3985188095
  0
LINE
  5
2E2
100
AcDbEntity
  8
0
100
AcDbLine
 62
7
  6
CONTINUOUS
 10
140.0122103321
 20
113.4485188095
 11
140.0122103321
 21
27.4485188095
  0
LINE
  5
2E3
100
AcDbEntity
  8
0
100
AcDbLine
 62
7
  6
CONTINUOUS
 10
140.507185079
 20
113.6535440626
 11
140.507185079
 21
27.2434935563
  0
LINE
  5
2E4
100
AcDbEntity
  8
0
100
AcDbLine
 62
7
  6
CONTINUOUS
 10
140.8471345726
 20
26.9035440626
 11
140.8471345726
 21
113.9934935563
  0
LINE
  5
2E5
100
AcDbEntity
  8
0
100
AcDbLine
 62
7
  6
CONTINUOUS
 10
141.3421093195
 20
26.6985188095
 11
141.3421093195
 21
114.1985188095
  0
LINE
  5
2E6
100
AcDbEntity
  8
0
100
AcDbLine
 62
7
  6
CONTINUOUS
 10
114.2195260733
 20
68.6361299127
 11
113.4900140189
 21
67.2043818908
  0
LINE
  5
2E7
100
AcDbEntity
  8
0
100
AcDbLine
 62
7
  6
CONTINUOUS
 10
117.4031357169
 20
72.5935188095
 11
114.0249819867
 21
65.9635188095
  0
LINE
  5
2E8
100
AcDbEntity
  8
0
100
AcDbLine
 62
7
  6
CONTINUOUS
 10
118.8621598258
 20
72.5935188095
 11
115.4840060957
 21
65.9635188095
  0
LINE
  5
2E9
100
AcDbEntity
  8
0
100
AcDbLine
 62
7
  6
CONTINUOUS
 10
140.507185079
 20
113.6535440626
 11
140.8471345726
 21
113.9934935563
  0
LWPOLYLINE
  5
2EA
100
AcDbEntity
  8
0
100
AcDbPolyline
 62
7
  6
CONTINUOUS
 90
5
 70
0
 10
91.9672995814
 20
104.7493837441
 10
91.6011255003
 20
104.619143073
 10
91.2240572503
 20
104.5250566932
 10
90.839655668
 20
104.4680078775
 10
90.4515497933
 20
104.4485300436
  0
LINE
  5
2EB
100
AcDbEntity
  8
0
100
AcDbLine
 62
7
  6
CONTINUOUS
 10
71.0119576513
 20
97.4882009251
 11
69.6021598258
 21
97.4882009251
  0
LINE
  5
2EC
100
AcDbEntity
  8
0
100
AcDbLine
 62
7
  6
CONTINUOUS
 10
70.2330587386
 20
102.1090188095
 11
70.0330587386
 21
102.1090188095
  0
LINE
  5
2ED
100
AcDbEntity
  8
0
100
AcDbLine
 62
7
  6
CONTINUOUS
 10
68.4190587386
 20
102.1090188095
 11
68.2190587386
 21
102.1090188095
  0
LINE
  5
2EE
100
AcDbEntity
  8
0
100
AcDbLine
 62
7
  6
CONTINUOUS
 10
66.6050587386
 20
102.1090188095
 11
66.4050587386
 21
102.1090188095
  0
LINE
  5
2EF
100
AcDbEntity
  8
0
100
AcDbLine
 62
7
  6
CONTINUOUS
 10
118.094132133
 20
120.7809835338
 11
117.5844375276
 21
121.1378755386
  0
LINE
  5
2F0
100
AcDbEntity
  8
0
100
AcDbLine
 62
7
  6
CONTINUOUS
 10
170.957311016
 20
38.7495434296
 11
171.5567516224
 21
37.5981987162
  0
LINE
  5
2F1
100
AcDbEntity
  8
0
100
AcDbLine
 62
7
  6
CONTINUOUS
 10
172.771311016
 20
38.7495434296
 11
173.3707516224
 21
37.5981987162
  0
LINE
  5
2F2
100
AcDbEntity
  8
0
100
AcDbLine
 62
7
  6
CONTINUOUS
 10
174.585311016
 20
38.7495434296
 11
175.1847516224
 21
37.5981987162
  0
LINE
  5
2F3
100
AcDbEntity
  8
0
100
AcDbLine
 62
7
  6
CONTINUOUS
 10
113.4447642117
 20
176.5985188095
 11
113.5215128656
 21
176.3985188095
  0
LINE
  5
2F4
100
AcDbEntity
  8
0
100
AcDbLine
 62
7
  6
CONTINUOUS
 10
148.6763268009
 20
114.1985188095
 11
148.6763268009
 21
26.6985188095
  0
LINE
  5
2F5
100
AcDbEntity
  8
0
100
AcDbLine
 62
7
  6
CONTINUOUS
 10
149.2825445835
 20
114.5485188095
 11
149.2825445835
 21
26.3485188095
  0
LINE
  5
2F6
100
AcDbEntity
  8
0
100
AcDbLine
 62
7
  6
CONTINUOUS
 10
149.5134846912
 20
25.9485188095
 11
149.5134846912
 21
114.9485188095
  0
LINE
  5
2F7
100
AcDbEntity
  8
0
100
AcDbLine
 62
7
  6
CONTINUOUS
 10
149.2825445835
 20
114.5485188095
 11
149.5134846912
 21
114.9485188095
  0
LINE
  5
2F8
100
AcDbEntity
  8
0
100
AcDbLine
 62
7
  6
CONTINUOUS
 10
158.5392210032
 20
102.8567496352
 11
168.2622868447
 21
102.8567496352
  0
LINE
  5
2F9
100
AcDbEntity
  8
0
100
AcDbLine
 62
7
  6
CONTINUOUS
 10
71.1021598258
 20
103.2710188095
 11
70.8379576513
 21
103.2710188095
  0
LINE
  5
2FA
100
AcDbEntity
  8
0
100
AcDbLine
 62
7
  6
CONTINUOUS
 10
69.4281598258
 20
103.2710188095
 11
69.0239576513
 21
103.2710188095
  0
LINE
  5
2FB
100
AcDbEntity
  8
0
100
AcDbLine
 62
7
  6
CONTINUOUS
 10
67.6141598258
 20
103.2710188095
 11
67.2099576513
 21
103.2710188095
  0
LINE
  5
2FC
100
AcDbEntity
  8
0
100
AcDbLine
 62
7
  6
CONTINUOUS
 10
65.8001598258
 20
103.2710188095
 11
65.3959576513
 21
103.2710188095
  0
LINE
  5
2FD
100
AcDbEntity
  8
0
100
AcDbLine
 62
7
  6
CONTINUOUS
 10
92.4254990378
 20
103.2769406184
 11
71.9742183513
 21
103.2769459342
  0
LINE
  5
2FE
100
AcDbEntity
  8
0
100
AcDbLine
 62
7
  6
CONTINUOUS
 10
174.7206950403
 20
103.3035188095
 11
174.2826246113
 21
103.3035188095
  0
LINE
  5
2FF
100
AcDbEntity
  8
0
100
AcDbLine
 62
7
  6
CONTINUOUS
 10
172.9066950403
 20
103.3035188095
 11
172.4686246114
 21
103.3035188095
  0
LINE
  5
300
100
AcDbEntity
  8
0
100
AcDbLine
 62
7
  6
CONTINUOUS
 10
171.0926950403
 20
103.3035188095
 11
168.9321598258
 21
103.3035188095
  0
LINE
  5
301
100
AcDbEntity
  8
0
100
AcDbLine
 62
7
  6
CONTINUOUS
 10
92.4255040265
 20
104.4485188095
 11
71.1021598258
 21
104.4485188095
  0
LINE
  5
302
100
AcDbEntity
  8
0
100
AcDbLine
 62
7
  6
CONTINUOUS
 10
158.5392210032
 20
104.4485188095
 11
168.7978578814
 21
104.4485188095
  0
LINE
  5
303
100
AcDbEntity
  8
0
100
AcDbLine
 62
7
  6
CONTINUOUS
 10
195.2124592874
 20
104.5066881992
 11
176.5218603642
 21
104.5066881992
  0
LINE
  5
304
100
AcDbEntity
  8
0
100
AcDbLine
 62
7
  6
CONTINUOUS
 10
44.9918603642
 20
104.5066881992
 11
63.6824592874
 21
104.5066881992
  0
LINE
  5
305
100
AcDbEntity
  8
0
100
AcDbLine
 62
7
  6
CONTINUOUS
 10
198.6671598258
 20
106.4485188095
 11
196.6558349604
 21
106.4485188095
  0
LINE
  5
306
100
AcDbEntity
  8
0
100
AcDbLine
 62
7
  6
CONTINUOUS
 10
41.5371598258
 20
106.4485188095
 11
43.5484846912
 21
106.4485188095
  0
LINE
  5
307
100
AcDbEntity
  8
GEOM
100
AcDbLine
 62
7
  6
CONTINUOUS
 10
43.5484846912
 20
106.4485188095
 11
44.9918603642
 21
106.4485188095
  0
LINE
  5
308
100
AcDbEntity
  8
0
100
AcDbLine
 62
7
  6
CONTINUOUS
 10
44.9918603642
 20
106.4485188095
 11
64.8371598258
 21
106.4485188095
  0
LINE
  5
309
100
AcDbEntity
  8
0
100
AcDbLine
 62
7
  6
CONTINUOUS
 10
175.3671598258
 20
106.4485188095
 11
195.2124592874
 21
106.4485188095
  0
LINE
  5
30A
100
AcDbEntity
  8
GEOM
100
AcDbLine
 62
7
  6
CONTINUOUS
 10
195.2124592874
 20
106.4485188095
 11
196.6558349604
 21
106.4485188095
  0
LINE
  5
30B
100
AcDbEntity
  8
0
100
AcDbLine
 62
7
  6
CONTINUOUS
 10
107.3884943663
 20
152.1535440626
 11
107.2947259496
 21
152.2434935563
  0
LINE
  5
30C
100
AcDbEntity
  8
0
100
AcDbLine
 62
7
  6
CONTINUOUS
 10
107.3228106506
 20
152.0825980497
 11
107.2295224581
 21
152.1731039931
  0
LINE
  5
30D
100
AcDbEntity
  8
0
100
AcDbLine
 62
7
  6
CONTINUOUS
 10
102.3430959142
 20
156.707582721
 11
107.3890100107
 21
151.6616686246
  0
LINE
  5
30E
100
AcDbEntity
  8
0
100
AcDbLine
 62
7
  6
CONTINUOUS
 10
102.9247670866
 20
156.8330183299
 11
106.9112538675
 21
152.8465315489
  0
LINE
  5
30F
100
AcDbEntity
  8
0
100
AcDbLine
 62
7
  6
CONTINUOUS
 10
122.308091164
 20
145.4485188095
 11
121.0800340411
 21
147.413821027
  0
LINE
  5
310
100
AcDbEntity
  8
0
100
AcDbLine
 62
7
  6
CONTINUOUS
 10
122.9271598258
 20
145.4485188095
 11
121.6991027028
 21
147.413821027
  0
LINE
  5
311
100
AcDbEntity
  8
0
100
AcDbLine
 62
7
  6
CONTINUOUS
 10
113.1021598258
 20
176.5985188095
 11
113.2024225567
 21
176.3985188095
  0
LINE
  5
312
100
AcDbEntity
  8
0
100
AcDbLine
 62
7
  6
CONTINUOUS
 10
152.8021598258
 20
114.9485188095
 11
152.8021598258
 21
25.9485188095
  0
LINE
  5
313
100
AcDbEntity
  8
0
100
AcDbLine
 62
7
  6
CONTINUOUS
 10
155.5002825721
 20
114.9485188095
 11
155.5002825721
 21
25.9485188095
  0
LINE
  5
314
100
AcDbEntity
  8
0
100
AcDbLine
 62
7
  6
CONTINUOUS
 10
155.7801981994
 20
114.4108654726
 11
155.7801981994
 21
26.4861721463
  0
LINE
  5
315
100
AcDbEntity
  8
0
100
AcDbLine
 62
7
  6
CONTINUOUS
 10
157.754823487
 20
105.0527165943
 11
157.754823487
 21
103.3314503207
  0
LINE
  5
316
100
AcDbEntity
  8
0
100
AcDbLine
 62
7
  6
CONTINUOUS
 10
157.754823487
 20
86.5033131313
 11
157.754823487
 21
82.3478087081
  0
LINE
  5
317
100
AcDbEntity
  8
0
100
AcDbLine
 62
7
  6
CONTINUOUS
 10
157.754823487
 20
58.5492288761
 11
157.754823487
 21
54.3937244527
  0
LINE
  5
318
100
AcDbEntity
  8
0
100
AcDbLine
 62
7
  6
CONTINUOUS
 10
157.754823487
 20
37.565587282
 11
157.754823487
 21
35.8443210184
  0
LINE
  5
319
100
AcDbEntity
  8
0
100
AcDbLine
 62
7
  6
CONTINUOUS
 10
158.5275641481
 20
104.4485188095
 11
158.5275641481
 21
102.8567496352
  0
LINE
  5
31A
100
AcDbEntity
  8
0
100
AcDbLine
 62
7
  6
CONTINUOUS
 10
158.5275641481
 20
86.1235491045
 11
158.5275641481
 21
82.2806783757
  0
LINE
  5
31B
100
AcDbEntity
  8
0
100
AcDbLine
 62
7
  6
CONTINUOUS
 10
158.5275641481
 20
58.6163592433
 11
158.5275641481
 21
54.7734885145
  0
LINE
  5
31C
100
AcDbEntity
  8
0
100
AcDbLine
 62
7
  6
CONTINUOUS
 10
158.5275641481
 20
38.0402879838
 11
158.5275641481
 21
36.4485188095
  0
LINE
  5
31D
100
AcDbEntity
  8
0
100
AcDbLine
 62
7
  6
CONTINUOUS
 10
101.9305869506
 20
113.4485188095
 11
105.1021598258
 21
113.4485188095
  0
LINE
  5
31E
100
AcDbEntity
  8
0
100
AcDbLine
 62
7
  6
CONTINUOUS
 10
135.1021598258
 20
113.4485188095
 11
140.0122103321
 21
113.4485188095
  0
LINE
  5
31F
100
AcDbEntity
  8
0
100
AcDbLine
 62
7
  6
CONTINUOUS
 10
141.3421093195
 20
114.1985188095
 11
148.6763268009
 21
114.1985188095
  0
LINE
  5
320
100
AcDbEntity
  8
0
100
AcDbLine
 62
7
  6
CONTINUOUS
 10
149.5134846912
 20
114.9485188095
 11
155.5002825721
 21
114.9485188095
  0
LINE
  5
321
100
AcDbEntity
  8
0
100
AcDbLine
 62
7
  6
CONTINUOUS
 10
119.2132709369
 20
118.4485188095
 11
118.5910487147
 21
118.4485188095
  0
LWPOLYLINE
  5
322
100
AcDbEntity
  8
0
100
AcDbPolyline
 62
7
  6
CONTINUOUS
 90
17
 70
0
 10
135.1021623607
 20
113.4485046367
 10
135.0654047368
 20
113.4488414695
 10
134.8492943559
 20
113.4645478216
 10
134.636145703
 20
113.5035424262
 10
134.4284617598
 20
113.565369203
 10
134.2286827925
 20
113.6493031181
 10
134.0391545725
 20
113.7543597369
 10
133.8621024505
 20
113.8793066979
 10
133.6996067348
 20
114.0226768705
 10
133.5535754678
 20
114.1827874935
 10
133.4257235057
 20
114.3577591625
 10
133.3175530673
 20
114.5455364476
 10
133.2303341007
 20
114.743914766
 10
133.1650905848
 20
114.9505650534
 10
133.1225887344
 20
115.1630594446
 10
133.1033269887
 20
115.3789025222
 10
133.1021159795
 20
115.4485199137
  0
LWPOLYLINE
  5
323
100
AcDbEntity
  8
0
100
AcDbPolyline
 62
7
  6
CONTINUOUS
 90
5
 70
0
 10
175.3671598258
 20
102.1090612431
 10
175.3522138261
 20
102.1171269887
 10
175.3366486626
 20
102.1309692592
 10
175.3274797271
 20
102.143147069
 10
175.3248330348
 20
102.1478256003
  0
LINE
  5
324
100
AcDbEntity
  8
0
100
AcDbLine
 62
7
  6
CONTINUOUS
 10
171.0975680292
 20
103.2988389028
 11
171.0926950927
 21
103.3035188095
  0
LINE
  5
325
100
AcDbEntity
  8
0
100
AcDbLine
 62
7
  6
CONTINUOUS
 10
172.9115680292
 20
103.2988389028
 11
172.9066955689
 21
103.3035188094
  0
LINE
  5
326
100
AcDbEntity
  8
0
100
AcDbLine
 62
7
  6
CONTINUOUS
 10
158.2907218719
 20
105.0414635734
 11
155.7801981994
 21
114.4108654726
  0
LINE
  5
327
100
AcDbEntity
  8
0
100
AcDbLine
 62
7
  6
CONTINUOUS
 10
162.1021598258
 20
188.6985188095
 11
162.1021598258
 21
194.0985188095
  0
LINE
  5
328
100
AcDbEntity
  8
0
100
AcDbLine
 62
7
  6
CONTINUOUS
 10
162.9021598258
 20
187.8985188095
 11
162.9021598258
 21
194.8985188095
  0
LINE
  5
329
100
AcDbEntity
  8
0
100
AcDbLine
 62
7
  6
CONTINUOUS
 10
168.2622868447
 20
104.4485188095
 11
168.2622868447
 21
102.8567496352
  0
LINE
  5
32A
100
AcDbEntity
  8
0
100
AcDbLine
 62
7
  6
CONTINUOUS
 10
168.2622868447
 20
86.1235491045
 11
168.2622868447
 21
82.2806783757
  0
LINE
  5
32B
100
AcDbEntity
  8
0
100
AcDbLine
 62
7
  6
CONTINUOUS
 10
168.2622868447
 20
58.6163592433
 11
168.2622868447
 21
54.7734885145
  0
LINE
  5
32C
100
AcDbEntity
  8
0
100
AcDbLine
 62
7
  6
CONTINUOUS
 10
168.2622868447
 20
38.0402879838
 11
168.2622868447
 21
36.4485188095
  0
LINE
  5
32D
100
AcDbEntity
  8
0
100
AcDbLine
 62
7
  6
CONTINUOUS
 10
168.9321598258
 20
36.9485188095
 11
168.9321598258
 21
103.9485188095
  0
LINE
  5
32E
100
AcDbEntity
  8
0
100
AcDbLine
 62
7
  6
CONTINUOUS
 10
172.4637516224
 20
103.2988389028
 11
172.4686246638
 21
103.3035188095
  0
LINE
  5
32F
100
AcDbEntity
  8
0
100
AcDbLine
 62
7
  6
CONTINUOUS
 10
122.5910487147
 20
121.204074365
 11
121.9688264925
 21
121.204074365
  0
LINE
  5
330
100
AcDbEntity
  8
0
100
AcDbLine
 62
7
  6
CONTINUOUS
 10
119.2132709369
 20
122.4485188095
 11
118.5021598258
 21
122.4485188095
  0
LINE
  5
331
100
AcDbEntity
  8
0
100
AcDbLine
 62
7
  6
CONTINUOUS
 10
122.4888264925
 20
124.404074365
 11
122.11100134
 21
124.404074365
  0
LINE
  5
332
100
AcDbEntity
  8
0
100
AcDbLine
 62
7
  6
CONTINUOUS
 10
120.9332709369
 20
124.404074365
 11
120.3110487147
 21
124.404074365
  0
LINE
  5
333
100
AcDbEntity
  8
0
100
AcDbLine
 62
7
  6
CONTINUOUS
 10
118.3466042703
 20
124.404074365
 11
117.724382048
 21
124.404074365
  0
LINE
  5
334
100
AcDbEntity
  8
0
100
AcDbLine
 62
7
  6
CONTINUOUS
 10
118.9688264925
 20
125.8351854761
 11
118.3466042703
 21
125.8351854761
  0
LINE
  5
335
100
AcDbEntity
  8
0
100
AcDbLine
 62
7
  6
CONTINUOUS
 10
118.9688264925
 20
126.4574076984
 11
118.3466042703
 21
126.4574076984
  0
LINE
  5
336
100
AcDbEntity
  8
0
100
AcDbLine
 62
7
  6
CONTINUOUS
 10
118.9688264925
 20
127.7818521428
 11
118.3466042703
 21
127.7818521428
  0
LINE
  5
337
100
AcDbEntity
  8
0
100
AcDbLine
 62
7
  6
CONTINUOUS
 10
122.4888264925
 20
128.404074365
 11
121.8666042703
 21
128.404074365
  0
LINE
  5
338
100
AcDbEntity
  8
0
100
AcDbLine
 62
7
  6
CONTINUOUS
 10
120.6888738671
 20
128.404074365
 11
120.3110487147
 21
128.404074365
  0
LINE
  5
339
100
AcDbEntity
  8
0
100
AcDbLine
 62
7
  6
CONTINUOUS
 10
118.9688264925
 20
128.404074365
 11
117.724382048
 21
128.404074365
  0
LINE
  5
33A
100
AcDbEntity
  8
0
100
AcDbLine
 62
7
  6
CONTINUOUS
 10
174.7255680292
 20
103.2988389028
 11
174.7206827978
 21
103.3035187799
  0
LINE
  5
33B
100
AcDbEntity
  8
0
100
AcDbLine
 62
7
  6
CONTINUOUS
 10
123.6021598258
 20
162.3985188095
 11
115.211163514
 21
172.3985188095
  0
LINE
  5
33C
100
AcDbEntity
  8
0
100
AcDbLine
 62
7
  6
CONTINUOUS
 10
171.6970086356
 20
102.1474941893
 11
171.6968330348
 21
102.1478256003
  0
LINE
  5
33D
100
AcDbEntity
  8
0
100
AcDbLine
 62
7
  6
CONTINUOUS
 10
173.5110086356
 20
102.1474941893
 11
173.5108330348
 21
102.1478256003
  0
LINE
  5
33E
100
AcDbEntity
  8
0
100
AcDbLine
 62
7
  6
CONTINUOUS
 10
175.3250086356
 20
102.1474941893
 11
175.3248330348
 21
102.1478256003
  0
LINE
  5
33F
100
AcDbEntity
  8
0
100
AcDbLine
 62
7
  6
CONTINUOUS
 10
171.6970086356
 20
102.1474941893
 11
171.0975680292
 21
103.2988389028
  0
LINE
  5
340
100
AcDbEntity
  8
0
100
AcDbLine
 62
7
  6
CONTINUOUS
 10
173.5110086356
 20
102.1474941893
 11
172.9115680292
 21
103.2988389028
  0
LINE
  5
341
100
AcDbEntity
  8
0
100
AcDbLine
 62
7
  6
CONTINUOUS
 10
175.3250086356
 20
102.1474941893
 11
174.7255680292
 21
103.2988389028
  0
LINE
  5
342
100
AcDbEntity
  8
0
100
AcDbLine
 62
7
  6
CONTINUOUS
 10
168.9321598258
 20
103.9485188095
 11
168.7759970982
 21
104.5313260431
  0
LINE
  5
343
100
AcDbEntity
  8
0
100
AcDbLine
 62
7
  6
CONTINUOUS
 10
175.3671598258
 20
34.4485188095
 11
175.3671598258
 21
106.4485188095
  0
LINE
  5
344
100
AcDbEntity
  8
0
100
AcDbLine
 62
7
  6
CONTINUOUS
 10
176.5218603642
 20
34.4485188095
 11
176.5218603642
 21
36.3903494197
  0
LINE
  5
345
100
AcDbEntity
  8
0
100
AcDbLine
 62
7
  6
CONTINUOUS
 10
176.5218603642
 20
53.5949999538
 11
176.5218603642
 21
58.2829937489
  0
LINE
  5
346
100
AcDbEntity
  8
0
100
AcDbLine
 62
7
  6
CONTINUOUS
 10
176.5218603642
 20
82.6140438701
 11
176.5218603642
 21
87.3020376651
  0
LINE
  5
347
100
AcDbEntity
  8
0
100
AcDbLine
 62
7
  6
CONTINUOUS
 10
176.5218603642
 20
104.5066881992
 11
176.5218603642
 21
106.4485188095
  0
LINE
  5
348
100
AcDbEntity
  8
0
100
AcDbLine
 62
7
  6
CONTINUOUS
 10
158.2907218719
 20
35.8555740456
 11
155.7801981994
 21
26.4861721463
  0
LINE
  5
349
100
AcDbEntity
  8
0
100
AcDbLine
 62
7
  6
CONTINUOUS
 10
172.4637516224
 20
103.2988389028
 11
171.864311016
 21
102.1474941893
  0
LINE
  5
34A
100
AcDbEntity
  8
0
100
AcDbLine
 62
7
  6
CONTINUOUS
 10
174.2777516224
 20
103.2988389028
 11
173.678311016
 21
102.1474941893
  0
LWPOLYLINE
  5
34B
100
AcDbEntity
  8
0
100
AcDbPolyline
 62
7
  6
CONTINUOUS
 90
11
 70
0
 10
171.8642389102
 20
102.1473547079
 10
171.8615717441
 20
102.1427122182
 10
171.8551985725
 20
102.1339066431
 10
171.8422186413
 20
102.1210457441
 10
171.8158360295
 20
102.1054841432
 10
171.7791011615
 20
102.0985313366
 10
171.7466125867
 20
102.1050392924
 10
171.7242138262
 20
102.1171269886
 10
171.7086486626
 20
102.1309692592
 10
171.6994797271
 20
102.143147069
 10
171.6968330348
 20
102.1478256003
  0
LWPOLYLINE
  5
34C
100
AcDbEntity
  8
0
100
AcDbPolyline
 62
7
  6
CONTINUOUS
 90
11
 70
0
 10
173.6782389102
 20
102.1473547079
 10
173.6755717442
 20
102.1427122182
 10
173.6691985725
 20
102.1339066431
 10
173.6562186413
 20
102.1210457441
 10
173.6298360295
 20
102.1054841432
 10
173.5931011616
 20
102.0985313366
 10
173.5606125868
 20
102.1050392924
 10
173.5382138262
 20
102.1171269886
 10
173.5226486627
 20
102.1309692592
 10
173.5134797271
 20
102.143147069
 10
173.5108330348
 20
102.1478256003
  0
LINE
  5
34D
100
AcDbEntity
  8
0
100
AcDbLine
 62
7
  6
CONTINUOUS
 10
174.2777516224
 20
103.2988389028
 11
174.28262514
 21
103.3035188094
  0
LINE
  5
34E
100
AcDbEntity
  8
0
100
AcDbLine
 62
7
  6
CONTINUOUS
 10
168.9321598258
 20
36.9485188095
 11
168.7759970982
 21
36.3657115758
  0
LINE
  5
34F
100
AcDbEntity
  8
0
100
AcDbLine
 62
7
  6
CONTINUOUS
 10
122.9271598258
 20
145.4485188095
 11
122.308091164
 21
145.4485188095
  0
LINE
  5
350
100
AcDbEntity
  8
0
100
AcDbLine
 62
7
  6
CONTINUOUS
 10
120.3021598258
 20
145.4485188095
 11
118.9334098258
 21
145.4485188095
  0
LINE
  5
351
100
AcDbEntity
  8
0
100
AcDbLine
 62
7
  6
CONTINUOUS
 10
119.7771598258
 20
145.9735188095
 11
118.9334098258
 21
145.9735188095
  0
LINE
  5
352
100
AcDbEntity
  8
0
100
AcDbLine
 62
7
  6
CONTINUOUS
 10
121.0800340411
 20
147.413821027
 11
120.3021598258
 21
147.413821027
  0
LINE
  5
353
100
AcDbEntity
  8
0
100
AcDbLine
 62
7
  6
CONTINUOUS
 10
121.5021598258
 20
147.9235188095
 11
120.3021598258
 21
147.9235188095
  0
LINE
  5
354
100
AcDbEntity
  8
0
100
AcDbLine
 62
7
  6
CONTINUOUS
 10
109.1097470222
 20
166.1865647838
 11
109.9004159605
 21
165.7746624174
  0
LINE
  5
355
100
AcDbEntity
  8
0
100
AcDbLine
 62
7
  6
CONTINUOUS
 10
109.1920057492
 20
167.4807205269
 11
109.9004166616
 21
167.1116687399
  0
LINE
  5
356
100
AcDbEntity
  8
0
100
AcDbLine
 62
7
  6
CONTINUOUS
 10
126.7595554399
 20
176.5985188095
 11
126.9997953681
 21
176.3985188095
  0
LINE
  5
357
100
AcDbEntity
  8
0
100
AcDbLine
 62
7
  6
CONTINUOUS
 10
195.2124592874
 20
34.4485188095
 11
195.2124592874
 21
36.3903494197
  0
LINE
  5
358
100
AcDbEntity
  8
0
100
AcDbLine
 62
7
  6
CONTINUOUS
 10
195.2124592874
 20
53.5949999538
 11
195.2124592874
 21
58.2829937489
  0
LINE
  5
359
100
AcDbEntity
  8
0
100
AcDbLine
 62
7
  6
CONTINUOUS
 10
195.2124592874
 20
82.6140438701
 11
195.2124592874
 21
87.3020376651
  0
LINE
  5
35A
100
AcDbEntity
  8
0
100
AcDbLine
 62
7
  6
CONTINUOUS
 10
195.2124592874
 20
104.5066881992
 11
195.2124592874
 21
106.4485188095
  0
LINE
  5
35B
100
AcDbEntity
  8
GEOM
100
AcDbLine
 62
7
  6
CONTINUOUS
 10
196.2228222585
 20
34.4485188095
 11
196.2228222585
 21
41.9874708667
  0
LINE
  5
35C
100
AcDbEntity
  8
GEOM
100
AcDbLine
 62
7
  6
CONTINUOUS
 10
196.2228222585
 20
47.9978785068
 11
196.2228222585
 21
66.1985188095
  0
LINE
  5
35D
100
AcDbEntity
  8
GEOM
100
AcDbLine
 62
7
  6
CONTINUOUS
 10
196.2228222585
 20
74.6985188095
 11
196.2228222585
 21
92.8991591121
  0
LINE
  5
35E
100
AcDbEntity
  8
GEOM
100
AcDbLine
 62
7
  6
CONTINUOUS
 10
196.2228222585
 20
98.9095667522
 11
196.2228222585
 21
106.4485188095
  0
LINE
  5
35F
100
AcDbEntity
  8
GEOM
100
AcDbLine
 62
7
  6
CONTINUOUS
 10
196.6558349604
 20
34.4485188095
 11
196.6558349604
 21
106.4485188095
  0
LINE
  5
360
100
AcDbEntity
  8
0
100
AcDbLine
 62
7
  6
CONTINUOUS
 10
198.6671598258
 20
106.4485188095
 11
198.6671598258
 21
34.4485188095
  0
LINE
  5
361
100
AcDbEntity
  8
0
100
AcDbLine
 62
7
  6
CONTINUOUS
 10
121.5021598258
 20
149.4235188095
 11
120.3021598258
 21
149.4235188095
  0
LINE
  5
362
100
AcDbEntity
  8
0
100
AcDbLine
 62
7
  6
CONTINUOUS
 10
119.7771598258
 20
149.4235188095
 11
118.9334098258
 21
149.4235188095
  0
LINE
  5
363
100
AcDbEntity
  8
0
100
AcDbLine
 62
7
  6
CONTINUOUS
 10
121.5021598258
 20
149.9485188095
 11
118.9334098258
 21
149.9485188095
  0
LINE
  5
364
100
AcDbEntity
  8
0
100
AcDbLine
 62
7
  6
CONTINUOUS
 10
133.1021598258
 20
151.6585693158
 11
107.559603271
 21
151.6585693158
  0
LINE
  5
365
100
AcDbEntity
  8
0
100
AcDbLine
 62
7
  6
CONTINUOUS
 10
107.3061286255
 20
151.6585693158
 11
107.1021598258
 21
151.6585693158
  0
LINE
  5
366
100
AcDbEntity
  8
0
100
AcDbLine
 62
7
  6
CONTINUOUS
 10
107.3884943663
 20
152.1535440626
 11
133.307185079
 21
152.1535440626
  0
LINE
  5
367
100
AcDbEntity
  8
0
100
AcDbLine
 62
7
  6
CONTINUOUS
 10
107.2947259496
 20
152.2434935563
 11
133.3971345726
 21
152.2434935563
  0
LINE
  5
368
100
AcDbEntity
  8
0
100
AcDbLine
 62
7
  6
CONTINUOUS
 10
107.1026404859
 20
152.7384683031
 11
133.6021598258
 21
152.7384683031
  0
LINE
  5
369
100
AcDbEntity
  8
0
100
AcDbLine
 62
7
  6
CONTINUOUS
 10
107.1038218377
 20
152.8465315489
 11
106.9112538675
 21
152.8465315489
  0
LINE
  5
36A
100
AcDbEntity
  8
0
100
AcDbLine
 62
7
  6
CONTINUOUS
 10
101.1021598258
 20
155.3985188095
 11
103.6521598258
 21
155.3985188095
  0
LINE
  5
36B
100
AcDbEntity
  8
0
100
AcDbLine
 62
7
  6
CONTINUOUS
 10
123.6021598258
 20
155.3985188095
 11
131.1021598258
 21
155.3985188095
  0
LINE
  5
36C
100
AcDbEntity
  8
0
100
AcDbLine
 62
7
  6
CONTINUOUS
 10
113.1021598258
 20
176.5985188095
 11
113.4863036552
 21
176.3985188095
  0
LINE
  5
36D
100
AcDbEntity
  8
0
100
AcDbLine
 62
7
  6
CONTINUOUS
 10
125.1021598258
 20
178.7532193479
 11
126.8021598258
 21
177.7717238902
  0
LINE
  5
36E
100
AcDbEntity
  8
0
100
AcDbLine
 62
7
  6
CONTINUOUS
 10
199.3671598258
 20
105.7485188095
 11
199.3671598258
 21
35.1485188095
  0
LINE
  5
36F
100
AcDbEntity
  8
0
100
AcDbLine
 62
7
  6
CONTINUOUS
 10
170.1905680292
 20
37.5981987162
 11
170.7900086356
 21
38.7495434296
  0
LINE
  5
370
100
AcDbEntity
  8
0
100
AcDbLine
 62
7
  6
CONTINUOUS
 10
172.0045680292
 20
37.5981987162
 11
172.6040086356
 21
38.7495434296
  0
LINE
  5
371
100
AcDbEntity
  8
0
100
AcDbLine
 62
7
  6
CONTINUOUS
 10
173.8185680292
 20
37.5981987162
 11
174.4180086356
 21
38.7495434296
  0
LINE
  5
372
100
AcDbEntity
  8
0
100
AcDbLine
 62
7
  6
CONTINUOUS
 10
170.7900086356
 20
38.7495434296
 11
170.7898330348
 21
38.7492120186
  0
LINE
  5
373
100
AcDbEntity
  8
0
100
AcDbLine
 62
7
  6
CONTINUOUS
 10
172.6040086356
 20
38.7495434296
 11
172.6038330348
 21
38.7492120186
  0
LINE
  5
374
100
AcDbEntity
  8
0
100
AcDbLine
 62
7
  6
CONTINUOUS
 10
174.4180086356
 20
38.7495434296
 11
174.4178330348
 21
38.7492120186
  0
LWPOLYLINE
  5
375
100
AcDbEntity
  8
0
100
AcDbPolyline
 62
7
  6
CONTINUOUS
 90
11
 70
0
 10
170.7898330348
 20
38.7492120186
 10
170.7924797271
 20
38.7538905499
 10
170.8016486626
 20
38.7660683597
 10
170.817213826
 20
38.7799106302
 10
170.8396125865
 20
38.7919983265
 10
170.8721011613
 20
38.7985062823
 10
170.9088360293
 20
38.7915534759
 10
170.9352186412
 20
38.7759918749
 10
170.9481985724
 20
38.7631309759
 10
170.9545717441
 20
38.7543254008
 10
170.9572389102
 20
38.7496829111
  0
LWPOLYLINE
  5
376
100
AcDbEntity
  8
0
100
AcDbPolyline
 62
7
  6
CONTINUOUS
 90
11
 70
0
 10
172.6038330348
 20
38.7492120186
 10
172.6064797271
 20
38.75389055
 10
172.6156486627
 20
38.7660683598
 10
172.6312138262
 20
38.7799106303
 10
172.6536125868
 20
38.7919983266
 10
172.6861011616
 20
38.7985062823
 10
172.7228360296
 20
38.7915534758
 10
172.7492186413
 20
38.7759918748
 10
172.7621985725
 20
38.7631309758
 10
172.7685717442
 20
38.7543254007
 10
172.7712389102
 20
38.7496829111
  0
LWPOLYLINE
  5
377
100
AcDbEntity
  8
0
100
AcDbPolyline
 62
7
  6
CONTINUOUS
 90
11
 70
0
 10
174.4178330348
 20
38.7492120186
 10
174.4204797271
 20
38.75389055
 10
174.4296486626
 20
38.7660683598
 10
174.4452138262
 20
38.7799106303
 10
174.4676125867
 20
38.7919983265
 10
174.5001011615
 20
38.7985062823
 10
174.5368360295
 20
38.7915534758
 10
174.5632186413
 20
38.7759918749
 10
174.5761985724
 20
38.7631309758
 10
174.5825717441
 20
38.7543254008
 10
174.5852389102
 20
38.7496829111
  0
LINE
  5
378
100
AcDbEntity
  8
0
100
AcDbLine
 62
7
  6
CONTINUOUS
 10
102.9247670866
 20
159.6259115487
 11
102.1021598258
 21
159.6259115487
  0
LINE
  5
379
100
AcDbEntity
  8
0
100
AcDbLine
 62
7
  6
CONTINUOUS
 10
103.4183280033
 20
160.1194759052
 11
106.5715678653
 21
160.1194759052
  0
LINE
  5
37A
100
AcDbEntity
  8
0
100
AcDbLine
 62
7
  6
CONTINUOUS
 10
133.6021598258
 20
160.3803717927
 11
132.9154060232
 21
160.3803717927
  0
LINE
  5
37B
100
AcDbEntity
  8
0
100
AcDbLine
 62
7
  6
CONTINUOUS
 10
123.6021598258
 20
160.3803717927
 11
107.1038218377
 21
160.3803717927
  0
LINE
  5
37C
100
AcDbEntity
  8
0
100
AcDbLine
 62
7
  6
CONTINUOUS
 10
102.9247670866
 20
160.4485188095
 11
106.9571742574
 21
160.4485188095
  0
LINE
  5
37D
100
AcDbEntity
  8
0
100
AcDbLine
 62
7
  6
CONTINUOUS
 10
133.6503470435
 20
160.4967060272
 11
132.9577482218
 21
160.4967060272
  0
LINE
  5
37E
100
AcDbEntity
  8
0
100
AcDbLine
 62
7
  6
CONTINUOUS
 10
123.6021598258
 20
160.4967060272
 11
107.01085698
 21
160.4967060272
  0
LINE
  5
37F
100
AcDbEntity
  8
0
100
AcDbLine
 62
7
  6
CONTINUOUS
 10
106.9543441347
 20
160.5485188095
 11
123.6021598258
 21
160.5485188095
  0
LINE
  5
380
100
AcDbEntity
  8
0
100
AcDbLine
 62
7
  6
CONTINUOUS
 10
132.9766065323
 20
160.5485188095
 11
133.7021598258
 21
160.5485188095
  0
LINE
  5
381
100
AcDbEntity
  8
0
100
AcDbLine
 62
7
  6
CONTINUOUS
 10
101.1021598258
 20
162.3985188095
 11
105.1021598258
 21
162.3985188095
  0
LINE
  5
382
100
AcDbEntity
  8
0
100
AcDbLine
 62
7
  6
CONTINUOUS
 10
121.8820055819
 20
164.4485188095
 11
106.5021598258
 21
164.4485188095
  0
LINE
  5
383
100
AcDbEntity
  8
0
100
AcDbLine
 62
7
  6
CONTINUOUS
 10
121.0429059507
 20
165.4485188095
 11
107.5021598258
 21
165.4485188095
  0
LINE
  5
384
100
AcDbEntity
  8
0
100
AcDbLine
 62
7
  6
CONTINUOUS
 10
170.1905680292
 20
37.5981987162
 11
170.1856770119
 21
37.5935188735
  0
LINE
  5
385
100
AcDbEntity
  8
0
100
AcDbLine
 62
7
  6
CONTINUOUS
 10
118.5675620387
 20
168.3985188095
 11
110.1021598258
 21
168.3985188095
  0
LINE
  5
386
100
AcDbEntity
  8
0
100
AcDbLine
 62
7
  6
CONTINUOUS
 10
110.12848172
 20
171.3211685403
 11
110.1021598258
 21
171.3211685403
  0
LINE
  5
387
100
AcDbEntity
  8
0
100
AcDbLine
 62
7
  6
CONTINUOUS
 10
114.4873806635
 20
171.3211685403
 11
115.7432608823
 21
171.3211685403
  0
LINE
  5
388
100
AcDbEntity
  8
0
100
AcDbLine
 62
7
  6
CONTINUOUS
 10
111.1021598258
 20
171.8985188095
 11
115.6307133296
 21
171.8985188095
  0
LINE
  5
389
100
AcDbEntity
  8
0
100
AcDbLine
 62
7
  6
CONTINUOUS
 10
115.5526737016
 20
171.9985188095
 11
113.2021598258
 21
171.9985188095
  0
LINE
  5
38A
100
AcDbEntity
  8
0
100
AcDbLine
 62
7
  6
CONTINUOUS
 10
101.375789646
 20
172.3985188095
 11
115.211163514
 21
172.3985188095
  0
LINE
  5
38B
100
AcDbEntity
  8
0
100
AcDbLine
 62
7
  6
CONTINUOUS
 10
115.4847933342
 20
172.3985188095
 11
133.9833576723
 21
172.3985188095
  0
LINE
  5
38C
100
AcDbEntity
  8
0
100
AcDbLine
 62
7
  6
CONTINUOUS
 10
136.8701090182
 20
172.3985188095
 11
138.6021598258
 21
172.3985188095
  0
LINE
  5
38D
100
AcDbEntity
  8
0
100
AcDbLine
 62
7
  6
CONTINUOUS
 10
105.1021598258
 20
176.3985188095
 11
138.6021598258
 21
176.3985188095
  0
LINE
  5
38E
100
AcDbEntity
  8
0
100
AcDbLine
 62
7
  6
CONTINUOUS
 10
127.1021598258
 20
176.5985188095
 11
113.1021598258
 21
176.5985188095
  0
LINE
  5
38F
100
AcDbEntity
  8
0
100
AcDbLine
 62
7
  6
CONTINUOUS
 10
117.9390408652
 20
176.5985188095
 11
119.9215388825
 21
176.3985188095
  0
LINE
  5
390
100
AcDbEntity
  8
0
100
AcDbLine
 62
7
  6
CONTINUOUS
 10
120.1021598258
 20
176.5985188095
 11
122.0618657043
 21
176.3985188095
  0
LINE
  5
391
100
AcDbEntity
  8
0
100
AcDbLine
 62
7
  6
CONTINUOUS
 10
115.9876630598
 20
176.5985188095
 11
117.7988924971
 21
176.3985188095
  0
LINE
  5
392
100
AcDbEntity
  8
0
100
AcDbLine
 62
7
  6
CONTINUOUS
 10
122.2652787864
 20
176.5985188095
 11
124.0103628606
 21
176.3985188095
  0
LINE
  5
393
100
AcDbEntity
  8
0
100
AcDbLine
 62
7
  6
CONTINUOUS
 10
114.4390408652
 20
176.5985188095
 11
115.9017059656
 21
176.3985188095
  0
LINE
  5
394
100
AcDbEntity
  8
0
100
AcDbLine
 62
7
  6
CONTINUOUS
 10
124.2166565919
 20
176.5985188095
 11
125.5762978738
 21
176.3985188095
  0
LINE
  5
395
100
AcDbEntity
  8
0
100
AcDbLine
 62
7
  6
CONTINUOUS
 10
113.4447642117
 20
176.5985188095
 11
114.4156891243
 21
176.3985188095
  0
LINE
  5
396
100
AcDbEntity
  8
0
100
AcDbLine
 62
7
  6
CONTINUOUS
 10
125.7652787864
 20
176.5985188095
 11
126.6063861143
 21
176.3985188095
  0
LINE
  5
397
100
AcDbEntity
  8
0
100
AcDbLine
 62
7
  6
CONTINUOUS
 10
172.0045680292
 20
37.5981987162
 11
171.9997181642
 21
37.5935189149
  0
LINE
  5
398
100
AcDbEntity
  8
0
100
AcDbLine
 62
7
  6
CONTINUOUS
 10
173.8185680292
 20
37.5981987162
 11
173.8136952557
 21
37.5935188095
  0
LINE
  5
399
100
AcDbEntity
  8
0
100
AcDbLine
 62
7
  6
CONTINUOUS
 10
127.1021598258
 20
177.252108648
 11
113.1021598258
 21
177.252108648
  0
LINE
  5
39A
100
AcDbEntity
  8
0
100
AcDbLine
 62
7
  6
CONTINUOUS
 10
126.8021598258
 20
177.7717238902
 11
113.4021598258
 21
177.7717238902
  0
LINE
  5
39B
100
AcDbEntity
  8
0
100
AcDbLine
 62
7
  6
CONTINUOUS
 10
115.1021598258
 20
182.0985188095
 11
125.1021598258
 21
182.0985188095
  0
LINE
  5
39C
100
AcDbEntity
  8
0
100
AcDbLine
 62
7
  6
CONTINUOUS
 10
162.9021598258
 20
187.8985188095
 11
258.9021598258
 21
187.8985188095
  0
LINE
  5
39D
100
AcDbEntity
  8
0
100
AcDbLine
 62
7
  6
CONTINUOUS
 10
158.5016547624
 20
189.3985188095
 11
162.1021598258
 21
189.3985188095
  0
LINE
  5
39E
100
AcDbEntity
  8
0
100
AcDbLine
 62
7
  6
CONTINUOUS
 10
162.1021598258
 20
191.0985188095
 11
262.1021598258
 21
191.0985188095
  0
LINE
  5
39F
100
AcDbEntity
  8
0
100
AcDbLine
 62
7
  6
CONTINUOUS
 10
162.1021598258
 20
191.6985188095
 11
262.1021598258
 21
191.6985188095
  0
LINE
  5
3A0
100
AcDbEntity
  8
0
100
AcDbLine
 62
7
  6
CONTINUOUS
 10
162.1021598258
 20
193.3985188095
 11
158.0874412
 21
193.3985188095
  0
LINE
  5
3A1
100
AcDbEntity
  8
0
100
AcDbLine
 62
7
  6
CONTINUOUS
 10
162.9021598258
 20
194.8985188095
 11
258.9021598258
 21
194.8985188095
  0
LINE
  5
3A2
100
AcDbEntity
  8
0
100
AcDbLine
 62
7
  6
CONTINUOUS
 10
249.1021598258
 20
187.8985188095
 11
249.1021598258
 21
194.8985188095
  0
LINE
  5
3A3
100
AcDbEntity
  8
0
100
AcDbLine
 62
7
  6
CONTINUOUS
 10
262.1021598258
 20
191.0985188095
 11
262.1021598258
 21
191.6985188095
  0
ARC
  5
3A4
100
AcDbEntity
  8
0
100
AcDbCircle
 62
7
  6
CONTINUOUS
 10
-532.8679197279
 20
88.2267606889
 40
603.9508925225
100
AcDbArc
 50
0.8786513004
 51
1.0427388287
  0
ARC
  5
3A5
100
AcDbEntity
  8
0
100
AcDbCircle
 62
7
  6
CONTINUOUS
 10
146.9004024659
 20
67.813975825
 40
77.3086683284
100
AcDbArc
 50
167.6789148288
 51
168.6556027572
  0
ARC
  5
3A6
100
AcDbEntity
  8
0
100
AcDbCircle
 62
7
  6
CONTINUOUS
 10
138.2081056983
 20
71.5745380858
 40
67.6061707613
100
AcDbArc
 50
186.9742137827
 51
191.563940448
  0
ARC
  5
3A7
100
AcDbEntity
  8
0
100
AcDbCircle
 62
7
  6
CONTINUOUS
 10
138.2072473259
 20
69.3226429627
 40
67.6053005719
100
AcDbArc
 50
168.4360327266
 51
173.0258237571
  0
ARC
  5
3A8
100
AcDbEntity
  8
0
100
AcDbCircle
 62
7
  6
CONTINUOUS
 10
111.0895516687
 20
96.5623354657
 40
41.5638366273
100
AcDbArc
 50
195.8306773896
 51
197.1433077977
  0
ARC
  5
3A9
100
AcDbEntity
  8
0
100
AcDbCircle
 62
7
  6
CONTINUOUS
 10
110.942601185
 20
44.40945991
 40
41.4020790662
100
AcDbArc
 50
162.9008508256
 51
164.2133817992
  0
ARC
  5
3AA
100
AcDbEntity
  8
0
100
AcDbCircle
 62
7
  6
CONTINUOUS
 10
110.1301317792
 20
49.0142284572
 40
40.5816152262
100
AcDbArc
 50
195.9053755969
 51
197.2404829187
  0
ARC
  5
3AB
100
AcDbEntity
  8
0
100
AcDbCircle
 62
7
  6
CONTINUOUS
 10
110.1243447713
 20
91.8843593111
 40
40.5756248055
100
AcDbArc
 50
162.7595566344
 51
164.0944925183
  0
ARC
  5
3AC
100
AcDbEntity
  8
0
100
AcDbCircle
 62
7
  6
CONTINUOUS
 10
129.2946598258
 20
65.9635188095
 40
4.1925
100
AcDbArc
 50
79.7295607216
 51
180.0
  0
ARC
  5
3AD
100
AcDbEntity
  8
0
100
AcDbCircle
 62
7
  6
CONTINUOUS
 10
127.9621598258
 20
66.2885188095
 40
4.16
100
AcDbArc
 50
90.0
 51
180.0
  0
ARC
  5
3AE
100
AcDbEntity
  8
0
100
AcDbCircle
 62
7
  6
CONTINUOUS
 10
126.2030925938
 20
68.7953500721
 40
2.73
100
AcDbArc
 50
113.7828917797
 51
151.5775992543
  0
ARC
  5
3AF
100
AcDbEntity
  8
0
100
AcDbCircle
 62
7
  6
CONTINUOUS
 10
101.9305869506
 20
29.4485188095
 40
2.0
100
AcDbArc
 50
224.999999999
 51
270.0
  0
ARC
  5
3B0
100
AcDbEntity
  8
0
100
AcDbCircle
 62
7
  6
CONTINUOUS
 10
154.4279020426
 20
26.8485188095
 40
1.4
100
AcDbArc
 50
319.9947991151
 51
345.0000000001
  0
ARC
  5
3B1
100
AcDbEntity
  8
0
100
AcDbCircle
 62
7
  6
CONTINUOUS
 10
159.0634620852
 20
105.2485188095
 40
0.7999999934
100
AcDbArc
 50
195.0000084711
 51
269.9999977104
  0
ARC
  5
3B2
100
AcDbEntity
  8
0
100
AcDbCircle
 62
7
  6
CONTINUOUS
 10
159.0634620852
 20
35.6485188095
 40
0.7999999934
100
AcDbArc
 50
90.0000022896
 51
164.9999915289
  0
ARC
  5
3B3
100
AcDbEntity
  8
0
100
AcDbCircle
 62
7
  6
CONTINUOUS
 10
198.6671598258
 20
35.1485188095
 40
0.7
100
AcDbArc
 50
270.0
 51
360.0
  0
ARC
  5
3B4
100
AcDbEntity
  8
0
100
AcDbCircle
 62
7
  6
CONTINUOUS
 10
198.6671598258
 20
105.7485188095
 40
0.7
100
AcDbArc
 50
0.0
 51
90.0
  0
ARC
  5
3B5
100
AcDbEntity
  8
0
100
AcDbCircle
 62
7
  6
CONTINUOUS
 10
41.5371598258
 20
105.7485188095
 40
0.7
100
AcDbArc
 50
90.0
 51
180.0
  0
ARC
  5
3B6
100
AcDbEntity
  8
0
100
AcDbCircle
 62
7
  6
CONTINUOUS
 10
41.5371598258
 20
35.1485188095
 40
0.7
100
AcDbArc
 50
180.0
 51
270.0
  0
ARC
  5
3B7
100
AcDbEntity
  8
0
100
AcDbCircle
 62
7
  6
CONTINUOUS
 10
141.3421093195
 20
27.3985188095
 40
0.7
100
AcDbArc
 50
224.9999999855
 51
270.0
  0
ARC
  5
3B8
100
AcDbEntity
  8
0
100
AcDbCircle
 62
7
  6
CONTINUOUS
 10
140.0122103321
 20
26.7485188095
 40
0.7
100
AcDbArc
 50
44.9999999852
 51
90.0
  0
ARC
  5
3B9
100
AcDbEntity
  8
0
100
AcDbCircle
 62
7
  6
CONTINUOUS
 10
148.6763268009
 20
25.9985188095
 40
0.7
100
AcDbArc
 50
29.9999999876
 51
90.0
  0
ARC
  5
3BA
100
AcDbEntity
  8
0
100
AcDbCircle
 62
7
  6
CONTINUOUS
 10
121.3256037601
 20
149.1445775744
 40
22.8684004441
100
AcDbArc
 50
103.332705396
 51
104.1290825055
  0
ARC
  5
3BB
100
AcDbEntity
  8
0
100
AcDbCircle
 62
7
  6
CONTINUOUS
 10
103.6744182985
 20
149.1034149029
 40
4.4405105531
100
AcDbArc
 50
35.1289845774
 51
36.544984613
  0
ARC
  5
3BC
100
AcDbEntity
  8
0
100
AcDbCircle
 62
7
  6
CONTINUOUS
 10
102.5969381752
 20
152.1267484452
 40
4.3739464571
100
AcDbArc
 50
8.2460249398
 51
9.4717609225
  0
ARC
  5
3BD
100
AcDbEntity
  8
0
100
AcDbCircle
 62
7
  6
CONTINUOUS
 10
101.9305869506
 20
111.4485188095
 40
2.0
100
AcDbArc
 50
90.0
 51
135.0000000022
  0
ARC
  5
3BE
100
AcDbEntity
  8
0
100
AcDbCircle
 62
7
  6
CONTINUOUS
 10
118.9334098258
 20
148.2985188095
 40
1.65
100
AcDbArc
 50
90.0
 51
180.0
  0
ARC
  5
3BF
100
AcDbEntity
  8
0
100
AcDbCircle
 62
7
  6
CONTINUOUS
 10
118.9334098258
 20
147.0985188095
 40
1.65
100
AcDbArc
 50
180.0
 51
270.0
  0
ARC
  5
3C0
100
AcDbEntity
  8
0
100
AcDbCircle
 62
7
  6
CONTINUOUS
 10
154.4279020426
 20
114.0485188095
 40
1.4
100
AcDbArc
 50
14.9999999998
 51
40.0052008849
  0
ARC
  5
3C1
100
AcDbEntity
  8
0
100
AcDbCircle
 62
7
  6
CONTINUOUS
 10
121.5021598258
 20
148.6735188095
 40
1.275
100
AcDbArc
 50
278.8857694273
 51
90.0
  0
ARC
  5
3C2
100
AcDbEntity
  8
0
100
AcDbCircle
 62
7
  6
CONTINUOUS
 10
121.3466042703
 20
121.204074365
 40
1.2444444444
100
AcDbArc
 50
0.0
 51
180.0
  0
ARC
  5
3C3
100
AcDbEntity
  8
0
100
AcDbCircle
 62
7
  6
CONTINUOUS
 10
121.3466042703
 20
119.6929632539
 40
1.2444444444
100
AcDbArc
 50
180.0
 51
120.0
  0
ARC
  5
3C4
100
AcDbEntity
  8
0
100
AcDbCircle
 62
7
  6
CONTINUOUS
 10
118.9334098258
 20
147.0985188095
 40
1.125
100
AcDbArc
 50
180.0
 51
270.0
  0
ARC
  5
3C5
100
AcDbEntity
  8
0
100
AcDbCircle
 62
7
  6
CONTINUOUS
 10
118.9334098258
 20
148.2985188095
 40
1.125
100
AcDbArc
 50
90.0
 51
180.0
  0
ARC
  5
3C6
100
AcDbEntity
  8
0
100
AcDbCircle
 62
7
  6
CONTINUOUS
 10
118.9688264925
 20
127.4707410317
 40
0.9333333333
100
AcDbArc
 50
0.0
 51
90.0
  0
ARC
  5
3C7
100
AcDbEntity
  8
0
100
AcDbCircle
 62
7
  6
CONTINUOUS
 10
118.9688264925
 20
126.7685188095
 40
0.9333333333
100
AcDbArc
 50
270.0
 51
360.0
  0
ARC
  5
3C8
100
AcDbEntity
  8
0
100
AcDbCircle
 62
7
  6
CONTINUOUS
 10
106.7635415591
 20
151.86888757
 40
0.8233759878
100
AcDbArc
 50
343.1459801918
 51
345.2006944871
  0
ARC
  5
3C9
100
AcDbEntity
  8
0
100
AcDbCircle
 62
7
  6
CONTINUOUS
 10
121.5021598258
 20
148.6735188095
 40
0.75
100
AcDbArc
 50
270.0
 51
90.0
  0
ARC
  5
3CA
100
AcDbEntity
  8
0
100
AcDbCircle
 62
7
  6
CONTINUOUS
 10
141.3421093195
 20
113.4985188095
 40
0.7
100
AcDbArc
 50
90.0
 51
135.0000000134
  0
ARC
  5
3CB
100
AcDbEntity
  8
0
100
AcDbCircle
 62
7
  6
CONTINUOUS
 10
132.9021598258
 20
152.7384683031
 40
0.7
100
AcDbArc
 50
315.0
 51
360.0
  0
ARC
  5
3CC
100
AcDbEntity
  8
0
100
AcDbCircle
 62
7
  6
CONTINUOUS
 10
140.0122103321
 20
114.1485188095
 40
0.7
100
AcDbArc
 50
270.0
 51
315.0000000137
  0
ARC
  5
3CD
100
AcDbEntity
  8
0
100
AcDbCircle
 62
7
  6
CONTINUOUS
 10
148.6763268009
 20
114.8985188095
 40
0.7
100
AcDbArc
 50
270.0
 51
330.0000000116
  0
ARC
  5
3CE
100
AcDbEntity
  8
0
100
AcDbCircle
 62
7
  6
CONTINUOUS
 10
133.8021598258
 20
151.6585693158
 40
0.7
100
AcDbArc
 50
135.0
 51
180.0
  0
ARC
  5
3CF
100
AcDbEntity
  8
0
100
AcDbCircle
 62
7
  6
CONTINUOUS
 10
106.4021598258
 20
151.6585693158
 40
0.7
100
AcDbArc
 50
0.0
 51
30.0000032799
  0
ARC
  5
3D0
100
AcDbEntity
  8
0
100
AcDbCircle
 62
7
  6
CONTINUOUS
 10
106.9379449458
 20
151.694048587
 40
0.6435300089
100
AcDbArc
 50
41.7699322015
 51
45.5632191295
  0
ARC
  5
3D1
100
AcDbEntity
  8
0
100
AcDbCircle
 62
7
  6
CONTINUOUS
 10
106.8844944462
 20
151.6305962066
 40
0.6296243015
100
AcDbArc
 50
43.0678655425
 51
45.8806601049
  0
CIRCLE
  5
3D2
100
AcDbEntity
  8
0
100
AcDbCircle
 62
7
  6
CONTINUOUS
 10
121.3466042703
 20
119.6929632539
 40
0.6222222222
  0
ARC
  5
3D3
100
AcDbEntity
  8
0
100
AcDbCircle
 62
7
  6
CONTINUOUS
 10
121.3466042703
 20
121.204074365
 40
0.6222222222
100
AcDbArc
 50
0.0
 51
180.0
  0
ARC
  5
3D4
100
AcDbEntity
  8
0
100
AcDbCircle
 62
7
  6
CONTINUOUS
 10
106.9018633602
 20
151.6468091386
 40
0.6058642919
100
AcDbArc
 50
40.1528593351
 51
43.069409492
  0
ARC
  5
3D5
100
AcDbEntity
  8
0
100
AcDbCircle
 62
7
  6
CONTINUOUS
 10
118.9688264925
 20
126.7685188095
 40
0.3111111111
100
AcDbArc
 50
270.0
 51
360.0
  0
ARC
  5
3D6
100
AcDbEntity
  8
0
100
AcDbCircle
 62
7
  6
CONTINUOUS
 10
118.9688264925
 20
127.4707410317
 40
0.3111111111
100
AcDbArc
 50
0.0
 51
90.0
  0
ARC
  5
3D7
100
AcDbEntity
  8
0
100
AcDbCircle
 62
7
  6
CONTINUOUS
 10
66.0145815615
 20
183.5767629561
 40
54.5358782259
100
AcDbArc
 50
352.4365383188
 51
352.6484523501
  0
ARC
  5
3D8
100
AcDbEntity
  8
0
100
AcDbCircle
 62
7
  6
CONTINUOUS
 10
158.0874412
 20
188.3985188095
 40
5.0
100
AcDbArc
 50
90.0
 51
135.0
  0
ARC
  5
3D9
100
AcDbEntity
  8
0
100
AcDbCircle
 62
7
  6
CONTINUOUS
 10
138.6021598258
 20
177.3985188095
 40
5.0
100
AcDbArc
 50
270.0
 51
315.0
  0
ARC
  5
3DA
100
AcDbEntity
  8
0
100
AcDbCircle
 62
7
  6
CONTINUOUS
 10
102.2232913085
 20
152.8458476285
 40
4.8805305772
100
AcDbArc
 50
358.7393012864
 51
0.008028995
  0
ARC
  5
3DB
100
AcDbEntity
  8
0
100
AcDbCircle
 62
7
  6
CONTINUOUS
 10
105.1021598258
 20
172.3985188095
 40
4.0
100
AcDbArc
 50
90.0
 51
180.0
  0
ARC
  5
3DC
100
AcDbEntity
  8
0
100
AcDbCircle
 62
7
  6
CONTINUOUS
 10
158.5016547624
 20
187.3985188095
 40
2.0
100
AcDbArc
 50
90.0
 51
135.0
  0
ARC
  5
3DD
100
AcDbEntity
  8
0
100
AcDbCircle
 62
7
  6
CONTINUOUS
 10
138.6021598258
 20
177.3985188095
 40
1.0
100
AcDbArc
 50
270.0
 51
315.0
  0
ARC
  5
3DE
100
AcDbEntity
  8
0
100
AcDbCircle
 62
7
  6
CONTINUOUS
 10
102.9247670866
 20
157.2892538934
 40
0.8226072608
100
AcDbArc
 50
180.0
 51
225.0
  0
ARC
  5
3DF
100
AcDbEntity
  8
0
100
AcDbCircle
 62
7
  6
CONTINUOUS
 10
102.9247670866
 20
159.6259115487
 40
0.8226072608
100
AcDbArc
 50
90.0
 51
180.0
  0
ARC
  5
3E0
100
AcDbEntity
  8
0
100
AcDbCircle
 62
7
  6
CONTINUOUS
 10
126.5021598258
 20
177.252108648
 40
0.6
100
AcDbArc
 50
0.0
 51
60.0
  0
ARC
  5
3E1
100
AcDbEntity
  8
0
100
AcDbCircle
 62
7
  6
CONTINUOUS
 10
113.7021598258
 20
177.252108648
 40
0.6
100
AcDbArc
 50
120.0
 51
180.0
  0
ARC
  5
3E2
100
AcDbEntity
  8
0
100
AcDbCircle
 62
7
  6
CONTINUOUS
 10
105.6021598258
 20
171.8985188095
 40
0.5
100
AcDbArc
 50
90.0
 51
180.0
  0
ARC
  5
3E3
100
AcDbEntity
  8
0
100
AcDbCircle
 62
7
  6
CONTINUOUS
 10
106.8683666514
 20
160.43511622
 40
0.2265213303
100
AcDbArc
 50
275.7858674831
 51
285.397833335
  0
ARC
  5
3E4
100
AcDbEntity
  8
0
100
AcDbCircle
 62
7
  6
CONTINUOUS
 10
133.766681278
 20
160.3803717927
 40
0.1645214522
100
AcDbArc
 50
135.0
 51
180.0
  0
ARC
  5
3E5
100
AcDbEntity
  8
0
100
AcDbCircle
 62
7
  6
CONTINUOUS
 10
258.9021598258
 20
191.0985188095
 40
3.2
100
AcDbArc
 50
270.0
 51
360.0
  0
ARC
  5
3E6
100
AcDbEntity
  8
0
100
AcDbCircle
 62
7
  6
CONTINUOUS
 10
258.9021598258
 20
191.6985188095
 40
3.2
100
AcDbArc
 50
0.0
 51
90.0
  0
ARC
  5
3E7
100
AcDbEntity
  8
0
100
AcDbCircle
 62
7
  6
CONTINUOUS
 10
162.9021598258
 20
194.0985188095
 40
0.8
100
AcDbArc
 50
90.0
 51
180.0
  0
ARC
  5
3E8
100
AcDbEntity
  8
0
100
AcDbCircle
 62
7
  6
CONTINUOUS
 10
162.9021598258
 20
188.6985188095
 40
0.8
100
AcDbArc
 50
180.0
 51
270.0
  0
ARC
  5
3E9
100
AcDbEntity
  8
0
100
AcDbCircle
 62
7
  6
CONTINUOUS
 10
9315.7340073403
 20
146.8956423019
 40
9140.879489684
100
AcDbArc
 50
180.4791824023
 51
180.6068099895
  0
SPLINE
  5
3EA
100
AcDbEntity
  8
0
100
AcDbSpline
 62
7
  6
CONTINUOUS
 70
0
 71
3
 72
9
 73
5
 74
0
 42
0.0000001
 43
0.0000001
 44
0.0000000001
 40
0.0
 40
0.0
 40
0.0
 40
0.0
 40
0.2530923567
 40
1.0
 40
1.0
 40
1.0
 40
1.0
 10
120.1021598258
 20
176.5985188095
 30
0.0
 10
120.1739872106
 20
176.5814144845
 30
0.0
 10
120.4579965209
 20
176.5147215091
 30
0.0
 10
120.7423869959
 20
176.4496334908
 30
0.0
 10
120.9542058599
 20
176.3985188095
 30
0.0
  0
SPLINE
  5
3EB
100
AcDbEntity
  8
0
100
AcDbSpline
 62
7
  6
CONTINUOUS
 70
0
 71
3
 72
11
 73
7
 74
0
 42
0.0000001
 43
0.0000001
 44
0.0000000001
 40
0.0
 40
0.0
 40
0.0
 40
0.0
 40
0.2514101512
 40
0.5017415083
 40
0.7511442914
 40
1.0
 40
1.0
 40
1.0
 40
1.0
 10
115.1021598258
 20
181.6519368221
 30
0.0
 10
115.3049038005
 20
181.719518147
 30
0.0
 10
115.7133398107
 20
181.8433931536
 30
0.0
 10
116.3361979884
 20
181.9866149549
 30
0.0
 10
116.9668014842
 20
182.0776314557
 30
0.0
 10
117.3906203132
 20
182.0985188095
 30
0.0
 10
117.6021598261
 20
182.0985188095
 30
0.0
  0
SPLINE
  5
3EC
100
AcDbEntity
  8
0
100
AcDbSpline
 62
7
  6
CONTINUOUS
 70
0
 71
3
 72
11
 73
7
 74
0
 42
0.0000001
 43
0.0000001
 44
0.0000000001
 40
0.0
 40
0.0
 40
0.0
 40
0.0
 40
0.2488504934
 40
0.4982498921
 40
0.7485823732
 40
1.0
 40
1.0
 40
1.0
 40
1.0
 10
117.6021598261
 20
182.0985188095
 30
0.0
 10
117.8136948607
 20
182.0985188095
 30
0.0
 10
118.2375061422
 20
182.0776288107
 30
0.0
 10
118.868103265
 20
181.9866150459
 30
0.0
 10
119.4909665198
 20
181.8433960325
 30
0.0
 10
119.8994098659
 20
181.7195201421
 30
0.0
 10
120.1021598258
 20
181.6519368221
 30
0.0
  0
SPLINE
  5
3ED
100
AcDbEntity
  8
0
100
AcDbSpline
 62
7
  6
CONTINUOUS
 70
0
 71
3
 72
15
 73
11
 74
0
 42
0.0000001
 43
0.0000001
 44
0.0000000001
 40
0.0
 40
0.0
 40
0.0
 40
0.0
 40
0.1257074525
 40
0.250873099
 40
0.3755743725
 40
0.5000000224
 40
0.6244256683
 40
0.7491269332
 40
0.8742925582
 40
1.0
 40
1.0
 40
1.0
 40
1.0
 10
120.1021598258
 20
178.3066373605
 30
0.0
 10
119.8994121235
 20
178.3742199279
 30
0.0
 10
119.4909692152
 20
178.4980946565
 30
0.0
 10
118.8681201199
 20
178.6413157629
 30
0.0
 10
118.2374731221
 20
178.7323255976
 30
0.0
 10
117.602159719
 20
178.7636412094
 30
0.0
 10
116.9668463331
 20
178.7323255586
 30
0.0
 10
116.3361993951
 20
178.641315722
 30
0.0
 10
115.7133503661
 20
178.4980946376
 30
0.0
 10
115.3049075109
 20
178.3742199222
 30
0.0
 10
115.1021598258
 20
178.3066373605
 30
0.0
  0
LINE
  5
3EE
100
AcDbEntity
  8
0
100
AcDbLine
 62
7
  6
CONTINUOUS
 10
119.1502458566
 20
176.3985188095
 11
119.1598743313
 21
176.4753576292
  0
SPLINE
  5
3EF
100
AcDbEntity
  8
0
100
AcDbSpline
 62
7
  6
CONTINUOUS
 70
0
 71
3
 72
11
 73
7
 74
0
 42
0.0000001
 43
0.0000001
 44
0.0000000001
 40
0.0
 40
0.0
 40
0.0
 40
0.0
 40
0.2514101512
 40
0.5017415083
 40
0.7511442914
 40
1.0
 40
1.0
 40
1.0
 40
1.0
 10
120.1021598258
 20
181.6519368221
 30
0.0
 10
120.3049038005
 20
181.719518147
 30
0.0
 10
120.7133398107
 20
181.8433931536
 30
0.0
 10
121.3361979884
 20
181.9866149549
 30
0.0
 10
121.9668014842
 20
182.0776314557
 30
0.0
 10
122.3906203132
 20
182.0985188095
 30
0.0
 10
122.6021598261
 20
182.0985188095
 30
0.0
  0
SPLINE
  5
3F0
100
AcDbEntity
  8
0
100
AcDbSpline
 62
7
  6
CONTINUOUS
 70
0
 71
3
 72
11
 73
7
 74
0
 42
0.0000001
 43
0.0000001
 44
0.0000000001
 40
0.0
 40
0.0
 40
0.0
 40
0.0
 40
0.2488504934
 40
0.4982498921
 40
0.7485823732
 40
1.0
 40
1.0
 40
1.0
 40
1.0
 10
122.6021598261
 20
182.0985188095
 30
0.0
 10
122.8136948607
 20
182.0985188095
 30
0.0
 10
123.2375061422
 20
182.0776288107
 30
0.0
 10
123.868103265
 20
181.9866150459
 30
0.0
 10
124.4909665198
 20
181.8433960325
 30
0.0
 10
124.8994098659
 20
181.7195201421
 30
0.0
 10
125.1021598258
 20
181.6519368221
 30
0.0
  0
SPLINE
  5
3F1
100
AcDbEntity
  8
0
100
AcDbSpline
 62
7
  6
CONTINUOUS
 70
0
 71
3
 72
15
 73
11
 74
0
 42
0.0000001
 43
0.0000001
 44
0.0000000001
 40
0.0
 40
0.0
 40
0.0
 40
0.0
 40
0.1257074525
 40
0.250873099
 40
0.3755743725
 40
0.5000000224
 40
0.6244256683
 40
0.7491269332
 40
0.8742925582
 40
1.0
 40
1.0
 40
1.0
 40
1.0
 10
125.1021598258
 20
178.3066373605
 30
0.0
 10
124.8994121235
 20
178.3742199279
 30
0.0
 10
124.4909692152
 20
178.4980946565
 30
0.0
 10
123.8681201199
 20
178.6413157629
 30
0.0
 10
123.2374731221
 20
178.7323255976
 30
0.0
 10
122.602159719
 20
178.7636412094
 30
0.0
 10
121.9668463331
 20
178.7323255586
 30
0.0
 10
121.3361993951
 20
178.641315722
 30
0.0
 10
120.7133503661
 20
178.4980946376
 30
0.0
 10
120.3049075109
 20
178.3742199222
 30
0.0
 10
120.1021598258
 20
178.3066373605
 30
0.0
  0
SPLINE
  5
3F2
100
AcDbEntity
  8
0
100
AcDbSpline
 62
7
  6
CONTINUOUS
 70
0
 71
3
 72
11
 73
7
 74
0
 42
0.0000001
 43
0.0000001
 44
0.0000000001
 40
0.0
 40
0.0
 40
0.0
 40
0.0
 40
0.3464957498
 40
0.5894496214
 40
0.7777483999
 40
1.0
 40
1.0
 40
1.0
 40
1.0
 10
109.1920136502
 20
167.4807205208
 30
0.0
 10
109.1912974316
 20
167.4810935444
 30
0.0
 10
109.1901252699
 20
167.4818009627
 30
0.0
 10
109.1887951068
 20
167.4831380858
 30
0.0
 10
109.1886025343
 20
167.4847843997
 30
0.0
 10
109.1892398506
 20
167.4855972707
 30
0.0
 10
109.1896064513
 20
167.4859631978
 30
0.0
  0
SPLINE
  5
3F3
100
AcDbEntity
  8
0
100
AcDbSpline
 62
7
  6
CONTINUOUS
 70
0
 71
3
 72
9
 73
5
 74
0
 42
0.0000001
 43
0.0000001
 44
0.0000000001
 40
0.0
 40
0.0
 40
0.0
 40
0.0
 40
0.3458753419
 40
1.0
 40
1.0
 40
1.0
 40
1.0
 10
109.109750976
 20
166.1865647915
 30
0.0
 10
109.1086095632
 20
166.1871596922
 30
0.0
 10
109.1055034061
 20
166.1889232135
 30
0.0
 10
109.1021684778
 20
166.1920349371
 30
0.0
 10
109.102169029
 20
166.194469196
 30
0.0
  0
SPLINE
  5
3F4
100
AcDbEntity
  8
0
100
AcDbSpline
 62
7
  6
CONTINUOUS
 70
0
 71
3
 72
9
 73
5
 74
0
 42
0.0000001
 43
0.0000001
 44
0.0000000001
 40
0.0
 40
0.0
 40
0.0
 40
0.0
 40
0.3455748766
 40
1.0
 40
1.0
 40
1.0
 40
1.0
 10
109.1097520746
 20
166.5064686951
 30
0.0
 10
109.1086134646
 20
166.5058752527
 30
0.0
 10
109.105511536
 20
166.5041129604
 30
0.0
 10
109.1021820697
 20
166.5010175527
 30
0.0
 10
109.1021693538
 20
166.4985860746
 30
0.0
  0
SPLINE
  5
3F5
100
AcDbEntity
  8
0
100
AcDbSpline
 62
7
  6
CONTINUOUS
 70
0
 71
3
 72
11
 73
7
 74
0
 42
0.0000001
 43
0.0000001
 44
0.0000000001
 40
0.0
 40
0.0
 40
0.0
 40
0.0
 40
0.2426863618
 40
0.4887729527
 40
0.7407841591
 40
1.0
 40
1.0
 40
1.0
 40
1.0
 10
112.3079311918
 20
171.8985188095
 30
0.0
 10
112.4919207026
 20
171.8985188043
 30
0.0
 10
112.8629755995
 20
171.8719510219
 30
0.0
 10
113.4139318369
 20
171.7556319764
 30
0.0
 10
113.958564027
 20
171.5703472711
 30
0.0
 10
114.3118407272
 20
171.409521704
 30
0.0
 10
114.4873806635
 20
171.3211685403
 30
0.0
  0
SPLINE
  5
3F6
100
AcDbEntity
  8
0
100
AcDbSpline
 62
7
  6
CONTINUOUS
 70
0
 71
3
 72
30
 73
26
 74
0
 42
0.0000001
 43
0.0000001
 44
0.0000000001
 40
0.0
 40
0.0
 40
0.0
 40
0.0
 40
0.000561595
 40
0.001006001
 40
0.0015831301
 40
0.0031594061
 40
0.0053161303
 40
0.0113930606
 40
0.0198282194
 40
0.0306133366
 40
0.0437251785
 40
0.0591338304
 40
0.0768060316
 40
0.096697846
 40
0.1187623194
 40
0.1691959257
 40
0.2276234952
 40
0.2934832861
 40
0.3661430515
 40
0.4449047034
 40
0.5290086482
 40
0.617647569
 40
0.7099686807
 40
0.8050761118
 40
1.0
 40
1.0
 40
1.0
 40
1.0
 10
109.102169029
 20
166.194469196
 30
0.0
 10
109.1021694957
 20
166.1965305744
 30
0.0
 10
109.1050802809
 20
166.1997596669
 30
0.0
 10
109.1099711282
 20
166.2025991508
 30
0.0
 10
109.1187817017
 20
166.2064796918
 30
0.0
 10
109.1339676665
 20
166.2108911378
 30
0.0
 10
109.1691806477
 20
166.2185743441
 30
0.0
 10
109.2297678812
 20
166.2273737201
 30
0.0
 10
109.3220707461
 20
166.2375105964
 30
0.0
 10
109.4403217553
 20
166.247686382
 30
0.0
 10
109.5842306932
 20
166.2579736539
 30
0.0
 10
109.7534730295
 20
166.2682938555
 30
0.0
 10
109.9476388757
 20
166.2786447042
 30
0.0
 10
110.1662651154
 20
166.2890159127
 30
0.0
 10
110.5050802374
 20
166.303516504
 30
0.0
 10
110.9853267423
 20
166.3213207613
 30
0.0
 10
111.6263237035
 20
166.3419399524
 30
0.0
 10
112.3489392565
 20
166.3626101119
 30
0.0
 10
113.1462187155
 20
166.3833204365
 30
0.0
 10
114.0104847979
 20
166.4040562146
 30
0.0
 10
114.9334188225
 20
166.4248112233
 30
0.0
 10
115.9061354637
 20
166.4455796007
 30
0.0
 10
116.9192498431
 20
166.4663572672
 30
0.0
 10
118.3224264256
 20
166.4942970545
 30
0.0
 10
119.3868101933
 20
166.5148824342
 30
0.0
 10
120.1021598258
 20
166.5287202339
 30
0.0
  0
SPLINE
  5
3F7
100
AcDbEntity
  8
0
100
AcDbSpline
 62
7
  6
CONTINUOUS
 70
0
 71
3
 72
30
 73
26
 74
0
 42
0.0000001
 43
0.0000001
 44
0.0000000001
 40
0.0
 40
0.0
 40
0.0
 40
0.0
 40
0.0006904195
 40
0.0019205019
 40
0.0037123665
 40
0.0060715318
 40
0.0089996589
 40
0.0124970535
 40
0.021196989
 40
0.0321567597
 40
0.0453557604
 40
0.060770405
 40
0.0783678564
 40
0.0981128137
 40
0.1199662279
 40
0.169808544
 40
0.227481845
 40
0.2925032796
 40
0.3643230849
 40
0.4423324276
 40
0.5258671757
 40
0.6142112492
 40
0.7066079103
 40
0.8022600892
 40
1.0
 40
1.0
 40
1.0
 40
1.0
 10
109.1896064513
 20
167.4859631978
 30
0.0
 10
109.1912310274
 20
167.4875847888
 30
0.0
 10
109.1974676226
 20
167.4899361196
 30
0.0
 10
109.2092662194
 20
167.4929729441
 30
0.0
 10
109.2269905216
 20
167.4960147755
 30
0.0
 10
109.2502833636
 20
167.4991559564
 30
0.0
 10
109.2793337232
 20
167.5023091142
 30
0.0
 10
109.3294073817
 20
167.5068834159
 30
0.0
 10
109.4062082006
 20
167.5123950973
 30
0.0
 10
109.5152683554
 20
167.5187072182
 30
0.0
 10
109.6466843541
 20
167.5250535087
 30
0.0
 10
109.8001871609
 20
167.5314302709
 30
0.0
 10
109.9754687138
 20
167.5378262827
 30
0.0
 10
110.1721686541
 20
167.54423798
 30
0.0
 10
110.4760431652
 20
167.5531989014
 30
0.0
 10
110.9060071315
 20
167.564222552
 30
0.0
 10
111.479486699
 20
167.5770064834
 30
0.0
 10
112.1260483188
 20
167.5898355948
 30
0.0
 10
112.8402308107
 20
167.6027039596
 30
0.0
 10
113.615971771
 20
167.6156030767
 30
0.0
 10
114.4466563703
 20
167.6285287828
 30
0.0
 10
115.3251785241
 20
167.6414782328
 30
0.0
 10
116.243990467
 20
167.6544494262
 30
0.0
 10
117.5264747529
 20
167.6719645814
 30
0.0
 10
118.5018094845
 20
167.6848178475
 30
0.0
 10
119.1591645368
 20
167.6934346925
 30
0.0
  0
SPLINE
  5
3F8
100
AcDbEntity
  8
0
100
AcDbSpline
 62
7
  6
CONTINUOUS
 70
0
 71
3
 72
9
 73
5
 74
0
 42
0.0000001
 43
0.0000001
 44
0.0000000001
 40
0.0
 40
0.0
 40
0.0
 40
0.0
 40
0.251852941
 40
1.0
 40
1.0
 40
1.0
 40
1.0
 10
120.1021598258
 20
165.4958103346
 30
0.0
 10
119.8986097921
 20
165.4918729158
 30
0.0
 10
119.0903999425
 20
165.476238134
 30
0.0
 10
118.2821918537
 20
165.4605101461
 30
0.0
 10
117.6775377977
 20
165.4485184716
 30
0.0
  0
SPLINE
  5
3F9
100
AcDbEntity
  8
0
100
AcDbSpline
 62
7
  6
CONTINUOUS
 70
0
 71
3
 72
26
 73
22
 74
0
 42
0.0000001
 43
0.0000001
 44
0.0000000001
 40
0.0
 40
0.0
 40
0.0
 40
0.0
 40
0.1915466737
 40
0.3755187855
 40
0.4626037315
 40
0.5453712266
 40
0.6230835911
 40
0.6950442633
 40
0.7606109239
 40
0.8191980697
 40
0.8702812056
 40
0.9134072868
 40
0.9318649541
 40
0.9481957048
 40
0.9623636529
 40
0.9743407833
 40
0.9841010206
 40
0.9916279988
 40
0.9969182705
 40
0.998730345
 40
1.0
 40
1.0
 40
1.0
 40
1.0
 10
119.8848157925
 20
166.828611685
 30
0.0
 10
119.1964547906
 20
166.8152929959
 30
0.0
 10
117.8469544001
 20
166.7891357101
 30
0.0
 10
116.1845216995
 20
166.7556460037
 30
0.0
 10
114.9130355793
 20
166.7284490272
 30
0.0
 10
114.023420624
 20
166.7084362777
 30
0.0
 10
113.1881820354
 20
166.6884404102
 30
0.0
 10
112.414787951
 20
166.6684665076
 30
0.0
 10
111.7101610193
 20
166.6485235452
 30
0.0
 10
111.0806069054
 20
166.6286313382
 30
0.0
 10
110.5317561743
 20
166.6088012326
 30
0.0
 10
110.1271495171
 20
166.5916095769
 30
0.0
 10
109.847447428
 20
166.5775477292
 30
0.0
 10
109.67176196
 20
166.5675746894
 30
0.0
 10
109.5194076501
 20
166.5576363567
 30
0.0
 10
109.3907323473
 20
166.5477334719
 30
0.0
 10
109.2859806247
 20
166.5379493345
 30
0.0
 10
109.2054336617
 20
166.5282142194
 30
0.0
 10
109.1534435532
 20
166.519763009
 30
0.0
 10
109.1242896834
 20
166.5123383216
 30
0.0
 10
109.1137989994
 20
166.508577948
 30
0.0
 10
109.1097520746
 20
166.5064686951
 30
0.0
  0
SPLINE
  5
3FA
100
AcDbEntity
  8
0
100
AcDbSpline
 62
7
  6
CONTINUOUS
 70
0
 71
3
 72
28
 73
24
 74
0
 42
0.0000001
 43
0.0000001
 44
0.0000000001
 40
0.0
 40
0.0
 40
0.0
 40
0.0
 40
0.000603016
 40
0.0016326338
 40
0.0053231721
 40
0.0113054622
 40
0.0195994904
 40
0.0301968048
 40
0.043082051
 40
0.058229504
 40
0.0756056797
 40
0.0951759051
 40
0.1168978935
 40
0.1665998292
 40
0.2242809587
 40
0.2894366511
 40
0.361494801
 40
0.4398259903
 40
0.5237426694
 40
0.6125080373
 40
0.705344955
 40
0.8014381203
 40
1.0
 40
1.0
 40
1.0
 40
1.0
 10
109.9021675342
 20
167.1150201121
 30
0.0
 10
109.9021696559
 20
167.1169270072
 30
0.0
 10
109.9057762938
 20
167.1215431642
 30
0.0
 10
109.9208417336
 20
167.1286858964
 30
0.0
 10
109.9540233869
 20
167.1371688813
 30
0.0
 10
110.0099155468
 20
167.1464545333
 30
0.0
 10
110.0880730857
 20
167.1560971577
 30
0.0
 10
110.1880622663
 20
167.1658303222
 30
0.0
 10
110.3098404438
 20
167.1756466255
 30
0.0
 10
110.4530954791
 20
167.1854997957
 30
0.0
 10
110.6175360607
 20
167.1953833915
 30
0.0
 10
110.8027973289
 20
167.2052846836
 30
0.0
 10
111.0902126755
 20
167.2191332851
 30
0.0
 10
111.4981264561
 20
167.2361401174
 30
0.0
 10
112.0433860648
 20
167.2558283254
 30
0.0
 10
112.6593808486
 20
167.2755651012
 30
0.0
 10
113.3407051512
 20
167.2953411002
 30
0.0
 10
114.0813787714
 20
167.3151413622
 30
0.0
 10
114.8749020064
 20
167.3349600326
 30
0.0
 10
115.7143092944
 20
167.3547920227
 30
0.0
 10
116.5922318414
 20
167.3746333901
 30
0.0
 10
117.8172920626
 20
167.4013894292
 30
0.0
 10
118.748863268
 20
167.4209932887
 30
0.0
 10
119.3766312705
 20
167.4341229972
 30
0.0
  0
LINE
  5
3FB
100
AcDbEntity
  8
0
100
AcDbLine
 62
7
  6
CONTINUOUS
 10
120.9889678555
 20
165.512983784
 11
120.1021598258
 21
165.4958103346
  0
SPLINE
  5
3FC
100
AcDbEntity
  8
0
100
AcDbSpline
 62
7
  6
CONTINUOUS
 70
0
 71
3
 72
9
 73
5
 74
0
 42
0.0000001
 43
0.0000001
 44
0.0000000001
 40
0.0
 40
0.0
 40
0.0
 40
0.0
 40
0.2238383367
 40
1.0
 40
1.0
 40
1.0
 40
1.0
 10
109.9103453129
 20
166.9235432043
 30
0.0
 10
109.9109135368
 20
166.9238393792
 30
0.0
 10
109.9134805053
 20
166.9251080596
 30
0.0
 10
109.9161376069
 20
166.9261871732
 30
0.0
 10
109.9182201326
 20
166.9269617464
 30
0.0
  0
SPLINE
  5
3FD
100
AcDbEntity
  8
0
100
AcDbSpline
 62
7
  6
CONTINUOUS
 70
0
 71
3
 72
23
 73
19
 74
0
 42
0.0000001
 43
0.0000001
 44
0.0000000001
 40
0.0
 40
0.0
 40
0.0
 40
0.0
 40
0.0039405673
 40
0.0100252705
 40
0.0182661688
 40
0.0286582094
 40
0.0411823699
 40
0.0558143676
 40
0.0912878389
 40
0.1347884667
 40
0.1859604166
 40
0.244380721
 40
0.3095630478
 40
0.3809687272
 40
0.4580036554
 40
0.6263591765
 40
0.8090450725
 40
1.0
 40
1.0
 40
1.0
 40
1.0
 10
109.9182201326
 20
166.9269617464
 30
0.0
 10
109.9300772094
 20
166.9313718592
 30
0.0
 10
109.961626997
 20
166.9385081876
 30
0.0
 10
110.0194711167
 20
166.9478121906
 30
0.0
 10
110.098317121
 20
166.957159553
 30
0.0
 10
110.1978809585
 20
166.9666797701
 30
0.0
 10
110.3180531997
 20
166.9762380868
 30
0.0
 10
110.5186509317
 20
166.989936873
 30
0.0
 10
110.8187139887
 20
167.006529328
 30
0.0
 10
111.2360983644
 20
167.025578218
 30
0.0
 10
111.7272134767
 20
167.0447069317
 30
0.0
 10
112.2879766998
 20
167.0639054073
 30
0.0
 10
112.9137302666
 20
167.0831437099
 30
0.0
 10
113.5992681104
 20
167.1024116292
 30
0.0
 10
114.6159549561
 20
167.1289183334
 30
0.0
 10
115.9898531235
 20
167.1614693517
 30
0.0
 10
117.7294428637
 20
167.199591316
 30
0.0
 10
118.9287028643
 20
167.2247659445
 30
0.0
 10
119.541604471
 20
167.2375715689
 30
0.0
  0
SPLINE
  5
3FE
100
AcDbEntity
  8
0
100
AcDbSpline
 62
7
  6
CONTINUOUS
 70
0
 71
3
 72
30
 73
26
 74
0
 42
0.0000001
 43
0.0000001
 44
0.0000000001
 40
0.0
 40
0.0
 40
0.0
 40
0.0
 40
0.0005894636
 40
0.001045742
 40
0.0016344848
 40
0.0032348375
 40
0.0054183118
 40
0.0115634596
 40
0.0200897459
 40
0.0309834854
 40
0.0442240904
 40
0.0597810175
 40
0.0776144591
 40
0.0976829421
 40
0.1199357368
 40
0.1707645304
 40
0.2295919429
 40
0.2958276862
 40
0.3688032789
 40
0.4477834094
 40
0.5319732291
 40
0.6205233716
 40
0.7125405214
 40
0.807097473
 40
1.0
 40
1.0
 40
1.0
 40
1.0
 10
109.9021623552
 20
165.7780137797
 30
0.0
 10
109.9021633811
 20
165.7800945493
 30
0.0
 10
109.9049367265
 20
165.7833882715
 30
0.0
 10
109.9097427576
 20
165.7863310034
 30
0.0
 10
109.9182889342
 20
165.7902938997
 30
0.0
 10
109.9330487188
 20
165.794818682
 30
0.0
 10
109.9672342329
 20
165.802680456
 30
0.0
 10
110.0260912622
 20
165.8116933028
 30
0.0
 10
110.1157373618
 20
165.8220636623
 30
0.0
 10
110.2305675631
 20
165.8324835771
 30
0.0
 10
110.370280832
 20
165.8430122814
 30
0.0
 10
110.5345491699
 20
165.85357361
 30
0.0
 10
110.7229590983
 20
165.8641700953
 30
0.0
 10
110.9350371753
 20
165.8747845133
 30
0.0
 10
111.2635171241
 20
165.8896224058
 30
0.0
 10
111.7287948493
 20
165.907842033
 30
0.0
 10
112.3493252629
 20
165.9289453944
 30
0.0
 10
113.0480708125
 20
165.9501000068
 30
0.0
 10
113.8179820306
 20
165.9712960084
 30
0.0
 10
114.6512913134
 20
165.9925183487
 30
0.0
 10
115.5395938689
 20
166.013759474
 30
0.0
 10
116.473928385
 20
166.0350139414
 30
0.0
 10
117.4448670548
 20
166.0562780478
 30
0.0
 10
118.784091652
 20
166.0848272321
 30
0.0
 10
119.7985863633
 20
166.1059242551
 30
0.0
 10
120.4793719133
 20
166.120136448
 30
0.0
  0
SPLINE
  5
3FF
100
AcDbEntity
  8
0
100
AcDbSpline
 62
7
  6
CONTINUOUS
 70
0
 71
3
 72
9
 73
5
 74
0
 42
0.0000001
 43
0.0000001
 44
0.0000000001
 40
0.0
 40
0.0
 40
0.0
 40
0.0
 40
0.1959807355
 40
1.0
 40
1.0
 40
1.0
 40
1.0
 10
109.9103497877
 20
165.5865368677
 30
0.0
 10
109.9118078513
 20
165.5872969082
 30
0.0
 10
109.919457283
 20
165.5907698166
 30
0.0
 10
109.927553343
 20
165.5931295484
 30
0.0
 10
109.9340756668
 20
165.5948509932
 30
0.0
  0
SPLINE
  5
400
100
AcDbEntity
  8
0
100
AcDbSpline
 62
7
  6
CONTINUOUS
 70
0
 71
3
 72
23
 73
19
 74
0
 42
0.0000001
 43
0.0000001
 44
0.0000000001
 40
0.0
 40
0.0
 40
0.0
 40
0.0
 40
0.0048324415
 40
0.0118336418
 40
0.021001965
 40
0.032324561
 40
0.0457757749
 40
0.0613265204
 40
0.0985849256
 40
0.1437570391
 40
0.1964248974
 40
0.2561018977
 40
0.3222321596
 40
0.394200135
 40
0.4713377174
 40
0.6382054383
 40
0.8166363249
 40
1.0
 40
1.0
 40
1.0
 40
1.0
 10
109.9340756668
 20
165.5948509932
 30
0.0
 10
109.9507680936
 20
165.5992566457
 30
0.0
 10
109.9924370428
 20
165.6068535842
 30
0.0
 10
110.0667983463
 20
165.6167454828
 30
0.0
 10
110.164528424
 20
165.6267195298
 30
0.0
 10
110.2853664251
 20
165.6368135255
 30
0.0
 10
110.4290744355
 20
165.6469512604
 30
0.0
 10
110.6653518358
 20
165.6614000936
 30
0.0
 10
111.0149613624
 20
165.6789534443
 30
0.0
 10
111.4971845519
 20
165.6991322116
 30
0.0
 10
112.0595562606
 20
165.7193908861
 30
0.0
 10
112.6968408284
 20
165.7397153501
 30
0.0
 10
113.4031058485
 20
165.7600783359
 30
0.0
 10
114.171771957
 20
165.7804711002
 30
0.0
 10
115.3002498043
 20
165.8084220585
 30
0.0
 10
116.8090259681
 20
165.8427447711
 30
0.0
 10
118.6972571284
 20
165.8830431072
 30
0.0
 10
119.9894994209
 20
165.9099009517
 30
0.0
 10
120.6444284495
 20
165.9235833586
 30
0.0
  0
SPLINE
  5
401
100
AcDbEntity
  8
0
100
AcDbSpline
 62
7
  6
CONTINUOUS
 70
0
 71
3
 72
11
 73
7
 74
0
 42
0.0000001
 43
0.0000001
 44
0.0000000001
 40
0.0
 40
0.0
 40
0.0
 40
0.0
 40
0.2592111028
 40
0.511222125
 40
0.7573110754
 40
1.0
 40
1.0
 40
1.0
 40
1.0
 10
110.12848172
 20
171.3211685403
 30
0.0
 10
110.3040185075
 20
171.4095201192
 30
0.0
 10
110.6572914422
 20
171.5703450234
 30
0.0
 10
111.2019206121
 20
171.7556332045
 30
0.0
 10
111.7528807856
 20
171.8719533332
 30
0.0
 10
112.1239396754
 20
171.8985188146
 30
0.0
 10
112.3079311918
 20
171.8985188095
 30
0.0
  0
SPLINE
  5
402
100
AcDbEntity
  8
GEOM
100
AcDbSpline
 62
7
  6
CONTINUOUS
 70
0
 71
3
 72
9
 73
5
 74
0
 42
0.0000001
 43
0.0000001
 44
0.0000000001
 40
0.0
 40
0.0
 40
0.0
 40
0.0
 40
0.5000123058
 40
1.0
 40
1.0
 40
1.0
 40
1.0
 10
196.6558349604
 20
70.448522215
 30
0.0
 10
196.5724934764
 20
69.741346273
 30
0.0
 10
196.4058095066
 20
68.3270796659
 30
0.0
 10
196.2709094421
 20
66.908928075
 30
0.0
 10
196.2228222585
 20
66.1985188095
 30
0.0
  0
SPLINE
  5
403
100
AcDbEntity
  8
GEOM
100
AcDbSpline
 62
7
  6
CONTINUOUS
 70
0
 71
3
 72
9
 73
5
 74
0
 42
0.0000001
 43
0.0000001
 44
0.0000000001
 40
0.0
 40
0.0
 40
0.0
 40
0.0
 40
0.4993868703
 40
1.0
 40
1.0
 40
1.0
 40
1.0
 10
196.2228222585
 20
47.9978785068
 30
0.0
 10
196.2709879976
 20
47.4947221708
 30
0.0
 10
196.4060804094
 20
46.4909901216
 30
0.0
 10
196.5725347189
 20
45.4926888418
 30
0.0
 10
196.6558349604
 20
44.9928853252
 30
0.0
  0
SPLINE
  5
404
100
AcDbEntity
  8
GEOM
100
AcDbSpline
 62
7
  6
CONTINUOUS
 70
0
 71
3
 72
9
 73
5
 74
0
 42
0.0000001
 43
0.0000001
 44
0.0000000001
 40
0.0
 40
0.0
 40
0.0
 40
0.0
 40
0.5006122626
 40
1.0
 40
1.0
 40
1.0
 40
1.0
 10
196.6558349604
 20
44.9928853252
 30
0.0
 10
196.5725234548
 20
44.4930142234
 30
0.0
 10
196.4061444737
 20
43.4945604717
 30
0.0
 10
196.2709947262
 20
42.490696982
 30
0.0
 10
196.2228222585
 20
41.9874708667
 30
0.0
  0
SPLINE
  5
405
100
AcDbEntity
  8
GEOM
100
AcDbSpline
 62
7
  6
CONTINUOUS
 70
0
 71
3
 72
9
 73
5
 74
0
 42
0.0000001
 43
0.0000001
 44
0.0000000001
 40
0.0
 40
0.0
 40
0.0
 40
0.0
 40
0.5006131241
 40
1.0
 40
1.0
 40
1.0
 40
1.0
 10
196.6558349604
 20
95.9041549946
 30
0.0
 10
196.5725346424
 20
95.4043510454
 30
0.0
 10
196.406080798
 20
94.4060487894
 30
0.0
 10
196.2709880888
 20
93.4023158909
 30
0.0
 10
196.2228222585
 20
92.8991591121
 30
0.0
  0
SPLINE
  5
406
100
AcDbEntity
  8
GEOM
100
AcDbSpline
 62
7
  6
CONTINUOUS
 70
0
 71
3
 72
9
 73
5
 74
0
 42
0.0000001
 43
0.0000001
 44
0.0000000001
 40
0.0
 40
0.0
 40
0.0
 40
0.0
 40
0.4999876945
 40
1.0
 40
1.0
 40
1.0
 40
1.0
 10
196.2228222585
 20
74.6985188095
 30
0.0
 10
196.2709093175
 20
73.9881106654
 30
0.0
 10
196.40580879
 20
72.5699612762
 30
0.0
 10
196.5724936084
 20
71.1556970364
 30
0.0
 10
196.6558349604
 20
70.448522215
 30
0.0
  0
SPLINE
  5
407
100
AcDbEntity
  8
GEOM
100
AcDbSpline
 62
7
  6
CONTINUOUS
 70
0
 71
3
 72
9
 73
5
 74
0
 42
0.0000001
 43
0.0000001
 44
0.0000000001
 40
0.0
 40
0.0
 40
0.0
 40
0.0
 40
0.4993877319
 40
1.0
 40
1.0
 40
1.0
 40
1.0
 10
196.2228222585
 20
98.9095667522
 30
0.0
 10
196.270994635
 20
98.4063410798
 30
0.0
 10
196.4061440892
 20
97.40247844
 30
0.0
 10
196.5725235227
 20
96.4040256624
 30
0.0
 10
196.6558349604
 20
95.9041549946
 30
0.0
  0
SPLINE
  5
408
100
AcDbEntity
  8
GEOM
100
AcDbSpline
 62
7
  6
CONTINUOUS
 70
0
 71
3
 72
9
 73
5
 74
0
 42
0.0000001
 43
0.0000001
 44
0.0000000001
 40
0.0
 40
0.0
 40
0.0
 40
0.0
 40
0.4982141727
 40
1.0
 40
1.0
 40
1.0
 40
1.0
 10
196.2228222585
 20
47.9978785068
 30
0.0
 10
196.1327424277
 20
48.9388842465
 30
0.0
 10
195.8684377771
 20
50.8204290116
 30
0.0
 10
195.4532415963
 20
52.6738656776
 30
0.0
 10
195.2124592874
 20
53.5949999538
 30
0.0
  0
SPLINE
  5
409
100
AcDbEntity
  8
GEOM
100
AcDbSpline
 62
7
  6
CONTINUOUS
 70
0
 71
3
 72
9
 73
5
 74
0
 42
0.0000001
 43
0.0000001
 44
0.0000000001
 40
0.0
 40
0.0
 40
0.0
 40
0.0
 40
0.5017825994
 40
1.0
 40
1.0
 40
1.0
 40
1.0
 10
195.2124592874
 20
36.3903494197
 30
0.0
 10
195.4532400592
 20
37.3114778154
 30
0.0
 10
195.8684434838
 20
39.1649130703
 30
0.0
 10
196.1327418397
 20
41.0464589846
 30
0.0
 10
196.2228222585
 20
41.9874708667
 30
0.0
  0
SPLINE
  5
40A
100
AcDbEntity
  8
0
100
AcDbSpline
 62
7
  6
CONTINUOUS
 70
0
 71
3
 72
9
 73
5
 74
0
 42
0.0000001
 43
0.0000001
 44
0.0000000001
 40
0.0
 40
0.0
 40
0.0
 40
0.0
 40
0.4978500312
 40
1.0
 40
1.0
 40
1.0
 40
1.0
 10
175.3671598258
 20
44.9926746861
 30
0.0
 10
175.3671598258
 20
43.5493167861
 30
0.0
 10
175.5716401368
 20
40.6468125295
 30
0.0
 10
176.1536821258
 20
37.7988482279
 30
0.0
 10
176.5218603642
 20
36.3903494197
 30
0.0
  0
SPLINE
  5
40B
100
AcDbEntity
  8
0
100
AcDbSpline
 62
7
  6
CONTINUOUS
 70
0
 71
3
 72
9
 73
5
 74
0
 42
0.0000001
 43
0.0000001
 44
0.0000000001
 40
0.0
 40
0.0
 40
0.0
 40
0.0
 40
0.5021499758
 40
1.0
 40
1.0
 40
1.0
 40
1.0
 10
176.5218603642
 20
53.5949999538
 30
0.0
 10
176.1536821207
 20
52.1865011259
 30
0.0
 10
175.5716401553
 20
49.33853682
 30
0.0
 10
175.3671598258
 20
46.4360325657
 30
0.0
 10
175.3671598258
 20
44.9926746861
 30
0.0
  0
SPLINE
  5
40C
100
AcDbEntity
  8
GEOM
100
AcDbSpline
 62
7
  6
CONTINUOUS
 70
0
 71
3
 72
9
 73
5
 74
0
 42
0.0000001
 43
0.0000001
 44
0.0000000001
 40
0.0
 40
0.0
 40
0.0
 40
0.0
 40
0.4999960268
 40
1.0
 40
1.0
 40
1.0
 40
1.0
 10
196.2228222585
 20
74.6985188095
 30
0.0
 10
196.1329670906
 20
76.0259828593
 30
0.0
 10
195.8702210709
 20
78.675883678
 30
0.0
 10
195.4542915194
 20
81.3056829892
 30
0.0
 10
195.2124592874
 20
82.6140438701
 30
0.0
  0
SPLINE
  5
40D
100
AcDbEntity
  8
GEOM
100
AcDbSpline
 62
7
  6
CONTINUOUS
 70
0
 71
3
 72
9
 73
5
 74
0
 42
0.0000001
 43
0.0000001
 44
0.0000000001
 40
0.0
 40
0.0
 40
0.0
 40
0.0
 40
0.5000006891
 40
1.0
 40
1.0
 40
1.0
 40
1.0
 10
195.2124592874
 20
58.2829937489
 30
0.0
 10
195.4542899372
 20
59.5913460693
 30
0.0
 10
195.8702268801
 20
62.2211443601
 30
0.0
 10
196.1329664981
 20
64.8710460072
 30
0.0
 10
196.2228222585
 20
66.1985188095
 30
0.0
  0
SPLINE
  5
40E
100
AcDbEntity
  8
0
100
AcDbSpline
 62
7
  6
CONTINUOUS
 70
0
 71
3
 72
9
 73
5
 74
0
 42
0.0000001
 43
0.0000001
 44
0.0000000001
 40
0.0
 40
0.0
 40
0.0
 40
0.0
 40
0.499988188
 40
1.0
 40
1.0
 40
1.0
 40
1.0
 10
175.3671598258
 20
70.4485188075
 30
0.0
 10
175.3671598259
 20
68.4097076164
 30
0.0
 10
175.5694841933
 20
64.3296025675
 30
0.0
 10
176.151274048
 20
60.28794005
 30
0.0
 10
176.5218603642
 20
58.2829937489
 30
0.0
  0
SPLINE
  5
40F
100
AcDbEntity
  8
0
100
AcDbSpline
 62
7
  6
CONTINUOUS
 70
0
 71
3
 72
9
 73
5
 74
0
 42
0.0000001
 43
0.0000001
 44
0.0000000001
 40
0.0
 40
0.0
 40
0.0
 40
0.0
 40
0.5000118191
 40
1.0
 40
1.0
 40
1.0
 40
1.0
 10
176.5218603642
 20
82.6140438701
 30
0.0
 10
176.1512740426
 20
80.6090975399
 30
0.0
 10
175.5694842118
 20
76.5674350183
 30
0.0
 10
175.3671598257
 20
72.48732997
 30
0.0
 10
175.3671598258
 20
70.4485188075
 30
0.0
  0
SPLINE
  5
410
100
AcDbEntity
  8
GEOM
100
AcDbSpline
 62
7
  6
CONTINUOUS
 70
0
 71
3
 72
9
 73
5
 74
0
 42
0.0000001
 43
0.0000001
 44
0.0000000001
 40
0.0
 40
0.0
 40
0.0
 40
0.0
 40
0.4982141727
 40
1.0
 40
1.0
 40
1.0
 40
1.0
 10
196.2228222585
 20
98.9095667522
 30
0.0
 10
196.1327424277
 20
99.8505724919
 30
0.0
 10
195.8684377771
 20
101.732117257
 30
0.0
 10
195.4532415963
 20
103.5855539231
 30
0.0
 10
195.2124592874
 20
104.5066881992
 30
0.0
  0
SPLINE
  5
411
100
AcDbEntity
  8
GEOM
100
AcDbSpline
 62
7
  6
CONTINUOUS
 70
0
 71
3
 72
9
 73
5
 74
0
 42
0.0000001
 43
0.0000001
 44
0.0000000001
 40
0.0
 40
0.0
 40
0.0
 40
0.0
 40
0.5017825994
 40
1.0
 40
1.0
 40
1.0
 40
1.0
 10
195.2124592874
 20
87.3020376651
 30
0.0
 10
195.4532400592
 20
88.2231660608
 30
0.0
 10
195.8684434838
 20
90.0766013157
 30
0.0
 10
196.1327418397
 20
91.9581472301
 30
0.0
 10
196.2228222585
 20
92.8991591121
 30
0.0
  0
SPLINE
  5
412
100
AcDbEntity
  8
0
100
AcDbSpline
 62
7
  6
CONTINUOUS
 70
0
 71
3
 72
9
 73
5
 74
0
 42
0.0000001
 43
0.0000001
 44
0.0000000001
 40
0.0
 40
0.0
 40
0.0
 40
0.0
 40
0.4978500312
 40
1.0
 40
1.0
 40
1.0
 40
1.0
 10
175.3671598258
 20
95.9043629294
 30
0.0
 10
175.3671598259
 20
94.4610050298
 30
0.0
 10
175.571640137
 20
91.5585007738
 30
0.0
 10
176.1536821259
 20
88.710536473
 30
0.0
 10
176.5218603642
 20
87.3020376651
 30
0.0
  0
SPLINE
  5
413
100
AcDbEntity
  8
0
100
AcDbSpline
 62
7
  6
CONTINUOUS
 70
0
 71
3
 72
9
 73
5
 74
0
 42
0.0000001
 43
0.0000001
 44
0.0000000001
 40
0.0
 40
0.0
 40
0.0
 40
0.0
 40
0.5021499758
 40
1.0
 40
1.0
 40
1.0
 40
1.0
 10
176.5218603642
 20
104.5066881992
 30
0.0
 10
176.1536821206
 20
103.098189371
 30
0.0
 10
175.5716401551
 20
100.2502250644
 30
0.0
 10
175.3671598257
 20
97.3477208093
 30
0.0
 10
175.3671598258
 20
95.9043629294
 30
0.0
  0
SPLINE
  5
414
100
AcDbEntity
  8
GEOM
100
AcDbSpline
 62
7
  6
CONTINUOUS
 70
0
 71
3
 72
9
 73
5
 74
0
 42
0.0000001
 43
0.0000001
 44
0.0000000001
 40
0.0
 40
0.0
 40
0.0
 40
0.0
 40
0.4993877319
 40
1.0
 40
1.0
 40
1.0
 40
1.0
 10
43.9814973931
 20
41.9874708667
 30
0.0
 10
43.9333250167
 20
42.4906965392
 30
0.0
 10
43.7981755625
 20
43.494559179
 30
0.0
 10
43.6317961289
 20
44.4930119565
 30
0.0
 10
43.5484846912
 20
44.9928826243
 30
0.0
  0
SPLINE
  5
415
100
AcDbEntity
  8
GEOM
100
AcDbSpline
 62
7
  6
CONTINUOUS
 70
0
 71
3
 72
9
 73
5
 74
0
 42
0.0000001
 43
0.0000001
 44
0.0000000001
 40
0.0
 40
0.0
 40
0.0
 40
0.0
 40
0.4999876945
 40
1.0
 40
1.0
 40
1.0
 40
1.0
 10
43.9814973931
 20
66.1985188095
 30
0.0
 10
43.9334103341
 20
66.9089269535
 30
0.0
 10
43.7985108616
 20
68.3270763428
 30
0.0
 10
43.6318260432
 20
69.7413405825
 30
0.0
 10
43.5484846912
 20
70.448515404
 30
0.0
  0
SPLINE
  5
416
100
AcDbEntity
  8
GEOM
100
AcDbSpline
 62
7
  6
CONTINUOUS
 70
0
 71
3
 72
9
 73
5
 74
0
 42
0.0000001
 43
0.0000001
 44
0.0000000001
 40
0.0
 40
0.0
 40
0.0
 40
0.0
 40
0.5006131241
 40
1.0
 40
1.0
 40
1.0
 40
1.0
 10
43.5484846912
 20
44.9928826243
 30
0.0
 10
43.6317850092
 20
45.4926865735
 30
0.0
 10
43.7982388536
 20
46.4909888295
 30
0.0
 10
43.9333315629
 20
47.494721728
 30
0.0
 10
43.9814973931
 20
47.9978785068
 30
0.0
  0
SPLINE
  5
417
100
AcDbEntity
  8
GEOM
100
AcDbSpline
 62
7
  6
CONTINUOUS
 70
0
 71
3
 72
9
 73
5
 74
0
 42
0.0000001
 43
0.0000001
 44
0.0000000001
 40
0.0
 40
0.0
 40
0.0
 40
0.0
 40
0.4993868703
 40
1.0
 40
1.0
 40
1.0
 40
1.0
 10
43.9814973931
 20
92.8991591121
 30
0.0
 10
43.933331654
 20
93.4023154481
 30
0.0
 10
43.7982392422
 20
94.4060474974
 30
0.0
 10
43.6317849327
 20
95.4043487772
 30
0.0
 10
43.5484846912
 20
95.9041522938
 30
0.0
  0
SPLINE
  5
418
100
AcDbEntity
  8
GEOM
100
AcDbSpline
 62
7
  6
CONTINUOUS
 70
0
 71
3
 72
9
 73
5
 74
0
 42
0.0000001
 43
0.0000001
 44
0.0000000001
 40
0.0
 40
0.0
 40
0.0
 40
0.0
 40
0.5000123058
 40
1.0
 40
1.0
 40
1.0
 40
1.0
 10
43.5484846912
 20
70.448515404
 30
0.0
 10
43.6318261752
 20
71.155691346
 30
0.0
 10
43.798510145
 20
72.5699579531
 30
0.0
 10
43.9334102095
 20
73.988109544
 30
0.0
 10
43.9814973931
 20
74.6985188095
 30
0.0
  0
SPLINE
  5
419
100
AcDbEntity
  8
GEOM
100
AcDbSpline
 62
7
  6
CONTINUOUS
 70
0
 71
3
 72
9
 73
5
 74
0
 42
0.0000001
 43
0.0000001
 44
0.0000000001
 40
0.0
 40
0.0
 40
0.0
 40
0.0
 40
0.5006122626
 40
1.0
 40
1.0
 40
1.0
 40
1.0
 10
43.5484846912
 20
95.9041522938
 30
0.0
 10
43.6317961968
 20
96.4040233956
 30
0.0
 10
43.7981751779
 20
97.4024771472
 30
0.0
 10
43.9333249255
 20
98.406340637
 30
0.0
 10
43.9814973931
 20
98.9095667522
 30
0.0
  0
SPLINE
  5
41A
100
AcDbEntity
  8
GEOM
100
AcDbSpline
 62
7
  6
CONTINUOUS
 70
0
 71
3
 72
9
 73
5
 74
0
 42
0.0000001
 43
0.0000001
 44
0.0000000001
 40
0.0
 40
0.0
 40
0.0
 40
0.0
 40
0.4982141727
 40
1.0
 40
1.0
 40
1.0
 40
1.0
 10
43.9814973931
 20
41.9874708667
 30
0.0
 10
44.071577224
 20
41.046465127
 30
0.0
 10
44.3358818745
 20
39.164920362
 30
0.0
 10
44.7510780553
 20
37.3114836959
 30
0.0
 10
44.9918603642
 20
36.3903494197
 30
0.0
  0
SPLINE
  5
41B
100
AcDbEntity
  8
GEOM
100
AcDbSpline
 62
7
  6
CONTINUOUS
 70
0
 71
3
 72
9
 73
5
 74
0
 42
0.0000001
 43
0.0000001
 44
0.0000000001
 40
0.0
 40
0.0
 40
0.0
 40
0.0
 40
0.5017825994
 40
1.0
 40
1.0
 40
1.0
 40
1.0
 10
44.9918603642
 20
53.5949999538
 30
0.0
 10
44.7510795925
 20
52.6738715581
 30
0.0
 10
44.3358761678
 20
50.8204363032
 30
0.0
 10
44.071577812
 20
48.9388903889
 30
0.0
 10
43.9814973931
 20
47.9978785068
 30
0.0
  0
SPLINE
  5
41C
100
AcDbEntity
  8
0
100
AcDbSpline
 62
7
  6
CONTINUOUS
 70
0
 71
3
 72
9
 73
5
 74
0
 42
0.0000001
 43
0.0000001
 44
0.0000000001
 40
0.0
 40
0.0
 40
0.0
 40
0.0
 40
0.4978500312
 40
1.0
 40
1.0
 40
1.0
 40
1.0
 10
64.8371598258
 20
44.992674688
 30
0.0
 10
64.8371598258
 20
46.4360325878
 30
0.0
 10
64.6326795147
 20
49.3385368443
 30
0.0
 10
64.0506375258
 20
52.1865011457
 30
0.0
 10
63.6824592874
 20
53.5949999538
 30
0.0
  0
SPLINE
  5
41D
100
AcDbEntity
  8
0
100
AcDbSpline
 62
7
  6
CONTINUOUS
 70
0
 71
3
 72
9
 73
5
 74
0
 42
0.0000001
 43
0.0000001
 44
0.0000000001
 40
0.0
 40
0.0
 40
0.0
 40
0.0
 40
0.5021499758
 40
1.0
 40
1.0
 40
1.0
 40
1.0
 10
63.6824592874
 20
36.3903494197
 30
0.0
 10
64.0506375309
 20
37.7988482477
 30
0.0
 10
64.6326794964
 20
40.6468125538
 30
0.0
 10
64.8371598259
 20
43.5493168083
 30
0.0
 10
64.8371598258
 20
44.992674688
 30
0.0
  0
SPLINE
  5
41E
100
AcDbEntity
  8
0
100
AcDbSpline
 62
7
  6
CONTINUOUS
 70
0
 71
3
 72
9
 73
5
 74
0
 42
0.0000001
 43
0.0000001
 44
0.0000000001
 40
0.0
 40
0.0
 40
0.0
 40
0.0
 40
0.5000118191
 40
1.0
 40
1.0
 40
1.0
 40
1.0
 10
63.6824592874
 20
58.2829937489
 30
0.0
 10
64.0530456089
 20
60.2879400789
 30
0.0
 10
64.6348354397
 20
64.3296026002
 30
0.0
 10
64.8371598258
 20
68.4097076482
 30
0.0
 10
64.8371598258
 20
70.4485188106
 30
0.0
  0
SPLINE
  5
41F
100
AcDbEntity
  8
0
100
AcDbSpline
 62
7
  6
CONTINUOUS
 70
0
 71
3
 72
9
 73
5
 74
0
 42
0.0000001
 43
0.0000001
 44
0.0000000001
 40
0.0
 40
0.0
 40
0.0
 40
0.0
 40
0.499988188
 40
1.0
 40
1.0
 40
1.0
 40
1.0
 10
64.8371598258
 20
70.4485188106
 30
0.0
 10
64.8371598258
 20
72.4873300018
 30
0.0
 10
64.6348354584
 20
76.567435051
 30
0.0
 10
64.0530456036
 20
80.6090975688
 30
0.0
 10
63.6824592874
 20
82.6140438701
 30
0.0
  0
SPLINE
  5
420
100
AcDbEntity
  8
GEOM
100
AcDbSpline
 62
7
  6
CONTINUOUS
 70
0
 71
3
 72
9
 73
5
 74
0
 42
0.0000001
 43
0.0000001
 44
0.0000000001
 40
0.0
 40
0.0
 40
0.0
 40
0.0
 40
0.5000006891
 40
1.0
 40
1.0
 40
1.0
 40
1.0
 10
44.9918603642
 20
82.6140438701
 30
0.0
 10
44.7500297145
 20
81.3056915496
 30
0.0
 10
44.3340927715
 20
78.6758932588
 30
0.0
 10
44.0713531535
 20
76.0259916117
 30
0.0
 10
43.9814973931
 20
74.6985188095
 30
0.0
  0
SPLINE
  5
421
100
AcDbEntity
  8
GEOM
100
AcDbSpline
 62
7
  6
CONTINUOUS
 70
0
 71
3
 72
9
 73
5
 74
0
 42
0.0000001
 43
0.0000001
 44
0.0000000001
 40
0.0
 40
0.0
 40
0.0
 40
0.0
 40
0.4999960268
 40
1.0
 40
1.0
 40
1.0
 40
1.0
 10
43.9814973931
 20
66.1985188095
 30
0.0
 10
44.071352561
 20
64.8710547596
 30
0.0
 10
44.3340985807
 20
62.2211539409
 30
0.0
 10
44.7500281322
 20
59.5913546297
 30
0.0
 10
44.9918603642
 20
58.2829937489
 30
0.0
  0
SPLINE
  5
422
100
AcDbEntity
  8
0
100
AcDbSpline
 62
7
  6
CONTINUOUS
 70
0
 71
3
 72
9
 73
5
 74
0
 42
0.0000001
 43
0.0000001
 44
0.0000000001
 40
0.0
 40
0.0
 40
0.0
 40
0.0
 40
0.5021499758
 40
1.0
 40
1.0
 40
1.0
 40
1.0
 10
63.6824592874
 20
87.3020376651
 30
0.0
 10
64.050637531
 20
88.7105364934
 30
0.0
 10
64.6326794965
 20
91.5585008
 30
0.0
 10
64.8371598259
 20
94.4610050551
 30
0.0
 10
64.8371598258
 20
95.904362935
 30
0.0
  0
SPLINE
  5
423
100
AcDbEntity
  8
0
100
AcDbSpline
 62
7
  6
CONTINUOUS
 70
0
 71
3
 72
9
 73
5
 74
0
 42
0.0000001
 43
0.0000001
 44
0.0000000001
 40
0.0
 40
0.0
 40
0.0
 40
0.0
 40
0.4978500312
 40
1.0
 40
1.0
 40
1.0
 40
1.0
 10
64.8371598258
 20
95.904362935
 30
0.0
 10
64.8371598257
 20
97.3477208346
 30
0.0
 10
64.6326795146
 20
100.2502250905
 30
0.0
 10
64.0506375257
 20
103.0981893914
 30
0.0
 10
63.6824592874
 20
104.5066881992
 30
0.0
  0
SPLINE
  5
424
100
AcDbEntity
  8
GEOM
100
AcDbSpline
 62
7
  6
CONTINUOUS
 70
0
 71
3
 72
9
 73
5
 74
0
 42
0.0000001
 43
0.0000001
 44
0.0000000001
 40
0.0
 40
0.0
 40
0.0
 40
0.0
 40
0.5017825994
 40
1.0
 40
1.0
 40
1.0
 40
1.0
 10
44.9918603642
 20
104.5066881992
 30
0.0
 10
44.7510795925
 20
103.5855598036
 30
0.0
 10
44.3358761678
 20
101.7321245487
 30
0.0
 10
44.071577812
 20
99.8505786343
 30
0.0
 10
43.9814973931
 20
98.9095667522
 30
0.0
  0
SPLINE
  5
425
100
AcDbEntity
  8
GEOM
100
AcDbSpline
 62
7
  6
CONTINUOUS
 70
0
 71
3
 72
9
 73
5
 74
0
 42
0.0000001
 43
0.0000001
 44
0.0000000001
 40
0.0
 40
0.0
 40
0.0
 40
0.0
 40
0.4982141727
 40
1.0
 40
1.0
 40
1.0
 40
1.0
 10
43.9814973931
 20
92.8991591121
 30
0.0
 10
44.071577224
 20
91.9581533725
 30
0.0
 10
44.3358818745
 20
90.0766086074
 30
0.0
 10
44.7510780553
 20
88.2231719413
 30
0.0
 10
44.9918603642
 20
87.3020376651
 30
0.0
  0
SPLINE
  5
426
100
AcDbEntity
  8
0
100
AcDbSpline
 62
7
  6
CONTINUOUS
 70
0
 71
3
 72
10
 73
6
 74
0
 42
0.0000001
 43
0.0000001
 44
0.0000000001
 40
0.0
 40
0.0
 40
0.0
 40
0.0
 40
0.6378983268
 40
0.8533891668
 40
1.0
 40
1.0
 40
1.0
 40
1.0
 10
175.3671598575
 20
101.7295399806
 30
0.0
 10
175.3625249397
 20
101.8123937982
 30
0.0
 10
175.3558030263
 20
101.9232506286
 30
0.0
 10
175.3432735706
 20
102.052719287
 30
0.0
 10
175.3370297807
 20
102.0994632738
 30
0.0
 10
175.3333547763
 20
102.1181782734
 30
0.0
  0
SPLINE
  5
427
100
AcDbEntity
  8
0
100
AcDbSpline
 62
7
  6
CONTINUOUS
 70
0
 71
3
 72
9
 73
5
 74
0
 42
0.0000001
 43
0.0000001
 44
0.0000000001
 40
0.0
 40
0.0
 40
0.0
 40
0.0
 40
0.3287309299
 40
1.0
 40
1.0
 40
1.0
 40
1.0
 10
175.3333547763
 20
102.1181782734
 30
0.0
 10
175.3327112682
 20
102.1214553456
 30
0.0
 10
175.3305571016
 20
102.1313489328
 30
0.0
 10
175.3281554767
 20
102.1414050527
 30
0.0
 10
175.3250086489
 20
102.1474551929
 30
0.0
  0
SPLINE
  5
428
100
AcDbEntity
  8
0
100
AcDbSpline
 62
7
  6
CONTINUOUS
 70
0
 71
3
 72
55
 73
51
 74
0
 42
0.0000001
 43
0.0000001
 44
0.0000000001
 40
0.0
 40
0.0
 40
0.0
 40
0.0
 40
0.000384411
 40
0.0010626426
 40
0.0020386641
 40
0.0033128897
 40
0.0048849611
 40
0.0067542432
 40
0.0113812998
 40
0.0171847239
 40
0.0241492759
 40
0.0322588795
 40
0.0414953593
 40
0.0518350072
 40
0.0632531634
 40
0.0892153193
 40
0.1191304764
 40
0.1527111778
 40
0.189635109
 40
0.2295454619
 40
0.2720588203
 40
0.3167659879
 40
0.4110216777
 40
0.5086916255
 40
0.6060232235
 40
0.6992771216
 40
0.7432452318
 40
0.7848706658
 40
0.8237515938
 40
0.8595148345
 40
0.8918159026
 40
0.9203428839
 40
0.9448229192
 40
0.9650195956
 40
0.9734493925
 40
0.9807386556
 40
0.9868713175
 40
0.9894989915
 40
0.9918317269
 40
0.9938684162
 40
0.9956082836
 40
0.9970506382
 40
0.9981949614
 40
0.9990411508
 40
0.9993527775
 40
0.9995906946
 40
0.9997563672
 40
0.9998545158
 40
0.9999106393
 40
1.0
 40
1.0
 40
1.0
 40
1.0
 10
172.7712389292
 20
38.7497032693
 30
0.0
 10
172.7675228838
 20
38.7569309306
 30
0.0
 10
172.762628324
 20
38.7792266513
 30
0.0
 10
172.7557580586
 20
38.8215627208
 30
0.0
 10
172.749117811
 20
38.8832427095
 30
0.0
 10
172.7421557008
 20
38.963708894
 30
0.0
 10
172.7352134596
 20
39.0631812752
 30
0.0
 10
172.7251445572
 20
39.2334558168
 30
0.0
 10
172.7130099778
 20
39.4932201405
 30
0.0
 10
172.6991145642
 20
39.8607131516
 30
0.0
 10
172.6851527259
 20
40.301877269
 30
0.0
 10
172.6711310588
 20
40.8156483082
 30
0.0
 10
172.6570808926
 20
41.4007965062
 30
0.0
 10
172.6430031131
 20
42.0559092253
 30
0.0
 10
172.6233602855
 20
43.064586688
 30
0.0
 10
172.5992185814
 20
44.48710625
 30
0.0
 10
172.5712292191
 20
46.3781702798
 30
0.0
 10
172.54317573
 20
48.5010035063
 30
0.0
 10
172.5150723354
 20
50.8351653144
 30
0.0
 10
172.4869350678
 20
53.358188418
 30
0.0
 10
172.4587732858
 20
56.0457695097
 30
0.0
 10
172.4205277572
 20
59.8822455827
 30
0.0
 10
172.3734716123
 20
64.8847802661
 30
0.0
 10
172.3178716322
 20
70.9998388676
 30
0.0
 10
172.2622778509
 20
77.0937173505
 30
0.0
 10
172.2151563135
 20
82.052292301
 30
0.0
 10
172.1768389196
 20
85.8331888418
 30
0.0
 10
172.1486853025
 20
88.4646066715
 30
0.0
 10
172.1205584179
 20
90.9225516118
 30
0.0
 10
172.0924707697
 20
93.1833527968
 30
0.0
 10
172.0644372676
 20
95.2252389808
 30
0.0
 10
172.0364932967
 20
97.0285588179
 30
0.0
 10
172.0086631962
 20
98.5759408398
 30
0.0
 10
171.9844498737
 20
99.6984322047
 30
0.0
 10
171.964525836
 20
100.457482367
 30
0.0
 10
171.9505336576
 20
100.9192484444
 30
0.0
 10
171.938401657
 20
101.2583459268
 30
0.0
 10
171.9284983918
 20
101.4926612277
 30
0.0
 10
171.9214690532
 20
101.6404229978
 30
0.0
 10
171.9144601954
 20
101.7693951337
 30
0.0
 10
171.9074700785
 20
101.8795048908
 30
0.0
 10
171.9005456758
 20
101.9707314544
 30
0.0
 10
171.8936395471
 20
102.0429419809
 30
0.0
 10
171.8876529615
 20
102.0913433638
 30
0.0
 10
171.8824532617
 20
102.1202890335
 30
0.0
 10
171.8791646005
 20
102.1352530218
 30
0.0
 10
171.8756031164
 20
102.1448688738
 30
0.0
 10
171.8727639198
 20
102.1517619255
 30
0.0
 10
171.866721263
 20
102.1525699234
 30
0.0
 10
171.865183028
 20
102.1491275504
 30
0.0
 10
171.8643110076
 20
102.1474516305
 30
0.0
  0
SPLINE
  5
429
100
AcDbEntity
  8
0
100
AcDbSpline
 62
7
  6
CONTINUOUS
 70
0
 71
3
 72
44
 73
40
 74
0
 42
0.0000001
 43
0.0000001
 44
0.0000000001
 40
0.0
 40
0.0
 40
0.0
 40
0.0
 40
0.0000851679
 40
0.000140063
 40
0.0002350285
 40
0.0003940188
 40
0.0006216178
 40
0.0009192708
 40
0.0017266478
 40
0.0041922731
 40
0.0077904174
 40
0.0100125326
 40
0.0125155496
 40
0.0152979232
 40
0.0183578124
 40
0.0253027095
 40
0.0333353223
 40
0.0525894553
 40
0.0759433758
 40
0.103183956
 40
0.1340637187
 40
0.1682988566
 40
0.2055775974
 40
0.2455592546
 40
0.2878776436
 40
0.3779621209
 40
0.4725448423
 40
0.5681760389
 40
0.6613674739
 40
0.7487197998
 40
0.8270473121
 40
0.8934934026
 40
0.9214834568
 40
0.945634398
 40
0.9657243274
 40
0.9815704099
 40
0.9930300849
 40
0.9970803384
 40
1.0
 40
1.0
 40
1.0
 40
1.0
 10
172.6038330412
 20
38.7492554142
 30
0.0
 10
172.6029805759
 20
38.7476742429
 30
0.0
 10
172.6014157326
 20
38.7444227967
 30
0.0
 10
172.5956309724
 20
38.7453059244
 30
0.0
 10
172.5928310975
 20
38.7518556049
 30
0.0
 10
172.5893709442
 20
38.7610791923
 30
0.0
 10
172.5861576578
 20
38.7753290469
 30
0.0
 10
172.5810947731
 20
38.8028907569
 30
0.0
 10
172.5716358143
 20
38.8777378815
 30
0.0
 10
172.5600467652
 20
39.0221476872
 30
0.0
 10
172.5498492248
 20
39.1966501503
 30
0.0
 10
172.5412965793
 20
39.3719879711
 30
0.0
 10
172.5344387516
 20
39.5301871733
 30
0.0
 10
172.5275713645
 20
39.7060686706
 30
0.0
 10
172.5179979359
 20
39.9756014283
 30
0.0
 10
172.5061971601
 20
40.3558582521
 30
0.0
 10
172.486775575
 20
41.0775995938
 30
0.0
 10
172.4631845698
 20
42.1454385836
 30
0.0
 10
172.4360647375
 20
43.6184122113
 30
0.0
 10
172.40883742
 20
45.3366233156
 30
0.0
 10
172.3815220621
 20
47.2843604031
 30
0.0
 10
172.354152994
 20
49.4438366103
 30
0.0
 10
172.3267467956
 20
51.7953001475
 30
0.0
 10
172.2993134444
 20
54.3172630513
 30
0.0
 10
172.261928829
 20
57.9529421442
 30
0.0
 10
172.2159388516
 20
62.7402184215
 30
0.0
 10
172.1617296845
 20
68.6519208193
 30
0.0
 10
172.1075058486
 20
74.6291566358
 30
0.0
 10
172.0533269655
 20
80.4538856464
 30
0.0
 10
171.9992998895
 20
85.9136370153
 30
0.0
 10
171.9454975028
 20
90.8092573621
 30
0.0
 10
171.8988680767
 20
94.4528310354
 30
0.0
 10
171.8603016411
 20
96.9537315101
 30
0.0
 10
171.8331424262
 20
98.4769575911
 30
0.0
 10
171.8062734611
 20
99.7440137124
 30
0.0
 10
171.7795463951
 20
100.7433027627
 30
0.0
 10
171.7563370288
 20
101.4042846376
 30
0.0
 10
171.7361363996
 20
101.7924687613
 30
0.0
 10
171.72593698
 20
101.9391489804
 30
0.0
 10
171.7202264355
 20
102.0004640623
 30
0.0
  0
SPLINE
  5
42A
100
AcDbEntity
  8
0
100
AcDbSpline
 62
7
  6
CONTINUOUS
 70
0
 71
3
 72
11
 73
7
 74
0
 42
0.0000001
 43
0.0000001
 44
0.0000000001
 40
0.0
 40
0.0
 40
0.0
 40
0.0
 40
0.3770152493
 40
0.6689759914
 40
0.8761651778
 40
1.0
 40
1.0
 40
1.0
 40
1.0
 10
171.7202264355
 20
102.0004640623
 30
0.0
 10
171.718487823
 20
102.0191318387
 30
0.0
 10
171.7151179848
 20
102.0522122621
 30
0.0
 10
171.7096011627
 20
102.095502163
 30
0.0
 10
171.7040373702
 20
102.1258707972
 30
0.0
 10
171.6998561126
 20
102.1420163305
 30
0.0
 10
171.6970086171
 20
102.1474766292
 30
0.0
  0
SPLINE
  5
42B
100
AcDbEntity
  8
0
100
AcDbSpline
 62
7
  6
CONTINUOUS
 70
0
 71
3
 72
33
 73
29
 74
0
 42
0.0000001
 43
0.0000001
 44
0.0000000001
 40
0.0
 40
0.0
 40
0.0
 40
0.0
 40
0.0001326885
 40
0.0003817961
 40
0.0013023267
 40
0.0028079734
 40
0.0049033857
 40
0.0075887695
 40
0.0108632408
 40
0.0147254934
 40
0.0191740232
 40
0.0298219101
 40
0.0427816433
 40
0.0580230653
 40
0.0755146836
 40
0.0952152069
 40
0.1170783037
 40
0.1410568259
 40
0.1670951527
 40
0.2251065106
 40
0.2905856317
 40
0.3629350482
 40
0.4414923901
 40
0.5255437254
 40
0.6143241236
 40
0.707016318
 40
0.8027758515
 40
1.0
 40
1.0
 40
1.0
 40
1.0
 10
170.1856770252
 20
37.593554195
 30
0.0
 10
170.1842839075
 20
37.5935610748
 30
0.0
 10
170.18099534
 20
37.5968925899
 30
0.0
 10
170.1762674774
 20
37.609322658
 30
0.0
 10
170.170277448
 20
37.6372690563
 30
0.0
 10
170.163946626
 20
37.6840807127
 30
0.0
 10
170.1572411668
 20
37.7498593239
 30
0.0
 10
170.1505228178
 20
37.8341284936
 30
0.0
 10
170.1437253688
 20
37.9370466213
 30
0.0
 10
170.1369077088
 20
38.058488631
 30
0.0
 10
170.1271970356
 20
38.2573076278
 30
0.0
 10
170.1153768498
 20
38.5516433092
 30
0.0
 10
170.1017965389
 20
38.9593065868
 30
0.0
 10
170.0881650315
 20
39.438855847
 30
0.0
 10
170.0744941597
 20
39.9892020303
 30
0.0
 10
170.0607977667
 20
40.6090892962
 30
0.0
 10
170.047081247
 20
41.2970988297
 30
0.0
 10
170.0333522806
 20
42.0516625082
 30
0.0
 10
170.0143415368
 20
43.1857227382
 30
0.0
 10
169.9908830823
 20
44.7554946855
 30
0.0
 10
169.9635741405
 20
46.8114933828
 30
0.0
 10
169.9362191393
 20
49.0832268218
 30
0.0
 10
169.9088266187
 20
51.5499676879
 30
0.0
 10
169.8814098845
 20
54.1892317652
 30
0.0
 10
169.8539751216
 20
56.9769090618
 30
0.0
 10
169.8265268273
 20
59.8875196337
 30
0.0
 10
169.7895559276
 20
63.9366729969
 30
0.0
 10
169.7624060632
 20
67.0126732836
 30
0.0
 10
169.7441950403
 20
69.0833063384
 30
0.0
  0
SPLINE
  5
42C
100
AcDbEntity
  8
0
100
AcDbSpline
 62
7
  6
CONTINUOUS
 70
0
 71
3
 72
29
 73
25
 74
0
 42
0.0000001
 43
0.0000001
 44
0.0000000001
 40
0.0
 40
0.0
 40
0.0
 40
0.0
 40
0.0007625223
 40
0.0020914804
 40
0.0039946172
 40
0.0064734996
 40
0.0095281584
 40
0.0131580637
 40
0.0221375898
 40
0.0333909145
 40
0.0468931646
 40
0.0626179128
 40
0.0805287066
 40
0.1005842051
 40
0.122742576
 40
0.1731633782
 40
0.2313420318
 40
0.2967594646
 40
0.3688371164
 40
0.446930031
 40
0.530345519
 40
0.6183436434
 40
0.8049001738
 40
1.0
 40
1.0
 40
1.0
 40
1.0
 10
170.9572389015
 20
38.749685819
 30
0.0
 10
170.9537198418
 20
38.7565476049
 30
0.0
 10
170.9489663617
 20
38.7774890204
 30
0.0
 10
170.9423815376
 20
38.8171625545
 30
0.0
 10
170.9359744175
 20
38.8746718926
 30
0.0
 10
170.9292851049
 20
38.9495460932
 30
0.0
 10
170.9226068064
 20
39.0419948291
 30
0.0
 10
170.9129297047
 20
39.2001084396
 30
0.0
 10
170.9012654241
 20
39.4411675245
 30
0.0
 10
170.8879023802
 20
39.7820756995
 30
0.0
 10
170.8744778869
 20
40.1912442677
 30
0.0
 10
170.8609993262
 20
40.6677685416
 30
0.0
 10
170.8474901772
 20
41.2105897708
 30
0.0
 10
170.8339548934
 20
41.8184925368
 30
0.0
 10
170.8150664454
 20
42.7551358905
 30
0.0
 10
170.791846474
 20
44.0773144782
 30
0.0
 10
170.7649353937
 20
45.8369777188
 30
0.0
 10
170.7379606469
 20
47.8156828187
 30
0.0
 10
170.7109388226
 20
49.9958009597
 30
0.0
 10
170.6838838985
 20
52.3579494844
 30
0.0
 10
170.6568047111
 20
54.8811145013
 30
0.0
 10
170.6199590432
 20
58.5011518566
 30
0.0
 10
170.5745978322
 20
63.2506467127
 30
0.0
 10
170.539280956
 20
67.1102533427
 30
0.0
 10
170.5212973606
 20
69.083255534
 30
0.0
  0
LINE
  5
42D
100
AcDbEntity
  8
0
100
AcDbLine
 62
7
  6
CONTINUOUS
 10
158.2907218719
 20
35.8555740456
 11
157.754823487
 21
35.8443210184
  0
SPLINE
  5
42E
100
AcDbEntity
  8
0
100
AcDbSpline
 62
7
  6
CONTINUOUS
 70
0
 71
3
 72
33
 73
29
 74
0
 42
0.0000001
 43
0.0000001
 44
0.0000000001
 40
0.0
 40
0.0
 40
0.0
 40
0.0
 40
0.0001309025
 40
0.0003801066
 40
0.0013062187
 40
0.002824023
 40
0.004938911
 40
0.0076510523
 40
0.0109591038
 40
0.0148613139
 40
0.01935574
 40
0.030112799
 40
0.0432061037
 40
0.0586017764
 40
0.0762650007
 40
0.0961544448
 40
0.1182194228
 40
0.1424084068
 40
0.1686644686
 40
0.2271136717
 40
0.2930075396
 40
0.365709533
 40
0.4445187349
 40
0.5286785868
 40
0.6173788173
 40
0.7097604078
 40
0.8049344482
 40
1.0
 40
1.0
 40
1.0
 40
1.0
 10
171.9997181658
 20
37.5935626111
 30
0.0
 10
171.998284269
 20
37.5935495652
 30
0.0
 10
171.9948760219
 20
37.5970632729
 30
0.0
 10
171.99006597
 20
37.6100822245
 30
0.0
 10
171.9838786925
 20
37.6394840009
 30
0.0
 10
171.9773980182
 20
37.6887341273
 30
0.0
 10
171.9705020247
 20
37.7580244078
 30
0.0
 10
171.9636051984
 20
37.8468289607
 30
0.0
 10
171.9566215741
 20
37.9553171582
 30
0.0
 10
171.9496187274
 20
38.0833391192
 30
0.0
 10
171.9396431327
 20
38.2929224544
 30
0.0
 10
171.9274994016
 20
38.6031877261
 30
0.0
 10
171.9135507054
 20
39.0328796448
 30
0.0
 10
171.8995479615
 20
39.5382558731
 30
0.0
 10
171.8855032373
 20
40.1181030218
 30
0.0
 10
171.8714344015
 20
40.7710265211
 30
0.0
 10
171.8573443704
 20
41.4954500469
 30
0.0
 10
171.8432403507
 20
42.2896276076
 30
0.0
 10
171.8237178186
 20
43.4823373179
 30
0.0
 10
171.7996266042
 20
45.1318829978
 30
0.0
 10
171.7715764294
 20
47.2902081657
 30
0.0
 10
171.7434778775
 20
49.671580901
 30
0.0
 10
171.7153417237
 20
52.2530584402
 30
0.0
 10
171.6871812366
 20
55.0097961853
 30
0.0
 10
171.6590023896
 20
57.9152181689
 30
0.0
 10
171.6308107588
 20
60.9412990652
 30
0.0
 10
171.5929013755
 20
65.1325061522
 30
0.0
 10
171.564971237
 20
68.3117787865
 30
0.0
 10
171.5461950403
 20
70.4485188095
 30
0.0
  0
SPLINE
  5
42F
100
AcDbEntity
  8
0
100
AcDbSpline
 62
7
  6
CONTINUOUS
 70
0
 71
3
 72
11
 73
7
 74
0
 42
0.0000001
 43
0.0000001
 44
0.0000000001
 40
0.0
 40
0.0
 40
0.0
 40
0.0
 40
0.2502500867
 40
0.5000000007
 40
0.7497499144
 40
1.0
 40
1.0
 40
1.0
 40
1.0
 10
168.2622868447
 20
86.1235491045
 30
0.0
 10
168.435236122
 20
87.5121894659
 30
0.0
 10
168.7049625159
 20
90.2969967524
 30
0.0
 10
168.8447015855
 20
94.4901493796
 30
0.0
 10
168.7049625122
 20
98.6833020008
 30
0.0
 10
168.4352361213
 20
101.4681092794
 30
0.0
 10
168.2622868447
 20
102.8567496352
 30
0.0
  0
SPLINE
  5
430
100
AcDbEntity
  8
0
100
AcDbSpline
 62
7
  6
CONTINUOUS
 70
0
 71
3
 72
33
 73
29
 74
0
 42
0.0000001
 43
0.0000001
 44
0.0000000001
 40
0.0
 40
0.0
 40
0.0
 40
0.0
 40
0.0001314392
 40
0.0003814878
 40
0.0013093944
 40
0.0028289964
 40
0.0049455949
 40
0.0076592926
 40
0.0109687844
 40
0.0148723582
 40
0.0193681115
 40
0.0301277837
 40
0.0432232224
 40
0.0586207669
 40
0.0762859044
 40
0.0961769179
 40
0.1182433088
 40
0.142433894
 40
0.1686915027
 40
0.2271430409
 40
0.2930378608
 40
0.3657387098
 40
0.4445454862
 40
0.5287024878
 40
0.6173993082
 40
0.7097767329
 40
0.8049454228
 40
1.0
 40
1.0
 40
1.0
 40
1.0
 10
173.813695257
 20
37.5935593807
 30
0.0
 10
173.8122554227
 20
37.5935590962
 30
0.0
 10
173.8088605141
 20
37.5971005492
 30
0.0
 10
173.8040399923
 20
37.6101491934
 30
0.0
 10
173.7978631654
 20
37.6396064594
 30
0.0
 10
173.7913757726
 20
37.688911754
 30
0.0
 10
173.78448268
 20
37.758259125
 30
0.0
 10
173.7775848782
 20
37.8471148278
 30
0.0
 10
173.7706019431
 20
37.9556510334
 30
0.0
 10
173.7635992911
 20
38.0837182027
 30
0.0
 10
173.7536244747
 20
38.2933596556
 30
0.0
 10
173.7414817328
 20
38.6036913745
 30
0.0
 10
173.7275335073
 20
39.0334556302
 30
0.0
 10
173.7135313155
 20
39.5388964696
 30
0.0
 10
173.6994874424
 20
40.1188020039
 30
0.0
 10
173.6854190691
 20
40.7717788095
 30
0.0
 10
173.6713294282
 20
41.4962521801
 30
0.0
 10
173.6572259055
 20
42.2904793031
 30
0.0
 10
173.6377039522
 20
43.4832484667
 30
0.0
 10
173.6136133596
 20
45.1328462461
 30
0.0
 10
173.585564347
 20
47.2911937668
 30
0.0
 10
173.5574670663
 20
49.6725365845
 30
0.0
 10
173.5293324572
 20
52.2539424474
 30
0.0
 10
173.5011734479
 20
55.0105836032
 30
0.0
 10
173.4729960274
 20
57.9158898539
 30
0.0
 10
173.4448059355
 20
60.9418275647
 30
0.0
 10
173.4068987193
 20
65.1328079905
 30
0.0
 10
173.3789701708
 20
68.3119001262
 30
0.0
 10
173.3601950403
 20
70.4485188095
 30
0.0
  0
SPLINE
  5
431
100
AcDbEntity
  8
0
100
AcDbSpline
 62
7
  6
CONTINUOUS
 70
0
 71
3
 72
9
 73
5
 74
0
 42
0.0000001
 43
0.0000001
 44
0.0000000001
 40
0.0
 40
0.0
 40
0.0
 40
0.0
 40
0.4999979912
 40
1.0
 40
1.0
 40
1.0
 40
1.0
 10
168.7981852296
 20
70.4485188095
 30
0.0
 10
168.7981852296
 20
72.4230413422
 30
0.0
 10
168.7051841899
 20
76.3726306628
 30
0.0
 10
168.4355083846
 20
80.3137528092
 30
0.0
 10
168.2622868447
 20
82.2806783757
 30
0.0
  0
SPLINE
  5
432
100
AcDbEntity
  8
0
100
AcDbSpline
 62
7
  6
CONTINUOUS
 70
0
 71
3
 72
9
 73
5
 74
0
 42
0.0000001
 43
0.0000001
 44
0.0000000001
 40
0.0
 40
0.0
 40
0.0
 40
0.0
 40
0.5000020382
 40
1.0
 40
1.0
 40
1.0
 40
1.0
 10
168.2622868447
 20
58.6163592433
 30
0.0
 10
168.4355083948
 20
60.5832849257
 30
0.0
 10
168.70518419
 20
64.5244070729
 30
0.0
 10
168.7981852296
 20
68.4739963932
 30
0.0
 10
168.7981852296
 20
70.4485188095
 30
0.0
  0
SPLINE
  5
433
100
AcDbEntity
  8
0
100
AcDbSpline
 62
7
  6
CONTINUOUS
 70
0
 71
3
 72
11
 73
7
 74
0
 42
0.0000001
 43
0.0000001
 44
0.0000000001
 40
0.0
 40
0.0
 40
0.0
 40
0.0
 40
0.2502500867
 40
0.5000000007
 40
0.7497499144
 40
1.0
 40
1.0
 40
1.0
 40
1.0
 10
168.2622868447
 20
38.0402879838
 30
0.0
 10
168.435236122
 20
39.4289283452
 30
0.0
 10
168.7049625159
 20
42.2137356317
 30
0.0
 10
168.8447015855
 20
46.4068882589
 30
0.0
 10
168.7049625122
 20
50.6000408801
 30
0.0
 10
168.4352361213
 20
53.3848481587
 30
0.0
 10
168.2622868447
 20
54.7734885145
 30
0.0
  0
SPLINE
  5
434
100
AcDbEntity
  8
0
100
AcDbSpline
 62
7
  6
CONTINUOUS
 70
0
 71
3
 72
11
 73
7
 74
0
 42
0.0000001
 43
0.0000001
 44
0.0000000001
 40
0.0
 40
0.0
 40
0.0
 40
0.0
 40
0.2508367014
 40
0.5015155641
 40
0.7513460438
 40
1.0
 40
1.0
 40
1.0
 40
1.0
 10
158.5275641481
 20
104.4485188095
 30
0.0
 10
158.4399351118
 20
104.4485187691
 30
0.0
 10
158.2639116299
 20
104.4823784503
 30
0.0
 10
158.030309003
 20
104.6107748277
 30
0.0
 10
157.8500251734
 20
104.8067260709
 30
0.0
 10
157.7772271727
 20
104.9687888645
 30
0.0
 10
157.754823487
 20
105.0527165943
 30
0.0
  0
LINE
  5
435
100
AcDbEntity
  8
0
100
AcDbLine
 62
7
  6
CONTINUOUS
 10
157.754823487
 20
105.0527165943
 11
158.2907218726
 21
105.041463573
  0
SPLINE
  5
436
100
AcDbEntity
  8
0
100
AcDbSpline
 62
7
  6
CONTINUOUS
 70
0
 71
3
 72
11
 73
7
 74
0
 42
0.0000001
 43
0.0000001
 44
0.0000000001
 40
0.0
 40
0.0
 40
0.0
 40
0.0
 40
0.2502393275
 40
0.4999997398
 40
0.7497601389
 40
1.0
 40
1.0
 40
1.0
 40
1.0
 10
158.5392210032
 20
86.1235491045
 30
0.0
 10
158.7086294905
 20
87.5124133747
 30
0.0
 10
158.9724416731
 20
90.2974144174
 30
0.0
 10
159.1088831326
 20
94.4901449284
 30
0.0
 10
158.9724459721
 20
98.6828788021
 30
0.0
 10
158.7086290547
 20
101.467882306
 30
0.0
 10
158.5392210032
 20
102.8567496352
 30
0.0
  0
SPLINE
  5
437
100
AcDbEntity
  8
0
100
AcDbSpline
 62
7
  6
CONTINUOUS
 70
0
 71
3
 72
11
 73
7
 74
0
 42
0.0000001
 43
0.0000001
 44
0.0000000001
 40
0.0
 40
0.0
 40
0.0
 40
0.0
 40
0.2499026409
 40
0.4995297629
 40
0.7494082609
 40
1.0
 40
1.0
 40
1.0
 40
1.0
 10
157.754823487
 20
86.5033131313
 30
0.0
 10
157.9278399585
 20
87.8979364836
 30
0.0
 10
158.1976350994
 20
90.6959356818
 30
0.0
 10
158.3372348656
 20
94.9108380514
 30
0.0
 10
158.1973796255
 20
99.129599844
 30
0.0
 10
157.9277236445
 20
101.9329078516
 30
0.0
 10
157.754823487
 20
103.3314503207
 30
0.0
  0
SPLINE
  5
438
100
AcDbEntity
  8
0
100
AcDbSpline
 62
7
  6
CONTINUOUS
 70
0
 71
3
 72
11
 73
7
 74
0
 42
0.0000001
 43
0.0000001
 44
0.0000000001
 40
0.0
 40
0.0
 40
0.0
 40
0.0
 40
0.2697770756
 40
0.5286467013
 40
0.771609426
 40
1.0
 40
1.0
 40
1.0
 40
1.0
 10
158.5275641481
 20
102.8567496352
 30
0.0
 10
158.4407439995
 20
102.8567497394
 30
0.0
 10
158.269218785
 20
102.873763122
 30
0.0
 10
158.0368172078
 20
102.9716331296
 30
0.0
 10
157.8542888081
 20
103.125807465
 30
0.0
 10
157.7776485566
 20
103.2615831366
 30
0.0
 10
157.754823487
 20
103.3314503207
 30
0.0
  0
SPLINE
  5
439
100
AcDbEntity
  8
0
100
AcDbSpline
 62
7
  6
CONTINUOUS
 70
0
 71
3
 72
10
 73
6
 74
0
 42
0.0000001
 43
0.0000001
 44
0.0000000001
 40
0.0
 40
0.0
 40
0.0
 40
0.0
 40
0.4334243394
 40
0.7071464661
 40
1.0
 40
1.0
 40
1.0
 40
1.0
 10
157.754823487
 20
86.5033131313
 30
0.0
 10
157.8074075028
 20
86.3856887791
 30
0.0
 10
157.9923411883
 20
86.2446430813
 30
0.0
 10
158.2717836283
 20
86.1519826046
 30
0.0
 10
158.4405081631
 20
86.1235489164
 30
0.0
 10
158.5275641481
 20
86.1235491045
 30
0.0
  0
SPLINE
  5
43A
100
AcDbEntity
  8
0
100
AcDbSpline
 62
7
  6
CONTINUOUS
 70
0
 71
3
 72
33
 73
29
 74
0
 42
0.0000001
 43
0.0000001
 44
0.0000000001
 40
0.0
 40
0.0
 40
0.0
 40
0.0
 40
0.0001314548
 40
0.0003815262
 40
0.0013094673
 40
0.0028290688
 40
0.0049456733
 40
0.0076594298
 40
0.0109690106
 40
0.0148726808
 40
0.019368515
 40
0.0301282709
 40
0.0432239468
 40
0.05862171
 40
0.07628683
 40
0.0961778264
 40
0.1182440561
 40
0.1424340892
 40
0.1686908898
 40
0.2271408932
 40
0.2930346758
 40
0.3657356271
 40
0.4445428941
 40
0.528700208
 40
0.6173974004
 40
0.7097751869
 40
0.8049443751
 40
1.0
 40
1.0
 40
1.0
 40
1.0
 10
172.468624664
 20
103.3034779113
 30
0.0
 10
172.470064669
 20
103.3034778437
 30
0.0
 10
172.4734592195
 20
103.2999356393
 30
0.0
 10
172.4782800486
 20
103.286886345
 30
0.0
 10
172.4844566015
 20
103.2574283047
 30
0.0
 10
172.4909443555
 20
103.2081226726
 30
0.0
 10
172.4978374322
 20
103.1387745647
 30
0.0
 10
172.5047352421
 20
103.0499171868
 30
0.0
 10
172.5117181833
 20
102.941378299
 30
0.0
 10
172.5187208597
 20
102.8133082145
 30
0.0
 10
172.5286956893
 20
102.6036639039
 30
0.0
 10
172.5408386864
 20
102.2933277981
 30
0.0
 10
172.5547868367
 20
101.8635576346
 30
0.0
 10
172.5687890025
 20
101.3581120045
 30
0.0
 10
172.5828329976
 20
100.7782044696
 30
0.0
 10
172.5969011906
 20
100.1252298225
 30
0.0
 10
172.6109905635
 20
99.400764466
 30
0.0
 10
172.625093837
 20
98.606554027
 30
0.0
 10
172.6446153431
 20
97.4138166015
 30
0.0
 10
172.6687053248
 20
95.7642558851
 30
0.0
 10
172.6967542258
 20
93.6059354723
 30
0.0
 10
172.7248514553
 20
91.2245975802
 30
0.0
 10
172.7529862938
 20
88.6431818659
 30
0.0
 10
172.7811454805
 20
85.8865279083
 30
0.0
 10
172.8093230216
 20
82.9812102687
 30
0.0
 10
172.837513272
 20
79.9552591352
 30
0.0
 10
172.8754206816
 20
75.7642579119
 30
0.0
 10
172.9033493804
 20
72.5851489177
 30
0.0
 10
172.9221246114
 20
70.4485188095
 30
0.0
  0
SPLINE
  5
43B
100
AcDbEntity
  8
0
100
AcDbSpline
 62
7
  6
CONTINUOUS
 70
0
 71
3
 72
11
 73
7
 74
0
 42
0.0000001
 43
0.0000001
 44
0.0000000001
 40
0.0
 40
0.0
 40
0.0
 40
0.0
 40
0.2500010966
 40
0.4999999993
 40
0.7499989015
 40
1.0
 40
1.0
 40
1.0
 40
1.0
 10
158.5392210032
 20
58.6163592433
 30
0.0
 10
158.7088860337
 20
60.5834882313
 30
0.0
 10
158.9726550097
 20
64.5248227291
 30
0.0
 10
159.1088226859
 20
70.4485187838
 30
0.0
 10
158.972654973
 20
76.3722148668
 30
0.0
 10
158.7088856561
 20
80.3135493396
 30
0.0
 10
158.5392210032
 20
82.2806783757
 30
0.0
  0
SPLINE
  5
43C
100
AcDbEntity
  8
0
100
AcDbSpline
 62
7
  6
CONTINUOUS
 70
0
 71
3
 72
11
 73
7
 74
0
 42
0.0000001
 43
0.0000001
 44
0.0000000001
 40
0.0
 40
0.0
 40
0.0
 40
0.0
 40
0.2500010633
 40
0.4999999998
 40
0.7499989357
 40
1.0
 40
1.0
 40
1.0
 40
1.0
 10
157.754823487
 20
58.5492288761
 30
0.0
 10
157.9280512065
 20
60.5273715656
 30
0.0
 10
158.1977307364
 20
64.4909624377
 30
0.0
 10
158.3371709275
 20
70.4485187797
 30
0.0
 10
158.1977308893
 20
76.4060751488
 30
0.0
 10
157.9280509526
 20
80.3696659885
 30
0.0
 10
157.754823487
 20
82.3478087081
 30
0.0
  0
SPLINE
  5
43D
100
AcDbEntity
  8
0
100
AcDbSpline
 62
7
  6
CONTINUOUS
 70
0
 71
3
 72
33
 73
29
 74
0
 42
0.0000001
 43
0.0000001
 44
0.0000000001
 40
0.0
 40
0.0
 40
0.0
 40
0.0
 40
0.00013148
 40
0.0003815881
 40
0.0013095824
 40
0.0028291761
 40
0.0049457556
 40
0.00765955
 40
0.0109692031
 40
0.0148729505
 40
0.0193688372
 40
0.0301285606
 40
0.0432243143
 40
0.0586221858
 40
0.0762872856
 40
0.0961783647
 40
0.1182447162
 40
0.1424347546
 40
0.1686916233
 40
0.2271416506
 40
0.2930353522
 40
0.3657361337
 40
0.4445433163
 40
0.5287005837
 40
0.617397697
 40
0.7097754596
 40
0.8049445569
 40
1.0
 40
1.0
 40
1.0
 40
1.0
 10
174.2826251416
 20
103.3034782142
 30
0.0
 10
174.2840654227
 20
103.3034775507
 30
0.0
 10
174.2874593363
 20
103.2999340947
 30
0.0
 10
174.2922806369
 20
103.2868837802
 30
0.0
 10
174.2984566732
 20
103.2574245753
 30
0.0
 10
174.3049449172
 20
103.2081188779
 30
0.0
 10
174.3118379424
 20
103.1387706625
 30
0.0
 10
174.3187357112
 20
103.0499123659
 30
0.0
 10
174.3257186066
 20
102.9413714139
 30
0.0
 10
174.3327212601
 20
102.813299117
 30
0.0
 10
174.3426960146
 20
102.6036537397
 30
0.0
 10
174.3548392041
 20
102.2933165748
 30
0.0
 10
174.3687872258
 20
101.863544729
 30
0.0
 10
174.3827893197
 20
101.358097287
 30
0.0
 10
174.3968334318
 20
100.7781878924
 30
0.0
 10
174.4109015787
 20
100.1252112349
 30
0.0
 10
174.4249909049
 20
99.4007435908
 30
0.0
 10
174.4390942624
 20
98.6065310276
 30
0.0
 10
174.4586157015
 20
97.4137925536
 30
0.0
 10
174.4827056775
 20
95.764231743
 30
0.0
 10
174.5107544726
 20
93.6059138487
 30
0.0
 10
174.5388516693
 20
91.224579667
 30
0.0
 10
174.5669864459
 20
88.6431672875
 30
0.0
 10
174.595145598
 20
85.8865156731
 30
0.0
 10
174.6233231265
 20
82.981199718
 30
0.0
 10
174.6515133465
 20
79.9552507556
 30
0.0
 10
174.6894207274
 20
75.7642528489
 30
0.0
 10
174.7173493982
 20
72.5851468922
 30
0.0
 10
174.7361246113
 20
70.4485188095
 30
0.0
  0
SPLINE
  5
43E
100
AcDbEntity
  8
0
100
AcDbSpline
 62
7
  6
CONTINUOUS
 70
0
 71
3
 72
12
 73
8
 74
0
 42
0.0000001
 43
0.0000001
 44
0.0000000001
 40
0.0
 40
0.0
 40
0.0
 40
0.0
 40
0.3313938167
 40
0.6263891688
 40
0.8556422389
 40
0.9391238292
 40
1.0
 40
1.0
 40
1.0
 40
1.0
 10
158.5275641481
 20
82.2806783757
 30
0.0
 10
158.4413276681
 20
82.2806785993
 30
0.0
 10
158.278317917
 20
82.2725863798
 30
0.0
 10
158.055832061
 20
82.284515539
 30
0.0
 10
157.8982828242
 20
82.3028868121
 30
0.0
 10
157.8038617198
 20
82.3261703873
 30
0.0
 10
157.7685105779
 20
82.339832873
 30
0.0
 10
157.754823487
 20
82.3478087081
 30
0.0
  0
SPLINE
  5
43F
100
AcDbEntity
  8
0
100
AcDbSpline
 62
7
  6
CONTINUOUS
 70
0
 71
3
 72
12
 73
8
 74
0
 42
0.0000001
 43
0.0000001
 44
0.0000000001
 40
0.0
 40
0.0
 40
0.0
 40
0.0
 40
0.0608831711
 40
0.1443728386
 40
0.3736124588
 40
0.6685820856
 40
1.0
 40
1.0
 40
1.0
 40
1.0
 10
157.754823487
 20
58.5492288761
 30
0.0
 10
157.768512125
 20
58.5572056096
 30
0.0
 10
157.8038678238
 20
58.5708671731
 30
0.0
 10
157.8982873009
 20
58.5941563909
 30
0.0
 10
158.0558295795
 20
58.612529575
 30
0.0
 10
158.2783123927
 20
58.6244000551
 30
0.0
 10
158.4413215746
 20
58.6163590443
 30
0.0
 10
158.5275641481
 20
58.6163592433
 30
0.0
  0
SPLINE
  5
440
100
AcDbEntity
  8
0
100
AcDbSpline
 62
7
  6
CONTINUOUS
 70
0
 71
3
 72
11
 73
7
 74
0
 42
0.0000001
 43
0.0000001
 44
0.0000000001
 40
0.0
 40
0.0
 40
0.0
 40
0.0
 40
0.250239826
 40
0.5000001855
 40
0.7497605792
 40
1.0
 40
1.0
 40
1.0
 40
1.0
 10
158.5392210032
 20
38.0402879838
 30
0.0
 10
158.7086294453
 20
39.4291550701
 30
0.0
 10
158.9724458095
 20
42.2141582292
 30
0.0
 10
159.1088833817
 20
46.4068915406
 30
0.0
 10
158.9724422326
 20
50.5996223124
 30
0.0
 10
158.7086290654
 20
53.3846236642
 30
0.0
 10
158.5392210032
 20
54.7734885145
 30
0.0
  0
SPLINE
  5
441
100
AcDbEntity
  8
0
100
AcDbSpline
 62
7
  6
CONTINUOUS
 70
0
 71
3
 72
11
 73
7
 74
0
 42
0.0000001
 43
0.0000001
 44
0.0000000001
 40
0.0
 40
0.0
 40
0.0
 40
0.0
 40
0.2505917038
 40
0.5004701604
 40
0.7500972624
 40
1.0
 40
1.0
 40
1.0
 40
1.0
 10
157.754823487
 20
37.565587282
 30
0.0
 10
157.9277238796
 20
38.9641295234
 30
0.0
 10
158.1973792626
 20
41.7674371655
 30
0.0
 10
158.3372351564
 20
45.9861983617
 30
0.0
 10
158.1976358243
 20
50.2011009941
 30
0.0
 10
157.9278397403
 20
52.9991005241
 30
0.0
 10
157.754823487
 20
54.3937244527
 30
0.0
  0
SPLINE
  5
442
100
AcDbEntity
  8
0
100
AcDbSpline
 62
7
  6
CONTINUOUS
 70
0
 71
3
 72
10
 73
6
 74
0
 42
0.0000001
 43
0.0000001
 44
0.0000000001
 40
0.0
 40
0.0
 40
0.0
 40
0.0
 40
0.292837746
 40
0.5665735775
 40
1.0
 40
1.0
 40
1.0
 40
1.0
 10
158.5275641481
 20
54.7734885145
 30
0.0
 10
158.4405133482
 20
54.7734887287
 30
0.0
 10
158.2717988774
 20
54.7450107703
 30
0.0
 10
157.9923376574
 20
54.6524172674
 30
0.0
 10
157.8074074575
 20
54.5113487061
 30
0.0
 10
157.754823487
 20
54.3937244527
 30
0.0
  0
SPLINE
  5
443
100
AcDbEntity
  8
0
100
AcDbSpline
 62
7
  6
CONTINUOUS
 70
0
 71
3
 72
29
 73
25
 74
0
 42
0.0000001
 43
0.0000001
 44
0.0000000001
 40
0.0
 40
0.0
 40
0.0
 40
0.0
 40
0.1930266646
 40
0.3787807805
 40
0.4667403088
 40
0.5502996389
 40
0.6286717602
 40
0.701120858
 40
0.7669627353
 40
0.8255759046
 40
0.876411073
 40
0.898757629
 40
0.9189874162
 40
0.9370508359
 40
0.9529045879
 40
0.9665144332
 40
0.9778470464
 40
0.9868750461
 40
0.9905195089
 40
0.9935818063
 40
0.99606036
 40
0.9979541436
 40
0.9992644809
 40
1.0
 40
1.0
 40
1.0
 40
1.0
 10
175.1741950403
 20
70.4485188095
 30
0.0
 10
175.1556190139
 20
72.5624793479
 30
0.0
 10
175.1191680713
 20
76.7107540067
 30
0.0
 10
175.0725763563
 20
81.8223159778
 30
0.0
 10
175.0347146101
 20
85.735012674
 30
0.0
 10
175.0068519981
 20
88.4716952836
 30
0.0
 10
174.9790136956
 20
91.0384975016
 30
0.0
 10
174.9512086167
 20
93.411245044
 30
0.0
 10
174.9234543904
 20
95.567575721
 30
0.0
 10
174.8957624367
 20
97.4871680951
 30
0.0
 10
174.8718752937
 20
98.9303996949
 30
0.0
 10
174.8524381052
 20
99.9532652748
 30
0.0
 10
174.8385117615
 20
100.6172508497
 30
0.0
 10
174.8246108488
 20
101.2101102726
 30
0.0
 10
174.8107385825
 20
101.7304454563
 30
0.0
 10
174.7969285038
 20
102.1770381972
 30
0.0
 10
174.783181452
 20
102.5488305794
 30
0.0
 10
174.7711755993
 20
102.8114749929
 30
0.0
 10
174.7612116829
 20
102.9835083773
 30
0.0
 10
174.7543475111
 20
103.08389403
 30
0.0
 10
174.7474562943
 20
103.1649795801
 30
0.0
 10
174.7409076208
 20
103.2270059383
 30
0.0
 10
174.7340881262
 20
103.2693789766
 30
0.0
 10
174.7292905892
 20
103.2916576948
 30
0.0
 10
174.7255680173
 20
103.2988014252
 30
0.0
  0
SPLINE
  5
444
100
AcDbEntity
  8
0
100
AcDbSpline
 62
7
  6
CONTINUOUS
 70
0
 71
3
 72
29
 73
25
 74
0
 42
0.0000001
 43
0.0000001
 44
0.0000000001
 40
0.0
 40
0.0
 40
0.0
 40
0.0
 40
0.193026869
 40
0.3787811549
 40
0.4667406627
 40
0.5503000255
 40
0.62867214
 40
0.7011211976
 40
0.7669631231
 40
0.8255762701
 40
0.8764113793
 40
0.8987579486
 40
0.9189877487
 40
0.9370510773
 40
0.9529048248
 40
0.9665146786
 40
0.9778471748
 40
0.9868751501
 40
0.9905196262
 40
0.993581922
 40
0.9960604353
 40
0.9979541334
 40
0.9992644483
 40
1.0
 40
1.0
 40
1.0
 40
1.0
 10
173.3601950403
 20
70.4485188095
 30
0.0
 10
173.3416189943
 20
72.5624815747
 30
0.0
 10
173.3051680127
 20
76.7107603104
 30
0.0
 10
173.2585762691
 20
81.8223261288
 30
0.0
 10
173.2207144863
 20
85.735024798
 30
0.0
 10
173.1928518712
 20
88.4717074514
 30
0.0
 10
173.1650135719
 20
91.038509499
 30
0.0
 10
173.1372084534
 20
93.4112570412
 30
0.0
 10
173.1094542439
 20
95.56758755
 30
0.0
 10
173.0817622725
 20
97.4871795487
 30
0.0
 10
173.0578750819
 20
98.9304103933
 30
0.0
 10
173.0384378925
 20
99.9532756052
 30
0.0
 10
173.0245116041
 20
100.6172604663
 30
0.0
 10
173.0106105923
 20
101.2101189771
 30
0.0
 10
172.9967383299
 20
101.7304532048
 30
0.0
 10
172.9829283757
 20
102.1770447086
 30
0.0
 10
172.9691811786
 20
102.5488356275
 30
0.0
 10
172.9571753625
 20
102.811478632
 30
0.0
 10
172.9472115513
 20
102.9835118862
 30
0.0
 10
172.9403474174
 20
103.0838972185
 30
0.0
 10
172.9334563546
 20
103.1649814054
 30
0.0
 10
172.926907435
 20
103.2270060461
 30
0.0
 10
172.9200880064
 20
103.2693783699
 30
0.0
 10
172.9152903858
 20
103.2916570365
 30
0.0
 10
172.9115680196
 20
103.2988012769
 30
0.0
  0
SPLINE
  5
445
100
AcDbEntity
  8
0
100
AcDbSpline
 62
7
  6
CONTINUOUS
 70
0
 71
3
 72
29
 73
25
 74
0
 42
0.0000001
 43
0.0000001
 44
0.0000000001
 40
0.0
 40
0.0
 40
0.0
 40
0.0
 40
0.1930268452
 40
0.3787810684
 40
0.4667405806
 40
0.5502999244
 40
0.6286720798
 40
0.7011212755
 40
0.7669632691
 40
0.8255764425
 40
0.8764115062
 40
0.8987579981
 40
0.918987721
 40
0.9370511085
 40
0.9529048173
 40
0.9665146141
 40
0.9778471967
 40
0.986875144
 40
0.990519574
 40
0.9935818405
 40
0.9960603697
 40
0.9979541398
 40
0.9992644756
 40
1.0
 40
1.0
 40
1.0
 40
1.0
 10
171.5461950403
 20
70.4485188095
 30
0.0
 10
171.5276189962
 20
72.5624813643
 30
0.0
 10
171.4911680246
 20
76.7107592522
 30
0.0
 10
171.4445762793
 20
81.8223242945
 30
0.0
 10
171.4067145162
 20
85.735022211
 30
0.0
 10
171.3788518931
 20
88.471705217
 30
0.0
 10
171.3510135666
 20
91.0385090767
 30
0.0
 10
171.3232084449
 20
93.4112593828
 30
0.0
 10
171.2954541556
 20
95.5675924908
 30
0.0
 10
171.2677621782
 20
97.4871850725
 30
0.0
 10
171.2438750316
 20
98.9304148938
 30
0.0
 10
171.2244378608
 20
99.9532779384
 30
0.0
 10
171.2105115111
 20
100.6172617657
 30
0.0
 10
171.1966106212
 20
101.2101196702
 30
0.0
 10
171.1827383508
 20
101.730453507
 30
0.0
 10
171.1689282506
 20
102.1770449152
 30
0.0
 10
171.1551812469
 20
102.5488358642
 30
0.0
 10
171.1431754277
 20
102.8114790142
 30
0.0
 10
171.1332115345
 20
102.9835111299
 30
0.0
 10
171.1263473864
 20
103.0838958169
 30
0.0
 10
171.1194561962
 20
103.1649806168
 30
0.0
 10
171.1129075337
 20
103.2270065328
 30
0.0
 10
171.1060880798
 20
103.2693794866
 30
0.0
 10
171.1012905533
 20
103.2916582284
 30
0.0
 10
171.0975680184
 20
103.2988020437
 30
0.0
  0
SPLINE
  5
446
100
AcDbEntity
  8
0
100
AcDbSpline
 62
7
  6
CONTINUOUS
 70
0
 71
3
 72
11
 73
7
 74
0
 42
0.0000001
 43
0.0000001
 44
0.0000000001
 40
0.0
 40
0.0
 40
0.0
 40
0.0
 40
0.2284088689
 40
0.4713556677
 40
0.7302005412
 40
1.0
 40
1.0
 40
1.0
 40
1.0
 10
157.754823487
 20
37.565587282
 30
0.0
 10
157.7776503034
 20
37.6354598052
 30
0.0
 10
157.8542936978
 20
37.7712335545
 30
0.0
 10
158.0368144185
 20
37.9254069949
 30
0.0
 10
158.2692170636
 20
38.0232501387
 30
0.0
 10
158.4407371152
 20
38.0402878913
 30
0.0
 10
158.5275641481
 20
38.0402879838
 30
0.0
  0
SPLINE
  5
447
100
AcDbEntity
  8
0
100
AcDbSpline
 62
7
  6
CONTINUOUS
 70
0
 71
3
 72
55
 73
51
 74
0
 42
0.0000001
 43
0.0000001
 44
0.0000000001
 40
0.0
 40
0.0
 40
0.0
 40
0.0
 40
0.0003845582
 40
0.0010624015
 40
0.002037863
 40
0.0033120151
 40
0.0048844318
 40
0.0067541634
 40
0.0113811856
 40
0.0171838381
 40
0.0241491024
 40
0.0322588619
 40
0.0414944974
 40
0.0518347362
 40
0.0632532028
 40
0.0892149571
 40
0.1191297573
 40
0.152711199
 40
0.1896346174
 40
0.229544958
 40
0.2720586965
 40
0.3167654755
 40
0.4110213728
 40
0.5086913158
 40
0.6060229718
 40
0.6992766626
 40
0.7432451383
 40
0.7848700294
 40
0.8237512283
 40
0.8595147921
 40
0.8918151073
 40
0.9203426932
 40
0.944822761
 40
0.9650187556
 40
0.9734491233
 40
0.980738653
 40
0.9868705048
 40
0.9894981179
 40
0.9918313266
 40
0.993868518
 40
0.995608355
 40
0.9970503183
 40
0.9981942073
 40
0.9990402362
 40
0.9993519818
 40
0.9995901533
 40
0.9997561186
 40
0.9998544809
 40
0.9999106159
 40
1.0
 40
1.0
 40
1.0
 40
1.0
 10
174.5852389102
 20
38.7497274573
 30
0.0
 10
174.5815261518
 20
38.756960307
 30
0.0
 10
174.5766296118
 20
38.7792482027
 30
0.0
 10
174.5697581156
 20
38.8215685481
 30
0.0
 10
174.5631156282
 20
38.8832258466
 30
0.0
 10
174.5561549612
 20
38.9636863468
 30
0.0
 10
174.5492133829
 20
39.0631739589
 30
0.0
 10
174.5391462587
 20
39.233464754
 30
0.0
 10
174.5270106378
 20
39.4932214292
 30
0.0
 10
174.5131124127
 20
39.8607123808
 30
0.0
 10
174.4991537336
 20
40.3018786417
 30
0.0
 10
174.485131876
 20
40.8156501774
 30
0.0
 10
174.471079465
 20
41.4007962656
 30
0.0
 10
174.4570035701
 20
42.0559102363
 30
0.0
 10
174.4373606064
 20
43.0645982647
 30
0.0
 10
174.4132185017
 20
44.4871083531
 30
0.0
 10
174.3852285729
 20
46.3781719985
 30
0.0
 10
174.3571764525
 20
48.5010025193
 30
0.0
 10
174.3290719808
 20
50.8351688724
 30
0.0
 10
174.3009349265
 20
53.3581889237
 30
0.0
 10
174.2727735947
 20
56.0457695917
 30
0.0
 10
174.2345273474
 20
59.8822498846
 30
0.0
 10
174.1874717981
 20
64.8847806666
 30
0.0
 10
174.131871511
 20
70.9998448059
 30
0.0
 10
174.076278071
 20
77.0937200622
 30
0.0
 10
174.0291558713
 20
82.0522995981
 30
0.0
 10
173.9908393318
 20
85.8331880305
 30
0.0
 10
173.9626849412
 20
88.4646078388
 30
0.0
 10
173.9345582886
 20
90.9225538751
 30
0.0
 10
173.9064714461
 20
93.183351721
 30
0.0
 10
173.8784364449
 20
95.2252415925
 30
0.0
 10
173.850493457
 20
97.0285590016
 30
0.0
 10
173.8226641722
 20
98.5759401059
 30
0.0
 10
173.7984485242
 20
99.6984297618
 30
0.0
 10
173.7785258365
 20
100.4574832497
 30
0.0
 10
173.7645352195
 20
100.9192499589
 30
0.0
 10
173.7524011372
 20
101.258334586
 30
0.0
 10
173.7424975134
 20
101.4926414524
 30
0.0
 10
173.735468778
 20
101.640422605
 30
0.0
 10
173.7284611772
 20
101.7694148166
 30
0.0
 10
173.7214709816
 20
101.8795262936
 30
0.0
 10
173.7145461313
 20
101.9707346439
 30
0.0
 10
173.7076390797
 20
102.0429242642
 30
0.0
 10
173.701651724
 20
102.0913151729
 30
0.0
 10
173.6964516634
 20
102.120265546
 30
0.0
 10
173.6931645208
 20
102.1352439653
 30
0.0
 10
173.6895998068
 20
102.1448762026
 30
0.0
 10
173.6867693023
 20
102.1517835268
 30
0.0
 10
173.6807209761
 20
102.1526084419
 30
0.0
 10
173.6791826706
 20
102.1491604293
 30
0.0
 10
173.6783110004
 20
102.1474837698
 30
0.0
  0
SPLINE
  5
448
100
AcDbEntity
  8
0
100
AcDbSpline
 62
7
  6
CONTINUOUS
 70
0
 71
3
 72
43
 73
39
 74
0
 42
0.0000001
 43
0.0000001
 44
0.0000000001
 40
0.0
 40
0.0
 40
0.0
 40
0.0
 40
0.000084888
 40
0.0001396657
 40
0.0002342352
 40
0.0003924371
 40
0.0006188165
 40
0.000914783
 40
0.0017175162
 40
0.0041709005
 40
0.0077527761
 40
0.0099645527
 40
0.0124554737
 40
0.0152244497
 40
0.0182702166
 40
0.0251841572
 40
0.0331804261
 40
0.0523486041
 40
0.0756000751
 40
0.102725533
 40
0.1334768178
 40
0.1675748294
 40
0.2047102657
 40
0.2445441121
 40
0.2867151921
 40
0.3765156542
 40
0.4708522302
 40
0.5663004716
 40
0.659395993
 40
0.7467595533
 40
0.825219809
 40
0.8919296387
 40
0.9201027329
 40
0.9444686335
 40
0.9648056713
 40
0.9809308958
 40
0.9926966366
 40
1.0
 40
1.0
 40
1.0
 40
1.0
 10
174.4178330159
 20
38.7492400655
 30
0.0
 10
174.4169823127
 20
38.7476654306
 30
0.0
 10
174.4154184734
 20
38.7444297937
 30
0.0
 10
174.4096565659
 20
38.745304557
 30
0.0
 10
174.4068569414
 20
38.7518168613
 30
0.0
 10
174.4034078974
 20
38.7609894147
 30
0.0
 10
174.4002009738
 20
38.7751535238
 30
0.0
 10
174.3951508564
 20
38.8025457383
 30
0.0
 10
174.3857082038
 20
38.8769703143
 30
0.0
 10
174.3741529628
 20
39.0206270435
 30
0.0
 10
174.3639818321
 20
39.1942430785
 30
0.0
 10
174.3554502477
 20
39.3686977486
 30
0.0
 10
174.3486083733
 20
39.5260807506
 30
0.0
 10
174.3417571402
 20
39.7010595635
 30
0.0
 10
174.3322070593
 20
39.9692561549
 30
0.0
 10
174.3204367804
 20
40.3476506937
 30
0.0
 10
174.3010607256
 20
41.0658843841
 30
0.0
 10
174.2775279174
 20
42.1285759784
 30
0.0
 10
174.2504725331
 20
43.5945861368
 30
0.0
 10
174.223313945
 20
45.3048434478
 30
0.0
 10
174.1960634906
 20
47.2438077137
 30
0.0
 10
174.1687615928
 20
49.3938359063
 30
0.0
 10
174.1414227081
 20
51.7353703396
 30
0.0
 10
174.1140552565
 20
54.2471241787
 30
0.0
 10
174.0767581958
 20
57.8692011712
 30
0.0
 10
174.0308726135
 20
62.640361267
 30
0.0
 10
173.9767925206
 20
68.5347656077
 30
0.0
 10
173.9226962286
 20
74.4986443009
 30
0.0
 10
173.8686423512
 20
80.3155011776
 30
0.0
 10
173.8147385755
 20
85.7741768311
 30
0.0
 10
173.7610463135
 20
90.6765196382
 30
0.0
 10
173.7145467686
 20
94.330920909
 30
0.0
 10
173.6760739971
 20
96.8448152641
 30
0.0
 10
173.6490317012
 20
98.381070561
 30
0.0
 10
173.6220262325
 20
99.663248842
 30
0.0
 10
173.5957981598
 20
100.6797728795
 30
0.0
 10
173.5693006905
 20
101.421255313
 30
0.0
 10
173.5496696277
 20
101.8229684599
 30
0.0
 10
173.5363880192
 20
101.9763754729
 30
0.0
  0
SPLINE
  5
449
100
AcDbEntity
  8
0
100
AcDbSpline
 62
7
  6
CONTINUOUS
 70
0
 71
3
 72
11
 73
7
 74
0
 42
0.0000001
 43
0.0000001
 44
0.0000000001
 40
0.0
 40
0.0
 40
0.0
 40
0.0
 40
0.3805503739
 40
0.6737031708
 40
0.8797562208
 40
1.0
 40
1.0
 40
1.0
 40
1.0
 10
173.5363880192
 20
101.9763754729
 30
0.0
 10
173.5344910529
 20
101.9982860667
 30
0.0
 10
173.5308113182
 20
102.0370233526
 30
0.0
 10
173.5248160621
 20
102.0876032846
 30
0.0
 10
173.5187085814
 20
102.1227280892
 30
0.0
 10
173.5142149205
 20
102.1413243374
 30
0.0
 10
173.5110086465
 20
102.1474895036
 30
0.0
  0
SPLINE
  5
44A
100
AcDbEntity
  8
0
100
AcDbSpline
 62
7
  6
CONTINUOUS
 70
0
 71
3
 72
32
 73
28
 74
0
 42
0.0000001
 43
0.0000001
 44
0.0000000001
 40
0.0
 40
0.0
 40
0.0
 40
0.0
 40
0.0001787532
 40
0.0002945342
 40
0.0004976334
 40
0.0008373964
 40
0.0013230228
 40
0.0019572878
 40
0.003675443
 40
0.008917463
 40
0.016566678
 40
0.0212904385
 40
0.0266095853
 40
0.0325208165
 40
0.0390207941
 40
0.0537734945
 40
0.0708358895
 40
0.1117172649
 40
0.1612893198
 40
0.2190873957
 40
0.2845749235
 40
0.3571441209
 40
0.4361158619
 40
0.5207577655
 40
0.610283293
 40
0.8005930346
 40
1.0
 40
1.0
 40
1.0
 40
1.0
 10
170.7898330515
 20
38.7492247351
 30
0.0
 10
170.7889754896
 20
38.7476323628
 30
0.0
 10
170.7873807726
 20
38.7443269941
 30
0.0
 10
170.7815183116
 20
38.745370075
 30
0.0
 10
170.7787460597
 20
38.7520792435
 30
0.0
 10
170.775230731
 20
38.7615544327
 30
0.0
 10
170.7719973395
 20
38.7761428075
 30
0.0
 10
170.7668833324
 20
38.8043140043
 30
0.0
 10
170.7573414426
 20
38.8806902152
 30
0.0
 10
170.745634555
 20
39.0279933435
 30
0.0
 10
170.7353446151
 20
39.2059600013
 30
0.0
 10
170.7267125906
 20
39.3847538021
 30
0.0
 10
170.7197903233
 20
39.5460299671
 30
0.0
 10
170.7128581926
 20
39.7252899761
 30
0.0
 10
170.7031946485
 20
39.9999625275
 30
0.0
 10
170.6912838765
 20
40.3874494736
 30
0.0
 10
170.6716857473
 20
41.1227256732
 30
0.0
 10
170.6478712555
 20
42.2103050617
 30
0.0
 10
170.6205010854
 20
43.7100515202
 30
0.0
 10
170.5930195281
 20
45.4587945157
 30
0.0
 10
170.5654481064
 20
47.4402436892
 30
0.0
 10
170.5378254373
 20
49.6359438862
 30
0.0
 10
170.5101630886
 20
52.0254596594
 30
0.0
 10
170.4824739145
 20
54.5865483062
 30
0.0
 10
170.4447599366
 20
58.27410107
 30
0.0
 10
170.3983669368
 20
63.1228070037
 30
0.0
 10
170.362284352
 20
67.0657585771
 30
0.0
 10
170.343895194
 20
69.083255534
 30
0.0
  0
SPLINE
  5
44B
100
AcDbEntity
  8
0
100
AcDbSpline
 62
7
  6
CONTINUOUS
 70
0
 71
3
 72
11
 73
7
 74
0
 42
0.0000001
 43
0.0000001
 44
0.0000000001
 40
0.0
 40
0.0
 40
0.0
 40
0.0
 40
0.2508366973
 40
0.5015155528
 40
0.7513460163
 40
1.0
 40
1.0
 40
1.0
 40
1.0
 10
158.5275641481
 20
36.4485188095
 30
0.0
 10
158.4399351106
 20
36.4485188545
 30
0.0
 10
158.2639116236
 20
36.414659182
 30
0.0
 10
158.0303089996
 20
36.286262814
 30
0.0
 10
157.8500251196
 20
36.0903115921
 30
0.0
 10
157.7772271751
 20
35.9282487604
 30
0.0
 10
157.754823487
 20
35.8443210184
 30
0.0
  0
SPLINE
  5
44C
100
AcDbEntity
  8
0
100
AcDbSpline
 62
7
  6
CONTINUOUS
 70
0
 71
3
 72
29
 73
25
 74
0
 42
0.0000001
 43
0.0000001
 44
0.0000000001
 40
0.0
 40
0.0
 40
0.0
 40
0.0
 40
0.1951326296
 40
0.381758191
 40
0.4697932956
 40
0.5532439553
 40
0.6313676518
 40
0.7034699869
 40
0.768904671
 40
0.8270887638
 40
0.8775046689
 40
0.899654344
 40
0.9196997654
 40
0.9375960525
 40
0.953300735
 40
0.9667816289
 40
0.9780094666
 40
0.9869570481
 40
0.990570435
 40
0.993608293
 40
0.9960694631
 40
0.997953328
 40
0.9992608146
 40
1.0
 40
1.0
 40
1.0
 40
1.0
 10
171.1201246114
 20
69.0833063384
 30
0.0
 10
171.1381385683
 20
67.0350801155
 30
0.0
 10
171.1735139665
 20
63.0279240092
 30
0.0
 10
171.218943729
 20
58.0967169758
 30
0.0
 10
171.2558468222
 20
54.3378066591
 30
0.0
 10
171.282968056
 20
51.7177986326
 30
0.0
 10
171.3100649971
 20
49.2650459449
 30
0.0
 10
171.337128968
 20
47.0014187767
 30
0.0
 10
171.3641442681
 20
44.9471129721
 30
0.0
 10
171.3910980444
 20
43.1204704946
 30
0.0
 10
171.4143525359
 20
41.748187425
 30
0.0
 10
171.4332737523
 20
40.7762342045
 30
0.0
 10
171.4468288533
 20
40.1456006732
 30
0.0
 10
171.4603576493
 20
39.5826366264
 30
0.0
 10
171.4738589597
 20
39.088602454
 30
0.0
 10
171.48730194
 20
38.6645932145
 30
0.0
 10
171.5006813811
 20
38.3115569288
 30
0.0
 10
171.512366316
 20
38.0621067995
 30
0.0
 10
171.5220625448
 20
37.8986591957
 30
0.0
 10
171.5287461884
 20
37.8032198903
 30
0.0
 10
171.5354503987
 20
37.726054819
 30
0.0
 10
171.5418398283
 20
37.6669413408
 30
0.0
 10
171.5484583886
 20
37.6264290034
 30
0.0
 10
171.5531639925
 20
37.6051010347
 30
0.0
 10
171.5567516396
 20
37.5982210408
 30
0.0
  0
SPLINE
  5
44D
100
AcDbEntity
  8
0
100
AcDbSpline
 62
7
  6
CONTINUOUS
 70
0
 71
3
 72
29
 73
25
 74
0
 42
0.0000001
 43
0.0000001
 44
0.0000000001
 40
0.0
 40
0.0
 40
0.0
 40
0.0
 40
0.1930256853
 40
0.3787789389
 40
0.4667380312
 40
0.550297043
 40
0.6286686757
 40
0.7011176845
 40
0.7669606257
 40
0.8255752831
 40
0.8764118241
 40
0.8987585657
 40
0.9189883359
 40
0.9370517902
 40
0.9529053612
 40
0.966514931
 40
0.9778474406
 40
0.9868752768
 40
0.9905196314
 40
0.9935818386
 40
0.9960603469
 40
0.9979541478
 40
0.9992644933
 40
1.0
 40
1.0
 40
1.0
 40
1.0
 10
174.7361246113
 20
70.4485188095
 30
0.0
 10
174.7547005444
 20
68.3345688955
 30
0.0
 10
174.791151318
 20
64.1863142091
 30
0.0
 10
174.8377427699
 20
59.0747769396
 30
0.0
 10
174.8756043309
 20
55.1620977633
 30
0.0
 10
174.903466759
 20
52.4254286366
 30
0.0
 10
174.9313048405
 20
49.8586361071
 30
0.0
 10
174.9591099797
 20
47.4858831264
 30
0.0
 10
174.9868643158
 20
45.3295253703
 30
0.0
 10
175.0145569926
 20
43.4098899281
 30
0.0
 10
175.0384445131
 20
41.966624898
 30
0.0
 10
175.0578821263
 20
40.943742396
 30
0.0
 10
175.0718086968
 20
40.2797545696
 30
0.0
 10
175.0857094986
 20
39.6868969068
 30
0.0
 10
175.0995817424
 20
39.1665663191
 30
0.0
 10
175.1133919329
 20
38.7199796975
 30
0.0
 10
175.127138704
 20
38.3481932354
 30
0.0
 10
175.1391444244
 20
38.0855529167
 30
0.0
 10
175.1491083261
 20
37.9135234945
 30
0.0
 10
175.1559724479
 20
37.8131405075
 30
0.0
 10
175.1628636931
 20
37.7320562631
 30
0.0
 10
175.1694121647
 20
37.6700300838
 30
0.0
 10
175.1762315761
 20
37.6276569217
 30
0.0
 10
175.1810290218
 20
37.6053781816
 30
0.0
 10
175.1847516343
 20
37.5982346254
 30
0.0
  0
SPLINE
  5
44E
100
AcDbEntity
  8
0
100
AcDbSpline
 62
7
  6
CONTINUOUS
 70
0
 71
3
 72
29
 73
25
 74
0
 42
0.0000001
 43
0.0000001
 44
0.0000000001
 40
0.0
 40
0.0
 40
0.0
 40
0.0
 40
0.1930270689
 40
0.3787814207
 40
0.4667404546
 40
0.5502994847
 40
0.6286715011
 40
0.7011205628
 40
0.7669624207
 40
0.8255755672
 40
0.8764107295
 40
0.8987573124
 40
0.9189871327
 40
0.9370505431
 40
0.9529043377
 40
0.9665142476
 40
0.9778468834
 40
0.9868749565
 40
0.9905194684
 40
0.9935818073
 40
0.9960603826
 40
0.9979541596
 40
0.9992644867
 40
1.0
 40
1.0
 40
1.0
 40
1.0
 10
172.9221246114
 20
70.4485188095
 30
0.0
 10
172.9407006756
 20
68.3345539652
 30
0.0
 10
172.9771516834
 20
64.1862725344
 30
0.0
 10
173.0237434066
 20
59.0747092611
 30
0.0
 10
173.061605103
 20
55.1620189079
 30
0.0
 10
173.0894676126
 20
52.4253463053
 30
0.0
 10
173.117305854
 20
49.8585490649
 30
0.0
 10
173.1451109082
 20
47.4858034151
 30
0.0
 10
173.1728650959
 20
45.3294737195
 30
0.0
 10
173.2005570192
 20
43.4098819845
 30
0.0
 10
173.2244441499
 20
41.9666504898
 30
0.0
 10
173.2438813098
 20
40.9437843784
 30
0.0
 10
173.2578076091
 20
40.2797982861
 30
0.0
 10
173.2717085524
 20
39.6869381703
 30
0.0
 10
173.285580804
 20
39.166601943
 30
0.0
 10
173.2993908236
 20
38.7200078035
 30
0.0
 10
173.3131379561
 20
38.3482136865
 30
0.0
 10
173.3251438181
 20
38.0855676981
 30
0.0
 10
173.335107728
 20
37.913532525
 30
0.0
 10
173.3419719166
 20
37.8131456465
 30
0.0
 10
173.3488631343
 20
37.7320594827
 30
0.0
 10
173.3554118846
 20
37.670033077
 30
0.0
 10
173.3622314468
 20
37.6276603086
 30
0.0
 10
173.3670290341
 20
37.6053817715
 30
0.0
 10
173.3707516353
 20
37.5982381292
 30
0.0
  0
SPLINE
  5
44F
100
AcDbEntity
  8
0
100
AcDbSpline
 62
7
  6
CONTINUOUS
 70
0
 71
3
 72
11
 73
7
 74
0
 42
0.0000001
 43
0.0000001
 44
0.0000000001
 40
0.0
 40
0.0
 40
0.0
 40
0.0
 40
0.0753426826
 40
0.2634924623
 40
0.5714497657
 40
1.0
 40
1.0
 40
1.0
 40
1.0
 10
70.2330586467
 20
102.1089901895
 30
0.0
 10
70.237113241
 20
102.1090110342
 30
0.0
 10
70.2430810272
 20
102.090959084
 30
0.0
 10
70.2488324472
 20
102.0649603444
 30
0.0
 10
70.2558679522
 20
102.0133095869
 30
0.0
 10
70.2597415423
 20
101.9746294767
 30
0.0
 10
70.2618443489
 20
101.951662647
 30
0.0
  0
SPLINE
  5
450
100
AcDbEntity
  8
0
100
AcDbSpline
 62
7
  6
CONTINUOUS
 70
0
 71
3
 72
11
 73
7
 74
0
 42
0.0000001
 43
0.0000001
 44
0.0000000001
 40
0.0
 40
0.0
 40
0.0
 40
0.0
 40
0.123035617
 40
0.3325468987
 40
0.6260868606
 40
1.0
 40
1.0
 40
1.0
 40
1.0
 10
70.2618443489
 20
101.951662647
 30
0.0
 10
70.2785239036
 20
101.7694887426
 30
0.0
 10
70.3005850058
 20
101.2752696281
 30
0.0
 10
70.3319310049
 20
100.3450430986
 30
0.0
 10
70.3621992237
 20
99.0413894892
 30
0.0
 10
70.3811593279
 20
98.0491878635
 30
0.0
 10
70.3909104222
 20
97.4933194768
 30
0.0
  0
SPLINE
  5
451
100
AcDbEntity
  8
0
100
AcDbSpline
 62
7
  6
CONTINUOUS
 70
0
 71
3
 72
11
 73
7
 74
0
 42
0.0000001
 43
0.0000001
 44
0.0000000001
 40
0.0
 40
0.0
 40
0.0
 40
0.0
 40
0.0764952669
 40
0.2646496223
 40
0.5720550564
 40
1.0
 40
1.0
 40
1.0
 40
1.0
 10
68.4190587409
 20
102.1089135617
 30
0.0
 10
68.4228477973
 20
102.1089127508
 30
0.0
 10
68.4287162464
 20
102.0925359179
 30
0.0
 10
68.4341428892
 20
102.068401145
 30
0.0
 10
68.4409523924
 20
102.0210873878
 30
0.0
 10
68.4446471062
 20
101.9855147365
 30
0.0
 10
68.446662699
 20
101.9644132929
 30
0.0
  0
SPLINE
  5
452
100
AcDbEntity
  8
0
100
AcDbSpline
 62
7
  6
CONTINUOUS
 70
0
 71
3
 72
34
 73
30
 74
0
 42
0.0000001
 43
0.0000001
 44
0.0000000001
 40
0.0
 40
0.0
 40
0.0
 40
0.0
 40
0.0067378943
 40
0.0178411947
 40
0.0332208404
 40
0.0527349755
 40
0.0762167215
 40
0.1034519224
 40
0.1681950957
 40
0.2446689075
 40
0.330161255
 40
0.4216399768
 40
0.5158604935
 40
0.6094809429
 40
0.699180754
 40
0.7817784675
 40
0.8194847583
 40
0.8543446497
 40
0.8860439325
 40
0.9143059085
 40
0.9388742493
 40
0.959536518
 40
0.9761035502
 40
0.9828067809
 40
0.9884352361
 40
0.9929747533
 40
0.9964179355
 40
0.9987599105
 40
1.0
 40
1.0
 40
1.0
 40
1.0
 10
68.446662699
 20
101.9644132929
 30
0.0
 10
68.4601540421
 20
101.8231710658
 30
0.0
 10
68.4792871049
 20
101.4477753437
 30
0.0
 10
68.5055765532
 20
100.7488041067
 30
0.0
 10
68.5313615298
 20
99.7804924158
 30
0.0
 10
68.5580750427
 20
98.551540378
 30
0.0
 10
68.5847755199
 20
97.0728612765
 30
0.0
 10
68.6228597438
 20
94.6418271826
 30
0.0
 10
68.6688397567
 20
91.0948889083
 30
0.0
 10
68.7219125021
 20
86.3211882964
 30
0.0
 10
68.7751982583
 20
80.9844663086
 30
0.0
 10
68.8286412859
 20
75.2740232451
 30
0.0
 10
68.8821355987
 20
69.3924135591
 30
0.0
 10
68.9356165676
 20
63.5482652033
 30
0.0
 10
68.9890250342
 20
57.9488771672
 30
0.0
 10
69.0346467174
 20
53.5268970495
 30
0.0
 10
69.0718395022
 20
50.2597009757
 30
0.0
 10
69.0988463872
 20
48.0642673886
 30
0.0
 10
69.1258115773
 20
46.0677255549
 30
0.0
 10
69.1527084896
 20
44.2879226938
 30
0.0
 10
69.1794947099
 20
42.7405597391
 30
0.0
 10
69.2061529353
 20
41.4395149803
 30
0.0
 10
69.2293929756
 20
40.5146651757
 30
0.0
 10
69.2487371411
 20
39.9064464724
 30
0.0
 10
69.2619933217
 20
39.5513795773
 30
0.0
 10
69.2755077636
 20
39.2651825616
 30
0.0
 10
69.2878065654
 20
39.0478415211
 30
0.0
 10
69.3016730196
 20
38.9010425707
 30
0.0
 10
69.3098850289
 20
38.8253431181
 30
0.0
 10
69.3179498277
 20
38.8005061355
 30
0.0
  0
SPLINE
  5
453
100
AcDbEntity
  8
0
100
AcDbSpline
 62
7
  6
CONTINUOUS
 70
0
 71
3
 72
8
 73
4
 74
0
 42
0.0000001
 43
0.0000001
 44
0.0000000001
 40
0.0
 40
0.0
 40
0.0
 40
0.0
 40
1.0
 40
1.0
 40
1.0
 40
1.0
 10
69.3179498277
 20
38.8005061355
 30
0.0
 10
69.3187954524
 20
38.7979018836
 30
0.0
 10
69.3197359792
 20
38.7953077663
 30
0.0
 10
69.3210019574
 20
38.7928799055
 30
0.0
  0
SPLINE
  5
454
100
AcDbEntity
  8
0
100
AcDbSpline
 62
7
  6
CONTINUOUS
 70
0
 71
3
 72
11
 73
7
 74
0
 42
0.0000001
 43
0.0000001
 44
0.0000000001
 40
0.0
 40
0.0
 40
0.0
 40
0.0
 40
0.0777907255
 40
0.2662330835
 40
0.5732272932
 40
1.0
 40
1.0
 40
1.0
 40
1.0
 10
66.6050587911
 20
102.1089816898
 30
0.0
 10
66.6086010315
 20
102.108960958
 30
0.0
 10
66.6143322836
 20
102.0940994102
 30
0.0
 10
66.6194623773
 20
102.0717103214
 30
0.0
 10
66.6260245603
 20
102.0284275363
 30
0.0
 10
66.6295508128
 20
101.9957735865
 30
0.0
 10
66.6314811333
 20
101.9764360466
 30
0.0
  0
SPLINE
  5
455
100
AcDbEntity
  8
0
100
AcDbSpline
 62
7
  6
CONTINUOUS
 70
0
 71
3
 72
34
 73
30
 74
0
 42
0.0000001
 43
0.0000001
 44
0.0000000001
 40
0.0
 40
0.0
 40
0.0
 40
0.0
 40
0.0065435614
 40
0.0174600199
 40
0.0326524676
 40
0.0519902599
 40
0.0752988752
 40
0.102374565
 40
0.1668278409
 40
0.2430647962
 40
0.3283817349
 40
0.4197527199
 40
0.5139369941
 40
0.6075939813
 40
0.6974018139
 40
0.7801751995
 40
0.8179942808
 40
0.8529784698
 40
0.8848185717
 40
0.9132298161
 40
0.9379620022
 40
0.9587932033
 40
0.9755412706
 40
0.982334563
 40
0.9880555018
 40
0.992691265
 40
0.9962298087
 40
0.9986655295
 40
1.0
 40
1.0
 40
1.0
 40
1.0
 10
66.6314811333
 20
101.9764360466
 30
0.0
 10
66.6451696536
 20
101.8393073664
 30
0.0
 10
66.6641515218
 20
101.4718710868
 30
0.0
 10
66.6904812694
 20
100.7848084212
 30
0.0
 10
66.7162080943
 20
99.827960284
 30
0.0
 10
66.7429174548
 20
98.6101621886
 30
0.0
 10
66.7696140676
 20
97.1420170899
 30
0.0
 10
66.8077076545
 20
94.7237906949
 30
0.0
 10
66.8536939265
 20
91.1908606162
 30
0.0
 10
66.9067583187
 20
86.4313489502
 30
0.0
 10
66.9600399505
 20
81.1049083033
 30
0.0
 10
67.0134809314
 20
75.4004744536
 30
0.0
 10
67.0669747126
 20
69.5203885911
 30
0.0
 10
67.1204568842
 20
63.6732246392
 30
0.0
 10
67.1738671944
 20
58.0663885423
 30
0.0
 10
67.2194847997
 20
53.6355022014
 30
0.0
 10
67.2566649166
 20
50.3592019854
 30
0.0
 10
67.2836774891
 20
48.1555330971
 30
0.0
 10
67.3106398207
 20
46.1500124926
 30
0.0
 10
67.3375464244
 20
44.3604248217
 30
0.0
 10
67.3643312727
 20
42.8027144481
 30
0.0
 10
67.3910050138
 20
41.4906813354
 30
0.0
 10
67.4142438127
 20
40.556449643
 30
0.0
 10
67.4335666942
 20
39.9404863211
 30
0.0
 10
67.4468639573
 20
39.5795150367
 30
0.0
 10
67.4603086614
 20
39.2872523678
 30
0.0
 10
67.4728200559
 20
39.0639651766
 30
0.0
 10
67.4863904848
 20
38.9109640218
 30
0.0
 10
67.495113848
 20
38.8315350663
 30
0.0
 10
67.5027682621
 20
38.8044929886
 30
0.0
  0
SPLINE
  5
456
100
AcDbEntity
  8
0
100
AcDbSpline
 62
7
  6
CONTINUOUS
 70
0
 71
3
 72
8
 73
4
 74
0
 42
0.0000001
 43
0.0000001
 44
0.0000000001
 40
0.0
 40
0.0
 40
0.0
 40
0.0
 40
1.0
 40
1.0
 40
1.0
 40
1.0
 10
67.5027682621
 20
38.8044929886
 30
0.0
 10
67.503885636
 20
38.8005454475
 30
0.0
 10
67.5051117219
 20
38.7965774106
 30
0.0
 10
67.5070018803
 20
38.7929361325
 30
0.0
  0
SPLINE
  5
457
100
AcDbEntity
  8
0
100
AcDbSpline
 62
7
  6
CONTINUOUS
 70
0
 71
3
 72
23
 73
19
 74
0
 42
0.0000001
 43
0.0000001
 44
0.0000000001
 40
0.0
 40
0.0
 40
0.0
 40
0.0
 40
0.0011028954
 40
0.0043840226
 40
0.0098321936
 40
0.0174362197
 40
0.02718492
 40
0.0390671217
 40
0.0691848918
 40
0.1076243621
 40
0.154137146
 40
0.2084715671
 40
0.2703705664
 40
0.3395310576
 40
0.4156324629
 40
0.5873856931
 40
0.7830412272
 40
1.0
 40
1.0
 40
1.0
 40
1.0
 10
107.1021598258
 20
115.4485188095
 30
0.0
 10
107.1032241655
 20
115.4469451366
 30
0.0
 10
107.1119559826
 20
115.4463072638
 30
0.0
 10
107.1261274797
 20
115.4381866573
 30
0.0
 10
107.1533137696
 20
115.4292392992
 30
0.0
 10
107.1895891751
 20
115.4146982765
 30
0.0
 10
107.2368028076
 20
115.3969569797
 30
0.0
 10
107.3200645282
 20
115.365224732
 30
0.0
 10
107.4497421598
 20
115.3163383324
 30
0.0
 10
107.6353996406
 20
115.2469360022
 30
0.0
 10
107.8605899517
 20
115.1641217457
 30
0.0
 10
108.1242654363
 20
115.0689044623
 30
0.0
 10
108.4253385358
 20
114.9624007647
 30
0.0
 10
108.7626723126
 20
114.8459994292
 30
0.0
 10
109.2804462752
 20
114.6724530622
 30
0.0
 10
110.0084550401
 20
114.4405989669
 30
0.0
 10
110.9745467703
 20
114.1575287185
 30
0.0
 10
111.6619623575
 20
113.9764001712
 30
0.0
 10
112.0247356254
 20
113.8865891661
 30
0.0
  0
LINE
  5
458
100
AcDbEntity
  8
0
100
AcDbLine
 62
7
  6
CONTINUOUS
 10
112.0247356254
 20
113.8865891661
 11
112.0455746297
 21
113.8814364358
  0
SPLINE
  5
459
100
AcDbEntity
  8
0
100
AcDbSpline
 62
7
  6
CONTINUOUS
 70
0
 71
3
 72
11
 73
7
 74
0
 42
0.0000001
 43
0.0000001
 44
0.0000000001
 40
0.0
 40
0.0
 40
0.0
 40
0.0
 40
0.2358780874
 40
0.4999999835
 40
0.7641219567
 40
1.0
 40
1.0
 40
1.0
 40
1.0
 10
112.0455746297
 20
113.8814364358
 30
0.0
 10
113.2873821361
 20
113.5747601574
 30
0.0
 10
115.9556606991
 20
113.0597229402
 30
0.0
 10
120.1021558629
 20
112.77754214
 30
0.0
 10
124.2486508863
 20
113.0597218542
 30
0.0
 10
126.9169297077
 20
113.5747586388
 30
0.0
 10
128.158737065
 20
113.8814345251
 30
0.0
  0
LINE
  5
45A
100
AcDbEntity
  8
0
100
AcDbLine
 62
7
  6
CONTINUOUS
 10
128.158737065
 20
113.8814345251
 11
128.1791777482
 21
113.8864886404
  0
SPLINE
  5
45B
100
AcDbEntity
  8
0
100
AcDbSpline
 62
7
  6
CONTINUOUS
 70
0
 71
3
 72
23
 73
19
 74
0
 42
0.0000001
 43
0.0000001
 44
0.0000000001
 40
0.0
 40
0.0
 40
0.0
 40
0.0
 40
0.216957608
 40
0.4126127058
 40
0.5843659918
 40
0.6604675363
 40
0.7296282254
 40
0.7915274712
 40
0.8458621228
 40
0.8923751275
 40
0.9308148583
 40
0.9609329163
 40
0.9728151836
 40
0.9825639017
 40
0.9901679121
 40
0.9956160481
 40
0.9988971353
 40
1.0
 40
1.0
 40
1.0
 40
1.0
 10
128.1791777482
 20
113.8864886404
 30
0.0
 10
128.5419794557
 20
113.9763023644
 30
0.0
 10
129.2294498577
 20
114.1574380871
 30
0.0
 10
130.1956193903
 20
114.4405233516
 30
0.0
 10
130.9236879114
 20
114.6723923865
 30
0.0
 10
131.4415051214
 20
114.845951016
 30
0.0
 10
131.7788675397
 20
114.9623610322
 30
0.0
 10
132.0799663513
 20
115.0688730834
 30
0.0
 10
132.3436645574
 20
115.1640978305
 30
0.0
 10
132.5688744463
 20
115.2469186994
 30
0.0
 10
132.7545482964
 20
115.3163268743
 30
0.0
 10
132.8842372572
 20
115.3652180258
 30
0.0
 10
132.9675062785
 20
115.3969531928
 30
0.0
 10
133.0147238204
 20
115.4146959917
 30
0.0
 10
133.0510021582
 20
115.4292381451
 30
0.0
 10
133.0781904311
 20
115.4381861331
 30
0.0
 10
133.0923631072
 20
115.4463072272
 30
0.0
 10
133.1010953394
 20
115.4469451139
 30
0.0
 10
133.1021598258
 20
115.4485188095
 30
0.0
  0
SPLINE
  5
45C
100
AcDbEntity
  8
0
100
AcDbSpline
 62
7
  6
CONTINUOUS
 70
0
 71
3
 72
18
 73
14
 74
0
 42
0.0000001
 43
0.0000001
 44
0.0000000001
 40
0.0
 40
0.0
 40
0.0
 40
0.0
 40
0.0079986897
 40
0.0233728091
 40
0.0461762132
 40
0.0763972089
 40
0.1140106419
 40
0.1589867953
 40
0.2708682683
 40
0.4115569778
 40
0.5804884118
 40
0.7769934445
 40
1.0
 40
1.0
 40
1.0
 40
1.0
 10
70.0381154823
 20
102.1041561663
 30
0.0
 10
70.0438058972
 20
102.0932456827
 30
0.0
 10
70.049593539
 20
102.0569146205
 30
0.0
 10
70.0592966831
 20
101.987123151
 30
0.0
 10
70.0679053937
 20
101.8819254166
 30
0.0
 10
70.07738316
 20
101.742936039
 30
0.0
 10
70.0866813517
 20
101.5695838242
 30
0.0
 10
70.1002833423
 20
101.2707374589
 30
0.0
 10
70.116601231
 20
100.813256948
 30
0.0
 10
70.1353184326
 20
100.1650893913
 30
0.0
 10
70.1541213685
 20
99.3866838575
 30
0.0
 10
70.1730052095
 20
98.481614179
 30
0.0
 10
70.1848930868
 20
97.8363421584
 30
0.0
 10
70.1909104222
 20
97.4933194768
 30
0.0
  0
LINE
  5
45D
100
AcDbEntity
  8
0
100
AcDbLine
 62
7
  6
CONTINUOUS
 10
93.2737327011
 20
105.6200916847
 11
96.4046020115
 21
105.8353564799
  0
SPLINE
  5
45E
100
AcDbEntity
  8
0
100
AcDbSpline
 62
7
  6
CONTINUOUS
 70
0
 71
3
 72
9
 73
5
 74
0
 42
0.0000001
 43
0.0000001
 44
0.0000000001
 40
0.0
 40
0.0
 40
0.0
 40
0.0
 40
0.3953019981
 40
1.0
 40
1.0
 40
1.0
 40
1.0
 10
64.8371585872
 20
101.7062746449
 30
0.0
 10
64.8531539973
 20
101.4274069897
 30
0.0
 10
64.8784624602
 20
100.7211538364
 30
0.0
 10
64.897098021
 20
100.0148099422
 30
0.0
 10
64.9070587386
 20
99.5876378486
 30
0.0
  0
SPLINE
  5
45F
100
AcDbEntity
  8
0
100
AcDbSpline
 62
7
  6
CONTINUOUS
 70
0
 71
3
 72
37
 73
33
 74
0
 42
0.0000001
 43
0.0000001
 44
0.0000000001
 40
0.0
 40
0.0
 40
0.0
 40
0.0
 40
0.0006653234
 40
0.0026433808
 40
0.0059217436
 40
0.0104879998
 40
0.0163255283
 40
0.0234015069
 40
0.0411223743
 40
0.0633468975
 40
0.0897191642
 40
0.119870242
 40
0.1534240461
 40
0.2292448395
 40
0.3142583549
 40
0.4055310087
 40
0.499999989
 40
0.5944689891
 40
0.68574164
 40
0.7707551019
 40
0.8465759073
 40
0.8801297412
 40
0.9102808522
 40
0.9366531442
 40
0.9588776807
 40
0.9765985347
 40
0.9836745095
 40
0.9895120504
 40
0.9940783146
 40
0.9973566614
 40
0.9993346943
 40
1.0
 40
1.0
 40
1.0
 40
1.0
 10
105.1021598258
 20
113.4485188095
 30
0.0
 10
105.1088678225
 20
113.4476147503
 30
0.0
 10
105.133856764
 20
113.4366403109
 30
0.0
 10
105.1918718644
 20
113.4210638959
 30
0.0
 10
105.2868197834
 20
113.389445423
 30
0.0
 10
105.4197808781
 20
113.348441218
 30
0.0
 10
105.5895115401
 20
113.2953132733
 30
0.0
 10
105.8874202701
 20
113.2037957918
 30
0.0
 10
106.3455595309
 20
113.0661060041
 30
0.0
 10
106.993663147
 20
112.8785618848
 30
0.0
 10
107.7661067568
 20
112.6659635329
 30
0.0
 10
108.6533429297
 20
112.4364449816
 30
0.0
 10
110.0338025303
 20
112.1057103922
 30
0.0
 10
111.9713990774
 20
111.7063226812
 30
0.0
 10
114.5073122443
 20
111.3142384568
 30
0.0
 10
117.2509488974
 20
111.0509510993
 30
0.0
 10
120.1021596928
 20
110.9581445892
 30
0.0
 10
122.9533704416
 20
111.0509512387
 30
0.0
 10
125.6970067603
 20
111.3142382304
 30
0.0
 10
128.232919446
 20
111.7063226033
 30
0.0
 10
130.1705159175
 20
112.1057100826
 30
0.0
 10
131.5509762537
 20
112.4364448826
 30
0.0
 10
132.4382132893
 20
112.6659636848
 30
0.0
 10
133.2106576382
 20
112.8785620968
 30
0.0
 10
133.8587614635
 20
113.0661064476
 30
0.0
 10
134.3169007227
 20
113.2037960345
 30
0.0
 10
134.6148093988
 20
113.2953136329
 30
0.0
 10
134.7845402067
 20
113.3484414468
 30
0.0
 10
134.9175011352
 20
113.3894469319
 30
0.0
 10
135.0124490843
 20
113.4210628393
 30
0.0
 10
135.0704630987
 20
113.4366431588
 30
0.0
 10
135.0954522537
 20
113.4476129527
 30
0.0
 10
135.1021598258
 20
113.4485188095
 30
0.0
  0
SPLINE
  5
460
100
AcDbEntity
  8
0
100
AcDbSpline
 62
7
  6
CONTINUOUS
 70
0
 71
3
 72
9
 73
5
 74
0
 42
0.0000001
 43
0.0000001
 44
0.0000000001
 40
0.0
 40
0.0
 40
0.0
 40
0.0
 40
0.3323666237
 40
1.0
 40
1.0
 40
1.0
 40
1.0
 10
68.2241155129
 20
102.1040632837
 30
0.0
 10
68.2313726077
 20
102.0901433898
 30
0.0
 10
68.2373633078
 20
102.0419604403
 30
0.0
 10
68.2436643318
 20
101.9958034999
 30
0.0
 10
68.246662699
 20
101.9644132929
 30
0.0
  0
SPLINE
  5
461
100
AcDbEntity
  8
0
100
AcDbSpline
 62
7
  6
CONTINUOUS
 70
0
 71
3
 72
40
 73
36
 74
0
 42
0.0000001
 43
0.0000001
 44
0.0000000001
 40
0.0
 40
0.0
 40
0.0
 40
0.0
 40
0.006819586
 40
0.0180844461
 40
0.0337022493
 40
0.0535264471
 40
0.0773841025
 40
0.1050537796
 40
0.1708066956
 40
0.248410311
 40
0.3350611297
 40
0.4276285964
 40
0.5227682992
 40
0.6170428589
 40
0.7070461651
 40
0.749420063
 40
0.7895264901
 40
0.8269999532
 40
0.861504039
 40
0.8927233675
 40
0.9203787589
 40
0.944216468
 40
0.9546371227
 40
0.9640246951
 40
0.972358133
 40
0.9796208051
 40
0.9857963117
 40
0.990868639
 40
0.9948270847
 40
0.9963867954
 40
0.9976660282
 40
0.9986644317
 40
0.9993822162
 40
0.9998215951
 40
1.0
 40
1.0
 40
1.0
 40
1.0
 10
68.246662699
 20
101.9644132929
 30
0.0
 10
68.2603208715
 20
101.8214245119
 30
0.0
 10
68.2795980358
 20
101.4408114534
 30
0.0
 10
68.3061428043
 20
100.7315390598
 30
0.0
 10
68.3321514969
 20
99.7480452342
 30
0.0
 10
68.359114346
 20
98.4993366094
 30
0.0
 10
68.3860596883
 20
96.9967051955
 30
0.0
 10
68.4244914271
 20
94.5267548671
 30
0.0
 10
68.4708851447
 20
90.9247549377
 30
0.0
 10
68.524441397
 20
86.0804510171
 30
0.0
 10
68.5782115979
 20
80.6713275832
 30
0.0
 10
68.6321391838
 20
74.89283045
 30
0.0
 10
68.6861130471
 20
68.9537495104
 30
0.0
 10
68.7400761504
 20
63.0686791907
 30
0.0
 10
68.7858316752
 20
58.2949761949
 30
0.0
 10
68.8230149898
 20
54.6621772625
 30
0.0
 10
68.8503209994
 20
52.1357614112
 30
0.0
 10
68.8776040546
 20
49.7751158622
 30
0.0
 10
68.9048491061
 20
47.6016704931
 30
0.0
 10
68.9320458001
 20
45.6350381994
 30
0.0
 10
68.9591691329
 20
43.8930925808
 30
0.0
 10
68.9826025313
 20
42.5892236605
 30
0.0
 10
69.0016807639
 20
41.6701149654
 30
0.0
 10
69.015323601
 20
41.0775295657
 30
0.0
 10
69.0289408207
 20
40.5514765455
 30
0.0
 10
69.0425205937
 20
40.0931107074
 30
0.0
 10
69.0560314254
 20
39.7034426231
 30
0.0
 10
69.0694596092
 20
39.3834800086
 30
0.0
 10
69.0812401878
 20
39.1606121521
 30
0.0
 10
69.0910243421
 20
39.0179298209
 30
0.0
 10
69.09779863
 20
38.9370503778
 30
0.0
 10
69.104267576
 20
38.8751543084
 30
0.0
 10
69.111054237
 20
38.8282385572
 30
0.0
 10
69.1164213859
 20
38.8042833447
 30
0.0
 10
69.1223011344
 20
38.7880251533
 30
0.0
 10
69.1260587858
 20
38.7880458282
 30
0.0
  0
SPLINE
  5
462
100
AcDbEntity
  8
0
100
AcDbSpline
 62
7
  6
CONTINUOUS
 70
0
 71
3
 72
32
 73
28
 74
0
 42
0.0000001
 43
0.0000001
 44
0.0000000001
 40
0.0
 40
0.0
 40
0.0
 40
0.0
 40
0.041405915
 40
0.0954588115
 40
0.234925117
 40
0.3163150677
 40
0.4024107979
 40
0.4907260248
 40
0.5787107411
 40
0.6638242683
 40
0.7436087511
 40
0.8157601326
 40
0.8483111031
 40
0.8781950708
 40
0.9051928545
 40
0.9291112599
 40
0.949777074
 40
0.9670397095
 40
0.9743568121
 40
0.9807779796
 40
0.9862912181
 40
0.9908886996
 40
0.9945630875
 40
0.9973074368
 40
0.9991169828
 40
0.999672701
 40
1.0
 40
1.0
 40
1.0
 40
1.0
 10
64.9070587386
 20
99.5876378486
 30
0.0
 10
64.9266217127
 20
98.7486664973
 30
0.0
 10
64.9623343189
 20
96.814256556
 30
0.0
 10
65.0315822772
 20
92.0533861862
 30
0.0
 10
65.0925456439
 20
86.4819497621
 30
0.0
 10
65.1540630682
 20
80.2610696637
 30
0.0
 10
65.202392624
 20
75.0768182337
 30
0.0
 10
65.2508209017
 20
69.7589028004
 30
0.0
 10
65.2992273895
 20
64.4608946721
 30
0.0
 10
65.3475882754
 20
59.3357913337
 30
0.0
 10
65.3958587355
 20
54.5316061902
 30
0.0
 10
65.4372136023
 20
50.7927242593
 30
0.0
 10
65.4709130156
 20
48.0651874754
 30
0.0
 10
65.4952804573
 20
46.2527622741
 30
0.0
 10
65.5196081532
 20
44.6153153281
 30
0.0
 10
65.5438684727
 20
43.1647200731
 30
0.0
 10
65.5680431532
 20
41.911462883
 30
0.0
 10
65.5890435437
 20
40.9946804353
 30
0.0
 10
65.6062435091
 20
40.3665990157
 30
0.0
 10
65.6184008285
 20
39.9766077696
 30
0.0
 10
65.6304944371
 20
39.6417539501
 30
0.0
 10
65.6425770196
 20
39.3626439982
 30
0.0
 10
65.6543641333
 20
39.139616467
 30
0.0
 10
65.666304065
 20
38.9734056286
 30
0.0
 10
65.6761305074
 20
38.8700329437
 30
0.0
 10
65.6855482655
 20
38.8164668219
 30
0.0
 10
65.6899359845
 20
38.7988592205
 30
0.0
 10
65.6930019585
 20
38.7929766967
 30
0.0
  0
SPLINE
  5
463
100
AcDbEntity
  8
0
100
AcDbSpline
 62
7
  6
CONTINUOUS
 70
0
 71
3
 72
35
 73
31
 74
0
 42
0.0000001
 43
0.0000001
 44
0.0000000001
 40
0.0
 40
0.0
 40
0.0
 40
0.0
 40
0.1442797
 40
0.2249330155
 40
0.3090990164
 40
0.3950584205
 40
0.4810553695
 40
0.5653317075
 40
0.6461656328
 40
0.7219065079
 40
0.7910063325
 40
0.8226168876
 40
0.8520515665
 40
0.8791583673
 40
0.9037966235
 40
0.925845089
 40
0.94518623
 40
0.9617236801
 40
0.9689152683
 40
0.9753750993
 40
0.9810939031
 40
0.9860657635
 40
0.9902855536
 40
0.9937482708
 40
0.9964491789
 40
0.9983846301
 40
0.9990657396
 40
0.9995571319
 40
0.9998623228
 40
1.0
 40
1.0
 40
1.0
 40
1.0
 10
64.8371586518
 20
91.2861736858
 30
0.0
 10
64.8677413393
 20
88.7611094267
 30
0.0
 10
64.9093854102
 20
84.8244451279
 30
0.0
 10
64.9619589964
 20
79.4147083916
 30
0.0
 10
65.0028125413
 20
75.0256541591
 30
0.0
 10
65.0437003443
 20
70.5430698176
 30
0.0
 10
65.084583393
 20
66.05855412
 30
0.0
 10
65.1254515359
 20
61.6637505424
 30
0.0
 10
65.1662808948
 20
57.4484610361
 30
0.0
 10
65.207051626
 20
53.4988103941
 30
0.0
 10
65.2418876115
 20
50.4106752362
 30
0.0
 10
65.2701416431
 20
48.1329917423
 30
0.0
 10
65.29068284
 20
46.5902509024
 30
0.0
 10
65.3112018362
 20
45.1695537294
 30
0.0
 10
65.3316991192
 20
43.8781478089
 30
0.0
 10
65.3521492341
 20
42.7226779054
 30
0.0
 10
65.3725529189
 20
41.7090163275
 30
0.0
 10
65.3902008139
 20
40.9553862943
 30
0.0
 10
65.4045691461
 20
40.427201937
 30
0.0
 10
65.4148230542
 20
40.0883290886
 30
0.0
 10
65.4250582269
 20
39.7883292748
 30
0.0
 10
65.4352671898
 20
39.5275506907
 30
0.0
 10
65.4454245557
 20
39.3063202505
 30
0.0
 10
65.4555230041
 20
39.1248023102
 30
0.0
 10
65.4654341223
 20
38.9835412199
 30
0.0
 10
65.4743348669
 20
38.8905620463
 30
0.0
 10
65.4816454745
 20
38.8370699991
 30
0.0
 10
65.4869034804
 20
38.8109962838
 30
0.0
 10
65.4907399013
 20
38.7964918289
 30
0.0
 10
65.4956490418
 20
38.7881254527
 30
0.0
 10
65.49805873
 20
38.7881235439
 30
0.0
  0
SPLINE
  5
464
100
AcDbEntity
  8
0
100
AcDbSpline
 62
7
  6
CONTINUOUS
 70
0
 71
3
 72
12
 73
8
 74
0
 42
0.0000001
 43
0.0000001
 44
0.0000000001
 40
0.0
 40
0.0
 40
0.0
 40
0.0
 40
0.0234149429
 40
0.072823087
 40
0.2605648002
 40
0.5694881973
 40
1.0
 40
1.0
 40
1.0
 40
1.0
 10
67.2099576513
 20
103.2710188095
 30
0.0
 10
67.2119081366
 20
103.2710188095
 30
0.0
 10
67.2161562258
 20
103.2649422267
 30
0.0
 10
67.221915956
 20
103.2453150143
 30
0.0
 10
67.2297514418
 20
103.1991325962
 30
0.0
 10
67.2377237392
 20
103.1230620354
 30
0.0
 10
67.2426876715
 20
103.0614126134
 30
0.0
 10
67.2452679529
 20
103.0256435494
 30
0.0
  0
SPLINE
  5
465
100
AcDbEntity
  8
0
100
AcDbSpline
 62
7
  6
CONTINUOUS
 70
0
 71
3
 72
37
 73
33
 74
0
 42
0.0000001
 43
0.0000001
 44
0.0000000001
 40
0.0
 40
0.0
 40
0.0
 40
0.0
 40
0.0079378646
 40
0.0201846769
 40
0.0366322059
 40
0.0571387406
 40
0.1095717139
 40
0.1756427878
 40
0.253037953
 40
0.3390411398
 40
0.4306291358
 40
0.5245820713
 40
0.6176067653
 40
0.7064369424
 40
0.7482959227
 40
0.787956133
 40
0.8250657554
 40
0.8593013502
 40
0.8903595601
 40
0.9179709372
 40
0.9418881688
 40
0.9619052047
 40
0.9703931407
 40
0.977841341
 40
0.9842356163
 40
0.9895619936
 40
0.9938069278
 40
0.9969621097
 40
0.9981300696
 40
0.9990247755
 40
0.9996468917
 40
1.0
 40
1.0
 40
1.0
 40
1.0
 10
67.2452679529
 20
103.0256435494
 30
0.0
 10
67.2577194522
 20
102.8530350601
 30
0.0
 10
67.2773952333
 20
102.4133284924
 30
0.0
 10
67.303374681
 20
101.6151476728
 30
0.0
 10
67.3293898824
 20
100.5427869542
 30
0.0
 10
67.3680170621
 20
98.5944080199
 30
0.0
 10
67.4136863538
 20
95.5641000883
 30
0.0
 10
67.4661566287
 20
91.2935363147
 30
0.0
 10
67.5189259686
 20
86.2910435352
 30
0.0
 10
67.5719984268
 20
80.7322230846
 30
0.0
 10
67.6251794092
 20
74.8124042308
 30
0.0
 10
67.6784103201
 20
68.7395010615
 30
0.0
 10
67.731625434
 20
62.7267244886
 30
0.0
 10
67.7767377957
 20
57.8496448538
 30
0.0
 10
67.8133827044
 20
54.1359610946
 30
0.0
 10
67.8403023652
 20
51.5498200642
 30
0.0
 10
67.8672009851
 20
49.1298892475
 30
0.0
 10
67.8940628898
 20
46.8975065114
 30
0.0
 10
67.9208849769
 20
44.8722152134
 30
0.0
 10
67.9476266022
 20
43.0718995916
 30
0.0
 10
67.974286413
 20
41.5123269514
 30
0.0
 10
67.9974232992
 20
40.3696766653
 30
0.0
 10
68.0163902954
 20
39.5860740617
 30
0.0
 10
68.0297885121
 20
39.0994206216
 30
0.0
 10
68.0431460793
 20
38.6817268678
 30
0.0
 10
68.0563868685
 20
38.3338929828
 30
0.0
 10
68.0695791817
 20
38.0567699399
 30
0.0
 10
68.0810587795
 20
37.870263061
 30
0.0
 10
68.0909409614
 20
37.7569900665
 30
0.0
 10
68.0972948578
 20
37.6986852864
 30
0.0
 10
68.103857878
 20
37.6586531263
 30
0.0
 10
68.1085364593
 20
37.6375593497
 30
0.0
 10
68.112079837
 20
37.6307250308
 30
0.0
  0
SPLINE
  5
466
100
AcDbEntity
  8
0
100
AcDbSpline
 62
7
  6
CONTINUOUS
 70
0
 71
3
 72
18
 73
14
 74
0
 42
0.0000001
 43
0.0000001
 44
0.0000000001
 40
0.0
 40
0.0
 40
0.0
 40
0.0
 40
0.2228085289
 40
0.4195235691
 40
0.5888765481
 40
0.7299940904
 40
0.8421498098
 40
0.8871873424
 40
0.9247810125
 40
0.9548720553
 40
0.9774305874
 40
0.9924548053
 40
1.0
 40
1.0
 40
1.0
 40
1.0
 10
69.6021598258
 20
97.4882009251
 30
0.0
 10
69.5954965846
 20
97.9176129016
 30
0.0
 10
69.5823306208
 20
98.7261386963
 30
0.0
 10
69.5614362986
 20
99.8610062962
 30
0.0
 10
69.5406342842
 20
100.8383913289
 30
0.0
 10
69.5199238608
 20
101.6527330225
 30
0.0
 10
69.5018744068
 20
102.2274741498
 30
0.0
 10
69.4868013459
 20
102.6025922086
 30
0.0
 10
69.4765529574
 20
102.8196982228
 30
0.0
 10
69.4659757404
 20
102.993134088
 30
0.0
 10
69.4566903955
 20
103.1237104032
 30
0.0
 10
69.4455623138
 20
103.2091497206
 30
0.0
 10
69.4397401598
 20
103.2534137414
 30
0.0
 10
69.4330376381
 20
103.2663205548
 30
0.0
  0
SPLINE
  5
467
100
AcDbEntity
  8
0
100
AcDbSpline
 62
7
  6
CONTINUOUS
 70
0
 71
3
 72
12
 73
8
 74
0
 42
0.0000001
 43
0.0000001
 44
0.0000000001
 40
0.0
 40
0.0
 40
0.0
 40
0.0
 40
0.02347321
 40
0.0729019592
 40
0.2606424703
 40
0.5695360502
 40
1.0
 40
1.0
 40
1.0
 40
1.0
 10
69.0239576513
 20
103.2710188095
 30
0.0
 10
69.0258951352
 20
103.2710188095
 30
0.0
 10
69.0301246875
 20
103.2650102579
 30
0.0
 10
69.0358607266
 20
103.2455505381
 30
0.0
 10
69.0436583227
 20
103.19980878
 30
0.0
 10
69.0515947506
 20
103.1244354954
 30
0.0
 10
69.0565352213
 20
103.0633596878
 30
0.0
 10
69.0591034782
 20
103.0279220416
 30
0.0
  0
SPLINE
  5
468
100
AcDbEntity
  8
0
100
AcDbSpline
 62
7
  6
CONTINUOUS
 70
0
 71
3
 72
37
 73
33
 74
0
 42
0.0000001
 43
0.0000001
 44
0.0000000001
 40
0.0
 40
0.0
 40
0.0
 40
0.0
 40
0.0079130853
 40
0.0201372798
 40
0.0365650025
 40
0.057054832
 40
0.1094610241
 40
0.175514695
 40
0.2529001486
 40
0.3388979771
 40
0.4304869728
 40
0.5244519181
 40
0.6174951601
 40
0.7063467011
 40
0.7482168046
 40
0.7878881907
 40
0.8250087137
 40
0.8592547609
 40
0.8903223943
 40
0.9179422886
 40
0.9418672548
 40
0.9618913516
 40
0.9703822065
 40
0.9778331327
 40
0.9842298467
 40
0.9895582336
 40
0.9938046659
 40
0.996960997
 40
0.998129394
 40
0.9990244359
 40
0.9996467795
 40
1.0
 40
1.0
 40
1.0
 40
1.0
 10
69.0591034782
 20
103.0279220416
 30
0.0
 10
69.0715739416
 20
102.8558505197
 30
0.0
 10
69.0912455495
 20
102.4171615683
 30
0.0
 10
69.117231132
 20
101.6204197069
 30
0.0
 10
69.1432467927
 20
100.5493106805
 30
0.0
 10
69.1818865947
 20
98.6022443114
 30
0.0
 10
69.2275643562
 20
95.5731581836
 30
0.0
 10
69.2800433192
 20
91.3036205916
 30
0.0
 10
69.3328202666
 20
86.3016612127
 30
0.0
 10
69.3858998434
 20
80.7429535185
 30
0.0
 10
69.4390880996
 20
74.8227612075
 30
0.0
 10
69.4923274671
 20
68.7489580213
 30
0.0
 10
69.545552286
 20
62.7348395377
 30
0.0
 10
69.5906727889
 20
57.8564769631
 30
0.0
 10
69.6273244652
 20
54.1417116041
 30
0.0
 10
69.6542492024
 20
51.5547564603
 30
0.0
 10
69.6811531238
 20
49.1340319604
 30
0.0
 10
69.708019983
 20
46.9009002892
 30
0.0
 10
69.7348469614
 20
44.8749192467
 30
0.0
 10
69.7615931925
 20
43.0739809841
 30
0.0
 10
69.7882583119
 20
41.5138456266
 30
0.0
 10
69.811398903
 20
40.3707692129
 30
0.0
 10
69.8303699275
 20
39.5868622403
 30
0.0
 10
69.8437707881
 20
39.1000155653
 30
0.0
 10
69.8571310869
 20
38.6821508103
 30
0.0
 10
69.8703745654
 20
38.3341751197
 30
0.0
 10
69.8835702606
 20
38.056940903
 30
0.0
 10
69.8950523803
 20
37.8703602489
 30
0.0
 10
69.9049366862
 20
37.7570414187
 30
0.0
 10
69.9112918011
 20
37.6987127139
 30
0.0
 10
69.9178562884
 20
37.6586645456
 30
0.0
 10
69.9225354929
 20
37.6375624096
 30
0.0
 10
69.9260798369
 20
37.6307255334
 30
0.0
  0
SPLINE
  5
469
100
AcDbEntity
  8
0
100
AcDbSpline
 62
7
  6
CONTINUOUS
 70
0
 71
3
 72
11
 73
7
 74
0
 42
0.0000001
 43
0.0000001
 44
0.0000000001
 40
0.0
 40
0.0
 40
0.0
 40
0.0
 40
0.0746036149
 40
0.2628053974
 40
0.5709803071
 40
1.0
 40
1.0
 40
1.0
 40
1.0
 10
70.8379576513
 20
103.2710188095
 30
0.0
 10
70.8421730796
 20
103.2710188095
 30
0.0
 10
70.8479389906
 20
103.2518075408
 30
0.0
 10
70.8539183097
 20
103.2247003407
 30
0.0
 10
70.8608999287
 20
103.1702652969
 30
0.0
 10
70.864838604
 20
103.1296391725
 30
0.0
 10
70.8669575845
 20
103.1054904853
 30
0.0
  0
SPLINE
  5
46A
100
AcDbEntity
  8
0
100
AcDbSpline
 62
7
  6
CONTINUOUS
 70
0
 71
3
 72
9
 73
5
 74
0
 42
0.0000001
 43
0.0000001
 44
0.0000000001
 40
0.0
 40
0.0
 40
0.0
 40
0.0
 40
0.212867876
 40
1.0
 40
1.0
 40
1.0
 40
1.0
 10
70.8669575845
 20
103.1054904853
 30
0.0
 10
70.8682405312
 20
103.0908695477
 30
0.0
 10
70.8738717238
 20
103.0221493205
 30
0.0
 10
70.8782820725
 20
102.953334608
 30
0.0
 10
70.8814576513
 20
102.8991552868
 30
0.0
  0
SPLINE
  5
46B
100
AcDbEntity
  8
0
100
AcDbSpline
 62
7
  6
CONTINUOUS
 70
0
 71
3
 72
9
 73
5
 74
0
 42
0.0000001
 43
0.0000001
 44
0.0000000001
 40
0.0
 40
0.0
 40
0.0
 40
0.0
 40
0.2235297065
 40
1.0
 40
1.0
 40
1.0
 40
1.0
 10
70.8814576513
 20
102.8991552868
 30
0.0
 10
70.8827159888
 20
102.8776864845
 30
0.0
 10
70.8881022615
 20
102.7816277125
 30
0.0
 10
70.892668288
 20
102.685524418
 30
0.0
 10
70.8959577363
 20
102.6108931737
 30
0.0
  0
SPLINE
  5
46C
100
AcDbEntity
  8
0
100
AcDbSpline
 62
7
  6
CONTINUOUS
 70
0
 71
3
 72
9
 73
5
 74
0
 42
0.0000001
 43
0.0000001
 44
0.0000000001
 40
0.0
 40
0.0
 40
0.0
 40
0.0
 40
0.4072111804
 40
1.0
 40
1.0
 40
1.0
 40
1.0
 10
70.8959577363
 20
102.6108931737
 30
0.0
 10
70.9117208142
 20
102.2532593071
 30
0.0
 10
70.9382679798
 20
101.3745042683
 30
0.0
 10
70.9579657949
 20
100.4956301998
 30
0.0
 10
70.9684576513
 20
99.9746126489
 30
0.0
  0
SPLINE
  5
46D
100
AcDbEntity
  8
0
100
AcDbSpline
 62
7
  6
CONTINUOUS
 70
0
 71
3
 72
9
 73
5
 74
0
 42
0.0000001
 43
0.0000001
 44
0.0000000001
 40
0.0
 40
0.0
 40
0.0
 40
0.0
 40
0.2408649386
 40
1.0
 40
1.0
 40
1.0
 40
1.0
 10
70.9684576513
 20
99.9746126489
 30
0.0
 10
70.9696815665
 20
99.9138339559
 30
0.0
 10
70.9746961396
 20
99.6614974521
 30
0.0
 10
70.9794576715
 20
99.4091559457
 30
0.0
 10
70.9829577181
 20
99.217592615
 30
0.0
  0
SPLINE
  5
46E
100
AcDbEntity
  8
0
100
AcDbSpline
 62
7
  6
CONTINUOUS
 70
0
 71
3
 72
32
 73
28
 74
0
 42
0.0000001
 43
0.0000001
 44
0.0000000001
 40
0.0
 40
0.0
 40
0.0
 40
0.0
 40
0.0414159555
 40
0.0954821498
 40
0.2349937501
 40
0.316412961
 40
0.4025349903
 40
0.4908699062
 40
0.5788694796
 40
0.6639924848
 40
0.7437785999
 40
0.8159246763
 40
0.8484700956
 40
0.8783447393
 40
0.9053315231
 40
0.9292373772
 40
0.9498863622
 40
0.9671333714
 40
0.9744389437
 40
0.9808492544
 40
0.9863535212
 40
0.9909410397
 40
0.994602115
 40
0.9973321879
 40
0.9991294883
 40
0.9996792548
 40
1.0
 40
1.0
 40
1.0
 40
1.0
 10
65.5119576513
 20
100.657098417
 30
0.0
 10
65.5315257013
 20
99.7871095654
 30
0.0
 10
65.5672461789
 20
97.7811941115
 30
0.0
 10
65.6365082458
 20
92.8441220712
 30
0.0
 10
65.6974863326
 20
87.06634578
 30
0.0
 10
65.7590191968
 20
80.6150189735
 30
0.0
 10
65.8073604101
 20
75.2389089026
 30
0.0
 10
65.8557990603
 20
69.7245322794
 30
0.0
 10
65.9042152901
 20
64.2311469712
 30
0.0
 10
65.952585695
 20
58.9173909531
 30
0.0
 10
66.0008655017
 20
53.9367534279
 30
0.0
 10
66.0422302414
 20
50.0608325001
 30
0.0
 10
66.0759362132
 20
47.2336045804
 30
0.0
 10
66.100308879
 20
45.3551955935
 30
0.0
 10
66.1246416751
 20
43.6583324567
 30
0.0
 10
66.1489031223
 20
42.1553345551
 30
0.0
 10
66.1730898416
 20
40.8570123105
 30
0.0
 10
66.1940852577
 20
39.9074913108
 30
0.0
 10
66.2112935226
 20
39.2571416386
 30
0.0
 10
66.2234541481
 20
38.8534835647
 30
0.0
 10
66.2355458266
 20
38.506951036
 30
0.0
 10
66.247630535
 20
38.2182581176
 30
0.0
 10
66.2594159811
 20
37.9878113944
 30
0.0
 10
66.2713875154
 20
37.8163158405
 30
0.0
 10
66.2811774804
 20
37.7097918273
 30
0.0
 10
66.290625494
 20
37.6547440904
 30
0.0
 10
66.2949777566
 20
37.6367077852
 30
0.0
 10
66.298079837
 20
37.6307248496
 30
0.0
  0
SPLINE
  5
46F
100
AcDbEntity
  8
0
100
AcDbSpline
 62
7
  6
CONTINUOUS
 70
0
 71
3
 72
19
 73
15
 74
0
 42
0.0000001
 43
0.0000001
 44
0.0000000001
 40
0.0
 40
0.0
 40
0.0
 40
0.0
 40
0.0048264476
 40
0.0170008641
 40
0.0369357374
 40
0.0646873586
 40
0.1002652623
 40
0.143664868
 40
0.1948644196
 40
0.2538319285
 40
0.3949361497
 40
0.5666861843
 40
0.7685840563
 40
1.0
 40
1.0
 40
1.0
 40
1.0
 10
65.3959576513
 20
103.2710188095
 30
0.0
 10
65.4001722288
 20
103.2710188095
 30
0.0
 10
65.4059397638
 20
103.2518156798
 30
0.0
 10
65.4119182272
 20
103.2247072788
 30
0.0
 10
65.4188945161
 20
103.1703509716
 30
0.0
 10
65.4258027673
 20
103.0990718675
 30
0.0
 10
65.4329206063
 20
103.0057119436
 30
0.0
 10
65.4400449052
 20
102.8924139578
 30
0.0
 10
65.4472160193
 20
102.7584533703
 30
0.0
 10
65.4574168232
 20
102.5392953353
 30
0.0
 10
65.4698440581
 20
102.2148305867
 30
0.0
 10
65.4841153279
 20
101.7655664878
 30
0.0
 10
65.4984403123
 20
101.2374000069
 30
0.0
 10
65.5074135944
 20
100.8591256428
 30
0.0
 10
65.5119576513
 20
100.657098417
 30
0.0
  0
SPLINE
  5
470
100
AcDbEntity
  8
0
100
AcDbSpline
 62
7
  6
CONTINUOUS
 70
0
 71
3
 72
10
 73
6
 74
0
 42
0.0000001
 43
0.0000001
 44
0.0000000001
 40
0.0
 40
0.0
 40
0.0
 40
0.0
 40
0.0901852725
 40
0.2798414405
 40
1.0
 40
1.0
 40
1.0
 40
1.0
 10
64.8931598258
 20
37.6260188095
 30
0.0
 10
64.89123057
 20
37.6260188095
 30
0.0
 10
64.8870123863
 20
37.631985788
 30
0.0
 10
64.881298946
 20
37.6513119973
 30
0.0
 10
64.877856173
 20
37.6712968141
 30
0.0
 10
64.8756471088
 20
37.6865433412
 30
0.0
  0
SPLINE
  5
471
100
AcDbEntity
  8
0
100
AcDbSpline
 62
7
  6
CONTINUOUS
 70
0
 71
3
 72
9
 73
5
 74
0
 42
0.0000001
 43
0.0000001
 44
0.0000000001
 40
0.0
 40
0.0
 40
0.0
 40
0.0
 40
0.1883201721
 40
1.0
 40
1.0
 40
1.0
 40
1.0
 10
64.8756471088
 20
37.6865433412
 30
0.0
 10
64.8740063224
 20
37.697867727
 30
0.0
 10
64.8664564553
 20
37.75816763
 30
0.0
 10
64.8616708213
 20
37.8187706931
 30
0.0
 10
64.8580975033
 20
37.8679600384
 30
0.0
  0
SPLINE
  5
472
100
AcDbEntity
  8
0
100
AcDbSpline
 62
7
  6
CONTINUOUS
 70
0
 71
3
 72
9
 73
5
 74
0
 42
0.0000001
 43
0.0000001
 44
0.0000000001
 40
0.0
 40
0.0
 40
0.0
 40
0.0
 40
0.5041426676
 40
1.0
 40
1.0
 40
1.0
 40
1.0
 10
102.9247670866
 20
159.6259115487
 30
0.0
 10
102.9312153647
 20
159.7505096705
 30
0.0
 10
103.0523965532
 20
159.9908540737
 30
0.0
 10
103.2956135843
 20
160.1194759052
 30
0.0
 10
103.4183280033
 20
160.1194759052
 30
0.0
  0
SPLINE
  5
473
100
AcDbEntity
  8
0
100
AcDbSpline
 62
7
  6
CONTINUOUS
 70
0
 71
3
 72
9
 73
5
 74
0
 42
0.0000001
 43
0.0000001
 44
0.0000000001
 40
0.0
 40
0.0
 40
0.0
 40
0.0
 40
0.4980928242
 40
1.0
 40
1.0
 40
1.0
 40
1.0
 10
107.0637550154
 20
160.3803717927
 30
0.0
 10
107.0637550154
 20
160.3430935656
 30
0.0
 10
107.0345627692
 20
160.2658899332
 30
0.0
 10
106.96472351
 20
160.2267155489
 30
0.0
 10
106.9285125179
 20
160.2167257719
 30
0.0
  0
SPLINE
  5
474
100
AcDbEntity
  8
0
100
AcDbSpline
 62
7
  6
CONTINUOUS
 70
0
 71
3
 72
8
 73
4
 74
0
 42
0.0000001
 43
0.0000001
 44
0.0000000001
 40
0.0
 40
0.0
 40
0.0
 40
0.0
 40
1.0
 40
1.0
 40
1.0
 40
1.0
 10
107.0482993708
 20
160.4496026377
 30
0.0
 10
107.0565694433
 20
160.4274510389
 30
0.0
 10
107.0637550154
 20
160.4040168223
 30
0.0
 10
107.0637550154
 20
160.3803717927
 30
0.0
  0
SPLINE
  5
475
100
AcDbEntity
  8
0
100
AcDbSpline
 62
7
  6
CONTINUOUS
 70
0
 71
3
 72
12
 73
8
 74
0
 42
0.0000001
 43
0.0000001
 44
0.0000000001
 40
0.0
 40
0.0
 40
0.0
 40
0.0
 40
0.0234394314
 40
0.0728551311
 40
0.2605932911
 40
0.5695032859
 40
1.0
 40
1.0
 40
1.0
 40
1.0
 10
66.7071598258
 20
37.6260188095
 30
0.0
 10
66.7052149282
 20
37.6260188095
 30
0.0
 10
66.7009747124
 20
37.6320659988
 30
0.0
 10
66.6952250828
 20
37.6516213144
 30
0.0
 10
66.6874057545
 20
37.697614656
 30
0.0
 10
66.6794487751
 20
37.7733871163
 30
0.0
 10
66.6744948674
 20
37.8347915029
 30
0.0
 10
66.6719197138
 20
37.8704192228
 30
0.0
  0
SPLINE
  5
476
100
AcDbEntity
  8
0
100
AcDbSpline
 62
7
  6
CONTINUOUS
 70
0
 71
3
 72
37
 73
33
 74
0
 42
0.0000001
 43
0.0000001
 44
0.0000000001
 40
0.0
 40
0.0
 40
0.0
 40
0.0
 40
0.0079276137
 40
0.0201656967
 40
0.0366059543
 40
0.0571074245
 40
0.1095320882
 40
0.1755977202
 40
0.2529879369
 40
0.3389846701
 40
0.4305705098
 40
0.5245282363
 40
0.617563794
 40
0.7064094075
 40
0.7482754229
 40
0.7879407881
 40
0.8250548235
 40
0.8592931464
 40
0.8903539894
 40
0.9179667419
 40
0.9418852684
 40
0.9619024044
 40
0.9703907547
 40
0.9778393702
 40
0.984234019
 40
0.9895607687
 40
0.9938061049
 40
0.9969616691
 40
0.9981297917
 40
0.9990246305
 40
0.999646842
 40
1.0
 40
1.0
 40
1.0
 40
1.0
 10
66.6719197138
 20
37.8704192228
 30
0.0
 10
66.659459712
 20
38.0428056197
 30
0.0
 10
66.6397849352
 20
38.4821051209
 30
0.0
 10
66.6138018228
 20
39.2797248195
 30
0.0
 10
66.5877843131
 20
40.3516422838
 30
0.0
 10
66.5491515989
 20
42.2995999506
 30
0.0
 10
66.5034764859
 20
45.329542869
 30
0.0
 10
66.4510031183
 20
49.5997626533
 30
0.0
 10
66.3982316889
 20
54.6019628998
 30
0.0
 10
66.3451580544
 20
60.1605707613
 30
0.0
 10
66.2919754605
 20
66.0803947709
 30
0.0
 10
66.2387408895
 20
72.1536829222
 30
0.0
 10
66.1855199902
 20
78.167227132
 30
0.0
 10
66.1404012879
 20
83.0451063595
 30
0.0
 10
66.1037514832
 20
86.7594478819
 30
0.0
 10
66.0768280309
 20
89.3459894998
 30
0.0
 10
66.0499275777
 20
91.7662245353
 30
0.0
 10
66.0230627833
 20
93.9988536943
 30
0.0
 10
65.9962399553
 20
96.0243221225
 30
0.0
 10
65.9694959608
 20
97.8247802425
 30
0.0
 10
65.9428371398
 20
99.3844366126
 30
0.0
 10
65.9196985966
 20
100.5271433921
 30
0.0
 10
65.9007319863
 20
101.3107779875
 30
0.0
 10
65.8873336648
 20
101.7974649353
 30
0.0
 10
65.8739758327
 20
102.2151902524
 30
0.0
 10
65.8607345634
 20
102.5630543674
 30
0.0
 10
65.8475415881
 20
102.8402067732
 30
0.0
 10
65.836061239
 20
103.0267370921
 30
0.0
 10
65.8261783
 20
103.1400265508
 30
0.0
 10
65.8198239054
 20
103.198340749
 30
0.0
 10
65.813260268
 20
103.2383795221
 30
0.0
 10
65.8085814233
 20
103.2594768588
 30
0.0
 10
65.8050376404
 20
103.2663123177
 30
0.0
  0
SPLINE
  5
477
100
AcDbEntity
  8
0
100
AcDbSpline
 62
7
  6
CONTINUOUS
 70
0
 71
3
 72
10
 73
6
 74
0
 42
0.0000001
 43
0.0000001
 44
0.0000000001
 40
0.0
 40
0.0
 40
0.0
 40
0.0
 40
0.0896209257
 40
0.2792116615
 40
1.0
 40
1.0
 40
1.0
 40
1.0
 10
68.5211598258
 20
37.6260188095
 30
0.0
 10
68.5191932021
 20
37.6260188095
 30
0.0
 10
68.5149218744
 20
37.6321815852
 30
0.0
 10
68.5091405653
 20
37.6519879316
 30
0.0
 10
68.5056497596
 20
37.6725308753
 30
0.0
 10
68.5034113399
 20
37.6881885175
 30
0.0
  0
SPLINE
  5
478
100
AcDbEntity
  8
0
100
AcDbSpline
 62
7
  6
CONTINUOUS
 70
0
 71
3
 72
40
 73
36
 74
0
 42
0.0000001
 43
0.0000001
 44
0.0000000001
 40
0.0
 40
0.0
 40
0.0
 40
0.0
 40
0.002055055
 40
0.0052443766
 40
0.0150077586
 40
0.0292030887
 40
0.0477057064
 40
0.0703425132
 40
0.0969096322
 40
0.1271603186
 40
0.1608213006
 40
0.2371083302
 40
0.3229835627
 40
0.4153100965
 40
0.5107141784
 40
0.6057094945
 40
0.6968273149
 40
0.7398832871
 40
0.780739315
 40
0.8190204199
 40
0.8543763489
 40
0.8864837994
 40
0.9150504632
 40
0.9398126973
 40
0.9605459622
 40
0.9693404408
 40
0.9770578796
 40
0.9836830465
 40
0.9892012683
 40
0.9935981978
 40
0.996864396
 40
0.9980723619
 40
0.9989966923
 40
0.9996380276
 40
1.0
 40
1.0
 40
1.0
 40
1.0
 10
68.5034113399
 20
37.6881885175
 30
0.0
 10
68.4970528881
 20
37.7326655942
 30
0.0
 10
68.4869748782
 20
37.8469721307
 30
0.0
 10
68.4662666654
 20
38.1743856225
 30
0.0
 10
68.4436074076
 20
38.767593053
 30
0.0
 10
68.4168632981
 20
39.6954934157
 30
0.0
 10
68.3901819714
 20
40.9049969615
 30
0.0
 10
68.3630254698
 20
42.3849981309
 30
0.0
 10
68.3358116875
 20
44.121890129
 30
0.0
 10
68.3084755127
 20
46.0998218813
 30
0.0
 10
68.2703616028
 20
49.164723668
 30
0.0
 10
68.2238557333
 20
53.4457196996
 30
0.0
 10
68.1697976711
 20
59.0092981579
 30
0.0
 10
68.1156014246
 20
64.9908459678
 30
0.0
 10
68.0613357089
 20
71.1717915129
 30
0.0
 10
68.0070754522
 20
77.326310208
 30
0.0
 10
67.9611089773
 20
82.3363807002
 30
0.0
 10
67.9237615265
 20
86.1628425478
 30
0.0
 10
67.8962972832
 20
88.8341863537
 30
0.0
 10
67.8688573456
 20
91.3371764214
 30
0.0
 10
67.8414517008
 20
93.64888613
 30
0.0
 10
67.8140904701
 20
95.748195136
 30
0.0
 10
67.7868076683
 20
97.6158758928
 30
0.0
 10
67.7596133226
 20
99.2348558049
 30
0.0
 10
67.7360093312
 20
100.4215567265
 30
0.0
 10
67.716662268
 20
101.2356118011
 30
0.0
 10
67.7029937183
 20
101.7412712142
 30
0.0
 10
67.6893664746
 20
102.1752690012
 30
0.0
 10
67.6758596274
 20
102.5366478942
 30
0.0
 10
67.6624013104
 20
102.8244940359
 30
0.0
 10
67.6506947433
 20
103.0181542269
 30
0.0
 10
67.6406056421
 20
103.1356905605
 30
0.0
 10
67.6341347237
 20
103.1961099542
 30
0.0
 10
67.6274263683
 20
103.237498406
 30
0.0
 10
67.6226801641
 20
103.259286925
 30
0.0
 10
67.6190376404
 20
103.2663125359
 30
0.0
  0
SPLINE
  5
479
100
AcDbEntity
  8
0
100
AcDbSpline
 62
7
  6
CONTINUOUS
 70
0
 71
3
 72
9
 73
5
 74
0
 42
0.0000001
 43
0.0000001
 44
0.0000000001
 40
0.0
 40
0.0
 40
0.0
 40
0.0
 40
0.5000148943
 40
1.0
 40
1.0
 40
1.0
 40
1.0
 10
71.1021503583
 20
57.8759866991
 30
0.0
 10
71.1454361096
 20
57.6601432433
 30
0.0
 10
71.2350890016
 20
57.2290994564
 30
0.0
 10
71.3236232011
 20
56.7978094154
 30
0.0
 10
71.3706024413
 20
56.5827530727
 30
0.0
  0
SPLINE
  5
47A
100
AcDbEntity
  8
0
100
AcDbSpline
 62
7
  6
CONTINUOUS
 70
0
 71
3
 72
9
 73
5
 74
0
 42
0.0000001
 43
0.0000001
 44
0.0000000001
 40
0.0
 40
0.0
 40
0.0
 40
0.0
 40
0.2489085372
 40
1.0
 40
1.0
 40
1.0
 40
1.0
 10
71.1021598258
 20
41.3981265903
 30
0.0
 10
71.1565174977
 20
41.0809519526
 30
0.0
 10
71.3941545534
 20
39.8100197423
 30
0.0
 10
71.7057063004
 20
38.5532701675
 30
0.0
 10
71.9742177691
 20
37.6200916847
 30
0.0
  0
SPLINE
  5
47B
100
AcDbEntity
  8
0
100
AcDbSpline
 62
7
  6
CONTINUOUS
 70
0
 71
3
 72
9
 73
5
 74
0
 42
0.0000001
 43
0.0000001
 44
0.0000000001
 40
0.0
 40
0.0
 40
0.0
 40
0.0
 40
0.2512348622
 40
1.0
 40
1.0
 40
1.0
 40
1.0
 10
71.9742731184
 20
55.1936848135
 30
0.0
 10
71.884448759
 20
54.881503974
 30
0.0
 10
71.542239339
 20
53.6346042619
 30
0.0
 10
71.2656355942
 20
52.3693539872
 30
0.0
 10
71.1021598258
 20
51.4151025021
 30
0.0
  0
LINE
  5
47C
100
AcDbEntity
  8
0
100
AcDbLine
 62
7
  6
CONTINUOUS
 10
71.3718814716
 20
36.9865301131
 11
71.102153845
 21
36.9804490416
  0
LINE
  5
47D
100
AcDbEntity
  8
0
100
AcDbLine
 62
7
  6
CONTINUOUS
 10
107.3061286255
 20
151.6585693158
 11
107.3931224861
 21
151.5702257234
  0
LINE
  5
47E
100
AcDbEntity
  8
0
100
AcDbLine
 62
7
  6
CONTINUOUS
 10
107.3931224861
 20
151.5702257234
 11
107.4172621398
 21
151.5457217726
  0
LINE
  5
47F
100
AcDbEntity
  8
0
100
AcDbLine
 62
7
  6
CONTINUOUS
 10
107.4172621398
 20
151.5457217726
 11
107.4423548843
 21
151.5202472684
  0
SPLINE
  5
480
100
AcDbEntity
  8
0
100
AcDbSpline
 62
7
  6
CONTINUOUS
 70
0
 71
3
 72
13
 73
9
 74
0
 42
0.0000001
 43
0.0000001
 44
0.0000000001
 40
0.0
 40
0.0
 40
0.0
 40
0.0
 40
0.1878648118
 40
0.2643714486
 40
0.3538622984
 40
0.4712663785
 40
0.6201642788
 40
1.0
 40
1.0
 40
1.0
 40
1.0
 10
107.3890100107
 20
151.6616686246
 30
0.0
 10
107.3965949568
 20
151.6540848517
 30
0.0
 10
107.4099755744
 20
151.643122439
 30
0.0
 10
107.4310663699
 20
151.6469054829
 30
0.0
 10
107.4432016339
 20
151.658500811
 30
0.0
 10
107.4529090914
 20
151.6764697751
 30
0.0
 10
107.4645593765
 20
151.7116113506
 30
0.0
 10
107.4689833147
 20
151.7416601847
 30
0.0
 10
107.4712944679
 20
151.7632229213
 30
0.0
  0
SPLINE
  5
481
100
AcDbEntity
  8
0
100
AcDbSpline
 62
7
  6
CONTINUOUS
 70
0
 71
3
 72
9
 73
5
 74
0
 42
0.0000001
 43
0.0000001
 44
0.0000000001
 40
0.0
 40
0.0
 40
0.0
 40
0.0
 40
0.5038191636
 40
1.0
 40
1.0
 40
1.0
 40
1.0
 10
107.4423643137
 20
151.520247269
 30
0.0
 10
107.44369995
 20
151.5461660074
 30
0.0
 10
107.4359490795
 20
151.598780748
 30
0.0
 10
107.4070805709
 20
151.6435923698
 30
0.0
 10
107.389006595
 20
151.6616652086
 30
0.0
  0
SPLINE
  5
482
100
AcDbEntity
  8
0
100
AcDbSpline
 62
7
  6
CONTINUOUS
 70
0
 71
3
 72
11
 73
7
 74
0
 42
0.0000001
 43
0.0000001
 44
0.0000000001
 40
0.0
 40
0.0
 40
0.0
 40
0.0
 40
0.1662861659
 40
0.3381276676
 40
0.6117684528
 40
1.0
 40
1.0
 40
1.0
 40
1.0
 10
107.4423548843
 20
151.5202472684
 30
0.0
 10
107.4495664711
 20
151.5129352978
 30
0.0
 10
107.4704369604
 20
151.499810511
 30
0.0
 10
107.5063541429
 20
151.5233021398
 30
0.0
 10
107.530290844
 20
151.5686336192
 30
0.0
 10
107.5445827613
 20
151.6072200039
 30
0.0
 10
107.5515507208
 20
151.6301626691
 30
0.0
  0
SPLINE
  5
483
100
AcDbEntity
  8
0
100
AcDbSpline
 62
7
  6
CONTINUOUS
 70
0
 71
3
 72
9
 73
5
 74
0
 42
0.0000001
 43
0.0000001
 44
0.0000000001
 40
0.0
 40
0.0
 40
0.0
 40
0.0
 40
0.2249194879
 40
1.0
 40
1.0
 40
1.0
 40
1.0
 10
107.4712944679
 20
151.7632229213
 30
0.0
 10
107.4736913983
 20
151.7854983796
 30
0.0
 10
107.467756208
 20
151.8862323104
 30
0.0
 10
107.4147150834
 20
151.978469029
 30
0.0
 10
107.3649416918
 20
152.0374880336
 30
0.0
  0
SPLINE
  5
484
100
AcDbEntity
  8
0
100
AcDbSpline
 62
7
  6
CONTINUOUS
 70
0
 71
3
 72
9
 73
5
 74
0
 42
0.0000001
 43
0.0000001
 44
0.0000000001
 40
0.0
 40
0.0
 40
0.0
 40
0.0
 40
0.2255865166
 40
1.0
 40
1.0
 40
1.0
 40
1.0
 10
107.5593619393
 20
151.658570224
 30
0.0
 10
107.5568089368
 20
151.6686983726
 30
0.0
 10
107.5393797935
 20
151.7120929233
 30
0.0
 10
107.502302211
 20
151.7451621037
 30
0.0
 10
107.4713715513
 20
151.763299778
 30
0.0
  0
SPLINE
  5
485
100
AcDbEntity
  8
0
100
AcDbSpline
 62
7
  6
CONTINUOUS
 70
0
 71
3
 72
9
 73
5
 74
0
 42
0.0000001
 43
0.0000001
 44
0.0000000001
 40
0.0
 40
0.0
 40
0.0
 40
0.0
 40
0.2337700919
 40
1.0
 40
1.0
 40
1.0
 40
1.0
 10
107.559603271
 20
151.6585693158
 30
0.0
 10
107.565055462
 20
151.6867349635
 30
0.0
 10
107.576094395
 20
151.8094421466
 30
0.0
 10
107.5407505516
 20
151.9348818343
 30
0.0
 10
107.4943014062
 20
152.0166411707
 30
0.0
  0
SPLINE
  5
486
100
AcDbEntity
  8
0
100
AcDbSpline
 62
7
  6
CONTINUOUS
 70
0
 71
3
 72
8
 73
4
 74
0
 42
0.0000001
 43
0.0000001
 44
0.0000000001
 40
0.0
 40
0.0
 40
0.0
 40
0.0
 40
1.0
 40
1.0
 40
1.0
 40
1.0
 10
107.4943014062
 20
152.0166411707
 30
0.0
 10
107.4727753598
 20
152.0545311091
 30
0.0
 10
107.4469328035
 20
152.0902270072
 30
0.0
 10
107.4179061532
 20
152.1227304176
 30
0.0
  0
SPLINE
  5
487
100
AcDbEntity
  8
0
100
AcDbSpline
 62
7
  6
CONTINUOUS
 70
0
 71
3
 72
9
 73
5
 74
0
 42
0.0000001
 43
0.0000001
 44
0.0000000001
 40
0.0
 40
0.0
 40
0.0
 40
0.0
 40
0.1305711885
 40
1.0
 40
1.0
 40
1.0
 40
1.0
 10
107.3884943655
 20
152.1535440618
 30
0.0
 10
107.3857797237
 20
152.150328547
 30
0.0
 10
107.3641734968
 20
152.1264042739
 30
0.0
 10
107.342053926
 20
152.1029662805
 30
0.0
 10
107.3228106502
 20
152.0825980493
 30
0.0
  0
SPLINE
  5
488
100
AcDbEntity
  8
0
100
AcDbSpline
 62
7
  6
CONTINUOUS
 70
0
 71
3
 72
9
 73
5
 74
0
 42
0.0000001
 43
0.0000001
 44
0.0000000001
 40
0.0
 40
0.0
 40
0.0
 40
0.0
 40
0.5012820264
 40
1.0
 40
1.0
 40
1.0
 40
1.0
 10
107.2295224581
 20
152.1731039931
 30
0.0
 10
107.1498581451
 20
152.2504828855
 30
0.0
 10
107.0126209658
 20
152.4295573028
 30
0.0
 10
106.9414755101
 20
152.6447243718
 30
0.0
 10
106.9256638855
 20
152.7540771744
 30
0.0
  0
SPLINE
  5
489
100
AcDbEntity
  8
0
100
AcDbSpline
 62
7
  6
CONTINUOUS
 70
0
 71
3
 72
9
 73
5
 74
0
 42
0.0000001
 43
0.0000001
 44
0.0000000001
 40
0.0
 40
0.0
 40
0.0
 40
0.0
 40
0.130309804
 40
1.0
 40
1.0
 40
1.0
 40
1.0
 10
107.2947206357
 20
152.2434880366
 30
0.0
 10
107.2920318325
 20
152.2403036104
 30
0.0
 10
107.2705836081
 20
152.2165674948
 30
0.0
 10
107.2486262288
 20
152.1933141631
 30
0.0
 10
107.2295185292
 20
152.1731000575
 30
0.0
  0
SPLINE
  5
48A
100
AcDbEntity
  8
0
100
AcDbSpline
 62
7
  6
CONTINUOUS
 70
0
 71
3
 72
9
 73
5
 74
0
 42
0.0000001
 43
0.0000001
 44
0.0000000001
 40
0.0
 40
0.0
 40
0.0
 40
0.0
 40
0.5020623445
 40
1.0
 40
1.0
 40
1.0
 40
1.0
 10
107.2947259496
 20
152.2434935563
 30
0.0
 10
107.2284003467
 20
152.3057650394
 30
0.0
 10
107.1240058621
 20
152.4634383623
 30
0.0
 10
107.1000728588
 20
152.648275217
 30
0.0
 10
107.1026404859
 20
152.7384683031
 30
0.0
  0
LINE
  5
48B
100
AcDbEntity
  8
0
100
AcDbLine
 62
7
  6
CONTINUOUS
 10
71.1021373351
 20
103.9165827394
 11
71.371807428
 21
103.9102554447
  0
SPLINE
  5
48C
100
AcDbEntity
  8
0
100
AcDbSpline
 62
7
  6
CONTINUOUS
 70
0
 71
3
 72
9
 73
5
 74
0
 42
0.0000001
 43
0.0000001
 44
0.0000000001
 40
0.0
 40
0.0
 40
0.0
 40
0.0
 40
0.2489063375
 40
1.0
 40
1.0
 40
1.0
 40
1.0
 10
71.1021598258
 20
89.4819206644
 30
0.0
 10
71.1565064006
 20
89.1647019829
 30
0.0
 10
71.3940247687
 20
87.893565337
 30
0.0
 10
71.7057263113
 20
86.6366640328
 30
0.0
 10
71.9742710414
 20
85.7033528054
 30
0.0
  0
SPLINE
  5
48D
100
AcDbEntity
  8
0
100
AcDbSpline
 62
7
  6
CONTINUOUS
 70
0
 71
3
 72
9
 73
5
 74
0
 42
0.0000001
 43
0.0000001
 44
0.0000000001
 40
0.0
 40
0.0
 40
0.0
 40
0.0
 40
0.2512317653
 40
1.0
 40
1.0
 40
1.0
 40
1.0
 10
71.9742183513
 20
103.2769459342
 30
0.0
 10
71.8844052144
 20
102.964811597
 30
0.0
 10
71.542324174
 20
101.7180570586
 30
0.0
 10
71.2656832887
 20
100.4529998175
 30
0.0
 10
71.1021598258
 20
99.4988848501
 30
0.0
  0
SPLINE
  5
48E
100
AcDbEntity
  8
0
100
AcDbSpline
 62
7
  6
CONTINUOUS
 70
0
 71
3
 72
11
 73
7
 74
0
 42
0.0000001
 43
0.0000001
 44
0.0000000001
 40
0.0
 40
0.0
 40
0.0
 40
0.0
 40
0.2500312438
 40
0.4999999954
 40
0.7499687488
 40
1.0
 40
1.0
 40
1.0
 40
1.0
 10
92.4255013906
 20
58.0221193651
 30
0.0
 10
91.8011007926
 20
60.0308414602
 30
0.0
 10
90.8014045165
 20
64.1331816546
 30
0.0
 10
90.2672782935
 20
70.4485187073
 30
0.0
 10
90.8014047855
 20
76.7638557568
 30
0.0
 10
91.8011007251
 20
80.866196115
 30
0.0
 10
92.4255013691
 20
82.8749182612
 30
0.0
  0
SPLINE
  5
48F
100
AcDbEntity
  8
0
100
AcDbSpline
 62
7
  6
CONTINUOUS
 70
0
 71
3
 72
14
 73
10
 74
0
 42
0.0000001
 43
0.0000001
 44
0.0000000001
 40
0.0
 40
0.0
 40
0.0
 40
0.0
 40
0.1250177239
 40
0.2500440729
 40
0.375074509
 40
0.5001078452
 40
0.6251412223
 40
0.7501714403
 40
1.0
 40
1.0
 40
1.0
 40
1.0
 10
96.4055533199
 20
55.7922106595
 30
0.0
 10
95.9324232446
 20
56.956159987
 30
0.0
 10
95.0627464104
 20
59.3167277389
 30
0.0
 10
94.0598046563
 20
62.9556951485
 30
0.0
 10
93.4205692212
 20
66.6779895097
 30
0.0
 10
93.2002204591
 20
70.4496854283
 30
0.0
 10
93.4209417492
 20
74.2216409972
 30
0.0
 10
94.2725547943
 20
79.1812656048
 30
0.0
 10
95.4598584158
 20
82.7815374329
 30
0.0
 10
96.4053794082
 20
85.1074920933
 30
0.0
  0
SPLINE
  5
490
100
AcDbEntity
  8
0
100
AcDbSpline
 62
7
  6
CONTINUOUS
 70
0
 71
3
 72
13
 73
9
 74
0
 42
0.0000001
 43
0.0000001
 44
0.0000000001
 40
0.0
 40
0.0
 40
0.0
 40
0.0
 40
0.2526830252
 40
0.3767445707
 40
0.4999993923
 40
0.6232543536
 40
0.7473166042
 40
1.0
 40
1.0
 40
1.0
 40
1.0
 10
92.4254952856
 20
85.7033576444
 30
0.0
 10
91.8110253564
 20
87.1011410332
 30
0.0
 10
91.0582886655
 20
89.2686925697
 30
0.0
 10
90.5340469635
 20
92.2495209527
 30
0.0
 10
90.4010838439
 20
94.4901397304
 30
0.0
 10
90.5340311583
 20
96.7307646926
 30
0.0
 10
91.0582930095
 20
99.7115977569
 30
0.0
 10
91.811032766
 20
101.8791531758
 30
0.0
 10
92.4254990378
 20
103.2769406184
 30
0.0
  0
SPLINE
  5
491
100
AcDbEntity
  8
0
100
AcDbSpline
 62
7
  6
CONTINUOUS
 70
0
 71
3
 72
15
 73
11
 74
0
 42
0.0000001
 43
0.0000001
 44
0.0000000001
 40
0.0
 40
0.0
 40
0.0
 40
0.0
 40
0.1262464055
 40
0.2500734884
 40
0.3720879411
 40
0.4935304113
 40
0.616009471
 40
0.7408898309
 40
0.8688709996
 40
1.0
 40
1.0
 40
1.0
 40
1.0
 10
96.4053794082
 20
85.1074920933
 30
0.0
 10
95.9371819928
 20
85.9009109631
 30
0.0
 10
95.0744140895
 20
87.5127185751
 30
0.0
 10
94.0660169883
 20
90.0411524504
 30
0.0
 10
93.4211620993
 20
92.6529565953
 30
0.0
 10
93.1995925823
 20
95.3263587816
 30
0.0
 10
93.4246859844
 20
98.0200783321
 30
0.0
 10
94.0703359898
 20
100.6914667349
 30
0.0
 10
95.0778009879
 20
103.3127795506
 30
0.0
 10
95.9367963792
 20
105.0006118618
 30
0.0
 10
96.4046020115
 20
105.8353564799
 30
0.0
  0
SPLINE
  5
492
100
AcDbEntity
  8
0
100
AcDbSpline
 62
7
  6
CONTINUOUS
 70
0
 71
3
 72
9
 73
5
 74
0
 42
0.0000001
 43
0.0000001
 44
0.0000000001
 40
0.0
 40
0.0
 40
0.0
 40
0.0
 40
0.372524373
 40
1.0
 40
1.0
 40
1.0
 40
1.0
 10
107.1026410109
 20
152.7384683032
 30
0.0
 10
107.081543645
 20
152.7449892913
 30
0.0
 10
107.0216752289
 20
152.7490300978
 30
0.0
 10
106.9628435844
 20
152.7530131679
 30
0.0
 10
106.9256638644
 20
152.7540771533
 30
0.0
  0
SPLINE
  5
493
100
AcDbEntity
  8
0
100
AcDbSpline
 62
7
  6
CONTINUOUS
 70
0
 71
3
 72
9
 73
5
 74
0
 42
0.0000001
 43
0.0000001
 44
0.0000000001
 40
0.0
 40
0.0
 40
0.0
 40
0.0
 40
0.3358930418
 40
1.0
 40
1.0
 40
1.0
 40
1.0
 10
66.4101155958
 20
102.1040957105
 30
0.0
 10
66.4168042748
 20
102.0912116594
 30
0.0
 10
66.4227661923
 20
102.0472599031
 30
0.0
 10
66.4286302282
 20
102.0049958074
 30
0.0
 10
66.4314811333
 20
101.9764360466
 30
0.0
  0
SPLINE
  5
494
100
AcDbEntity
  8
0
100
AcDbSpline
 62
7
  6
CONTINUOUS
 70
0
 71
3
 72
40
 73
36
 74
0
 42
0.0000001
 43
0.0000001
 44
0.0000000001
 40
0.0
 40
0.0
 40
0.0
 40
0.0
 40
0.0066350246
 40
0.0177343558
 40
0.0331976671
 40
0.0528885311
 40
0.0766261414
 40
0.1041976856
 40
0.1698050377
 40
0.2473346279
 40
0.3339781356
 40
0.4265968845
 40
0.5218356435
 40
0.6162442325
 40
0.7064025553
 40
0.7488576027
 40
0.7890445501
 40
0.8265973174
 40
0.861176574
 40
0.8924668103
 40
0.9201860027
 40
0.9440805894
 40
0.9545249498
 40
0.9639362939
 40
0.9722915511
 40
0.9795708501
 40
0.9857601731
 40
0.9908462251
 40
0.9948159867
 40
0.9963791485
 40
0.9976607057
 40
0.9986607012
 40
0.9993797374
 40
0.9998204065
 40
1.0
 40
1.0
 40
1.0
 40
1.0
 10
66.4314811333
 20
101.9764360466
 30
0.0
 10
66.4453652021
 20
101.8373484025
 30
0.0
 10
66.4645056001
 20
101.4640152615
 30
0.0
 10
66.4911322647
 20
100.7652651557
 30
0.0
 10
66.5171123288
 20
99.7911277353
 30
0.0
 10
66.5441089553
 20
98.5507795121
 30
0.0
 10
66.5710849599
 20
97.0552668901
 30
0.0
 10
66.6095776946
 20
94.5925104232
 30
0.0
 10
66.6560373529
 20
90.9965173752
 30
0.0
 10
66.7096559046
 20
86.1560700941
 30
0.0
 10
66.7634925142
 20
80.7465481263
 30
0.0
 10
66.8174886041
 20
74.9639355912
 30
0.0
 10
66.8715321896
 20
69.0177308794
 30
0.0
 10
66.9255655453
 20
63.1233616595
 30
0.0
 10
66.9713788372
 20
58.3409489868
 30
0.0
 10
67.0086089124
 20
54.7007852986
 30
0.0
 10
67.0359520945
 20
52.1688108323
 30
0.0
 10
67.0632707997
 20
49.8027642235
 30
0.0
 10
67.090553373
 20
47.624156038
 30
0.0
 10
67.1177850609
 20
45.6527269483
 30
0.0
 10
67.1449468431
 20
43.9064128411
 30
0.0
 10
67.1684075395
 20
42.5992533019
 30
0.0
 10
67.1875155523
 20
41.6777708578
 30
0.0
 10
67.2011756655
 20
41.0836124678
 30
0.0
 10
67.2148076499
 20
40.5561482143
 30
0.0
 10
67.2284075994
 20
40.0965938941
 30
0.0
 10
67.2419402876
 20
39.7059211954
 30
0.0
 10
67.2553863432
 20
39.3850785893
 30
0.0
 10
67.2671748215
 20
39.1615681342
 30
0.0
 10
67.2769771784
 20
39.0184975215
 30
0.0
 10
67.283755896
 20
38.9374500816
 30
0.0
 10
67.2902481033
 20
38.875426883
 30
0.0
 10
67.297015419
 20
38.8284303947
 30
0.0
 10
67.3024497481
 20
38.8043708854
 30
0.0
 10
67.3082752856
 20
38.7880715415
 30
0.0
 10
67.3120586888
 20
38.7880500396
 30
0.0
  0
SPLINE
  5
495
100
AcDbEntity
  8
0
100
AcDbSpline
 62
7
  6
CONTINUOUS
 70
0
 71
3
 72
9
 73
5
 74
0
 42
0.0000001
 43
0.0000001
 44
0.0000000001
 40
0.0
 40
0.0
 40
0.0
 40
0.0
 40
0.5478601031
 40
1.0
 40
1.0
 40
1.0
 40
1.0
 10
106.9112538675
 20
160.2167495278
 30
0.0
 10
106.9590183622
 20
160.2215962308
 30
0.0
 10
107.0433190486
 20
160.2653867012
 30
0.0
 10
107.0925904165
 20
160.3423753247
 30
0.0
 10
107.1038218377
 20
160.3803717927
 30
0.0
  0
LINE
  5
496
100
AcDbEntity
  8
0
100
AcDbLine
 62
7
  6
CONTINUOUS
 10
96.4045963349
 20
35.0616842115
 11
93.2737325013
 21
35.2769460903
  0
SPLINE
  5
497
100
AcDbEntity
  8
0
100
AcDbSpline
 62
7
  6
CONTINUOUS
 70
0
 71
3
 72
13
 73
9
 74
0
 42
0.0000001
 43
0.0000001
 44
0.0000000001
 40
0.0
 40
0.0
 40
0.0
 40
0.0
 40
0.2526833731
 40
0.3767456281
 40
0.5000006023
 40
0.6232554269
 40
0.7473169688
 40
1.0
 40
1.0
 40
1.0
 40
1.0
 10
92.4254990125
 20
37.6200969936
 30
0.0
 10
91.8110327263
 20
39.017884284
 30
0.0
 10
91.0582929326
 20
41.1854396183
 30
0.0
 10
90.5340315024
 20
44.1662727106
 30
0.0
 10
90.4010837561
 20
46.4068977711
 30
0.0
 10
90.5340469562
 20
48.6475166311
 30
0.0
 10
91.0582884017
 20
51.628345105
 30
0.0
 10
91.8110255116
 20
53.7958965342
 30
0.0
 10
92.4254954433
 20
55.1936799651
 30
0.0
  0
SPLINE
  5
498
100
AcDbEntity
  8
0
100
AcDbSpline
 62
7
  6
CONTINUOUS
 70
0
 71
3
 72
15
 73
11
 74
0
 42
0.0000001
 43
0.0000001
 44
0.0000000001
 40
0.0
 40
0.0
 40
0.0
 40
0.0
 40
0.1311255903
 40
0.2591033606
 40
0.3839802143
 40
0.5064559251
 40
0.6278956741
 40
0.7499070053
 40
0.8737354131
 40
1.0
 40
1.0
 40
1.0
 40
1.0
 10
96.4045963349
 20
35.0616842115
 30
0.0
 10
95.9367507825
 20
35.8965000979
 30
0.0
 10
95.0776921822
 20
37.5844816516
 30
0.0
 10
94.0701788263
 20
40.2060317515
 30
0.0
 10
93.4245571274
 20
42.8776663136
 30
0.0
 10
93.1995772897
 20
45.5716327281
 30
0.0
 10
93.4213481889
 20
48.2452419952
 30
0.0
 10
94.0664193267
 20
50.8572997367
 30
0.0
 10
95.0754867765
 20
53.3858498312
 30
0.0
 10
95.9372229973
 20
54.9985970094
 30
0.0
 10
96.4055533199
 20
55.7922106595
 30
0.0
  0
SPLINE
  5
499
100
AcDbEntity
  8
0
100
AcDbSpline
 62
7
  6
CONTINUOUS
 70
0
 71
3
 72
10
 73
6
 74
0
 42
0.0000001
 43
0.0000001
 44
0.0000000001
 40
0.0
 40
0.0
 40
0.0
 40
0.0
 40
0.1847574578
 40
0.5281111108
 40
1.0
 40
1.0
 40
1.0
 40
1.0
 10
102.1021598258
 20
157.2892538934
 30
0.0
 10
102.1022113349
 20
157.2678060029
 30
0.0
 10
102.1191622368
 20
157.2061039013
 30
0.0
 10
102.2066987985
 20
157.1228428907
 30
0.0
 10
102.2920862317
 20
157.0811081555
 30
0.0
 10
102.3430959142
 20
157.0611361116
 30
0.0
  0
SPLINE
  5
49A
100
AcDbEntity
  8
0
100
AcDbSpline
 62
7
  6
CONTINUOUS
 70
0
 71
3
 72
11
 73
7
 74
0
 42
0.0000001
 43
0.0000001
 44
0.0000000001
 40
0.0
 40
0.0
 40
0.0
 40
0.0
 40
0.3018412986
 40
0.5671989135
 40
0.7957436224
 40
1.0
 40
1.0
 40
1.0
 40
1.0
 10
102.3430906497
 20
157.0611361126
 30
0.0
 10
102.3262175407
 20
157.0273885578
 30
0.0
 10
102.299801915
 20
156.9610343447
 30
0.0
 10
102.2837825723
 20
156.8618207201
 30
0.0
 10
102.295899964
 20
156.7736661079
 30
0.0
 10
102.3250418007
 20
156.7256368076
 30
0.0
 10
102.3430959142
 20
156.707582721
 30
0.0
  0
LINE
  5
49B
100
AcDbEntity
  8
0
100
AcDbLine
 62
7
  6
CONTINUOUS
 10
102.3430959142
 20
157.0611361116
 11
102.5647040582
 21
156.9742241962
  0
LINE
  5
49C
100
AcDbEntity
  8
0
100
AcDbLine
 62
7
  6
CONTINUOUS
 10
102.5647040582
 20
156.9742241962
 11
102.7676872755
 21
156.8946578658
  0
LINE
  5
49D
100
AcDbEntity
  8
0
100
AcDbLine
 62
7
  6
CONTINUOUS
 10
102.7676872755
 20
156.8946578658
 11
102.9247670866
 21
156.8330183299
  0
SPLINE
  5
49E
100
AcDbEntity
  8
0
100
AcDbSpline
 62
7
  6
CONTINUOUS
 70
0
 71
3
 72
15
 73
11
 74
0
 42
0.0000001
 43
0.0000001
 44
0.0000000001
 40
0.0
 40
0.0
 40
0.0
 40
0.0
 40
0.1435222415
 40
0.277081626
 40
0.3939045514
 40
0.4984092197
 40
0.6042367235
 40
0.7219689093
 40
0.8560597887
 40
1.0
 40
1.0
 40
1.0
 40
1.0
 10
102.9247670866
 20
160.4485188095
 30
0.0
 10
102.8506932882
 20
160.4485188095
 30
0.0
 10
102.7067922759
 20
160.4291074778
 30
0.0
 10
102.5185534134
 20
160.3444786434
 30
0.0
 10
102.3842963017
 20
160.2113497071
 30
0.0
 10
102.3346108923
 20
160.041363656
 30
0.0
 10
102.3824623289
 20
159.8700845887
 30
0.0
 10
102.5174643528
 20
159.7351442791
 30
0.0
 10
102.7073245235
 20
159.6517562852
 30
0.0
 10
102.8505768548
 20
159.6297510868
 30
0.0
 10
102.9247670866
 20
159.6259115487
 30
0.0
  0
SPLINE
  5
49F
100
AcDbEntity
  8
0
100
AcDbSpline
 62
7
  6
CONTINUOUS
 70
0
 71
3
 72
11
 73
7
 74
0
 42
0.0000001
 43
0.0000001
 44
0.0000000001
 40
0.0
 40
0.0
 40
0.0
 40
0.0
 40
0.2498819887
 40
0.498413898
 40
0.7488583279
 40
1.0
 40
1.0
 40
1.0
 40
1.0
 10
106.5715678653
 20
160.1194759052
 30
0.0
 10
106.597804599
 20
160.1194732966
 30
0.0
 10
106.650333457
 20
160.1226587466
 30
0.0
 10
106.7268320857
 20
160.1425514873
 30
0.0
 10
106.7999439767
 20
160.1717138017
 30
0.0
 10
106.8491182497
 20
160.1910830416
 30
0.0
 10
106.872272557
 20
160.2037005695
 30
0.0
  0
SPLINE
  5
4A0
100
AcDbEntity
  8
0
100
AcDbSpline
 62
7
  6
CONTINUOUS
 70
0
 71
3
 72
8
 73
4
 74
0
 42
0.0000001
 43
0.0000001
 44
0.0000000001
 40
0.0
 40
0.0
 40
0.0
 40
0.0
 40
1.0
 40
1.0
 40
1.0
 40
1.0
 10
106.872272557
 20
160.2037005695
 30
0.0
 10
106.8859493511
 20
160.2111534951
 30
0.0
 10
106.8991673974
 20
160.2196417802
 30
0.0
 10
106.9112538675
 20
160.2294661395
 30
0.0
  0
SPLINE
  5
4A1
100
AcDbEntity
  8
0
100
AcDbSpline
 62
7
  6
CONTINUOUS
 70
0
 71
3
 72
9
 73
5
 74
0
 42
0.0000001
 43
0.0000001
 44
0.0000000001
 40
0.0
 40
0.0
 40
0.0
 40
0.0
 40
0.4984297931
 40
1.0
 40
1.0
 40
1.0
 40
1.0
 10
106.8912024701
 20
160.2097488788
 30
0.0
 10
106.9239258318
 20
160.2363477168
 30
0.0
 10
106.9747226567
 20
160.3059789362
 30
0.0
 10
107.0181807815
 20
160.378498452
 30
0.0
 10
107.0355102615
 20
160.4172345499
 30
0.0
  0
SPLINE
  5
4A2
100
AcDbEntity
  8
0
100
AcDbSpline
 62
7
  6
CONTINUOUS
 70
0
 71
3
 72
8
 73
4
 74
0
 42
0.0000001
 43
0.0000001
 44
0.0000000001
 40
0.0
 40
0.0
 40
0.0
 40
0.0
 40
1.0
 40
1.0
 40
1.0
 40
1.0
 10
107.0355102615
 20
160.4172345499
 30
0.0
 10
107.0402477665
 20
160.4278241613
 30
0.0
 10
107.0445614567
 20
160.4386202963
 30
0.0
 10
107.0482993708
 20
160.4496026377
 30
0.0
  0
SPLINE
  5
4A3
100
AcDbEntity
  8
0
100
AcDbSpline
 62
7
  6
CONTINUOUS
 70
0
 71
3
 72
8
 73
4
 74
0
 42
0.0000001
 43
0.0000001
 44
0.0000000001
 40
0.0
 40
0.0
 40
0.0
 40
0.0
 40
1.0
 40
1.0
 40
1.0
 40
1.0
 10
106.9543441347
 20
160.5485188095
 30
0.0
 10
106.9550158928
 20
160.5151788964
 30
0.0
 10
106.9561095169
 20
160.4818484868
 30
0.0
 10
106.9571742574
 20
160.4485188095
 30
0.0
  0
SPLINE
  5
4A4
100
AcDbEntity
  8
0
100
AcDbSpline
 62
7
  6
CONTINUOUS
 70
0
 71
3
 72
9
 73
5
 74
0
 42
0.0000001
 43
0.0000001
 44
0.0000000001
 40
0.0
 40
0.0
 40
0.0
 40
0.0
 40
0.2362290422
 40
1.0
 40
1.0
 40
1.0
 40
1.0
 10
96.4045813093
 20
105.8353925083
 30
0.0
 10
96.1329003889
 20
105.6404088514
 30
0.0
 10
94.9368353296
 20
104.8875996422
 30
0.0
 10
93.5067065189
 20
104.4485198408
 30
0.0
 10
92.4255032217
 20
104.4485289231
 30
0.0
  0
SPLINE
  5
4A5
100
AcDbEntity
  8
0
100
AcDbSpline
 62
7
  6
CONTINUOUS
 70
0
 71
3
 72
10
 73
6
 74
0
 42
0.0000001
 43
0.0000001
 44
0.0000000001
 40
0.0
 40
0.0
 40
0.0
 40
0.0
 40
0.2518763963
 40
0.5031249971
 40
1.0
 40
1.0
 40
1.0
 40
1.0
 10
96.4045813093
 20
105.8353925083
 30
0.0
 10
96.1377161458
 20
105.5339586309
 30
0.0
 10
95.5707857442
 20
104.9593597709
 30
0.0
 10
94.3223355019
 20
103.9645058088
 30
0.0
 10
93.2064918469
 20
103.4211177526
 30
0.0
 10
92.4254990226
 20
103.2769457886
 30
0.0
  0
SPLINE
  5
4A6
100
AcDbEntity
  8
0
100
AcDbSpline
 62
7
  6
CONTINUOUS
 70
0
 71
3
 72
11
 73
7
 74
0
 42
0.0000001
 43
0.0000001
 44
0.0000000001
 40
0.0
 40
0.0
 40
0.0
 40
0.0
 40
0.3661481647
 40
0.6407277313
 40
0.8475851868
 40
1.0
 40
1.0
 40
1.0
 40
1.0
 10
71.9742102912
 20
103.2769503627
 30
0.0
 10
71.8838180438
 20
103.3368405622
 30
0.0
 10
71.7296556765
 20
103.448611176
 30
0.0
 10
71.5469859043
 20
103.6210530679
 30
0.0
 10
71.4288529026
 20
103.7695426486
 30
0.0
 10
71.3884180395
 20
103.8687546117
 30
0.0
 10
71.3720091786
 20
103.9108030197
 30
0.0
  0
SPLINE
  5
4A7
100
AcDbEntity
  8
0
100
AcDbSpline
 62
7
  6
CONTINUOUS
 70
0
 71
3
 72
11
 73
7
 74
0
 42
0.0000001
 43
0.0000001
 44
0.0000000001
 40
0.0
 40
0.0
 40
0.0
 40
0.0
 40
0.3028750555
 40
0.5458916757
 40
0.7696375029
 40
1.0
 40
1.0
 40
1.0
 40
1.0
 10
71.9742391013
 20
104.4485576849
 30
0.0
 10
71.8850629023
 20
104.448499076
 30
0.0
 10
71.7207932005
 20
104.4190456167
 30
0.0
 10
71.5316140029
 20
104.2840643613
 30
0.0
 10
71.4161825549
 20
104.1091347746
 30
0.0
 10
71.3836214343
 20
103.9776277564
 30
0.0
 10
71.3720091786
 20
103.9108030197
 30
0.0
  0
SPLINE
  5
4A8
100
AcDbEntity
  8
0
100
AcDbSpline
 62
7
  6
CONTINUOUS
 70
0
 71
3
 72
10
 73
6
 74
0
 42
0.0000001
 43
0.0000001
 44
0.0000000001
 40
0.0
 40
0.0
 40
0.0
 40
0.0
 40
0.2127094788
 40
0.5783703229
 40
1.0
 40
1.0
 40
1.0
 40
1.0
 10
96.4046208046
 20
85.1062349742
 30
0.0
 10
96.1212528587
 20
85.1396854634
 30
0.0
 10
95.3509660395
 20
85.2327013527
 30
0.0
 10
94.0236084017
 20
85.4274307172
 30
0.0
 10
92.9816695184
 20
85.6006464292
 30
0.0
 10
92.4254974798
 20
85.70341947
 30
0.0
  0
SPLINE
  5
4A9
100
AcDbEntity
  8
0
100
AcDbSpline
 62
7
  6
CONTINUOUS
 70
0
 71
3
 72
10
 73
6
 74
0
 42
0.0000001
 43
0.0000001
 44
0.0000000001
 40
0.0
 40
0.0
 40
0.0
 40
0.0
 40
0.2369991497
 40
0.4834174865
 40
1.0
 40
1.0
 40
1.0
 40
1.0
 10
96.4046208046
 20
85.1062349742
 30
0.0
 10
96.1325645964
 20
84.8660977777
 30
0.0
 10
95.5529330613
 20
84.4032131085
 30
0.0
 10
94.2746216919
 20
83.5605469221
 30
0.0
 10
93.1907801569
 20
83.074803039
 30
0.0
 10
92.4255000864
 20
82.8748995734
 30
0.0
  0
SPLINE
  5
4AA
100
AcDbEntity
  8
0
100
AcDbSpline
 62
7
  6
CONTINUOUS
 70
0
 71
3
 72
9
 73
5
 74
0
 42
0.0000001
 43
0.0000001
 44
0.0000000001
 40
0.0
 40
0.0
 40
0.0
 40
0.0
 40
0.2687874325
 40
1.0
 40
1.0
 40
1.0
 40
1.0
 10
92.4255025374
 20
36.4485075826
 30
0.0
 10
92.806794871
 20
36.4485107671
 30
0.0
 10
94.2249748602
 20
36.292611395
 30
0.0
 10
95.5618632188
 20
35.6664400063
 30
0.0
 10
96.404575605
 20
35.0616511463
 30
0.0
  0
SPLINE
  5
4AB
100
AcDbEntity
  8
0
100
AcDbSpline
 62
7
  6
CONTINUOUS
 70
0
 71
3
 72
10
 73
6
 74
0
 42
0.0000001
 43
0.0000001
 44
0.0000000001
 40
0.0
 40
0.0
 40
0.0
 40
0.0
 40
0.4968750244
 40
0.7481234266
 40
1.0
 40
1.0
 40
1.0
 40
1.0
 10
92.4254928653
 20
37.6200916313
 30
0.0
 10
93.2064850335
 20
37.4759189123
 30
0.0
 10
94.3223308065
 20
36.9325381176
 30
0.0
 10
95.5707765869
 20
35.9376791399
 30
0.0
 10
96.1377059022
 20
35.3630810157
 30
0.0
 10
96.404575605
 20
35.0616511463
 30
0.0
  0
SPLINE
  5
4AC
100
AcDbEntity
  8
0
100
AcDbSpline
 62
7
  6
CONTINUOUS
 70
0
 71
3
 72
11
 73
7
 74
0
 42
0.0000001
 43
0.0000001
 44
0.0000000001
 40
0.0
 40
0.0
 40
0.0
 40
0.0
 40
0.1523944667
 40
0.3592665394
 40
0.6338502245
 40
1.0
 40
1.0
 40
1.0
 40
1.0
 10
71.3720048173
 20
36.9862620107
 30
0.0
 10
71.3884695465
 20
37.0282803101
 30
0.0
 10
71.4288750561
 20
37.1274928666
 30
0.0
 10
71.547004309
 20
37.2759837834
 30
0.0
 10
71.7296651438
 20
37.4484261751
 30
0.0
 10
71.8838188494
 20
37.5602016798
 30
0.0
 10
71.974209805
 20
37.6200874326
 30
0.0
  0
SPLINE
  5
4AD
100
AcDbEntity
  8
0
100
AcDbSpline
 62
7
  6
CONTINUOUS
 70
0
 71
3
 72
11
 73
7
 74
0
 42
0.0000001
 43
0.0000001
 44
0.0000000001
 40
0.0
 40
0.0
 40
0.0
 40
0.0
 40
0.2303451726
 40
0.4541085614
 40
0.6971357767
 40
1.0
 40
1.0
 40
1.0
 40
1.0
 10
71.3720048173
 20
36.9862620107
 30
0.0
 10
71.3836446305
 20
36.9194461073
 30
0.0
 10
71.4161452101
 20
36.7879256871
 30
0.0
 10
71.5315879205
 20
36.6129838095
 30
0.0
 10
71.7207693514
 20
36.4779954314
 30
0.0
 10
71.8850424588
 20
36.4485402492
 30
0.0
 10
71.9742169436
 20
36.4484813894
 30
0.0
  0
SPLINE
  5
4AE
100
AcDbEntity
  8
0
100
AcDbSpline
 62
7
  6
CONTINUOUS
 70
0
 71
3
 72
11
 73
7
 74
0
 42
0.0000001
 43
0.0000001
 44
0.0000000001
 40
0.0
 40
0.0
 40
0.0
 40
0.0
 40
0.2638657398
 40
0.5183936493
 40
0.7638628602
 40
1.0
 40
1.0
 40
1.0
 40
1.0
 10
71.9742220644
 20
58.0221119383
 30
0.0
 10
71.87244695
 20
57.9267292165
 30
0.0
 10
71.7024630081
 20
57.7066178509
 30
0.0
 10
71.5290882672
 20
57.3401203858
 30
0.0
 10
71.4190380794
 20
56.9650895737
 30
0.0
 10
71.3852790687
 20
56.7121499725
 30
0.0
 10
71.3720180383
 20
56.5880293782
 30
0.0
  0
SPLINE
  5
4AF
100
AcDbEntity
  8
0
100
AcDbSpline
 62
7
  6
CONTINUOUS
 70
0
 71
3
 72
12
 73
8
 74
0
 42
0.0000001
 43
0.0000001
 44
0.0000000001
 40
0.0
 40
0.0
 40
0.0
 40
0.0
 40
0.2399525773
 40
0.3630735377
 40
0.4880559761
 40
0.7413694167
 40
1.0
 40
1.0
 40
1.0
 40
1.0
 10
71.9742305277
 20
55.1936572954
 30
0.0
 10
71.8712070926
 20
55.2644743652
 30
0.0
 10
71.7373534166
 20
55.406116529
 30
0.0
 10
71.6118482258
 20
55.6274822357
 30
0.0
 10
71.5074668333
 20
55.8674462874
 30
0.0
 10
71.4168958963
 20
56.1885261675
 30
0.0
 10
71.3847534549
 20
56.4538857621
 30
0.0
 10
71.3720180383
 20
56.5880293782
 30
0.0
  0
SPLINE
  5
4B0
100
AcDbEntity
  8
0
100
AcDbSpline
 62
7
  6
CONTINUOUS
 70
0
 71
3
 72
10
 73
6
 74
0
 42
0.0000001
 43
0.0000001
 44
0.0000000001
 40
0.0
 40
0.0
 40
0.0
 40
0.0
 40
0.2127095613
 40
0.5783703909
 40
1.0
 40
1.0
 40
1.0
 40
1.0
 10
96.4046206154
 20
55.7907989754
 30
0.0
 10
96.1212525442
 20
55.7573490895
 30
0.0
 10
95.3509652566
 20
55.6643374965
 30
0.0
 10
94.0236081185
 20
55.4696061638
 30
0.0
 10
92.9816694675
 20
55.2963911752
 30
0.0
 10
92.4254976365
 20
55.1936181329
 30
0.0
  0
SPLINE
  5
4B1
100
AcDbEntity
  8
0
100
AcDbSpline
 62
7
  6
CONTINUOUS
 70
0
 71
3
 72
10
 73
6
 74
0
 42
0.0000001
 43
0.0000001
 44
0.0000000001
 40
0.0
 40
0.0
 40
0.0
 40
0.0
 40
0.2369993468
 40
0.483417612
 40
1.0
 40
1.0
 40
1.0
 40
1.0
 10
96.4046206154
 20
55.7907989754
 30
0.0
 10
96.1325655882
 20
56.0309382206
 30
0.0
 10
95.5529341747
 20
56.4938241579
 30
0.0
 10
94.2746220444
 20
57.336490417
 30
0.0
 10
93.1907803586
 20
57.8222345599
 30
0.0
 10
92.4255001075
 20
58.0221380264
 30
0.0
  0
SPLINE
  5
4B2
100
AcDbEntity
  8
0
100
AcDbSpline
 62
7
  6
CONTINUOUS
 70
0
 71
3
 72
12
 73
8
 74
0
 42
0.0000001
 43
0.0000001
 44
0.0000000001
 40
0.0
 40
0.0
 40
0.0
 40
0.0
 40
0.2399523982
 40
0.363073158
 40
0.4880559196
 40
0.7413694033
 40
1.0
 40
1.0
 40
1.0
 40
1.0
 10
71.9742288282
 20
85.7033803258
 30
0.0
 10
71.8712081123
 20
85.6325647284
 30
0.0
 10
71.7373563983
 20
85.4909271976
 30
0.0
 10
71.6118560561
 20
85.2695658974
 30
0.0
 10
71.5074657753
 20
85.0296130237
 30
0.0
 10
71.416899888
 20
84.7085348076
 30
0.0
 10
71.384805673
 20
84.4431795195
 30
0.0
 10
71.3720164488
 20
84.309044244
 30
0.0
  0
SPLINE
  5
4B3
100
AcDbEntity
  8
0
100
AcDbSpline
 62
7
  6
CONTINUOUS
 70
0
 71
3
 72
11
 73
7
 74
0
 42
0.0000001
 43
0.0000001
 44
0.0000000001
 40
0.0
 40
0.0
 40
0.0
 40
0.0
 40
0.2638645419
 40
0.5184001751
 40
0.7638511288
 40
1.0
 40
1.0
 40
1.0
 40
1.0
 10
71.9742225604
 20
82.8749256807
 30
0.0
 10
71.8724459511
 20
82.9703100219
 30
0.0
 10
71.7024627617
 20
83.1904336541
 30
0.0
 10
71.529070338
 20
83.5569191655
 30
0.0
 10
71.4190187962
 20
83.9319776815
 30
0.0
 10
71.3854654353
 20
84.1849350881
 30
0.0
 10
71.3720164488
 20
84.309044244
 30
0.0
  0
ELLIPSE
  5
4B4
100
AcDbEntity
  8
0
100
AcDbEllipse
 62
7
  6
CONTINUOUS
 10
136.8701090182
 20
171.3985188095
 30
0.0
 11
0.0
 21
1.0
 31
0.0
 40
0.5773502692
 41
-0.0
 42
1.5707963268
  0
ELLIPSE
  5
4B5
100
AcDbEntity
  8
0
100
AcDbEllipse
 62
7
  6
CONTINUOUS
 10
132.8286571339
 20
168.9134443787
 30
0.0
 11
2.0131567266
 21
5.5311026482
 31
0.0
 40
0.5096773721
 41
-1.5707963268
 42
-0.9506573207
  0
ELLIPSE
  5
4B6
100
AcDbEntity
  8
0
100
AcDbEllipse
 62
7
  6
CONTINUOUS
 10
136.2927587491
 20
172.3985188095
 30
0.0
 11
0.0
 21
4.0
 31
0.0
 40
0.5773502692
 41
0.0
 42
1.5707963268
  0
ELLIPSE
  5
4B7
100
AcDbEntity
  8
0
100
AcDbEllipse
 62
7
  6
CONTINUOUS
 10
111.4847933342
 20
172.3985188095
 30
0.0
 11
0.0
 21
4.0
 31
0.0
 40
1.0
 41
-1.5707963268
 42
0.0
  0
ELLIPSE
  5
4B8
100
AcDbEntity
  8
0
100
AcDbEllipse
 62
7
  6
CONTINUOUS
 10
130.5192560572
 20
162.5684170679
 30
0.0
 11
2.0131567266
 21
5.5311026482
 31
0.0
 40
0.5096773721
 41
-1.5707963268
 42
-0.9506573207
  0
ENDSEC
  0
SECTION
  2
OBJECTS
  0
DICTIONARY
  5
4B9
100
AcDbDictionary
  3
ACAD_GROUP
350
4BA
  3
ACAD_MLINESTYLE
350
4BB
  0
DICTIONARY
  5
4BA
102
{ACAD_REACTORS
330
4B9
102
}
100
AcDbDictionary
  0
DICTIONARY
  5
4BB
102
{ACAD_REACTORS
330
4B9
102
}
100
AcDbDictionary
  3
STANDARD
350
4BC
  0
MLINESTYLE
  5
4BC
102
{ACAD_REACTORS
330
4BB
102
}
100
AcDbMlineStyle
  2
STANDARD
 70
0
  3

 62
256
 51
90.0
 52
90.0
 71
2
 49
0.5
 62
256
  6
BYLAYER
 49
-0.5
 62
256
  6
BYLAYER
  0
ENDSEC
  0
EOF
