999
DXF file: C:\Users\64ciro\Desktop\FILE 3D-2D\ARMATEC\h36lll042_3082.dxf
999
Pro/ENGINEER 2017260 by Parametric Technology Corporation
  0
SECTION
  2
HEADER
  9
$ACADVER
  1
AC1014
  9
$DWGCODEPAGE
  3
ANSI_1252
  9
$EXTMAX
 10
297.0
 20
210.0
 30
0.0
  9
$EXTMIN
 10
0.0
 20
0.0
 30
0.0
  9
$LIMMIN
 10
0.0
 20
0.0
  9
$LIMMAX
 10
297.0
 20
210.0
  9
$VIEWCTR
 10
148.5
 20
105.0
  9
$VIEWSIZE
 40
210.0
  9
$CLAYER
  8
0
  9
$LTSCALE
 40
16.335
  9
$CELTYPE
  6
BYLAYER
  9
$DIMSCALE
 40
1.0
  9
$DIMASZ
 40
1.5
  9
$DIMEXO
 40
0.0625
  9
$DIMDLI
 40
11.286
  9
$DIMEXE
 40
0.125
  9
$DIMCEN
 40
2.673
  9
$DIMLFAC
 40
1.0
  9
$DIMBLK
  1
_CLOSED
  9
$DIMALT
 70
0
  9
$DIMALTF
 40
25.4
  9
$DIMTXT
 40
2.4
  9
$DIMTOL
 70
1
  9
$DIMLIM
 70
0
  9
$DIMTFAC
 40
1.0
  9
$DIMTP
 40
0.01
  9
$DIMTM
 40
0.01
  9
$DIMGAP
 40
0.625
  9
$AUNITS
 70
0
  9
$PDMODE
 70
3
  9
$PDSIZE
 40
0.3125
  9
$HANDSEED
  5
4DF
  9
$TILEMODE
 70
1
  9
$MEASUREMENT
 70
1
  0
ENDSEC
  0
SECTION
  2
CLASSES
  0
ENDSEC
  0
SECTION
  2
TABLES
  0
TABLE
  2
VPORT
  5
8
100
AcDbSymbolTable
 70
2
  0
VPORT
  5
1F4
100
AcDbSymbolTableRecord
100
AcDbViewportTableRecord
  2
*ACTIVE
 70
0
 10
0.0
 20
0.0
 11
1.0
 21
1.0
 12
148.5
 22
105.0
 13
0.0
 23
0.0
 14
1.0
 24
1.0
 15
0.0
 25
0.0
 16
0.0
 26
0.0
 36
1.0
 17
0.0
 27
0.0
 37
0.0
 40
210.0
 41
1.4142857143
 42
50.0
 43
0.0
 44
0.0
 50
0.0
 51
0.0
 71
0
 72
100
 73
1
 74
1
 75
0
 76
0
 77
0
 78
0
  0
ENDTAB
  0
TABLE
  2
LTYPE
  5
5
100
AcDbSymbolTable
 70
6
  0
LTYPE
  5
14
100
AcDbSymbolTableRecord
100
AcDbLinetypeTableRecord
  2
BYBLOCK
 70
0
  3

 72
65
 73
0
 40
0.0
  0
LTYPE
  5
15
100
AcDbSymbolTableRecord
100
AcDbLinetypeTableRecord
  2
BYLAYER
 70
0
  3

 72
65
 73
0
 40
0.0
  0
LTYPE
  5
16
100
AcDbSymbolTableRecord
100
AcDbLinetypeTableRecord
  2
CONTINUOUS
 70
64
  3
Solid line
 72
65
 73
0
 40
0.0
  0
LTYPE
  5
1F5
100
AcDbSymbolTableRecord
100
AcDbLinetypeTableRecord
  2
CENTER
 70
64
  3
____ _ ____ _ ____ _ ____ _ ____ _ ____ _ ____
 72
65
 73
4
 40
0.6
 49
0.375
 74
0
 49
-0.075
 74
0
 49
0.075
 74
0
 49
-0.075
 74
0
  0
LTYPE
  5
1F6
100
AcDbSymbolTableRecord
100
AcDbLinetypeTableRecord
  2
HIDDEN
 70
64
  3
- - - - - - - - - - - - - - - - - - - -
 72
65
 73
2
 40
0.2
 49
0.1
 74
0
 49
-0.1
 74
0
  0
LTYPE
  5
1F7
100
AcDbSymbolTableRecord
100
AcDbLinetypeTableRecord
  2
PHANTOM
 70
64
  3
_____ _ _ _____ _ _ _____ _ _ _____
 72
65
 73
6
 40
0.8
 49
0.45
 74
0
 49
-0.05
 74
0
 49
0.1
 74
0
 49
-0.05
 74
0
 49
0.1
 74
0
 49
-0.05
 74
0
  0
LTYPE
  5
1F8
100
AcDbSymbolTableRecord
100
AcDbLinetypeTableRecord
  2
DOT
 70
64
  3
. . . . . . . . . . . . . . . . . . . .
 72
65
 73
2
 40
0.2
 49
0.1
 74
0
 49
-0.1
 74
0
  0
LTYPE
  5
1F9
100
AcDbSymbolTableRecord
100
AcDbLinetypeTableRecord
  2
DASHED
 70
64
  3
- - - - - - - - - - - - - - - - - - - -
 72
65
 73
2
 40
0.2
 49
0.1
 74
0
 49
-0.1
 74
0
  0
ENDTAB
  0
TABLE
  2
LAYER
  5
2
100
AcDbSymbolTable
 70
36
  0
LAYER
  5
10
100
AcDbSymbolTableRecord
100
AcDbLayerTableRecord
  2
0
 70
0
 62
7
  6
CONTINUOUS
  0
LAYER
  5
1FA
100
AcDbSymbolTableRecord
100
AcDbLayerTableRecord
  2
DEFAULT_1
 70
0
 62
7
  6
CENTER
  0
LAYER
  5
1FB
100
AcDbSymbolTableRecord
100
AcDbLayerTableRecord
  2
DEFAULT_2
 70
0
 62
8
  6
HIDDEN
  0
LAYER
  5
1FC
100
AcDbSymbolTableRecord
100
AcDbLayerTableRecord
  2
DEFAULT_3
 70
0
 62
7
  6
PHANTOM
  0
LAYER
  5
1FD
100
AcDbSymbolTableRecord
100
AcDbLayerTableRecord
  2
ASSI
 70
0
 62
7
  6
CONTINUOUS
  0
LAYER
  5
1FE
100
AcDbSymbolTableRecord
100
AcDbLayerTableRecord
  2
COSMETICA
 70
0
 62
7
  6
CONTINUOUS
  0
LAYER
  5
1FF
100
AcDbSymbolTableRecord
100
AcDbLayerTableRecord
  2
CSYS
 70
0
 62
7
  6
CONTINUOUS
  0
LAYER
  5
200
100
AcDbSymbolTableRecord
100
AcDbLayerTableRecord
  2
CURVE
 70
0
 62
7
  6
CONTINUOUS
  0
LAYER
  5
201
100
AcDbSymbolTableRecord
100
AcDbLayerTableRecord
  2
DETTAGLI
 70
0
 62
7
  6
CONTINUOUS
  0
LAYER
  5
202
100
AcDbSymbolTableRecord
100
AcDbLayerTableRecord
  2
FILETTI
 70
0
 62
7
  6
CONTINUOUS
  0
LAYER
  5
203
100
AcDbSymbolTableRecord
100
AcDbLayerTableRecord
  2
GEOM
 70
0
 62
7
  6
CONTINUOUS
  0
LAYER
  5
204
100
AcDbSymbolTableRecord
100
AcDbLayerTableRecord
  2
GEOMETRIA_SOLIDA
 70
0
 62
7
  6
CONTINUOUS
  0
LAYER
  5
205
100
AcDbSymbolTableRecord
100
AcDbLayerTableRecord
  2
NOGEOM
 70
0
 62
7
  6
CONTINUOUS
  0
LAYER
  5
206
100
AcDbSymbolTableRecord
100
AcDbLayerTableRecord
  2
PIANI
 70
0
 62
7
  6
CONTINUOUS
  0
LAYER
  5
207
100
AcDbSymbolTableRecord
100
AcDbLayerTableRecord
  2
QUOTE
 70
0
 62
7
  6
CONTINUOUS
  0
LAYER
  5
208
100
AcDbSymbolTableRecord
100
AcDbLayerTableRecord
  2
RACCORDI
 70
0
 62
7
  6
CONTINUOUS
  0
LAYER
  5
209
100
AcDbSymbolTableRecord
100
AcDbLayerTableRecord
  2
RIF
 70
0
 62
7
  6
CONTINUOUS
  0
LAYER
  5
20A
100
AcDbSymbolTableRecord
100
AcDbLayerTableRecord
  2
SMUSSI
 70
0
 62
7
  6
CONTINUOUS
  0
LAYER
  5
20B
100
AcDbSymbolTableRecord
100
AcDbLayerTableRecord
  2
TABELLA
 70
0
 62
7
  6
CONTINUOUS
  0
ENDTAB
  0
TABLE
  2
STYLE
  5
3
100
AcDbSymbolTable
 70
1
  0
STYLE
  5
11
100
AcDbSymbolTableRecord
100
AcDbTextStyleTableRecord
  2
STANDARD
 70
0
 40
0.0
 41
0.8
 50
0.0
 71
0
 42
0.2
  3
txt
  4

  0
STYLE
  5
20C
100
AcDbSymbolTableRecord
100
AcDbTextStyleTableRecord
  2
TEXTSTYLE_1
 70
0
 40
0.0
 41
0.8
 50
0.0
 71
0
 42
0.2
  3
gdt
  4

  0
ENDTAB
  0
TABLE
  2
VIEW
  5
6
100
AcDbSymbolTable
 70
0
  0
ENDTAB
  0
TABLE
  2
UCS
  5
7
100
AcDbSymbolTable
 70
0
  0
ENDTAB
  0
TABLE
  2
APPID
  5
9
100
AcDbSymbolTable
 70
1
  0
APPID
  5
20D
100
AcDbSymbolTableRecord
100
AcDbRegAppTableRecord
  2
ACAD
 70
0
  0
ENDTAB
  0
TABLE
  2
BLOCK_RECORD
  5
1
100
AcDbSymbolTable
 70
0
  0
BLOCK_RECORD
  5
1F
100
AcDbSymbolTableRecord
100
AcDbBlockTableRecord
  2
*MODEL_SPACE
  0
BLOCK_RECORD
  5
1B
100
AcDbSymbolTableRecord
100
AcDbBlockTableRecord
  2
*PAPER_SPACE
  0
ENDTAB
  0
TABLE
  2
DIMSTYLE
  5
A
100
AcDbSymbolTable
 70
1
  0
DIMSTYLE
105
20E
100
AcDbSymbolTableRecord
100
AcDbDimStyleTableRecord
  2
STANDARD
 70
0
  3

  4

  5
_CLOSED
  6
_CLOSED
  7
_CLOSED
 40
1.0
 41
1.5
 42
0.0625
 43
0.38
 44
0.125
 45
0.0
 46
0.0
 47
0.01
 48
0.01
140
2.4
141
0.09
142
0.0
143
25.4
144
1.0
145
0.0
146
1.0
147
0.625
 71
1.0
 72
0.0
 73
0
 74
0
 75
0
 76
0
 77
1
 78
8
 79
2
170
0
171
1
172
0
173
0
174
0
175
0
176
0
177
0
178
0
270
2
179
2
271
2
272
2
273
2
274
2
275
0
280
0
281
0
282
0
283
1
284
8
285
0
286
0
287
3
288
0
340
11
  0
ENDTAB
  0
ENDSEC
  0
SECTION
  2
BLOCKS
  0
BLOCK
  5
20
100
AcDbEntity
  8
0
100
AcDbBlockBegin
  2
*MODEL_SPACE
 70
0
 10
0.0
 20
0.0
 30
0.0
  3
*MODEL_SPACE
  1

  0
ENDBLK
  5
21
100
AcDbEntity
  8
0
100
AcDbBlockEnd
  0
BLOCK
  5
1C
100
AcDbEntity
  8
0
100
AcDbBlockBegin
  2
*PAPER_SPACE
 70
0
 10
0.0
 20
0.0
 30
0.0
  3
*PAPER_SPACE
  1

  0
ENDBLK
  5
1D
100
AcDbEntity
  8
0
100
AcDbBlockEnd
  0
ENDSEC
  0
SECTION
  2
ENTITIES
  0
LINE
  5
20F
100
AcDbEntity
  8
0
100
AcDbLine
 62
7
  6
CONTINUOUS
 10
0.0
 20
0.0
 11
0.0
 21
210.0
  0
LINE
  5
210
100
AcDbEntity
  8
0
100
AcDbLine
 62
7
  6
CONTINUOUS
 10
0.0
 20
0.0
 11
297.0
 21
0.0
  0
LINE
  5
211
100
AcDbEntity
  8
0
100
AcDbLine
 62
7
  6
CONTINUOUS
 10
0.0
 20
210.0
 11
297.0
 21
210.0
  0
LINE
  5
212
100
AcDbEntity
  8
0
100
AcDbLine
 62
7
  6
CONTINUOUS
 10
297.0
 20
0.0
 11
297.0
 21
210.0
  0
LINE
  5
213
100
AcDbEntity
  8
0
100
AcDbLine
 62
7
  6
CONTINUOUS
 10
51.8683244789
 20
104.231037179
 11
51.8683244789
 21
49.631037179
  0
LINE
  5
214
100
AcDbEntity
  8
0
100
AcDbLine
 62
7
  6
CONTINUOUS
 10
52.5683244789
 20
48.931037179
 11
52.5683244789
 21
104.931037179
  0
LINE
  5
215
100
AcDbEntity
  8
0
100
AcDbLine
 62
7
  6
CONTINUOUS
 10
72.2488827129
 20
51.2795290841
 11
72.2551223044
 21
51.273537179
  0
LINE
  5
216
100
AcDbEntity
  8
0
100
AcDbLine
 62
7
  6
CONTINUOUS
 10
74.0628827129
 20
51.2795290841
 11
74.0691223044
 21
51.273537179
  0
LINE
  5
217
100
AcDbEntity
  8
0
100
AcDbLine
 62
7
  6
CONTINUOUS
 10
75.8768827129
 20
51.2795290841
 11
75.8831223044
 21
51.273537179
  0
LINE
  5
218
100
AcDbEntity
  8
0
100
AcDbLine
 62
7
  6
CONTINUOUS
 10
71.8683244789
 20
52.0103988791
 11
72.2488827129
 21
51.2795290841
  0
LINE
  5
219
100
AcDbEntity
  8
0
100
AcDbLine
 62
7
  6
CONTINUOUS
 10
73.4576879096
 20
52.4418131105
 11
74.0628827129
 21
51.2795290841
  0
LINE
  5
21A
100
AcDbEntity
  8
GEOM
100
AcDbLine
 62
7
  6
CONTINUOUS
 10
54.0796493443
 20
104.931037179
 11
54.0796493443
 21
48.931037179
  0
LINE
  5
21B
100
AcDbEntity
  8
GEOM
100
AcDbLine
 62
7
  6
CONTINUOUS
 10
54.5126620462
 20
104.931037179
 11
54.5126620462
 21
99.3816774817
  0
LINE
  5
21C
100
AcDbEntity
  8
GEOM
100
AcDbLine
 62
7
  6
CONTINUOUS
 10
54.5126620462
 20
94.0783766228
 11
54.5126620462
 21
80.681037179
  0
LINE
  5
21D
100
AcDbEntity
  8
GEOM
100
AcDbLine
 62
7
  6
CONTINUOUS
 10
54.5126620462
 20
73.181037179
 11
54.5126620462
 21
59.7836977353
  0
LINE
  5
21E
100
AcDbEntity
  8
GEOM
100
AcDbLine
 62
7
  6
CONTINUOUS
 10
54.5126620462
 20
54.4803968764
 11
54.5126620462
 21
48.931037179
  0
LINE
  5
21F
100
AcDbEntity
  8
0
100
AcDbLine
 62
7
  6
CONTINUOUS
 10
55.2343498827
 20
104.931037179
 11
55.2343498827
 21
103.2969898205
  0
LINE
  5
220
100
AcDbEntity
  8
0
100
AcDbLine
 62
7
  6
CONTINUOUS
 10
55.2343498827
 20
90.163064284
 11
55.2343498827
 21
86.2181249895
  0
LINE
  5
221
100
AcDbEntity
  8
0
100
AcDbLine
 62
7
  6
CONTINUOUS
 10
55.2343498827
 20
67.6439493685
 11
55.2343498827
 21
63.6990100741
  0
LINE
  5
222
100
AcDbEntity
  8
0
100
AcDbLine
 62
7
  6
CONTINUOUS
 10
55.2343498827
 20
50.5650845375
 11
55.2343498827
 21
48.931037179
  0
LINE
  5
223
100
AcDbEntity
  8
0
100
AcDbLine
 62
7
  6
CONTINUOUS
 10
77.6908827129
 20
51.2795290841
 11
77.6971223044
 21
51.273537179
  0
LINE
  5
224
100
AcDbEntity
  8
0
100
AcDbLine
 62
7
  6
CONTINUOUS
 10
75.2716879096
 20
52.4418131105
 11
75.8768827129
 21
51.2795290841
  0
LINE
  5
225
100
AcDbEntity
  8
0
100
AcDbLine
 62
7
  6
CONTINUOUS
 10
77.0856879096
 20
52.4418131105
 11
77.6908827129
 21
51.2795290841
  0
LINE
  5
226
100
AcDbEntity
  8
0
100
AcDbLine
 62
7
  6
CONTINUOUS
 10
71.0022990751
 20
104.931037179
 11
71.0022990751
 21
103.2969898205
  0
LINE
  5
227
100
AcDbEntity
  8
0
100
AcDbLine
 62
7
  6
CONTINUOUS
 10
71.0022990751
 20
90.163064284
 11
71.0022990751
 21
86.2181249895
  0
LINE
  5
228
100
AcDbEntity
  8
0
100
AcDbLine
 62
7
  6
CONTINUOUS
 10
71.0022990751
 20
67.6439493685
 11
71.0022990751
 21
63.6990100741
  0
LINE
  5
229
100
AcDbEntity
  8
0
100
AcDbLine
 62
7
  6
CONTINUOUS
 10
71.0022990751
 20
50.5650845375
 11
71.0022990751
 21
48.931037179
  0
LINE
  5
22A
100
AcDbEntity
  8
0
100
AcDbLine
 62
7
  6
CONTINUOUS
 10
95.6612176977
 20
49.1381439602
 11
102.6925885476
 21
42.1067731103
  0
LINE
  5
22B
100
AcDbEntity
  8
0
100
AcDbLine
 62
7
  6
CONTINUOUS
 10
71.8683244789
 20
48.931037179
 11
71.8683244789
 21
104.931037179
  0
LINE
  5
22C
100
AcDbEntity
  8
0
100
AcDbLine
 62
7
  6
CONTINUOUS
 10
78.8683244789
 20
49.431037179
 11
78.8683244789
 21
104.431037179
  0
LINE
  5
22D
100
AcDbEntity
  8
0
100
AcDbLine
 62
7
  6
CONTINUOUS
 10
98.8683244789
 20
170.0549378578
 11
99.1419542991
 21
170.381037179
  0
LINE
  5
22E
100
AcDbEntity
  8
0
100
AcDbLine
 62
7
  6
CONTINUOUS
 10
72.3637588737
 20
101.4202612476
 11
71.8683244789
 21
102.3717472255
  0
LINE
  5
22F
100
AcDbEntity
  8
0
100
AcDbLine
 62
7
  6
CONTINUOUS
 10
74.1777588737
 20
101.4202612476
 11
73.5725640705
 21
102.5825452739
  0
LINE
  5
230
100
AcDbEntity
  8
0
100
AcDbLine
 62
7
  6
CONTINUOUS
 10
75.9917588737
 20
101.4202612476
 11
75.3865640705
 21
102.5825452739
  0
LINE
  5
231
100
AcDbEntity
  8
0
100
AcDbLine
 62
7
  6
CONTINUOUS
 10
77.8057588737
 20
101.4202612476
 11
77.2005640704
 21
102.5825452739
  0
LINE
  5
232
100
AcDbEntity
  8
0
100
AcDbLine
 62
7
  6
CONTINUOUS
 10
79.9279452986
 20
104.431037179
 11
79.9279452986
 21
104.1381439602
  0
LINE
  5
233
100
AcDbEntity
  8
0
100
AcDbLine
 62
7
  6
CONTINUOUS
 10
79.9279452986
 20
88.6148033631
 11
79.9279452986
 21
87.9076965819
  0
LINE
  5
234
100
AcDbEntity
  8
0
100
AcDbLine
 62
7
  6
CONTINUOUS
 10
79.9279452986
 20
65.9543777761
 11
79.9279452986
 21
65.247270995
  0
LINE
  5
235
100
AcDbEntity
  8
0
100
AcDbLine
 62
7
  6
CONTINUOUS
 10
79.9279452986
 20
49.7239303978
 11
79.9279452986
 21
49.431037179
  0
LINE
  5
236
100
AcDbEntity
  8
0
100
AcDbLine
 62
7
  6
CONTINUOUS
 10
111.3683244789
 20
170.381037179
 11
110.9683244789
 21
169.981037179
  0
LINE
  5
237
100
AcDbEntity
  8
0
100
AcDbLine
 62
7
  6
CONTINUOUS
 10
104.2683244789
 20
162.931037179
 11
104.7683244789
 21
163.431037179
  0
LINE
  5
238
100
AcDbEntity
  8
0
100
AcDbLine
 62
7
  6
CONTINUOUS
 10
107.8683244789
 20
165.381037179
 11
107.627953996
 21
165.1406666962
  0
LINE
  5
239
100
AcDbEntity
  8
0
100
AcDbLine
 62
7
  6
CONTINUOUS
 10
107.0827454922
 20
164.5954581923
 11
106.8683244789
 21
164.381037179
  0
LINE
  5
23A
100
AcDbEntity
  8
0
100
AcDbLine
 62
7
  6
CONTINUOUS
 10
112.8683244789
 20
176.7357377174
 11
111.1683244789
 21
175.7542422598
  0
LINE
  5
23B
100
AcDbEntity
  8
0
100
AcDbLine
 62
7
  6
CONTINUOUS
 10
141.5796493443
 20
40.681037179
 11
147.1604144549
 21
40.681037179
  0
LINE
  5
23C
100
AcDbEntity
  8
0
100
AcDbLine
 62
7
  6
CONTINUOUS
 10
133.1168526163
 20
41.431037179
 11
140.8002264809
 21
41.431037179
  0
LINE
  5
23D
100
AcDbEntity
  8
0
100
AcDbLine
 62
7
  6
CONTINUOUS
 10
103.1168526163
 20
41.931037179
 11
132.1197963415
 21
41.931037179
  0
LINE
  5
23E
100
AcDbEntity
  8
0
100
AcDbLine
 62
7
  6
CONTINUOUS
 10
183.1683244789
 20
48.931037179
 11
181.6569996135
 21
48.931037179
  0
LINE
  5
23F
100
AcDbEntity
  8
GEOM
100
AcDbLine
 62
7
  6
CONTINUOUS
 10
181.6569996135
 20
48.931037179
 11
180.5022990751
 21
48.931037179
  0
LINE
  5
240
100
AcDbEntity
  8
0
100
AcDbLine
 62
7
  6
CONTINUOUS
 10
180.5022990751
 20
48.931037179
 11
163.8683244789
 21
48.931037179
  0
LINE
  5
241
100
AcDbEntity
  8
GEOM
100
AcDbLine
 62
7
  6
CONTINUOUS
 10
55.2343498827
 20
48.931037179
 11
54.0796493443
 21
48.931037179
  0
LINE
  5
242
100
AcDbEntity
  8
0
100
AcDbLine
 62
7
  6
CONTINUOUS
 10
52.5683244789
 20
48.931037179
 11
54.0796493443
 21
48.931037179
  0
LINE
  5
243
100
AcDbEntity
  8
0
100
AcDbLine
 62
7
  6
CONTINUOUS
 10
55.2343498827
 20
48.931037179
 11
71.8683244789
 21
48.931037179
  0
LWPOLYLINE
  5
244
100
AcDbEntity
  8
0
100
AcDbPolyline
 62
7
  6
CONTINUOUS
 90
8
 70
0
 10
94.9544886306
 20
49.4310356617
 10
95.0752622325
 20
49.4236724332
 10
95.1942784305
 20
49.4017725407
 10
95.3097932104
 20
49.3656508334
 10
95.4201126919
 20
49.3158307395
 10
95.5236179456
 20
49.253036817
 10
95.6187888092
 20
49.1781843459
 10
95.6612269934
 20
49.1381539747
  0
LINE
  5
245
100
AcDbEntity
  8
0
100
AcDbLine
 62
7
  6
CONTINUOUS
 10
132.5440604102
 20
41.7553012477
 11
132.6925885476
 21
41.6067731103
  0
LINE
  5
246
100
AcDbEntity
  8
0
100
AcDbLine
 62
7
  6
CONTINUOUS
 10
73.1558827129
 20
102.5825452739
 11
72.5506879096
 21
101.4202612476
  0
LINE
  5
247
100
AcDbEntity
  8
0
100
AcDbLine
 62
7
  6
CONTINUOUS
 10
74.9698827129
 20
102.5825452739
 11
74.3646879096
 21
101.4202612476
  0
LINE
  5
248
100
AcDbEntity
  8
0
100
AcDbLine
 62
7
  6
CONTINUOUS
 10
76.7838827129
 20
102.5825452739
 11
76.1786879096
 21
101.4202612476
  0
LINE
  5
249
100
AcDbEntity
  8
0
100
AcDbLine
 62
7
  6
CONTINUOUS
 10
78.5978827129
 20
102.5825452739
 11
77.9926879096
 21
101.4202612476
  0
LINE
  5
24A
100
AcDbEntity
  8
0
100
AcDbLine
 62
7
  6
CONTINUOUS
 10
105.2344811104
 20
150.1067731101
 11
105.0983500364
 21
149.9648030791
  0
LINE
  5
24B
100
AcDbEntity
  8
0
100
AcDbLine
 62
7
  6
CONTINUOUS
 10
105.0798526751
 20
150.255302912
 11
104.9451656928
 21
150.1149730903
  0
LINE
  5
24C
100
AcDbEntity
  8
0
100
AcDbLine
 62
7
  6
CONTINUOUS
 10
100.5580934559
 20
154.6314604589
 11
100.3629973275
 21
154.4363643305
  0
LINE
  5
24D
100
AcDbEntity
  8
0
100
AcDbLine
 62
7
  6
CONTINUOUS
 10
104.6073388655
 20
150.5822043687
 11
104.4122413834
 21
150.3871202747
  0
LINE
  5
24E
100
AcDbEntity
  8
0
100
AcDbLine
 62
7
  6
CONTINUOUS
 10
107.6765085201
 20
164.9088161532
 11
107.107334748
 21
164.6122976737
  0
LINE
  5
24F
100
AcDbEntity
  8
0
100
AcDbLine
 62
7
  6
CONTINUOUS
 10
107.6765080613
 20
163.5718099569
 11
107.4062973121
 21
163.431037179
  0
LINE
  5
250
100
AcDbEntity
  8
0
100
AcDbLine
 62
7
  6
CONTINUOUS
 10
78.8683244789
 20
49.431037179
 11
96.9946216429
 21
49.431037179
  0
LINE
  5
251
100
AcDbEntity
  8
0
100
AcDbLine
 62
7
  6
CONTINUOUS
 10
150.4639262606
 20
49.431037179
 11
156.7343498827
 21
49.431037179
  0
LINE
  5
252
100
AcDbEntity
  8
0
100
AcDbLine
 62
7
  6
CONTINUOUS
 10
79.9267092831
 20
49.7239303978
 11
96.9943893869
 21
49.7239303978
  0
LINE
  5
253
100
AcDbEntity
  8
0
100
AcDbLine
 62
7
  6
CONTINUOUS
 10
180.5022990751
 20
50.5650845375
 11
164.7343498827
 21
50.5650845375
  0
LINE
  5
254
100
AcDbEntity
  8
0
100
AcDbLine
 62
7
  6
CONTINUOUS
 10
55.2343498827
 20
50.5650845375
 11
71.0022990751
 21
50.5650845375
  0
LINE
  5
255
100
AcDbEntity
  8
0
100
AcDbLine
 62
7
  6
CONTINUOUS
 10
150.4639262606
 20
50.9759924133
 11
156.3324260941
 21
50.9759924133
  0
LINE
  5
256
100
AcDbEntity
  8
0
100
AcDbLine
 62
7
  6
CONTINUOUS
 10
163.5471441955
 20
51.241037179
 11
163.1455134602
 21
51.241037179
  0
LINE
  5
257
100
AcDbEntity
  8
0
100
AcDbLine
 62
7
  6
CONTINUOUS
 10
161.7331441955
 20
51.241037179
 11
161.3315134601
 21
51.241037179
  0
LINE
  5
258
100
AcDbEntity
  8
0
100
AcDbLine
 62
7
  6
CONTINUOUS
 10
159.9191441955
 20
51.241037179
 11
159.5175134601
 21
51.241037179
  0
LINE
  5
259
100
AcDbEntity
  8
0
100
AcDbLine
 62
7
  6
CONTINUOUS
 10
158.1051441955
 20
51.241037179
 11
156.8683244789
 21
51.241037179
  0
LINE
  5
25A
100
AcDbEntity
  8
0
100
AcDbLine
 62
7
  6
CONTINUOUS
 10
78.8683244789
 20
51.273537179
 11
77.6971223044
 21
51.273537179
  0
LINE
  5
25B
100
AcDbEntity
  8
0
100
AcDbLine
 62
7
  6
CONTINUOUS
 10
76.2873244789
 20
51.273537179
 11
75.8831223044
 21
51.273537179
  0
LINE
  5
25C
100
AcDbEntity
  8
0
100
AcDbLine
 62
7
  6
CONTINUOUS
 10
74.4733244789
 20
51.273537179
 11
74.0691223044
 21
51.273537179
  0
LINE
  5
25D
100
AcDbEntity
  8
0
100
AcDbLine
 62
7
  6
CONTINUOUS
 10
72.6593244789
 20
51.273537179
 11
72.2551223044
 21
51.273537179
  0
LINE
  5
25E
100
AcDbEntity
  8
0
100
AcDbLine
 62
7
  6
CONTINUOUS
 10
73.2642233917
 20
52.435537179
 11
73.4642233917
 21
52.435537179
  0
LINE
  5
25F
100
AcDbEntity
  8
0
100
AcDbLine
 62
7
  6
CONTINUOUS
 10
75.0782233917
 20
52.435537179
 11
75.2782233917
 21
52.435537179
  0
LINE
  5
260
100
AcDbEntity
  8
0
100
AcDbLine
 62
7
  6
CONTINUOUS
 10
76.8922233917
 20
52.435537179
 11
77.0922233917
 21
52.435537179
  0
LINE
  5
261
100
AcDbEntity
  8
0
100
AcDbLine
 62
7
  6
CONTINUOUS
 10
73.5725640705
 20
102.5825452739
 11
73.5663244789
 21
102.588537179
  0
LINE
  5
262
100
AcDbEntity
  8
0
100
AcDbLine
 62
7
  6
CONTINUOUS
 10
75.3865640705
 20
102.5825452739
 11
75.3803244789
 21
102.588537179
  0
LINE
  5
263
100
AcDbEntity
  8
0
100
AcDbLine
 62
7
  6
CONTINUOUS
 10
77.2005640704
 20
102.5825452739
 11
77.1943244789
 21
102.588537179
  0
LINE
  5
264
100
AcDbEntity
  8
0
100
AcDbLine
 62
7
  6
CONTINUOUS
 10
108.8908578205
 20
78.869787179
 11
111.3727311534
 21
73.9988365025
  0
LINE
  5
265
100
AcDbEntity
  8
0
100
AcDbLine
 62
7
  6
CONTINUOUS
 10
98.8683244789
 20
153.381037179
 11
98.8683244789
 21
170.381037179
  0
LINE
  5
266
100
AcDbEntity
  8
0
100
AcDbLine
 62
7
  6
CONTINUOUS
 10
99.8683244789
 20
157.741268202
 11
99.8683244789
 21
155.2167488442
  0
LINE
  5
267
100
AcDbEntity
  8
0
100
AcDbLine
 62
7
  6
CONTINUOUS
 10
100.5580934559
 20
157.741268202
 11
100.5580934559
 21
154.6314604589
  0
LINE
  5
268
100
AcDbEntity
  8
0
100
AcDbLine
 62
7
  6
CONTINUOUS
 10
100.9719548421
 20
158.431037179
 11
100.9719548421
 21
158.1551295882
  0
LINE
  5
269
100
AcDbEntity
  8
0
100
AcDbLine
 62
7
  6
CONTINUOUS
 10
102.6925885476
 20
42.1067731103
 11
102.6925885476
 21
111.7553012477
  0
LINE
  5
26A
100
AcDbEntity
  8
0
100
AcDbLine
 62
7
  6
CONTINUOUS
 10
102.8683244789
 20
158.431037179
 11
102.8683244789
 21
169.881037179
  0
LINE
  5
26B
100
AcDbEntity
  8
0
100
AcDbLine
 62
7
  6
CONTINUOUS
 10
103.1168526163
 20
41.931037179
 11
103.1168526163
 21
111.931037179
  0
LINE
  5
26C
100
AcDbEntity
  8
0
100
AcDbLine
 62
7
  6
CONTINUOUS
 10
104.2683244789
 20
159.031037179
 11
104.2683244789
 21
162.931037179
  0
LINE
  5
26D
100
AcDbEntity
  8
0
100
AcDbLine
 62
7
  6
CONTINUOUS
 10
104.3683244789
 20
158.873894846
 11
104.3683244789
 21
158.731037179
  0
LINE
  5
26E
100
AcDbEntity
  8
0
100
AcDbLine
 62
7
  6
CONTINUOUS
 10
104.6018253175
 20
150.6795653165
 11
104.6018253175
 21
158.1551295882
  0
LINE
  5
26F
100
AcDbEntity
  8
0
100
AcDbLine
 62
7
  6
CONTINUOUS
 10
104.8683244789
 20
149.6825090416
 11
104.8683244789
 21
112.7197164241
  0
LINE
  5
270
100
AcDbEntity
  8
0
100
AcDbLine
 62
7
  6
CONTINUOUS
 10
104.8902274732
 20
150.6795653165
 11
104.8902274732
 21
158.1551295882
  0
LINE
  5
271
100
AcDbEntity
  8
0
100
AcDbLine
 62
7
  6
CONTINUOUS
 10
105.4102314614
 20
149.2524246905
 11
105.4102314614
 21
149.6825090447
  0
LWPOLYLINE
  5
272
100
AcDbEntity
  8
0
100
AcDbPolyline
 62
7
  6
CONTINUOUS
 90
14
 70
0
 10
104.8683582113
 20
112.7197184596
 10
104.8617113532
 20
112.6175169565
 10
104.8420227899
 20
112.5175891474
 10
104.80962058
 20
112.4210315971
 10
104.7650449367
 20
112.3294545183
 10
104.7090391993
 20
112.24438533
 10
104.64253727
 20
112.1672427714
 10
104.5666475775
 20
112.0993130187
 10
104.4826361338
 20
112.041729639
 10
104.3919059013
 20
111.9954539168
 10
104.2959701917
 20
111.9612569628
 10
104.1964292366
 20
111.9397084972
 10
104.0949455982
 20
111.9311672498
 10
104.0796430601
 20
111.931019517
  0
LINE
  5
273
100
AcDbEntity
  8
0
100
AcDbLine
 62
7
  6
CONTINUOUS
 10
117.8683244789
 20
174.581037179
 11
117.808111384
 21
174.381037179
  0
LINE
  5
274
100
AcDbEntity
  8
0
100
AcDbLine
 62
7
  6
CONTINUOUS
 10
120.0314434395
 20
174.581037179
 11
119.9431944955
 21
174.381037179
  0
LINE
  5
275
100
AcDbEntity
  8
0
100
AcDbLine
 62
7
  6
CONTINUOUS
 10
124.8683244789
 20
174.581037179
 11
124.7680617481
 21
174.381037179
  0
LINE
  5
276
100
AcDbEntity
  8
0
100
AcDbLine
 62
7
  6
CONTINUOUS
 10
121.982821245
 20
174.581037179
 11
121.8751748733
 21
174.381037179
  0
LINE
  5
277
100
AcDbEntity
  8
0
100
AcDbLine
 62
7
  6
CONTINUOUS
 10
124.525720093
 20
174.581037179
 11
124.4117576998
 21
174.381037179
  0
LINE
  5
278
100
AcDbEntity
  8
0
100
AcDbLine
 62
7
  6
CONTINUOUS
 10
123.5314434395
 20
174.581037179
 11
123.4149368172
 21
174.381037179
  0
LINE
  5
279
100
AcDbEntity
  8
0
100
AcDbLine
 62
7
  6
CONTINUOUS
 10
152.3180719472
 20
189.916571085
 11
137.0754312601
 21
174.6739303978
  0
LINE
  5
27A
100
AcDbEntity
  8
0
100
AcDbLine
 62
7
  6
CONTINUOUS
 10
180.5022990751
 20
63.6990100741
 11
164.7343498827
 21
63.6990100741
  0
LINE
  5
27B
100
AcDbEntity
  8
0
100
AcDbLine
 62
7
  6
CONTINUOUS
 10
55.2343498827
 20
63.6990100741
 11
71.0022990751
 21
63.6990100741
  0
LINE
  5
27C
100
AcDbEntity
  8
0
100
AcDbLine
 62
7
  6
CONTINUOUS
 10
150.4639262606
 20
63.9952089795
 11
156.3324260941
 21
63.9952089795
  0
LINE
  5
27D
100
AcDbEntity
  8
0
100
AcDbLine
 62
7
  6
CONTINUOUS
 10
79.926433544
 20
65.247270995
 11
96.9943510934
 21
65.247270995
  0
LINE
  5
27E
100
AcDbEntity
  8
0
100
AcDbLine
 62
7
  6
CONTINUOUS
 10
79.926254094
 20
65.9543777761
 11
96.9939403095
 21
65.9543777761
  0
LINE
  5
27F
100
AcDbEntity
  8
0
100
AcDbLine
 62
7
  6
CONTINUOUS
 10
141.3198417232
 20
41.131037179
 11
141.5796493443
 21
40.681037179
  0
LINE
  5
280
100
AcDbEntity
  8
0
100
AcDbLine
 62
7
  6
CONTINUOUS
 10
110.2095911497
 20
78.869787179
 11
112.032097818
 21
75.2929164454
  0
LINE
  5
281
100
AcDbEntity
  8
0
100
AcDbLine
 62
7
  6
CONTINUOUS
 10
106.0708578205
 20
84.039787179
 11
106.0708578205
 21
69.939787179
  0
LINE
  5
282
100
AcDbEntity
  8
0
100
AcDbLine
 62
7
  6
CONTINUOUS
 10
106.8683244789
 20
164.381037179
 11
106.8683244789
 21
164.179741998
  0
LINE
  5
283
100
AcDbEntity
  8
0
100
AcDbLine
 62
7
  6
CONTINUOUS
 10
107.2458578205
 20
82.864787179
 11
107.2458578205
 21
71.114787179
  0
LINE
  5
284
100
AcDbEntity
  8
0
100
AcDbLine
 62
7
  6
CONTINUOUS
 10
107.6683276366
 20
165.1002930557
 11
107.6683276366
 21
164.9045540517
  0
LINE
  5
285
100
AcDbEntity
  8
0
100
AcDbLine
 62
7
  6
CONTINUOUS
 10
107.6683271657
 20
163.7632868471
 11
107.6683271657
 21
163.5675478493
  0
LINE
  5
286
100
AcDbEntity
  8
0
100
AcDbLine
 62
7
  6
CONTINUOUS
 10
108.8683244789
 20
165.381037179
 11
108.8683244789
 21
168.881037179
  0
LINE
  5
287
100
AcDbEntity
  8
0
100
AcDbLine
 62
7
  6
CONTINUOUS
 10
109.5934072613
 20
165.381037179
 11
109.5934072613
 21
168.3036869098
  0
LINE
  5
288
100
AcDbEntity
  8
0
100
AcDbLine
 62
7
  6
CONTINUOUS
 10
110.8683244789
 20
175.2346270175
 11
110.8683244789
 21
174.581037179
  0
LINE
  5
289
100
AcDbEntity
  8
0
100
AcDbLine
 62
7
  6
CONTINUOUS
 10
110.9683244789
 20
169.981037179
 11
110.9683244789
 21
168.881037179
  0
LINE
  5
28A
100
AcDbEntity
  8
0
100
AcDbLine
 62
7
  6
CONTINUOUS
 10
112.8683244789
 20
176.28915573
 11
112.8683244789
 21
180.081037179
  0
LINE
  5
28B
100
AcDbEntity
  8
0
100
AcDbLine
 62
7
  6
CONTINUOUS
 10
113.2509579873
 20
170.381037179
 11
113.2509579873
 21
170.0549378578
  0
LINE
  5
28C
100
AcDbEntity
  8
0
100
AcDbLine
 62
7
  6
CONTINUOUS
 10
115.7052055183
 20
174.581037179
 11
115.6789223497
 21
174.381037179
  0
LINE
  5
28D
100
AcDbEntity
  8
0
100
AcDbLine
 62
7
  6
CONTINUOUS
 10
72.6655640705
 20
51.2795290842
 11
73.2707588737
 21
52.4418131105
  0
LINE
  5
28E
100
AcDbEntity
  8
0
100
AcDbLine
 62
7
  6
CONTINUOUS
 10
74.4795640705
 20
51.2795290842
 11
75.0847588737
 21
52.4418131105
  0
LINE
  5
28F
100
AcDbEntity
  8
0
100
AcDbLine
 62
7
  6
CONTINUOUS
 10
139.9038583848
 20
171.8455032731
 11
154.8536058532
 21
186.7952507414
  0
LINE
  5
290
100
AcDbEntity
  8
0
100
AcDbLine
 62
7
  6
CONTINUOUS
 10
131.4683244789
 20
159.031037179
 11
131.4087302101
 21
158.9714429102
  0
LINE
  5
291
100
AcDbEntity
  8
0
100
AcDbLine
 62
7
  6
CONTINUOUS
 10
180.5022990751
 20
67.6439493685
 11
164.7343498827
 21
67.6439493685
  0
LINE
  5
292
100
AcDbEntity
  8
0
100
AcDbLine
 62
7
  6
CONTINUOUS
 10
55.2343498827
 20
67.6439493685
 11
71.0022990751
 21
67.6439493685
  0
LINE
  5
293
100
AcDbEntity
  8
0
100
AcDbLine
 62
7
  6
CONTINUOUS
 10
150.4639262606
 20
67.7250608593
 11
156.3324260941
 21
67.7250608593
  0
LINE
  5
294
100
AcDbEntity
  8
0
100
AcDbLine
 62
7
  6
CONTINUOUS
 10
106.0708578205
 20
69.939787179
 11
129.5708578205
 21
69.939787179
  0
LINE
  5
295
100
AcDbEntity
  8
0
100
AcDbLine
 62
7
  6
CONTINUOUS
 10
107.2458578205
 20
71.114787179
 11
128.3958578205
 21
71.114787179
  0
LINE
  5
296
100
AcDbEntity
  8
0
100
AcDbLine
 62
7
  6
CONTINUOUS
 10
111.8562598936
 20
72.877287179
 11
113.1749932228
 21
72.877287179
  0
LINE
  5
297
100
AcDbEntity
  8
0
100
AcDbLine
 62
7
  6
CONTINUOUS
 10
117.8733244789
 20
72.877287179
 11
119.0483244789
 21
72.877287179
  0
LINE
  5
298
100
AcDbEntity
  8
0
100
AcDbLine
 62
7
  6
CONTINUOUS
 10
120.6933244789
 20
72.877287179
 11
121.8683244789
 21
72.877287179
  0
LINE
  5
299
100
AcDbEntity
  8
0
100
AcDbLine
 62
7
  6
CONTINUOUS
 10
161.3252817596
 20
51.2470215096
 11
161.3315351534
 21
51.2410372516
  0
LINE
  5
29A
100
AcDbEntity
  8
0
100
AcDbLine
 62
7
  6
CONTINUOUS
 10
163.1392817596
 20
51.2470215096
 11
163.1455136847
 21
51.241037179
  0
LINE
  5
29B
100
AcDbEntity
  8
0
100
AcDbLine
 62
7
  6
CONTINUOUS
 10
113.7538277129
 20
174.581037179
 11
113.7640472503
 21
174.381037179
  0
LINE
  5
29C
100
AcDbEntity
  8
0
100
AcDbLine
 62
7
  6
CONTINUOUS
 10
115.1058244789
 20
146.781037179
 11
115.1058244789
 21
145.581037179
  0
LINE
  5
29D
100
AcDbEntity
  8
0
100
AcDbLine
 62
7
  6
CONTINUOUS
 10
115.2183244789
 20
128.131037179
 11
115.2183244789
 21
123.631037179
  0
LINE
  5
29E
100
AcDbEntity
  8
0
100
AcDbLine
 62
7
  6
CONTINUOUS
 10
115.6308244789
 20
146.781037179
 11
115.6308244789
 21
145.581037179
  0
LINE
  5
29F
100
AcDbEntity
  8
0
100
AcDbLine
 62
7
  6
CONTINUOUS
 10
115.9183244789
 20
127.431037179
 11
115.9183244789
 21
125.941037179
  0
LINE
  5
2A0
100
AcDbEntity
  8
0
100
AcDbLine
 62
7
  6
CONTINUOUS
 10
115.9183244789
 20
125.241037179
 11
115.9183244789
 21
123.631037179
  0
LINE
  5
2A1
100
AcDbEntity
  8
0
100
AcDbLine
 62
7
  6
CONTINUOUS
 10
116.1683244789
 20
120.3534392228
 11
116.1683244789
 21
116.931037179
  0
LINE
  5
2A2
100
AcDbEntity
  8
0
100
AcDbLine
 62
7
  6
CONTINUOUS
 10
116.8683244789
 20
121.431037179
 11
116.8683244789
 21
116.931037179
  0
LINE
  5
2A3
100
AcDbEntity
  8
0
100
AcDbLine
 62
7
  6
CONTINUOUS
 10
116.9683244789
 20
127.081037179
 11
116.9683244789
 21
126.291037179
  0
LINE
  5
2A4
100
AcDbEntity
  8
0
100
AcDbLine
 62
7
  6
CONTINUOUS
 10
117.6033244789
 20
147.906037179
 11
117.6033244789
 21
144.456037179
  0
LINE
  5
2A5
100
AcDbEntity
  8
0
100
AcDbLine
 62
7
  6
CONTINUOUS
 10
117.6683244789
 20
127.081037179
 11
117.6683244789
 21
126.291037179
  0
LINE
  5
2A6
100
AcDbEntity
  8
0
100
AcDbLine
 62
7
  6
CONTINUOUS
 10
117.8683244789
 20
120.031037179
 11
117.8683244789
 21
118.331037179
  0
LINE
  5
2A7
100
AcDbEntity
  8
0
100
AcDbLine
 62
7
  6
CONTINUOUS
 10
117.8683244789
 20
176.28915573
 11
117.8683244789
 21
179.6344551916
  0
LINE
  5
2A8
100
AcDbEntity
  8
0
100
AcDbLine
 62
7
  6
CONTINUOUS
 10
117.8733244789
 20
81.219787179
 11
117.8733244789
 21
80.044787179
  0
LINE
  5
2A9
100
AcDbEntity
  8
0
100
AcDbLine
 62
7
  6
CONTINUOUS
 10
117.8733244789
 20
78.869787179
 11
117.8733244789
 21
72.877287179
  0
LINE
  5
2AA
100
AcDbEntity
  8
0
100
AcDbLine
 62
7
  6
CONTINUOUS
 10
118.1283244789
 20
147.906037179
 11
118.1283244789
 21
146.406037179
  0
LINE
  5
2AB
100
AcDbEntity
  8
0
100
AcDbLine
 62
7
  6
CONTINUOUS
 10
118.1283244789
 20
145.8963393965
 11
118.1283244789
 21
143.931037179
  0
LINE
  5
2AC
100
AcDbEntity
  8
0
100
AcDbLine
 62
7
  6
CONTINUOUS
 10
118.1283244789
 20
128.131037179
 11
118.1283244789
 21
123.631037179
  0
LINE
  5
2AD
100
AcDbEntity
  8
0
100
AcDbLine
 62
7
  6
CONTINUOUS
 10
118.5683244789
 20
120.031037179
 11
118.5683244789
 21
119.5434727443
  0
LINE
  5
2AE
100
AcDbEntity
  8
0
100
AcDbLine
 62
7
  6
CONTINUOUS
 10
118.8283244789
 20
126.1228995095
 11
118.8283244789
 21
123.631037179
  0
LINE
  5
2AF
100
AcDbEntity
  8
0
100
AcDbLine
 62
7
  6
CONTINUOUS
 10
119.0483244789
 20
81.219787179
 11
119.0483244789
 21
80.044787179
  0
LINE
  5
2B0
100
AcDbEntity
  8
0
100
AcDbLine
 62
7
  6
CONTINUOUS
 10
119.0483244789
 20
78.869787179
 11
119.0483244789
 21
72.877287179
  0
LINE
  5
2B1
100
AcDbEntity
  8
0
100
AcDbLine
 62
7
  6
CONTINUOUS
 10
119.8783244789
 20
128.131037179
 11
119.8783244789
 21
125.6391748486
  0
LINE
  5
2B2
100
AcDbEntity
  8
0
100
AcDbLine
 62
7
  6
CONTINUOUS
 10
120.5783244789
 20
128.131037179
 11
120.5783244789
 21
123.631037179
  0
LINE
  5
2B3
100
AcDbEntity
  8
0
100
AcDbLine
 62
7
  6
CONTINUOUS
 10
120.6933244789
 20
78.869787179
 11
120.6933244789
 21
76.6112782265
  0
LINE
  5
2B4
100
AcDbEntity
  8
0
100
AcDbLine
 62
7
  6
CONTINUOUS
 10
120.6933244789
 20
73.171037179
 11
120.6933244789
 21
72.877287179
  0
LINE
  5
2B5
100
AcDbEntity
  8
0
100
AcDbLine
 62
7
  6
CONTINUOUS
 10
121.3683244789
 20
153.381037179
 11
121.3683244789
 21
160.381037179
  0
LINE
  5
2B6
100
AcDbEntity
  8
0
100
AcDbLine
 62
7
  6
CONTINUOUS
 10
121.8683244789
 20
78.869787179
 11
121.8683244789
 21
77.694787179
  0
LINE
  5
2B7
100
AcDbEntity
  8
0
100
AcDbLine
 62
7
  6
CONTINUOUS
 10
131.7495223254
 20
162.930320679
 11
134.0589234022
 21
169.2753479899
  0
LINE
  5
2B8
100
AcDbEntity
  8
0
100
AcDbLine
 62
7
  6
CONTINUOUS
 10
128.8683244789
 20
153.381037179
 11
133.4138996494
 21
165.8699023183
  0
LINE
  5
2B9
100
AcDbEntity
  8
0
100
AcDbLine
 62
7
  6
CONTINUOUS
 10
76.2935640704
 20
51.2795290842
 11
76.8987588737
 21
52.4418131105
  0
LINE
  5
2BA
100
AcDbEntity
  8
0
100
AcDbLine
 62
7
  6
CONTINUOUS
 10
116.0683244789
 20
121.431037179
 11
115.0358868935
 21
119.9565634993
  0
LINE
  5
2BB
100
AcDbEntity
  8
0
100
AcDbLine
 62
7
  6
CONTINUOUS
 10
116.1683244789
 20
120.3534392228
 11
115.6092933245
 21
119.5550599939
  0
LINE
  5
2BC
100
AcDbEntity
  8
0
100
AcDbLine
 62
7
  6
CONTINUOUS
 10
131.1925885476
 20
150.2553012477
 11
131.0440604102
 21
150.1067731103
  0
LINE
  5
2BD
100
AcDbEntity
  8
0
100
AcDbLine
 62
7
  6
CONTINUOUS
 10
95.6612176977
 20
104.7239303978
 11
102.6925885476
 21
111.7553012477
  0
LINE
  5
2BE
100
AcDbEntity
  8
0
100
AcDbLine
 62
7
  6
CONTINUOUS
 10
159.0723801111
 20
76.1866522824
 11
157.6600108465
 21
76.1866522824
  0
LINE
  5
2BF
100
AcDbEntity
  8
0
100
AcDbLine
 62
7
  6
CONTINUOUS
 10
124.4533244789
 20
76.931037179
 11
125.1583244789
 21
76.931037179
  0
LINE
  5
2C0
100
AcDbEntity
  8
0
100
AcDbLine
 62
7
  6
CONTINUOUS
 10
125.1583244789
 20
78.164787179
 11
126.3333244789
 21
78.164787179
  0
LINE
  5
2C1
100
AcDbEntity
  8
0
100
AcDbLine
 62
7
  6
CONTINUOUS
 10
108.8908578205
 20
78.869787179
 11
110.2095911497
 21
78.869787179
  0
LINE
  5
2C2
100
AcDbEntity
  8
0
100
AcDbLine
 62
7
  6
CONTINUOUS
 10
114.9095911497
 20
78.869787179
 11
116.2283244789
 21
78.869787179
  0
LINE
  5
2C3
100
AcDbEntity
  8
0
100
AcDbLine
 62
7
  6
CONTINUOUS
 10
117.8733244789
 20
78.869787179
 11
119.0483244789
 21
78.869787179
  0
LINE
  5
2C4
100
AcDbEntity
  8
0
100
AcDbLine
 62
7
  6
CONTINUOUS
 10
120.6933244789
 20
78.869787179
 11
121.8683244789
 21
78.869787179
  0
LINE
  5
2C5
100
AcDbEntity
  8
0
100
AcDbLine
 62
7
  6
CONTINUOUS
 10
117.8733244789
 20
80.044787179
 11
119.0483244789
 21
80.044787179
  0
LINE
  5
2C6
100
AcDbEntity
  8
0
100
AcDbLine
 62
7
  6
CONTINUOUS
 10
117.8733244789
 20
81.219787179
 11
119.0483244789
 21
81.219787179
  0
LINE
  5
2C7
100
AcDbEntity
  8
0
100
AcDbLine
 62
7
  6
CONTINUOUS
 10
107.2458578205
 20
82.864787179
 11
128.3958578205
 21
82.864787179
  0
LINE
  5
2C8
100
AcDbEntity
  8
0
100
AcDbLine
 62
7
  6
CONTINUOUS
 10
122.8683244789
 20
176.28915573
 11
122.8683244789
 21
180.081037179
  0
LINE
  5
2C9
100
AcDbEntity
  8
0
100
AcDbLine
 62
7
  6
CONTINUOUS
 10
124.8683244789
 20
175.2346270175
 11
124.8683244789
 21
174.581037179
  0
LINE
  5
2CA
100
AcDbEntity
  8
0
100
AcDbLine
 62
7
  6
CONTINUOUS
 10
125.1583244789
 20
78.164787179
 11
125.1583244789
 21
76.931037179
  0
LINE
  5
2CB
100
AcDbEntity
  8
0
100
AcDbLine
 62
7
  6
CONTINUOUS
 10
126.3333244789
 20
78.164787179
 11
126.3333244789
 21
76.6059456174
  0
LINE
  5
2CC
100
AcDbEntity
  8
0
100
AcDbLine
 62
7
  6
CONTINUOUS
 10
128.3958578205
 20
82.864787179
 11
128.3958578205
 21
71.114787179
  0
LINE
  5
2CD
100
AcDbEntity
  8
0
100
AcDbLine
 62
7
  6
CONTINUOUS
 10
129.5708578205
 20
84.039787179
 11
129.5708578205
 21
69.939787179
  0
LINE
  5
2CE
100
AcDbEntity
  8
0
100
AcDbLine
 62
7
  6
CONTINUOUS
 10
130.8683244789
 20
149.6825090416
 11
130.8683244789
 21
112.7197164241
  0
LWPOLYLINE
  5
2CF
100
AcDbEntity
  8
0
100
AcDbPolyline
 62
7
  6
CONTINUOUS
 90
8
 70
0
 10
95.6612343365
 20
104.7239127044
 10
95.6187075402
 20
104.6838044081
 10
95.5235057096
 20
104.6089495648
 10
95.419975523
 20
104.5461638267
 10
95.3096396209
 20
104.4963599228
 10
95.1941187216
 20
104.4602593806
 10
95.0751077235
 20
104.4383822743
 10
94.9543508787
 20
104.4310399457
  0
LINE
  5
2D0
100
AcDbEntity
  8
0
100
AcDbLine
 62
7
  6
CONTINUOUS
 10
106.0708578205
 20
84.039787179
 11
129.5708578205
 21
84.039787179
  0
LINE
  5
2D1
100
AcDbEntity
  8
0
100
AcDbLine
 62
7
  6
CONTINUOUS
 10
150.4639262606
 20
86.1370134988
 11
156.3324260941
 21
86.1370134988
  0
LINE
  5
2D2
100
AcDbEntity
  8
0
100
AcDbLine
 62
7
  6
CONTINUOUS
 10
180.5022990751
 20
86.2181249895
 11
164.7343498827
 21
86.2181249895
  0
LINE
  5
2D3
100
AcDbEntity
  8
0
100
AcDbLine
 62
7
  6
CONTINUOUS
 10
55.2343498827
 20
86.2181249895
 11
71.0022990751
 21
86.2181249895
  0
LINE
  5
2D4
100
AcDbEntity
  8
0
100
AcDbLine
 62
7
  6
CONTINUOUS
 10
79.9258821167
 20
87.9076965819
 11
96.9939205137
 21
87.9076965819
  0
LINE
  5
2D5
100
AcDbEntity
  8
0
100
AcDbLine
 62
7
  6
CONTINUOUS
 10
79.9267009385
 20
88.6148033631
 11
96.9943548153
 21
88.6148033631
  0
LINE
  5
2D6
100
AcDbEntity
  8
0
100
AcDbLine
 62
7
  6
CONTINUOUS
 10
150.4639262606
 20
89.8668653785
 11
156.3324260941
 21
89.8668653785
  0
LINE
  5
2D7
100
AcDbEntity
  8
0
100
AcDbLine
 62
7
  6
CONTINUOUS
 10
180.5022990751
 20
90.163064284
 11
164.7343498827
 21
90.163064284
  0
LINE
  5
2D8
100
AcDbEntity
  8
0
100
AcDbLine
 62
7
  6
CONTINUOUS
 10
55.2343498827
 20
90.163064284
 11
71.0022990751
 21
90.163064284
  0
LINE
  5
2D9
100
AcDbEntity
  8
0
100
AcDbLine
 62
7
  6
CONTINUOUS
 10
158.8908250302
 20
52.4381160393
 11
158.8937692059
 21
52.4329733147
  0
LINE
  5
2DA
100
AcDbEntity
  8
0
100
AcDbLine
 62
7
  6
CONTINUOUS
 10
162.5188270402
 20
52.4381128576
 11
162.5217691313
 21
52.432973452
  0
LINE
  5
2DB
100
AcDbEntity
  8
0
100
AcDbLine
 62
7
  6
CONTINUOUS
 10
160.7050574087
 20
52.4377458479
 11
160.7078040303
 21
52.4329094027
  0
LINE
  5
2DC
100
AcDbEntity
  8
0
100
AcDbLine
 62
7
  6
CONTINUOUS
 10
160.7078040303
 20
52.4329094027
 11
160.7074966486
 21
52.4334858415
  0
LINE
  5
2DD
100
AcDbEntity
  8
0
100
AcDbLine
 62
7
  6
CONTINUOUS
 10
120.1532711824
 20
123.631037179
 11
118.8283244789
 21
126.1228995095
  0
LINE
  5
2DE
100
AcDbEntity
  8
0
100
AcDbLine
 62
7
  6
CONTINUOUS
 10
119.8783244789
 20
125.6391748486
 11
118.5533777754
 21
128.131037179
  0
LINE
  5
2DF
100
AcDbEntity
  8
0
100
AcDbLine
 62
7
  6
CONTINUOUS
 10
158.8937692059
 20
52.4329733147
 11
158.8934966486
 21
52.4334858415
  0
LINE
  5
2E0
100
AcDbEntity
  8
0
100
AcDbLine
 62
7
  6
CONTINUOUS
 10
158.8934966486
 20
52.4334858415
 11
159.5112817596
 21
51.2470215096
  0
LINE
  5
2E1
100
AcDbEntity
  8
0
100
AcDbLine
 62
7
  6
CONTINUOUS
 10
160.7074966486
 20
52.4334858415
 11
161.3252817596
 21
51.2470215096
  0
LINE
  5
2E2
100
AcDbEntity
  8
0
100
AcDbLine
 62
7
  6
CONTINUOUS
 10
112.2052055183
 20
174.581037179
 11
112.2509274023
 21
174.381037179
  0
LINE
  5
2E3
100
AcDbEntity
  8
0
100
AcDbLine
 62
7
  6
CONTINUOUS
 10
131.3683244789
 20
158.873894846
 11
131.3683244789
 21
150.6795653165
  0
LINE
  5
2E4
100
AcDbEntity
  8
0
100
AcDbLine
 62
7
  6
CONTINUOUS
 10
131.4683244789
 20
159.031037179
 11
131.4683244789
 21
160.5244784696
  0
LINE
  5
2E5
100
AcDbEntity
  8
0
100
AcDbLine
 62
7
  6
CONTINUOUS
 10
131.7495223254
 20
170.381037179
 11
131.7495223254
 21
162.930320679
  0
LINE
  5
2E6
100
AcDbEntity
  8
0
100
AcDbLine
 62
7
  6
CONTINUOUS
 10
132.1197963415
 20
111.931037179
 11
132.1197963415
 21
41.931037179
  0
LINE
  5
2E7
100
AcDbEntity
  8
0
100
AcDbLine
 62
7
  6
CONTINUOUS
 10
132.5440604102
 20
112.1067731103
 11
132.5440604102
 21
41.7553012477
  0
LINE
  5
2E8
100
AcDbEntity
  8
0
100
AcDbLine
 62
7
  6
CONTINUOUS
 10
132.6925885476
 20
41.6067731103
 11
132.6925885476
 21
112.2553012477
  0
LINE
  5
2E9
100
AcDbEntity
  8
0
100
AcDbLine
 62
7
  6
CONTINUOUS
 10
133.1168526163
 20
41.431037179
 11
133.1168526163
 21
112.431037179
  0
LINE
  5
2EA
100
AcDbEntity
  8
0
100
AcDbLine
 62
7
  6
CONTINUOUS
 10
134.0589234022
 20
169.2753479899
 11
134.0589234022
 21
169.381037179
  0
LINE
  5
2EB
100
AcDbEntity
  8
0
100
AcDbLine
 62
7
  6
CONTINUOUS
 10
136.3683244789
 20
170.381037179
 11
136.3683244789
 21
174.381037179
  0
LINE
  5
2EC
100
AcDbEntity
  8
0
100
AcDbLine
 62
7
  6
CONTINUOUS
 10
112.032097818
 20
75.2929164454
 11
111.3727311534
 21
73.9988365025
  0
LINE
  5
2ED
100
AcDbEntity
  8
0
100
AcDbLine
 62
7
  6
CONTINUOUS
 10
114.9095911497
 20
78.869787179
 11
111.8562598936
 21
72.877287179
  0
LINE
  5
2EE
100
AcDbEntity
  8
0
100
AcDbLine
 62
7
  6
CONTINUOUS
 10
116.2283244789
 20
78.869787179
 11
113.1749932228
 21
72.877287179
  0
LINE
  5
2EF
100
AcDbEntity
  8
0
100
AcDbLine
 62
7
  6
CONTINUOUS
 10
78.7781223044
 20
98.0680817028
 11
77.3683244789
 21
98.0680817028
  0
LINE
  5
2F0
100
AcDbEntity
  8
0
100
AcDbLine
 62
7
  6
CONTINUOUS
 10
115.6092933245
 20
119.5550599939
 11
115.0358868935
 21
119.9565634993
  0
LINE
  5
2F1
100
AcDbEntity
  8
0
100
AcDbLine
 62
7
  6
CONTINUOUS
 10
162.5217691313
 20
52.432973452
 11
162.5214966486
 21
52.4334858415
  0
LINE
  5
2F2
100
AcDbEntity
  8
0
100
AcDbLine
 62
7
  6
CONTINUOUS
 10
162.5214966486
 20
52.4334858415
 11
163.1392817596
 21
51.2470215096
  0
LINE
  5
2F3
100
AcDbEntity
  8
0
100
AcDbLine
 62
7
  6
CONTINUOUS
 10
107.6177852623
 20
165.1223637582
 11
107.6152242423
 21
165.1279369424
  0
LINE
  5
2F4
100
AcDbEntity
  8
0
100
AcDbLine
 62
7
  6
CONTINUOUS
 10
111.2109288648
 20
174.581037179
 11
111.2876775188
 21
174.381037179
  0
LINE
  5
2F5
100
AcDbEntity
  8
0
100
AcDbLine
 62
7
  6
CONTINUOUS
 10
140.8002264809
 20
112.431037179
 11
140.8002264809
 21
41.431037179
  0
LINE
  5
2F6
100
AcDbEntity
  8
0
100
AcDbLine
 62
7
  6
CONTINUOUS
 10
141.3198417232
 20
112.731037179
 11
141.3198417232
 21
41.131037179
  0
LINE
  5
2F7
100
AcDbEntity
  8
0
100
AcDbLine
 62
7
  6
CONTINUOUS
 10
141.5796493443
 20
40.681037179
 11
141.5796493443
 21
113.181037179
  0
LINE
  5
2F8
100
AcDbEntity
  8
0
100
AcDbLine
 62
7
  6
CONTINUOUS
 10
144.8683244789
 20
113.181037179
 11
144.8683244789
 21
40.681037179
  0
LINE
  5
2F9
100
AcDbEntity
  8
0
100
AcDbLine
 62
7
  6
CONTINUOUS
 10
147.1604144549
 20
113.181037179
 11
147.1604144549
 21
40.681037179
  0
LINE
  5
2FA
100
AcDbEntity
  8
0
100
AcDbLine
 62
7
  6
CONTINUOUS
 10
147.4036035945
 20
112.7598653797
 11
147.4036035945
 21
41.1022089784
  0
LINE
  5
2FB
100
AcDbEntity
  8
0
100
AcDbLine
 62
7
  6
CONTINUOUS
 10
141.3198417232
 20
112.731037179
 11
141.5796493443
 21
113.181037179
  0
LINE
  5
2FC
100
AcDbEntity
  8
0
100
AcDbLine
 62
7
  6
CONTINUOUS
 10
132.5440604102
 20
112.1067731103
 11
132.6925885476
 21
112.2553012477
  0
LINE
  5
2FD
100
AcDbEntity
  8
0
100
AcDbLine
 62
7
  6
CONTINUOUS
 10
77.9992233917
 20
101.426537179
 11
77.7992233917
 21
101.426537179
  0
LINE
  5
2FE
100
AcDbEntity
  8
0
100
AcDbLine
 62
7
  6
CONTINUOUS
 10
76.1852233917
 20
101.426537179
 11
75.9852233917
 21
101.426537179
  0
LINE
  5
2FF
100
AcDbEntity
  8
0
100
AcDbLine
 62
7
  6
CONTINUOUS
 10
74.3712233917
 20
101.426537179
 11
74.1712233917
 21
101.426537179
  0
LINE
  5
300
100
AcDbEntity
  8
0
100
AcDbLine
 62
7
  6
CONTINUOUS
 10
72.5572233917
 20
101.426537179
 11
72.3572233917
 21
101.426537179
  0
LINE
  5
301
100
AcDbEntity
  8
0
100
AcDbLine
 62
7
  6
CONTINUOUS
 10
78.8683244789
 20
102.588537179
 11
78.6041223044
 21
102.588537179
  0
LINE
  5
302
100
AcDbEntity
  8
0
100
AcDbLine
 62
7
  6
CONTINUOUS
 10
77.1943244789
 20
102.588537179
 11
76.7901223044
 21
102.588537179
  0
LINE
  5
303
100
AcDbEntity
  8
0
100
AcDbLine
 62
7
  6
CONTINUOUS
 10
75.3803244789
 20
102.588537179
 11
74.9761223044
 21
102.588537179
  0
LINE
  5
304
100
AcDbEntity
  8
0
100
AcDbLine
 62
7
  6
CONTINUOUS
 10
73.5663244789
 20
102.588537179
 11
73.1621223044
 21
102.588537179
  0
LINE
  5
305
100
AcDbEntity
  8
0
100
AcDbLine
 62
7
  6
CONTINUOUS
 10
162.6401441955
 20
102.621037179
 11
162.2385134601
 21
102.621037179
  0
LINE
  5
306
100
AcDbEntity
  8
0
100
AcDbLine
 62
7
  6
CONTINUOUS
 10
160.8261441955
 20
102.621037179
 11
160.4245134601
 21
102.621037179
  0
LINE
  5
307
100
AcDbEntity
  8
0
100
AcDbLine
 62
7
  6
CONTINUOUS
 10
159.0121441955
 20
102.621037179
 11
156.8683244789
 21
102.621037179
  0
LINE
  5
308
100
AcDbEntity
  8
0
100
AcDbLine
 62
7
  6
CONTINUOUS
 10
150.4639262606
 20
102.8860819448
 11
156.3324260941
 21
102.8860819448
  0
LINE
  5
309
100
AcDbEntity
  8
0
100
AcDbLine
 62
7
  6
CONTINUOUS
 10
180.5022990751
 20
103.2969898205
 11
164.7343498827
 21
103.2969898205
  0
LINE
  5
30A
100
AcDbEntity
  8
0
100
AcDbLine
 62
7
  6
CONTINUOUS
 10
55.2343498827
 20
103.2969898205
 11
71.0022990751
 21
103.2969898205
  0
LINE
  5
30B
100
AcDbEntity
  8
0
100
AcDbLine
 62
7
  6
CONTINUOUS
 10
79.9263920413
 20
104.1381439602
 11
96.9943937934
 21
104.1381439602
  0
LINE
  5
30C
100
AcDbEntity
  8
0
100
AcDbLine
 62
7
  6
CONTINUOUS
 10
78.8683244789
 20
104.431037179
 11
96.9946037664
 21
104.431037179
  0
LINE
  5
30D
100
AcDbEntity
  8
0
100
AcDbLine
 62
7
  6
CONTINUOUS
 10
150.4639262606
 20
104.431037179
 11
156.7343498827
 21
104.431037179
  0
LINE
  5
30E
100
AcDbEntity
  8
0
100
AcDbLine
 62
7
  6
CONTINUOUS
 10
183.1683244789
 20
104.931037179
 11
181.6569996135
 21
104.931037179
  0
LINE
  5
30F
100
AcDbEntity
  8
0
100
AcDbLine
 62
7
  6
CONTINUOUS
 10
52.5683244789
 20
104.931037179
 11
54.0796493443
 21
104.931037179
  0
LINE
  5
310
100
AcDbEntity
  8
GEOM
100
AcDbLine
 62
7
  6
CONTINUOUS
 10
54.0796493443
 20
104.931037179
 11
55.2343498827
 21
104.931037179
  0
LINE
  5
311
100
AcDbEntity
  8
0
100
AcDbLine
 62
7
  6
CONTINUOUS
 10
55.2343498827
 20
104.931037179
 11
71.8683244789
 21
104.931037179
  0
LINE
  5
312
100
AcDbEntity
  8
0
100
AcDbLine
 62
7
  6
CONTINUOUS
 10
163.8683244789
 20
104.931037179
 11
180.5022990751
 21
104.931037179
  0
LINE
  5
313
100
AcDbEntity
  8
GEOM
100
AcDbLine
 62
7
  6
CONTINUOUS
 10
180.5022990751
 20
104.931037179
 11
181.6569996135
 21
104.931037179
  0
LINE
  5
314
100
AcDbEntity
  8
0
100
AcDbLine
 62
7
  6
CONTINUOUS
 10
159.0183758961
 20
102.6150528485
 11
159.0121442596
 21
102.621037179
  0
LINE
  5
315
100
AcDbEntity
  8
0
100
AcDbLine
 62
7
  6
CONTINUOUS
 10
100.0703531348
 20
154.7290085231
 11
105.1956255008
 21
149.6037361572
  0
LINE
  5
316
100
AcDbEntity
  8
0
100
AcDbLine
 62
7
  6
CONTINUOUS
 10
100.5580934559
 20
154.6314604589
 11
104.6073291127
 21
150.5822141215
  0
LINE
  5
317
100
AcDbEntity
  8
0
100
AcDbLine
 62
7
  6
CONTINUOUS
 10
120.1342558171
 20
143.931037179
 11
118.9061986942
 21
145.8963393965
  0
LINE
  5
318
100
AcDbEntity
  8
0
100
AcDbLine
 62
7
  6
CONTINUOUS
 10
120.7533244789
 20
143.931037179
 11
119.5252673559
 21
145.8963393965
  0
LINE
  5
319
100
AcDbEntity
  8
0
100
AcDbLine
 62
7
  6
CONTINUOUS
 10
110.8683244789
 20
174.581037179
 11
110.9685872098
 21
174.381037179
  0
LINE
  5
31A
100
AcDbEntity
  8
0
100
AcDbLine
 62
7
  6
CONTINUOUS
 10
150.2434610798
 20
104.9574210644
 11
147.4036035945
 21
112.7598653797
  0
LINE
  5
31B
100
AcDbEntity
  8
0
100
AcDbLine
 62
7
  6
CONTINUOUS
 10
149.6975057284
 20
104.9711937051
 11
149.6975057284
 21
103.2989482088
  0
LINE
  5
31C
100
AcDbEntity
  8
0
100
AcDbLine
 62
7
  6
CONTINUOUS
 10
149.6975057284
 20
90.2178958028
 11
149.6975057284
 21
86.1807380079
  0
LINE
  5
31D
100
AcDbEntity
  8
0
100
AcDbLine
 62
7
  6
CONTINUOUS
 10
149.6975057284
 20
67.6813363022
 11
149.6975057284
 21
63.64417851
  0
LINE
  5
31E
100
AcDbEntity
  8
0
100
AcDbLine
 62
7
  6
CONTINUOUS
 10
149.6975057284
 20
50.5631261267
 11
149.6975057284
 21
48.890880645
  0
LINE
  5
31F
100
AcDbEntity
  8
0
100
AcDbLine
 62
7
  6
CONTINUOUS
 10
150.449259825
 20
104.4311707775
 11
150.449259825
 21
102.8858941917
  0
LINE
  5
320
100
AcDbEntity
  8
0
100
AcDbLine
 62
7
  6
CONTINUOUS
 10
150.449259825
 20
89.8672420798
 11
150.449259825
 21
86.1366143631
  0
LINE
  5
321
100
AcDbEntity
  8
0
100
AcDbLine
 62
7
  6
CONTINUOUS
 10
150.449259825
 20
67.7254599865
 11
150.449259825
 21
63.9948322701
  0
LINE
  5
322
100
AcDbEntity
  8
0
100
AcDbLine
 62
7
  6
CONTINUOUS
 10
150.449259825
 20
50.9761801624
 11
150.449259825
 21
49.4309035792
  0
LINE
  5
323
100
AcDbEntity
  8
0
100
AcDbLine
 62
7
  6
CONTINUOUS
 10
156.3324260941
 20
104.431037179
 11
156.3324260941
 21
102.8860819448
  0
LINE
  5
324
100
AcDbEntity
  8
0
100
AcDbLine
 62
7
  6
CONTINUOUS
 10
156.3324260941
 20
89.8668653785
 11
156.3324260941
 21
86.1370134988
  0
LINE
  5
325
100
AcDbEntity
  8
0
100
AcDbLine
 62
7
  6
CONTINUOUS
 10
156.3324260941
 20
67.7250608593
 11
156.3324260941
 21
63.9952089795
  0
LINE
  5
326
100
AcDbEntity
  8
0
100
AcDbLine
 62
7
  6
CONTINUOUS
 10
156.3324260941
 20
50.9759924133
 11
156.3324260941
 21
49.431037179
  0
LINE
  5
327
100
AcDbEntity
  8
0
100
AcDbLine
 62
7
  6
CONTINUOUS
 10
156.8683244789
 20
49.931037179
 11
156.8683244789
 21
103.931037179
  0
LINE
  5
328
100
AcDbEntity
  8
0
100
AcDbLine
 62
7
  6
CONTINUOUS
 10
103.1168526163
 20
111.931037179
 11
104.0796452338
 21
111.931037179
  0
LINE
  5
329
100
AcDbEntity
  8
0
100
AcDbLine
 62
7
  6
CONTINUOUS
 10
131.657003724
 20
111.931037179
 11
132.1197963415
 21
111.931037179
  0
LINE
  5
32A
100
AcDbEntity
  8
0
100
AcDbLine
 62
7
  6
CONTINUOUS
 10
133.1168526163
 20
112.431037179
 11
140.8002264809
 21
112.431037179
  0
LINE
  5
32B
100
AcDbEntity
  8
0
100
AcDbLine
 62
7
  6
CONTINUOUS
 10
141.5796493443
 20
113.181037179
 11
147.1604144549
 21
113.181037179
  0
LINE
  5
32C
100
AcDbEntity
  8
0
100
AcDbLine
 62
7
  6
CONTINUOUS
 10
116.8683244789
 20
116.931037179
 11
116.1683244789
 21
116.931037179
  0
LWPOLYLINE
  5
32D
100
AcDbEntity
  8
0
100
AcDbPolyline
 62
7
  6
CONTINUOUS
 90
14
 70
0
 10
131.6570052868
 20
111.9310195626
 10
131.6416923958
 20
111.9311675099
 10
131.5402077615
 20
111.9397103497
 10
131.4406671754
 20
111.9612603453
 10
131.3447324528
 20
111.9954585806
 10
131.2540036879
 20
112.0417351787
 10
131.1699941105
 20
112.0993188545
 10
131.0941061316
 20
112.1672485857
 10
131.0276056104
 20
112.2443910075
 10
130.9716011012
 20
112.3294598763
 10
130.9270265019
 20
112.4210364833
 10
130.8946251334
 20
112.5175934907
 10
130.8749372275
 20
112.6175206944
 10
130.8682908525
 20
112.7197184615
  0
LINE
  5
32E
100
AcDbEntity
  8
0
100
AcDbLine
 62
7
  6
CONTINUOUS
 10
162.6463758961
 20
102.6150528485
 11
162.6401301015
 21
102.6210371484
  0
LINE
  5
32F
100
AcDbEntity
  8
0
100
AcDbLine
 62
7
  6
CONTINUOUS
 10
160.8323758961
 20
102.6150528485
 11
160.826143937
 21
102.621037179
  0
LINE
  5
330
100
AcDbEntity
  8
0
100
AcDbLine
 62
7
  6
CONTINUOUS
 10
104.2683244789
 20
159.031037179
 11
104.3279187477
 21
158.9714429102
  0
LINE
  5
331
100
AcDbEntity
  8
0
100
AcDbLine
 62
7
  6
CONTINUOUS
 10
159.6361610071
 20
101.4285885165
 11
159.0183758961
 21
102.6150528485
  0
LINE
  5
332
100
AcDbEntity
  8
0
100
AcDbLine
 62
7
  6
CONTINUOUS
 10
161.4501610071
 20
101.4285885165
 11
160.8323758961
 21
102.6150528485
  0
LINE
  5
333
100
AcDbEntity
  8
0
100
AcDbLine
 62
7
  6
CONTINUOUS
 10
163.2641610071
 20
101.4285885165
 11
162.6463758961
 21
102.6150528485
  0
LINE
  5
334
100
AcDbEntity
  8
0
100
AcDbLine
 62
7
  6
CONTINUOUS
 10
159.6368794339
 20
101.4271329385
 11
159.6361610071
 21
101.4285885165
  0
LINE
  5
335
100
AcDbEntity
  8
0
100
AcDbLine
 62
7
  6
CONTINUOUS
 10
163.2648793258
 20
101.427133169
 11
163.2641610071
 21
101.4285885165
  0
LINE
  5
336
100
AcDbEntity
  8
0
100
AcDbLine
 62
7
  6
CONTINUOUS
 10
156.8683244789
 20
103.931037179
 11
156.7343480496
 21
104.4310440204
  0
LINE
  5
337
100
AcDbEntity
  8
0
100
AcDbLine
 62
7
  6
CONTINUOUS
 10
159.8683244789
 20
186.681037179
 11
159.8683244789
 21
192.081037179
  0
LINE
  5
338
100
AcDbEntity
  8
0
100
AcDbLine
 62
7
  6
CONTINUOUS
 10
160.6683244789
 20
185.881037179
 11
160.6683244789
 21
192.881037179
  0
LINE
  5
339
100
AcDbEntity
  8
0
100
AcDbLine
 62
7
  6
CONTINUOUS
 10
163.8683244789
 20
48.931037179
 11
163.8683244789
 21
104.931037179
  0
LINE
  5
33A
100
AcDbEntity
  8
0
100
AcDbLine
 62
7
  6
CONTINUOUS
 10
164.7343498827
 20
48.931037179
 11
164.7343498827
 21
50.5650845375
  0
LINE
  5
33B
100
AcDbEntity
  8
0
100
AcDbLine
 62
7
  6
CONTINUOUS
 10
164.7343498827
 20
63.6990100741
 11
164.7343498827
 21
67.6439493685
  0
LINE
  5
33C
100
AcDbEntity
  8
0
100
AcDbLine
 62
7
  6
CONTINUOUS
 10
164.7343498827
 20
86.2181249895
 11
164.7343498827
 21
90.163064284
  0
LINE
  5
33D
100
AcDbEntity
  8
0
100
AcDbLine
 62
7
  6
CONTINUOUS
 10
164.7343498827
 20
103.2969898205
 11
164.7343498827
 21
104.931037179
  0
LINE
  5
33E
100
AcDbEntity
  8
0
100
AcDbLine
 62
7
  6
CONTINUOUS
 10
120.6683244789
 20
120.031037179
 11
119.9683244789
 21
120.031037179
  0
LINE
  5
33F
100
AcDbEntity
  8
0
100
AcDbLine
 62
7
  6
CONTINUOUS
 10
116.8683244789
 20
121.431037179
 11
116.0683244789
 21
121.431037179
  0
LINE
  5
340
100
AcDbEntity
  8
0
100
AcDbLine
 62
7
  6
CONTINUOUS
 10
120.5783244789
 20
123.631037179
 11
120.1532711824
 21
123.631037179
  0
LINE
  5
341
100
AcDbEntity
  8
0
100
AcDbLine
 62
7
  6
CONTINUOUS
 10
118.8283244789
 20
123.631037179
 11
118.1283244789
 21
123.631037179
  0
LINE
  5
342
100
AcDbEntity
  8
0
100
AcDbLine
 62
7
  6
CONTINUOUS
 10
115.9183244789
 20
123.631037179
 11
115.2183244789
 21
123.631037179
  0
LINE
  5
343
100
AcDbEntity
  8
0
100
AcDbLine
 62
7
  6
CONTINUOUS
 10
116.6183244789
 20
125.241037179
 11
115.9183244789
 21
125.241037179
  0
LINE
  5
344
100
AcDbEntity
  8
0
100
AcDbLine
 62
7
  6
CONTINUOUS
 10
116.6183244789
 20
125.941037179
 11
115.9183244789
 21
125.941037179
  0
LINE
  5
345
100
AcDbEntity
  8
0
100
AcDbLine
 62
7
  6
CONTINUOUS
 10
121.3683244789
 20
160.381037179
 11
112.9773281671
 21
170.381037179
  0
LINE
  5
346
100
AcDbEntity
  8
0
100
AcDbLine
 62
7
  6
CONTINUOUS
 10
156.8683244789
 20
49.931037179
 11
156.7343480496
 21
49.4310303377
  0
LINE
  5
347
100
AcDbEntity
  8
0
100
AcDbLine
 62
7
  6
CONTINUOUS
 10
150.2434610798
 20
48.9046532937
 11
147.4036035945
 21
41.1022089784
  0
LINE
  5
348
100
AcDbEntity
  8
0
100
AcDbLine
 62
7
  6
CONTINUOUS
 10
160.4182817596
 20
102.6150528485
 11
159.8004966486
 21
101.4285885165
  0
LINE
  5
349
100
AcDbEntity
  8
0
100
AcDbLine
 62
7
  6
CONTINUOUS
 10
162.2322817596
 20
102.6150528485
 11
161.6144966486
 21
101.4285885165
  0
LINE
  5
34A
100
AcDbEntity
  8
0
100
AcDbLine
 62
7
  6
CONTINUOUS
 10
163.8683244789
 20
102.2732808074
 11
163.4284966486
 21
101.4285885165
  0
LINE
  5
34B
100
AcDbEntity
  8
0
100
AcDbLine
 62
7
  6
CONTINUOUS
 10
161.6146495561
 20
101.4288787381
 11
161.6144966486
 21
101.4285885165
  0
LWPOLYLINE
  5
34C
100
AcDbEntity
  8
0
100
AcDbPolyline
 62
7
  6
CONTINUOUS
 90
12
 70
0
 10
161.6146495561
 20
101.4288787381
 10
161.6136872203
 20
101.4270830806
 10
161.6081459606
 20
101.4186568022
 10
161.5959640006
 20
101.4055990432
 10
161.5766480386
 20
101.3923106386
 10
161.552305504
 20
101.3832974512
 10
161.5223281179
 20
101.381607015
 10
161.4911026564
 20
101.3907521689
 10
161.4689043135
 20
101.405419556
 10
161.45753968
 20
101.4173261287
 10
161.4518938136
 20
101.4254833564
 10
161.4502964031
 20
101.4283257958
  0
LWPOLYLINE
  5
34D
100
AcDbEntity
  8
0
100
AcDbPolyline
 62
7
  6
CONTINUOUS
 90
11
 70
0
 10
159.8005812513
 20
101.4287499435
 10
159.7979353623
 20
101.4241321127
 10
159.7915984512
 20
101.4154587473
 10
159.7794825563
 20
101.4034902061
 10
159.7611955338
 20
101.3915621243
 10
159.7377250623
 20
101.383168483
 10
159.7076059581
 20
101.3816917042
 10
159.6757260913
 20
101.3914245987
 10
159.6529639809
 20
101.4071664908
 10
159.6410926137
 20
101.4205426737
 10
159.6368794339
 20
101.4271329385
  0
LWPOLYLINE
  5
34E
100
AcDbEntity
  8
0
100
AcDbPolyline
 62
7
  6
CONTINUOUS
 90
11
 70
0
 10
163.4285812616
 20
101.4287499629
 10
163.4259358952
 20
101.4241329616
 10
163.4195996791
 20
101.4154602143
 10
163.407485394
 20
101.4034925406
 10
163.3892007419
 20
101.3915647638
 10
163.3657322369
 20
101.3831700539
 10
163.3356138431
 20
101.3816907458
 10
163.3037332583
 20
101.3914209937
 10
163.2809693003
 20
101.4071615675
 10
163.2690955588
 20
101.4205385484
 10
163.2648793258
 20
101.427133169
  0
LINE
  5
34F
100
AcDbEntity
  8
0
100
AcDbLine
 62
7
  6
CONTINUOUS
 10
160.4182817596
 20
102.6150528485
 11
160.4245135243
 21
102.621037179
  0
LINE
  5
350
100
AcDbEntity
  8
0
100
AcDbLine
 62
7
  6
CONTINUOUS
 10
162.2322817596
 20
102.6150528485
 11
162.2385132016
 21
102.621037179
  0
LINE
  5
351
100
AcDbEntity
  8
0
100
AcDbLine
 62
7
  6
CONTINUOUS
 10
116.6183244789
 20
127.431037179
 11
115.9183244789
 21
127.431037179
  0
LINE
  5
352
100
AcDbEntity
  8
0
100
AcDbLine
 62
7
  6
CONTINUOUS
 10
120.5783244789
 20
128.131037179
 11
119.8783244789
 21
128.131037179
  0
LINE
  5
353
100
AcDbEntity
  8
0
100
AcDbLine
 62
7
  6
CONTINUOUS
 10
118.5533777754
 20
128.131037179
 11
118.1283244789
 21
128.131037179
  0
LINE
  5
354
100
AcDbEntity
  8
0
100
AcDbLine
 62
7
  6
CONTINUOUS
 10
116.6183244789
 20
128.131037179
 11
115.2183244789
 21
128.131037179
  0
LINE
  5
355
100
AcDbEntity
  8
0
100
AcDbLine
 62
7
  6
CONTINUOUS
 10
180.5022990751
 20
48.931037179
 11
180.5022990751
 21
50.5650845375
  0
LINE
  5
356
100
AcDbEntity
  8
0
100
AcDbLine
 62
7
  6
CONTINUOUS
 10
180.5022990751
 20
63.6990100741
 11
180.5022990751
 21
67.6439493685
  0
LINE
  5
357
100
AcDbEntity
  8
0
100
AcDbLine
 62
7
  6
CONTINUOUS
 10
180.5022990751
 20
86.2181249895
 11
180.5022990751
 21
90.163064284
  0
LINE
  5
358
100
AcDbEntity
  8
0
100
AcDbLine
 62
7
  6
CONTINUOUS
 10
180.5022990751
 20
103.2969898205
 11
180.5022990751
 21
104.931037179
  0
LINE
  5
359
100
AcDbEntity
  8
GEOM
100
AcDbLine
 62
7
  6
CONTINUOUS
 10
181.2239869116
 20
48.931037179
 11
181.2239869116
 21
54.4803968764
  0
LINE
  5
35A
100
AcDbEntity
  8
GEOM
100
AcDbLine
 62
7
  6
CONTINUOUS
 10
181.2239869116
 20
59.7836977353
 11
181.2239869116
 21
73.181037179
  0
LINE
  5
35B
100
AcDbEntity
  8
GEOM
100
AcDbLine
 62
7
  6
CONTINUOUS
 10
181.2239869116
 20
80.681037179
 11
181.2239869116
 21
94.0783766228
  0
LINE
  5
35C
100
AcDbEntity
  8
GEOM
100
AcDbLine
 62
7
  6
CONTINUOUS
 10
181.2239869116
 20
99.3816774817
 11
181.2239869116
 21
104.931037179
  0
LINE
  5
35D
100
AcDbEntity
  8
GEOM
100
AcDbLine
 62
7
  6
CONTINUOUS
 10
181.6569996135
 20
48.931037179
 11
181.6569996135
 21
104.931037179
  0
LINE
  5
35E
100
AcDbEntity
  8
0
100
AcDbLine
 62
7
  6
CONTINUOUS
 10
106.8759116813
 20
164.1718381565
 11
107.6665811623
 21
163.7599354848
  0
LINE
  5
35F
100
AcDbEntity
  8
0
100
AcDbLine
 62
7
  6
CONTINUOUS
 10
107.6177852623
 20
165.1223637582
 11
107.6665816356
 21
165.0969416981
  0
LINE
  5
360
100
AcDbEntity
  8
0
100
AcDbLine
 62
7
  6
CONTINUOUS
 10
124.525720093
 20
174.581037179
 11
124.7659600212
 21
174.381037179
  0
LINE
  5
361
100
AcDbEntity
  8
0
100
AcDbLine
 62
7
  6
CONTINUOUS
 10
183.1683244789
 20
104.931037179
 11
183.1683244789
 21
48.931037179
  0
LINE
  5
362
100
AcDbEntity
  8
0
100
AcDbLine
 62
7
  6
CONTINUOUS
 10
183.8683244789
 20
104.231037179
 11
183.8683244789
 21
49.631037179
  0
LINE
  5
363
100
AcDbEntity
  8
0
100
AcDbLine
 62
7
  6
CONTINUOUS
 10
158.1113758961
 20
51.2470215096
 11
158.7291610071
 21
52.4334858415
  0
LINE
  5
364
100
AcDbEntity
  8
0
100
AcDbLine
 62
7
  6
CONTINUOUS
 10
159.9253758961
 20
51.2470215096
 11
160.5431610071
 21
52.4334858415
  0
LINE
  5
365
100
AcDbEntity
  8
0
100
AcDbLine
 62
7
  6
CONTINUOUS
 10
161.7393758961
 20
51.2470215096
 11
162.3571610071
 21
52.4334858415
  0
LWPOLYLINE
  5
366
100
AcDbEntity
  8
0
100
AcDbPolyline
 62
7
  6
CONTINUOUS
 90
11
 70
0
 10
158.7292469671
 20
52.4336520128
 10
158.7298464553
 20
52.4347637264
 10
158.7340867524
 20
52.4414751474
 10
158.7443561255
 20
52.4533839574
 10
158.7673372829
 20
52.4699325126
 10
158.8013039928
 20
52.4804665411
 10
158.8337627033
 20
52.4781886049
 10
158.8591637212
 20
52.4678266924
 10
158.8785239925
 20
52.4531840663
 10
158.8899445446
 20
52.4394750844
 10
158.8908250302
 20
52.4381160393
  0
LWPOLYLINE
  5
367
100
AcDbEntity
  8
0
100
AcDbPolyline
 62
7
  6
CONTINUOUS
 90
10
 70
0
 10
160.5430550762
 20
52.4332840513
 10
160.5450856037
 20
52.4369106128
 10
160.553599186
 20
52.4484050619
 10
160.5753261474
 20
52.4665295015
 10
160.6093949852
 20
52.4796019228
 10
160.6431479358
 20
52.4792370875
 10
160.6705463158
 20
52.469296022
 10
160.6918577091
 20
52.4538360616
 10
160.7042061584
 20
52.4390779758
 10
160.7050574087
 20
52.4377458479
  0
LINE
  5
368
100
AcDbEntity
  8
0
100
AcDbLine
 62
7
  6
CONTINUOUS
 10
97.7019231611
 20
66.2085053738
 11
96.9948774601
 21
65.954385834
  0
LINE
  5
369
100
AcDbEntity
  8
0
100
AcDbLine
 62
7
  6
CONTINUOUS
 10
120.7533244789
 20
143.931037179
 11
120.1342558171
 21
143.931037179
  0
LINE
  5
36A
100
AcDbEntity
  8
0
100
AcDbLine
 62
7
  6
CONTINUOUS
 10
118.1283244789
 20
143.931037179
 11
116.7558244789
 21
143.931037179
  0
LINE
  5
36B
100
AcDbEntity
  8
0
100
AcDbLine
 62
7
  6
CONTINUOUS
 10
117.6033244789
 20
144.456037179
 11
116.7558244789
 21
144.456037179
  0
LINE
  5
36C
100
AcDbEntity
  8
0
100
AcDbLine
 62
7
  6
CONTINUOUS
 10
118.9061986942
 20
145.8963393965
 11
118.1283244789
 21
145.8963393965
  0
LINE
  5
36D
100
AcDbEntity
  8
0
100
AcDbLine
 62
7
  6
CONTINUOUS
 10
119.3283244789
 20
146.406037179
 11
118.1283244789
 21
146.406037179
  0
LINE
  5
36E
100
AcDbEntity
  8
0
100
AcDbLine
 62
7
  6
CONTINUOUS
 10
119.3283244789
 20
147.906037179
 11
118.1283244789
 21
147.906037179
  0
LINE
  5
36F
100
AcDbEntity
  8
0
100
AcDbLine
 62
7
  6
CONTINUOUS
 10
117.6033244789
 20
147.906037179
 11
116.7558244789
 21
147.906037179
  0
LINE
  5
370
100
AcDbEntity
  8
0
100
AcDbLine
 62
7
  6
CONTINUOUS
 10
119.3283244789
 20
148.431037179
 11
116.7558244789
 21
148.431037179
  0
LINE
  5
371
100
AcDbEntity
  8
0
100
AcDbLine
 62
7
  6
CONTINUOUS
 10
130.8683244789
 20
149.6825090416
 11
105.4102314614
 21
149.6825090416
  0
LINE
  5
372
100
AcDbEntity
  8
0
100
AcDbLine
 62
7
  6
CONTINUOUS
 10
104.9897855987
 20
149.6825090416
 11
104.8683244789
 21
149.6825090416
  0
LINE
  5
373
100
AcDbEntity
  8
0
100
AcDbLine
 62
7
  6
CONTINUOUS
 10
105.2344811106
 20
150.1067731103
 11
131.0440604102
 21
150.1067731103
  0
LINE
  5
374
100
AcDbEntity
  8
0
100
AcDbLine
 62
7
  6
CONTINUOUS
 10
131.1925885476
 20
150.2553012477
 11
105.0798510777
 21
150.2553012477
  0
LINE
  5
375
100
AcDbEntity
  8
0
100
AcDbLine
 62
7
  6
CONTINUOUS
 10
104.6018253175
 20
150.6795653165
 11
131.3683244789
 21
150.6795653165
  0
LINE
  5
376
100
AcDbEntity
  8
0
100
AcDbLine
 62
7
  6
CONTINUOUS
 10
110.8683244789
 20
174.581037179
 11
111.2524683083
 21
174.381037179
  0
LINE
  5
377
100
AcDbEntity
  8
0
100
AcDbLine
 62
7
  6
CONTINUOUS
 10
122.8683244789
 20
176.7357377174
 11
124.5683244789
 21
175.7542422598
  0
LINE
  5
378
100
AcDbEntity
  8
0
100
AcDbLine
 62
7
  6
CONTINUOUS
 10
163.5533758961
 20
51.2470215096
 11
163.8683244789
 21
51.8518877116
  0
LWPOLYLINE
  5
379
100
AcDbEntity
  8
0
100
AcDbPolyline
 62
7
  6
CONTINUOUS
 90
11
 70
0
 10
162.3572471728
 20
52.4336524129
 10
162.3578497835
 20
52.4347697536
 10
162.3620936612
 20
52.4414848694
 10
162.3723677482
 20
52.4533952362
 10
162.3953547807
 20
52.4699416479
 10
162.4293260454
 20
52.4804690437
 10
162.4617842547
 20
52.4781831409
 10
162.487178961
 20
52.4678178605
 10
162.5065312546
 20
52.4531769666
 10
162.5179468749
 20
52.4394715717
 10
162.5188270402
 20
52.4381128576
  0
LINE
  5
37A
100
AcDbEntity
  8
0
100
AcDbLine
 62
7
  6
CONTINUOUS
 10
98.8683244789
 20
153.381037179
 11
101.4183244789
 21
153.381037179
  0
LINE
  5
37B
100
AcDbEntity
  8
0
100
AcDbLine
 62
7
  6
CONTINUOUS
 10
121.3683244789
 20
153.381037179
 11
128.8683244789
 21
153.381037179
  0
LINE
  5
37C
100
AcDbEntity
  8
0
100
AcDbLine
 62
7
  6
CONTINUOUS
 10
100.5580934559
 20
157.741268202
 11
99.8683244789
 21
157.741268202
  0
LINE
  5
37D
100
AcDbEntity
  8
0
100
AcDbLine
 62
7
  6
CONTINUOUS
 10
104.8902274732
 20
158.1551295882
 11
100.9719548421
 21
158.1551295882
  0
LINE
  5
37E
100
AcDbEntity
  8
0
100
AcDbLine
 62
7
  6
CONTINUOUS
 10
100.5580934559
 20
158.431037179
 11
104.4502311666
 21
158.431037179
  0
LINE
  5
37F
100
AcDbEntity
  8
0
100
AcDbLine
 62
7
  6
CONTINUOUS
 10
104.7419288473
 20
158.731037179
 11
104.3683244789
 21
158.731037179
  0
LINE
  5
380
100
AcDbEntity
  8
0
100
AcDbLine
 62
7
  6
CONTINUOUS
 10
131.3683244789
 20
158.873894846
 11
130.8675611707
 21
158.873894846
  0
LINE
  5
381
100
AcDbEntity
  8
0
100
AcDbLine
 62
7
  6
CONTINUOUS
 10
121.3683244789
 20
158.873894846
 11
104.3683244789
 21
158.873894846
  0
LINE
  5
382
100
AcDbEntity
  8
0
100
AcDbLine
 62
7
  6
CONTINUOUS
 10
121.3683244789
 20
158.9714418046
 11
104.3415943037
 21
158.9714436615
  0
LINE
  5
383
100
AcDbEntity
  8
0
100
AcDbLine
 62
7
  6
CONTINUOUS
 10
131.4087302101
 20
158.9714429102
 11
130.9030641881
 21
158.9714385846
  0
LINE
  5
384
100
AcDbEntity
  8
0
100
AcDbLine
 62
7
  6
CONTINUOUS
 10
104.3415943037
 20
158.9714436615
 11
104.3279187477
 21
158.9714429102
  0
LINE
  5
385
100
AcDbEntity
  8
0
100
AcDbLine
 62
7
  6
CONTINUOUS
 10
104.2683244789
 20
159.031037179
 11
121.3683244789
 21
159.031037179
  0
LINE
  5
386
100
AcDbEntity
  8
0
100
AcDbLine
 62
7
  6
CONTINUOUS
 10
130.9247563025
 20
159.031037179
 11
131.4683244789
 21
159.031037179
  0
LINE
  5
387
100
AcDbEntity
  8
0
100
AcDbLine
 62
7
  6
CONTINUOUS
 10
98.8683244789
 20
160.381037179
 11
102.8683244789
 21
160.381037179
  0
LINE
  5
388
100
AcDbEntity
  8
0
100
AcDbLine
 62
7
  6
CONTINUOUS
 10
159.9253758961
 20
51.2470215096
 11
159.9191658888
 21
51.2410372516
  0
LINE
  5
389
100
AcDbEntity
  8
0
100
AcDbLine
 62
7
  6
CONTINUOUS
 10
161.7393758961
 20
51.2470215096
 11
161.73314442
 21
51.241037179
  0
LINE
  5
38A
100
AcDbEntity
  8
0
100
AcDbLine
 62
7
  6
CONTINUOUS
 10
163.5533758961
 20
51.2470215096
 11
163.5471440969
 21
51.241037179
  0
LINE
  5
38B
100
AcDbEntity
  8
0
100
AcDbLine
 62
7
  6
CONTINUOUS
 10
158.1113758961
 20
51.2470215096
 11
158.1051275542
 21
51.2410372217
  0
LINE
  5
38C
100
AcDbEntity
  8
0
100
AcDbLine
 62
7
  6
CONTINUOUS
 10
119.2286204194
 20
162.931037179
 11
104.2683244789
 21
162.931037179
  0
LINE
  5
38D
100
AcDbEntity
  8
0
100
AcDbLine
 62
7
  6
CONTINUOUS
 10
118.8090706038
 20
163.431037179
 11
104.7683244789
 21
163.431037179
  0
LINE
  5
38E
100
AcDbEntity
  8
0
100
AcDbLine
 62
7
  6
CONTINUOUS
 10
111.4338475331
 20
164.381037179
 11
106.8683244789
 21
164.381037179
  0
LINE
  5
38F
100
AcDbEntity
  8
0
100
AcDbLine
 62
7
  6
CONTINUOUS
 10
108.3939350709
 20
165.1810403515
 11
115.3305836451
 21
165.1810403803
  0
LINE
  5
390
100
AcDbEntity
  8
0
100
AcDbLine
 62
7
  6
CONTINUOUS
 10
117.1432416965
 20
165.381037179
 11
107.8683244789
 21
165.381037179
  0
LINE
  5
391
100
AcDbEntity
  8
0
100
AcDbLine
 62
7
  6
CONTINUOUS
 10
108.8683244789
 20
168.3036869098
 11
109.5934072613
 21
168.3036869098
  0
LINE
  5
392
100
AcDbEntity
  8
0
100
AcDbLine
 62
7
  6
CONTINUOUS
 10
108.8683244789
 20
168.881037179
 11
114.2359776139
 21
168.881037179
  0
LINE
  5
393
100
AcDbEntity
  8
0
100
AcDbLine
 62
7
  6
CONTINUOUS
 10
112.2052055183
 20
174.581037179
 11
113.6678706188
 21
174.381037179
  0
LINE
  5
394
100
AcDbEntity
  8
0
100
AcDbLine
 62
7
  6
CONTINUOUS
 10
121.982821245
 20
174.581037179
 11
123.3424625269
 21
174.381037179
  0
LINE
  5
395
100
AcDbEntity
  8
0
100
AcDbLine
 62
7
  6
CONTINUOUS
 10
111.2109288648
 20
174.581037179
 11
112.1818537774
 21
174.381037179
  0
LINE
  5
396
100
AcDbEntity
  8
0
100
AcDbLine
 62
7
  6
CONTINUOUS
 10
123.5314434395
 20
174.581037179
 11
124.3725507674
 21
174.381037179
  0
LINE
  5
397
100
AcDbEntity
  8
0
100
AcDbLine
 62
7
  6
CONTINUOUS
 10
113.3188383547
 20
169.981037179
 11
110.9683244789
 21
169.981037179
  0
LINE
  5
398
100
AcDbEntity
  8
0
100
AcDbLine
 62
7
  6
CONTINUOUS
 10
99.1419542991
 20
170.381037179
 11
112.9773281671
 21
170.381037179
  0
LINE
  5
399
100
AcDbEntity
  8
0
100
AcDbLine
 62
7
  6
CONTINUOUS
 10
113.2509579873
 20
170.381037179
 11
131.7495223254
 21
170.381037179
  0
LINE
  5
39A
100
AcDbEntity
  8
0
100
AcDbLine
 62
7
  6
CONTINUOUS
 10
134.6362736713
 20
170.381037179
 11
136.3683244789
 21
170.381037179
  0
LINE
  5
39B
100
AcDbEntity
  8
0
100
AcDbLine
 62
7
  6
CONTINUOUS
 10
102.8683244789
 20
174.381037179
 11
136.3683244789
 21
174.381037179
  0
LINE
  5
39C
100
AcDbEntity
  8
0
100
AcDbLine
 62
7
  6
CONTINUOUS
 10
124.8683244789
 20
174.581037179
 11
110.8683244789
 21
174.581037179
  0
LINE
  5
39D
100
AcDbEntity
  8
0
100
AcDbLine
 62
7
  6
CONTINUOUS
 10
124.8683244789
 20
175.2346270175
 11
110.8683244789
 21
175.2346270175
  0
LINE
  5
39E
100
AcDbEntity
  8
0
100
AcDbLine
 62
7
  6
CONTINUOUS
 10
124.5683244789
 20
175.7542422598
 11
111.1683244789
 21
175.7542422598
  0
LINE
  5
39F
100
AcDbEntity
  8
0
100
AcDbLine
 62
7
  6
CONTINUOUS
 10
115.7052055183
 20
174.581037179
 11
117.6877035356
 21
174.381037179
  0
LINE
  5
3A0
100
AcDbEntity
  8
0
100
AcDbLine
 62
7
  6
CONTINUOUS
 10
117.8683244789
 20
174.581037179
 11
119.8280303574
 21
174.381037179
  0
LINE
  5
3A1
100
AcDbEntity
  8
0
100
AcDbLine
 62
7
  6
CONTINUOUS
 10
113.7538277129
 20
174.581037179
 11
115.5650571502
 21
174.381037179
  0
LINE
  5
3A2
100
AcDbEntity
  8
0
100
AcDbLine
 62
7
  6
CONTINUOUS
 10
120.0314434395
 20
174.581037179
 11
121.7765275137
 21
174.381037179
  0
LINE
  5
3A3
100
AcDbEntity
  8
0
100
AcDbLine
 62
7
  6
CONTINUOUS
 10
112.8683244789
 20
180.081037179
 11
122.8683244789
 21
180.081037179
  0
LINE
  5
3A4
100
AcDbEntity
  8
0
100
AcDbLine
 62
7
  6
CONTINUOUS
 10
160.6683244789
 20
185.881037179
 11
256.6683244789
 21
185.881037179
  0
LINE
  5
3A5
100
AcDbEntity
  8
0
100
AcDbLine
 62
7
  6
CONTINUOUS
 10
156.2678194155
 20
187.381037179
 11
159.8683244789
 21
187.381037179
  0
LINE
  5
3A6
100
AcDbEntity
  8
0
100
AcDbLine
 62
7
  6
CONTINUOUS
 10
159.8683244789
 20
189.081037179
 11
259.8683244789
 21
189.081037179
  0
LINE
  5
3A7
100
AcDbEntity
  8
0
100
AcDbLine
 62
7
  6
CONTINUOUS
 10
159.8683244789
 20
189.681037179
 11
259.8683244789
 21
189.681037179
  0
LINE
  5
3A8
100
AcDbEntity
  8
0
100
AcDbLine
 62
7
  6
CONTINUOUS
 10
159.8683244789
 20
191.381037179
 11
155.8536058532
 21
191.381037179
  0
LINE
  5
3A9
100
AcDbEntity
  8
0
100
AcDbLine
 62
7
  6
CONTINUOUS
 10
160.6683244789
 20
192.881037179
 11
256.6683244789
 21
192.881037179
  0
LINE
  5
3AA
100
AcDbEntity
  8
0
100
AcDbLine
 62
7
  6
CONTINUOUS
 10
246.8683244789
 20
185.881037179
 11
246.8683244789
 21
192.881037179
  0
LINE
  5
3AB
100
AcDbEntity
  8
0
100
AcDbLine
 62
7
  6
CONTINUOUS
 10
259.8683244789
 20
189.081037179
 11
259.8683244789
 21
189.681037179
  0
ARC
  5
3AC
100
AcDbEntity
  8
0
100
AcDbCircle
 62
7
  6
CONTINUOUS
 10
-290.2411284612
 20
90.8282375282
 40
369.0902637286
100
AcDbArc
 50
1.1239503223
 51
1.3339571036
  0
ARC
  5
3AD
100
AcDbEntity
  8
0
100
AcDbCircle
 62
7
  6
CONTINUOUS
 10
149.4630267429
 20
-2396.3098636779
 40
2560.9732736214
100
AcDbArc
 50
90.7053198415
 51
90.8508450968
  0
ARC
  5
3AE
100
AcDbEntity
  8
0
100
AcDbCircle
 62
7
  6
CONTINUOUS
 10
52.5683244789
 20
49.631037179
 40
0.7
100
AcDbArc
 50
180.0
 51
270.0
  0
ARC
  5
3AF
100
AcDbEntity
  8
0
100
AcDbCircle
 62
7
  6
CONTINUOUS
 10
52.5683244789
 20
104.231037179
 40
0.7
100
AcDbArc
 50
90.0
 51
180.0
  0
ARC
  5
3B0
100
AcDbEntity
  8
0
100
AcDbCircle
 62
7
  6
CONTINUOUS
 10
140.0996311296
 20
74.804565827
 40
62.468699033
100
AcDbArc
 50
167.711267086
 51
168.5769767413
  0
ARC
  5
3B1
100
AcDbEntity
  8
0
100
AcDbCircle
 62
7
  6
CONTINUOUS
 10
110.4110875981
 20
59.6920782672
 40
32.8221442064
100
AcDbArc
 50
196.0500472848
 51
197.2364478142
  0
ARC
  5
3B2
100
AcDbEntity
  8
0
100
AcDbCircle
 62
7
  6
CONTINUOUS
 10
125.6576994789
 20
72.877287179
 40
3.789375
100
AcDbArc
 50
79.7295607216
 51
180.0
  0
ARC
  5
3B3
100
AcDbEntity
  8
0
100
AcDbCircle
 62
7
  6
CONTINUOUS
 10
124.4533244789
 20
73.171037179
 40
3.76
100
AcDbArc
 50
90.0
 51
180.0
  0
ARC
  5
3B4
100
AcDbEntity
  8
0
100
AcDbCircle
 62
7
  6
CONTINUOUS
 10
122.8633983269
 20
75.4368269741
 40
2.4675
100
AcDbArc
 50
113.7828917797
 51
151.5775992543
  0
ARC
  5
3B5
100
AcDbEntity
  8
0
100
AcDbCircle
 62
7
  6
CONTINUOUS
 10
146.0880339254
 20
41.581037179
 40
1.4
100
AcDbArc
 50
319.9947991151
 51
340.0000000001
  0
ARC
  5
3B6
100
AcDbEntity
  8
0
100
AcDbCircle
 62
7
  6
CONTINUOUS
 10
150.4639046176
 20
48.6283140281
 40
0.8027231512
100
AcDbArc
 50
89.9984903657
 51
91.0453558707
  0
ARC
  5
3B7
100
AcDbEntity
  8
0
100
AcDbCircle
 62
7
  6
CONTINUOUS
 10
150.9952146548
 20
48.631037179
 40
0.7999999885
100
AcDbArc
 50
89.9999965427
 51
159.9999869846
  0
ARC
  5
3B8
100
AcDbEntity
  8
0
100
AcDbCircle
 62
7
  6
CONTINUOUS
 10
103.1168526163
 20
42.531037179
 40
0.6
100
AcDbArc
 50
224.9999999858
 51
270.0
  0
ARC
  5
3B9
100
AcDbEntity
  8
0
100
AcDbCircle
 62
7
  6
CONTINUOUS
 10
133.1168526163
 20
42.031037179
 40
0.6
100
AcDbArc
 50
224.9999999859
 51
270.0
  0
ARC
  5
3BA
100
AcDbEntity
  8
0
100
AcDbCircle
 62
7
  6
CONTINUOUS
 10
132.1197963415
 20
41.331037179
 40
0.6
100
AcDbArc
 50
44.9999999855
 51
90.0
  0
ARC
  5
3BB
100
AcDbEntity
  8
0
100
AcDbCircle
 62
7
  6
CONTINUOUS
 10
140.8002264809
 20
40.831037179
 40
0.6
100
AcDbArc
 50
29.9999999881
 51
90.0
  0
ARC
  5
3BC
100
AcDbEntity
  8
0
100
AcDbCircle
 62
7
  6
CONTINUOUS
 10
150.463905489
 20
51.5473140794
 40
0.5713216665
100
AcDbArc
 50
268.5310785239
 51
270.0020055726
  0
ARC
  5
3BD
100
AcDbEntity
  8
0
100
AcDbCircle
 62
7
  6
CONTINUOUS
 10
150.4639102805
 20
63.710138441
 40
0.285070539
100
AcDbArc
 50
89.9969613839
 51
92.9458646087
  0
ARC
  5
3BE
100
AcDbEntity
  8
0
100
AcDbCircle
 62
7
  6
CONTINUOUS
 10
150.463910876
 20
67.9941635253
 40
0.2691026664
100
AcDbArc
 50
266.8790400467
 51
270.0031108068
  0
ARC
  5
3BF
100
AcDbEntity
  8
0
100
AcDbCircle
 62
7
  6
CONTINUOUS
 10
140.1391287909
 20
79.0541047904
 40
62.5067413658
100
AcDbArc
 50
191.4127958592
 51
192.2789578268
  0
ARC
  5
3C0
100
AcDbEntity
  8
0
100
AcDbCircle
 62
7
  6
CONTINUOUS
 10
111.2249374911
 20
97.9798679168
 40
33.6458686496
100
AcDbArc
 50
195.9125293829
 51
197.0756487601
  0
ARC
  5
3C1
100
AcDbEntity
  8
0
100
AcDbCircle
 62
7
  6
CONTINUOUS
 10
110.461498007
 20
94.1519695423
 40
32.8755736405
100
AcDbArc
 50
162.7565323246
 51
163.9440520411
  0
ARC
  5
3C2
100
AcDbEntity
  8
0
100
AcDbCircle
 62
7
  6
CONTINUOUS
 10
146.0880339254
 20
112.281037179
 40
1.4
100
AcDbArc
 50
19.9999999998
 51
40.0052008849
  0
ARC
  5
3C3
100
AcDbEntity
  8
0
100
AcDbCircle
 62
7
  6
CONTINUOUS
 10
150.4639045695
 20
105.2337630353
 40
0.8027258566
100
AcDbArc
 50
268.9546510866
 51
270.0015165747
  0
ARC
  5
3C4
100
AcDbEntity
  8
0
100
AcDbCircle
 62
7
  6
CONTINUOUS
 10
150.9952146548
 20
105.231037179
 40
0.7999999885
100
AcDbArc
 50
200.0000130154
 51
270.0000034573
  0
ARC
  5
3C5
100
AcDbEntity
  8
0
100
AcDbCircle
 62
7
  6
CONTINUOUS
 10
103.1168526163
 20
111.331037179
 40
0.6
100
AcDbArc
 50
90.0
 51
135.0000000173
  0
ARC
  5
3C6
100
AcDbEntity
  8
0
100
AcDbCircle
 62
7
  6
CONTINUOUS
 10
133.1168526163
 20
111.831037179
 40
0.6
100
AcDbArc
 50
90.0
 51
135.000000013
  0
ARC
  5
3C7
100
AcDbEntity
  8
0
100
AcDbCircle
 62
7
  6
CONTINUOUS
 10
132.1197963415
 20
112.531037179
 40
0.6
100
AcDbArc
 50
270.0
 51
315.0000000133
  0
ARC
  5
3C8
100
AcDbEntity
  8
0
100
AcDbCircle
 62
7
  6
CONTINUOUS
 10
140.8002264809
 20
113.031037179
 40
0.6
100
AcDbArc
 50
270.0
 51
330.0000000113
  0
ARC
  5
3C9
100
AcDbEntity
  8
0
100
AcDbCircle
 62
7
  6
CONTINUOUS
 10
150.4639055972
 20
102.314763908
 40
0.5713180372
100
AcDbArc
 50
89.9980145328
 51
91.4689416666
  0
ARC
  5
3CA
100
AcDbEntity
  8
0
100
AcDbCircle
 62
7
  6
CONTINUOUS
 10
150.4639101697
 20
90.1519377507
 40
0.2850723726
100
AcDbArc
 50
267.0541766621
 51
270.0030796759
  0
ARC
  5
3CB
100
AcDbEntity
  8
0
100
AcDbCircle
 62
7
  6
CONTINUOUS
 10
150.4639109846
 20
85.8679125485
 40
0.2691009506
100
AcDbArc
 50
89.9969320403
 51
93.1210030243
  0
ARC
  5
3CC
100
AcDbEntity
  8
0
100
AcDbCircle
 62
7
  6
CONTINUOUS
 10
63.7807462146
 20
181.5592813257
 40
54.5358782259
100
AcDbArc
 50
352.4365383188
 51
352.6484523501
  0
ARC
  5
3CD
100
AcDbEntity
  8
0
100
AcDbCircle
 62
7
  6
CONTINUOUS
 10
102.3065046442
 20
147.6416244895
 40
3.6407683353
100
AcDbArc
 50
35.8000889464
 51
36.2007498066
  0
ARC
  5
3CE
100
AcDbEntity
  8
0
100
AcDbCircle
 62
7
  6
CONTINUOUS
 10
103.3643596408
 20
149.0316742185
 40
2.0577468934
100
AcDbArc
 50
6.1584138478
 51
10.9992870872
  0
ARC
  5
3CF
100
AcDbEntity
  8
0
100
AcDbCircle
 62
7
  6
CONTINUOUS
 10
103.4586740794
 20
148.932881815
 40
1.7047816006
100
AcDbArc
 50
26.9134724225
 51
30.4292568498
  0
ARC
  5
3D0
100
AcDbEntity
  8
0
100
AcDbCircle
 62
7
  6
CONTINUOUS
 10
116.7558244789
 20
146.781037179
 40
1.65
100
AcDbArc
 50
90.0
 51
180.0
  0
ARC
  5
3D1
100
AcDbEntity
  8
0
100
AcDbCircle
 62
7
  6
CONTINUOUS
 10
116.7558244789
 20
145.581037179
 40
1.65
100
AcDbArc
 50
180.0
 51
270.0
  0
ARC
  5
3D2
100
AcDbEntity
  8
0
100
AcDbCircle
 62
7
  6
CONTINUOUS
 10
103.5089622584
 20
148.9587629391
 40
1.6482251624
100
AcDbArc
 50
26.0468753892
 51
26.9025117112
  0
ARC
  5
3D3
100
AcDbEntity
  8
0
100
AcDbCircle
 62
7
  6
CONTINUOUS
 10
119.2683244789
 20
120.031037179
 40
1.4
100
AcDbArc
 50
0.0
 51
180.0
  0
ARC
  5
3D4
100
AcDbEntity
  8
0
100
AcDbCircle
 62
7
  6
CONTINUOUS
 10
119.2683244789
 20
118.331037179
 40
1.4
100
AcDbArc
 50
180.0
 51
120.0
  0
ARC
  5
3D5
100
AcDbEntity
  8
0
100
AcDbCircle
 62
7
  6
CONTINUOUS
 10
119.3283244789
 20
147.156037179
 40
1.275
100
AcDbArc
 50
278.8857694273
 51
90.0
  0
ARC
  5
3D6
100
AcDbEntity
  8
0
100
AcDbCircle
 62
7
  6
CONTINUOUS
 10
103.8269166982
 20
149.2413643103
 40
1.2240588801
100
AcDbArc
 50
43.5182665784
 51
44.9912935177
  0
ARC
  5
3D7
100
AcDbEntity
  8
0
100
AcDbCircle
 62
7
  6
CONTINUOUS
 10
104.2950450637
 20
149.1505469223
 40
1.1438144929
100
AcDbArc
 50
40.9058061771
 51
45.3878024926
  0
ARC
  5
3D8
100
AcDbEntity
  8
0
100
AcDbCircle
 62
7
  6
CONTINUOUS
 10
104.3410352157
 20
148.8566594697
 40
1.1400822405
100
AcDbArc
 50
20.3085300212
 51
29.0160719473
  0
ARC
  5
3D9
100
AcDbEntity
  8
0
100
AcDbCircle
 62
7
  6
CONTINUOUS
 10
116.7558244789
 20
145.581037179
 40
1.125
100
AcDbArc
 50
180.0
 51
270.0
  0
ARC
  5
3DA
100
AcDbEntity
  8
0
100
AcDbCircle
 62
7
  6
CONTINUOUS
 10
116.7558244789
 20
146.781037179
 40
1.125
100
AcDbArc
 50
90.0
 51
180.0
  0
ARC
  5
3DB
100
AcDbEntity
  8
0
100
AcDbCircle
 62
7
  6
CONTINUOUS
 10
116.6183244789
 20
127.081037179
 40
1.05
100
AcDbArc
 50
0.0
 51
90.0
  0
ARC
  5
3DC
100
AcDbEntity
  8
0
100
AcDbCircle
 62
7
  6
CONTINUOUS
 10
116.6183244789
 20
126.291037179
 40
1.05
100
AcDbArc
 50
270.0
 51
360.0
  0
ARC
  5
3DD
100
AcDbEntity
  8
0
100
AcDbCircle
 62
7
  6
CONTINUOUS
 10
119.3283244789
 20
147.156037179
 40
0.75
100
AcDbArc
 50
270.0
 51
90.0
  0
CIRCLE
  5
3DE
100
AcDbEntity
  8
0
100
AcDbCircle
 62
7
  6
CONTINUOUS
 10
119.2683244789
 20
118.331037179
 40
0.7
  0
ARC
  5
3DF
100
AcDbEntity
  8
0
100
AcDbCircle
 62
7
  6
CONTINUOUS
 10
119.2683244789
 20
120.031037179
 40
0.7
100
AcDbArc
 50
0.0
 51
180.0
  0
ARC
  5
3E0
100
AcDbEntity
  8
0
100
AcDbCircle
 62
7
  6
CONTINUOUS
 10
131.4683244789
 20
149.6825090416
 40
0.6
100
AcDbArc
 50
135.0
 51
180.0
  0
ARC
  5
3E1
100
AcDbEntity
  8
0
100
AcDbCircle
 62
7
  6
CONTINUOUS
 10
104.2683244789
 20
149.6825090416
 40
0.6
100
AcDbArc
 50
0.0
 51
37.5
  0
ARC
  5
3E2
100
AcDbEntity
  8
0
100
AcDbCircle
 62
7
  6
CONTINUOUS
 10
104.8103908425
 20
149.682576951
 40
0.5998290899
100
AcDbArc
 50
359.9935132852
 51
45.0071522091
  0
ARC
  5
3E3
100
AcDbEntity
  8
0
100
AcDbCircle
 62
7
  6
CONTINUOUS
 10
116.6183244789
 20
126.291037179
 40
0.35
100
AcDbArc
 50
270.0
 51
360.0
  0
ARC
  5
3E4
100
AcDbEntity
  8
0
100
AcDbCircle
 62
7
  6
CONTINUOUS
 10
116.6183244789
 20
127.081037179
 40
0.35
100
AcDbArc
 50
0.0
 51
90.0
  0
ARC
  5
3E5
100
AcDbEntity
  8
0
100
AcDbCircle
 62
7
  6
CONTINUOUS
 10
104.7008791515
 20
149.6908614852
 40
0.2882316359
100
AcDbArc
 50
39.8222660966
 51
44.9913077242
  0
ARC
  5
3E6
100
AcDbEntity
  8
0
100
AcDbCircle
 62
7
  6
CONTINUOUS
 10
113.3661096864
 20
157.0764672232
 40
11.8045701636
100
AcDbArc
 50
85.6313325056
 51
89.9892500725
  0
ARC
  5
3E7
100
AcDbEntity
  8
0
100
AcDbCircle
 62
7
  6
CONTINUOUS
 10
109.1429716636
 20
153.0926768344
 40
5.1840606812
100
AcDbArc
 50
208.9646488216
 51
209.4586379576
  0
ARC
  5
3E8
100
AcDbEntity
  8
0
100
AcDbCircle
 62
7
  6
CONTINUOUS
 10
136.3683244789
 20
175.381037179
 40
5.0
100
AcDbArc
 50
270.0
 51
315.0
  0
ARC
  5
3E9
100
AcDbEntity
  8
0
100
AcDbCircle
 62
7
  6
CONTINUOUS
 10
102.8683244789
 20
170.381037179
 40
4.0
100
AcDbArc
 50
90.0
 51
180.0
  0
ARC
  5
3EA
100
AcDbEntity
  8
0
100
AcDbCircle
 62
7
  6
CONTINUOUS
 10
106.0160401018
 20
151.2087753517
 40
1.5307429908
100
AcDbArc
 50
218.7065430214
 51
225.6068423257
  0
ARC
  5
3EB
100
AcDbEntity
  8
0
100
AcDbCircle
 62
7
  6
CONTINUOUS
 10
136.3683244789
 20
175.381037179
 40
1.0
100
AcDbArc
 50
270.0
 51
315.0
  0
ARC
  5
3EC
100
AcDbEntity
  8
0
100
AcDbCircle
 62
7
  6
CONTINUOUS
 10
105.471559786
 20
150.6799049828
 40
0.8697345348
100
AcDbArc
 50
180.0223763104
 51
186.4492218027
  0
ARC
  5
3ED
100
AcDbEntity
  8
0
100
AcDbCircle
 62
7
  6
CONTINUOUS
 10
100.5580934559
 20
157.741268202
 40
0.689768977
100
AcDbArc
 50
90.0
 51
180.0
  0
ARC
  5
3EE
100
AcDbEntity
  8
0
100
AcDbCircle
 62
7
  6
CONTINUOUS
 10
100.5580934559
 20
155.2167488442
 40
0.689768977
100
AcDbArc
 50
180.0
 51
225.0
  0
ARC
  5
3EF
100
AcDbEntity
  8
0
100
AcDbCircle
 62
7
  6
CONTINUOUS
 10
124.2683244789
 20
175.2346270175
 40
0.6
100
AcDbArc
 50
0.0
 51
60.0
  0
ARC
  5
3F0
100
AcDbEntity
  8
0
100
AcDbCircle
 62
7
  6
CONTINUOUS
 10
111.4683244789
 20
175.2346270175
 40
0.6
100
AcDbArc
 50
120.0
 51
180.0
  0
ARC
  5
3F1
100
AcDbEntity
  8
0
100
AcDbCircle
 62
7
  6
CONTINUOUS
 10
130.7683244789
 20
150.6795653165
 40
0.6
100
AcDbArc
 50
315.0
 51
360.0
  0
ARC
  5
3F2
100
AcDbEntity
  8
0
100
AcDbCircle
 62
7
  6
CONTINUOUS
 10
103.3683244789
 20
169.881037179
 40
0.5
100
AcDbArc
 50
90.0
 51
180.0
  0
ARC
  5
3F3
100
AcDbEntity
  8
0
100
AcDbCircle
 62
7
  6
CONTINUOUS
 10
104.0683244789
 20
158.731037179
 40
0.3
100
AcDbArc
 50
270.0
 51
360.0
  0
ARC
  5
3F4
100
AcDbEntity
  8
0
100
AcDbCircle
 62
7
  6
CONTINUOUS
 10
131.5062782743
 20
158.873894846
 40
0.1379537954
100
AcDbArc
 50
134.9999999196
 51
180.0
  0
ARC
  5
3F5
100
AcDbEntity
  8
0
100
AcDbCircle
 62
7
  6
CONTINUOUS
 10
104.2303706835
 20
158.873894846
 40
0.1379537954
100
AcDbArc
 50
0.0
 51
45.0000001588
  0
ARC
  5
3F6
100
AcDbEntity
  8
0
100
AcDbCircle
 62
7
  6
CONTINUOUS
 10
183.1683244789
 20
49.631037179
 40
0.7
100
AcDbArc
 50
270.0
 51
360.0
  0
ARC
  5
3F7
100
AcDbEntity
  8
0
100
AcDbCircle
 62
7
  6
CONTINUOUS
 10
183.1683244789
 20
104.231037179
 40
0.7
100
AcDbArc
 50
0.0
 51
90.0
  0
ARC
  5
3F8
100
AcDbEntity
  8
0
100
AcDbCircle
 62
7
  6
CONTINUOUS
 10
155.8536058532
 20
186.381037179
 40
5.0
100
AcDbArc
 50
90.0
 51
135.0
  0
ARC
  5
3F9
100
AcDbEntity
  8
0
100
AcDbCircle
 62
7
  6
CONTINUOUS
 10
256.6683244789
 20
189.081037179
 40
3.2
100
AcDbArc
 50
270.0
 51
360.0
  0
ARC
  5
3FA
100
AcDbEntity
  8
0
100
AcDbCircle
 62
7
  6
CONTINUOUS
 10
256.6683244789
 20
189.681037179
 40
3.2
100
AcDbArc
 50
0.0
 51
90.0
  0
ARC
  5
3FB
100
AcDbEntity
  8
0
100
AcDbCircle
 62
7
  6
CONTINUOUS
 10
156.2678194155
 20
185.381037179
 40
2.0
100
AcDbArc
 50
90.0
 51
135.0
  0
ARC
  5
3FC
100
AcDbEntity
  8
0
100
AcDbCircle
 62
7
  6
CONTINUOUS
 10
160.6683244789
 20
192.081037179
 40
0.8
100
AcDbArc
 50
90.0
 51
180.0
  0
ARC
  5
3FD
100
AcDbEntity
  8
0
100
AcDbCircle
 62
7
  6
CONTINUOUS
 10
160.6683244789
 20
186.681037179
 40
0.8
100
AcDbArc
 50
180.0
 51
270.0
  0
SPLINE
  5
3FE
100
AcDbEntity
  8
0
100
AcDbSpline
 62
7
  6
CONTINUOUS
 70
0
 71
3
 72
9
 73
5
 74
0
 42
0.0000001
 43
0.0000001
 44
0.0000000001
 40
0.0
 40
0.0
 40
0.0
 40
0.0
 40
0.2530923567
 40
1.0
 40
1.0
 40
1.0
 40
1.0
 10
117.8683244789
 20
174.581037179
 30
0.0
 10
117.9401518637
 20
174.563932854
 30
0.0
 10
118.224161174
 20
174.4972398786
 30
0.0
 10
118.508551649
 20
174.4321518603
 30
0.0
 10
118.720370513
 20
174.381037179
 30
0.0
  0
SPLINE
  5
3FF
100
AcDbEntity
  8
0
100
AcDbSpline
 62
7
  6
CONTINUOUS
 70
0
 71
3
 72
11
 73
7
 74
0
 42
0.0000001
 43
0.0000001
 44
0.0000000001
 40
0.0
 40
0.0
 40
0.0
 40
0.0
 40
0.2514101512
 40
0.5017415083
 40
0.7511442914
 40
1.0
 40
1.0
 40
1.0
 40
1.0
 10
112.8683244789
 20
179.6344551916
 30
0.0
 10
113.0710684536
 20
179.7020365165
 30
0.0
 10
113.4795044638
 20
179.8259115231
 30
0.0
 10
114.1023626415
 20
179.9691333244
 30
0.0
 10
114.7329661373
 20
180.0601498252
 30
0.0
 10
115.1567849663
 20
180.081037179
 30
0.0
 10
115.3683244792
 20
180.081037179
 30
0.0
  0
SPLINE
  5
400
100
AcDbEntity
  8
0
100
AcDbSpline
 62
7
  6
CONTINUOUS
 70
0
 71
3
 72
11
 73
7
 74
0
 42
0.0000001
 43
0.0000001
 44
0.0000000001
 40
0.0
 40
0.0
 40
0.0
 40
0.0
 40
0.2488504934
 40
0.4982498921
 40
0.7485823732
 40
1.0
 40
1.0
 40
1.0
 40
1.0
 10
115.3683244792
 20
180.081037179
 30
0.0
 10
115.5798595138
 20
180.081037179
 30
0.0
 10
116.0036707953
 20
180.0601471802
 30
0.0
 10
116.6342679181
 20
179.9691334155
 30
0.0
 10
117.2571311729
 20
179.8259144021
 30
0.0
 10
117.665574519
 20
179.7020385116
 30
0.0
 10
117.8683244789
 20
179.6344551916
 30
0.0
  0
SPLINE
  5
401
100
AcDbEntity
  8
0
100
AcDbSpline
 62
7
  6
CONTINUOUS
 70
0
 71
3
 72
15
 73
11
 74
0
 42
0.0000001
 43
0.0000001
 44
0.0000000001
 40
0.0
 40
0.0
 40
0.0
 40
0.0
 40
0.1257074525
 40
0.250873099
 40
0.3755743725
 40
0.5000000224
 40
0.6244256683
 40
0.7491269332
 40
0.8742925582
 40
1.0
 40
1.0
 40
1.0
 40
1.0
 10
117.8683244789
 20
176.28915573
 30
0.0
 10
117.6655767766
 20
176.3567382975
 30
0.0
 10
117.2571338683
 20
176.4806130261
 30
0.0
 10
116.634284773
 20
176.6238341325
 30
0.0
 10
116.0036377752
 20
176.7148439671
 30
0.0
 10
115.3683243721
 20
176.746159579
 30
0.0
 10
114.7330109862
 20
176.7148439282
 30
0.0
 10
114.1023640482
 20
176.6238340915
 30
0.0
 10
113.4795150192
 20
176.4806130072
 30
0.0
 10
113.071072164
 20
176.3567382917
 30
0.0
 10
112.8683244789
 20
176.28915573
 30
0.0
  0
LINE
  5
402
100
AcDbEntity
  8
0
100
AcDbLine
 62
7
  6
CONTINUOUS
 10
116.9164105097
 20
174.381037179
 11
116.9260389844
 21
174.4578759987
  0
SPLINE
  5
403
100
AcDbEntity
  8
0
100
AcDbSpline
 62
7
  6
CONTINUOUS
 70
0
 71
3
 72
11
 73
7
 74
0
 42
0.0000001
 43
0.0000001
 44
0.0000000001
 40
0.0
 40
0.0
 40
0.0
 40
0.0
 40
0.2514101512
 40
0.5017415083
 40
0.7511442914
 40
1.0
 40
1.0
 40
1.0
 40
1.0
 10
117.8683244789
 20
179.6344551916
 30
0.0
 10
118.0710684536
 20
179.7020365165
 30
0.0
 10
118.4795044638
 20
179.8259115231
 30
0.0
 10
119.1023626415
 20
179.9691333244
 30
0.0
 10
119.7329661373
 20
180.0601498252
 30
0.0
 10
120.1567849663
 20
180.081037179
 30
0.0
 10
120.3683244792
 20
180.081037179
 30
0.0
  0
SPLINE
  5
404
100
AcDbEntity
  8
0
100
AcDbSpline
 62
7
  6
CONTINUOUS
 70
0
 71
3
 72
11
 73
7
 74
0
 42
0.0000001
 43
0.0000001
 44
0.0000000001
 40
0.0
 40
0.0
 40
0.0
 40
0.0
 40
0.2488504934
 40
0.4982498921
 40
0.7485823732
 40
1.0
 40
1.0
 40
1.0
 40
1.0
 10
120.3683244792
 20
180.081037179
 30
0.0
 10
120.5798595138
 20
180.081037179
 30
0.0
 10
121.0036707953
 20
180.0601471802
 30
0.0
 10
121.6342679181
 20
179.9691334155
 30
0.0
 10
122.2571311729
 20
179.8259144021
 30
0.0
 10
122.665574519
 20
179.7020385116
 30
0.0
 10
122.8683244789
 20
179.6344551916
 30
0.0
  0
SPLINE
  5
405
100
AcDbEntity
  8
0
100
AcDbSpline
 62
7
  6
CONTINUOUS
 70
0
 71
3
 72
15
 73
11
 74
0
 42
0.0000001
 43
0.0000001
 44
0.0000000001
 40
0.0
 40
0.0
 40
0.0
 40
0.0
 40
0.1257074525
 40
0.250873099
 40
0.3755743725
 40
0.5000000224
 40
0.6244256683
 40
0.7491269332
 40
0.8742925582
 40
1.0
 40
1.0
 40
1.0
 40
1.0
 10
122.8683244789
 20
176.28915573
 30
0.0
 10
122.6655767766
 20
176.3567382975
 30
0.0
 10
122.2571338683
 20
176.4806130261
 30
0.0
 10
121.634284773
 20
176.6238341325
 30
0.0
 10
121.0036377752
 20
176.7148439671
 30
0.0
 10
120.3683243721
 20
176.746159579
 30
0.0
 10
119.7330109862
 20
176.7148439282
 30
0.0
 10
119.1023640482
 20
176.6238340915
 30
0.0
 10
118.4795150192
 20
176.4806130072
 30
0.0
 10
118.071072164
 20
176.3567382917
 30
0.0
 10
117.8683244789
 20
176.28915573
 30
0.0
  0
SPLINE
  5
406
100
AcDbEntity
  8
0
100
AcDbSpline
 62
7
  6
CONTINUOUS
 70
0
 71
3
 72
9
 73
5
 74
0
 42
0.0000001
 43
0.0000001
 44
0.0000000001
 40
0.0
 40
0.0
 40
0.0
 40
0.0
 40
0.179905068
 40
1.0
 40
1.0
 40
1.0
 40
1.0
 10
106.8683249265
 20
164.1797421792
 30
0.0
 10
106.8683245476
 20
164.1790648434
 30
0.0
 10
106.8693990687
 20
164.1753000034
 30
0.0
 10
106.8731775619
 20
164.1732640165
 30
0.0
 10
106.8759162369
 20
164.1718381483
 30
0.0
  0
SPLINE
  5
407
100
AcDbEntity
  8
0
100
AcDbSpline
 62
7
  6
CONTINUOUS
 70
0
 71
3
 72
9
 73
5
 74
0
 42
0.0000001
 43
0.0000001
 44
0.0000000001
 40
0.0
 40
0.0
 40
0.0
 40
0.0
 40
0.2109673862
 40
1.0
 40
1.0
 40
1.0
 40
1.0
 10
107.0827418183
 20
164.595445862
 30
0.0
 10
107.0842273045
 20
164.596932354
 30
0.0
 10
107.0917021788
 20
164.6035458812
 30
0.0
 10
107.1003682879
 20
164.6086656642
 30
0.0
 10
107.1073385725
 20
164.612297639
 30
0.0
  0
SPLINE
  5
408
100
AcDbEntity
  8
0
100
AcDbSpline
 62
7
  6
CONTINUOUS
 70
0
 71
3
 72
9
 73
5
 74
0
 42
0.0000001
 43
0.0000001
 44
0.0000000001
 40
0.0
 40
0.0
 40
0.0
 40
0.0
 40
0.2159530938
 40
1.0
 40
1.0
 40
1.0
 40
1.0
 10
107.6765110069
 20
163.5718099482
 30
0.0
 10
107.6772932096
 20
163.5722176856
 30
0.0
 10
107.6809711212
 20
163.5739987779
 30
0.0
 10
107.6848092729
 20
163.575428588
 30
0.0
 10
107.6878437692
 20
163.5764524277
 30
0.0
  0
SPLINE
  5
409
100
AcDbEntity
  8
0
100
AcDbSpline
 62
7
  6
CONTINUOUS
 70
0
 71
3
 72
23
 73
19
 74
0
 42
0.0000001
 43
0.0000001
 44
0.0000000001
 40
0.0
 40
0.0
 40
0.0
 40
0.0
 40
0.0041146628
 40
0.0104381894
 40
0.0189773792
 40
0.0297224203
 40
0.0426491591
 40
0.0577297098
 40
0.0942116113
 40
0.1388263035
 40
0.1911518199
 40
0.2506940275
 40
0.3168866859
 40
0.3890996214
 40
0.4666474141
 40
0.6347513468
 40
0.8148150414
 40
1.0
 40
1.0
 40
1.0
 40
1.0
 10
107.6878437692
 20
163.5764524277
 30
0.0
 10
107.7017857759
 20
163.5811564636
 30
0.0
 10
107.738481263
 20
163.5887879908
 30
0.0
 10
107.8055603915
 20
163.5987483244
 30
0.0
 10
107.8966295751
 20
163.6087540183
 30
0.0
 10
108.01135883
 20
163.6189419668
 30
0.0
 10
108.1495684921
 20
163.6291712557
 30
0.0
 10
108.3797197525
 20
163.6438170852
 30
0.0
 10
108.723206019
 20
163.6615631601
 30
0.0
 10
109.1998955176
 20
163.681941679
 30
0.0
 10
109.7591114142
 20
163.702406994
 30
0.0
 10
110.3955321292
 20
163.7229454415
 30
0.0
 10
111.1031028858
 20
163.743525206
 30
0.0
 10
111.8750859891
 20
163.7641372369
 30
0.0
 10
113.0114311541
 20
163.7924107934
 30
0.0
 10
114.533411812
 20
163.8271116876
 30
0.0
 10
116.4402666921
 20
163.8678355467
 30
0.0
 10
117.7461281047
 20
163.8949750743
 30
0.0
 10
118.4082122461
 20
163.9088068154
 30
0.0
  0
SPLINE
  5
40A
100
AcDbEntity
  8
0
100
AcDbSpline
 62
7
  6
CONTINUOUS
 70
0
 71
3
 72
9
 73
5
 74
0
 42
0.0000001
 43
0.0000001
 44
0.0000000001
 40
0.0
 40
0.0
 40
0.0
 40
0.0
 40
0.3706327729
 40
1.0
 40
1.0
 40
1.0
 40
1.0
 10
107.6152242423
 20
165.1279369424
 30
0.0
 10
107.6166227111
 20
165.1293354112
 30
0.0
 10
107.6217052877
 20
165.1315295658
 30
0.0
 10
107.6267678506
 20
165.1329814032
 30
0.0
 10
107.630028775
 20
165.1337845203
 30
0.0
  0
SPLINE
  5
40B
100
AcDbEntity
  8
0
100
AcDbSpline
 62
7
  6
CONTINUOUS
 70
0
 71
3
 72
9
 73
5
 74
0
 42
0.0000001
 43
0.0000001
 44
0.0000000001
 40
0.0
 40
0.0
 40
0.0
 40
0.0
 40
0.2020834562
 40
1.0
 40
1.0
 40
1.0
 40
1.0
 10
107.630028775
 20
165.1337845203
 30
0.0
 10
107.6320857352
 20
165.1342911189
 30
0.0
 10
107.642320856
 20
165.1365683233
 30
0.0
 10
107.6526867346
 20
165.1382024376
 30
0.0
 10
107.6609666354
 20
165.1393890667
 30
0.0
  0
SPLINE
  5
40C
100
AcDbEntity
  8
0
100
AcDbSpline
 62
7
  6
CONTINUOUS
 70
0
 71
3
 72
11
 73
7
 74
0
 42
0.0000001
 43
0.0000001
 44
0.0000000001
 40
0.0
 40
0.0
 40
0.0
 40
0.0
 40
0.1376767198
 40
0.3509604924
 40
0.6389719917
 40
1.0
 40
1.0
 40
1.0
 40
1.0
 10
107.6609666354
 20
165.1393890667
 30
0.0
 10
107.6943250552
 20
165.1441698087
 30
0.0
 10
107.7799664235
 20
165.1517373727
 30
0.0
 10
107.9360239796
 20
165.1617282233
 30
0.0
 10
108.1468785505
 20
165.1717335331
 30
0.0
 10
108.3056225176
 20
165.1778782275
 30
0.0
 10
108.3939350709
 20
165.1810403515
 30
0.0
  0
SPLINE
  5
40D
100
AcDbEntity
  8
0
100
AcDbSpline
 62
7
  6
CONTINUOUS
 70
0
 71
3
 72
9
 73
5
 74
0
 42
0.0000001
 43
0.0000001
 44
0.0000000001
 40
0.0
 40
0.0
 40
0.0
 40
0.0
 40
0.2515131392
 40
1.0
 40
1.0
 40
1.0
 40
1.0
 10
118.7528675502
 20
163.4982129143
 30
0.0
 10
118.4638074778
 20
163.492602967
 30
0.0
 10
117.3145219607
 20
163.470367799
 30
0.0
 10
116.165236018
 20
163.4481486295
 30
0.0
 10
115.3050201007
 20
163.4310368774
 30
0.0
  0
SPLINE
  5
40E
100
AcDbEntity
  8
0
100
AcDbSpline
 62
7
  6
CONTINUOUS
 70
0
 71
3
 72
10
 73
6
 74
0
 42
0.0000001
 43
0.0000001
 44
0.0000000001
 40
0.0
 40
0.0
 40
0.0
 40
0.0
 40
0.5011988852
 40
0.7507952752
 40
1.0
 40
1.0
 40
1.0
 40
1.0
 10
109.5934072613
 20
168.3036869098
 30
0.0
 10
110.2078676172
 20
168.4822449496
 30
0.0
 10
111.1446040222
 20
168.7012244666
 30
0.0
 10
112.4130239145
 20
168.8548573253
 30
0.0
 10
113.0501658564
 20
168.8810371849
 30
0.0
 10
113.3683244791
 20
168.881037179
 30
0.0
  0
SPLINE
  5
40F
100
AcDbEntity
  8
0
100
AcDbSpline
 62
7
  6
CONTINUOUS
 70
0
 71
3
 72
25
 73
21
 74
0
 42
0.0000001
 43
0.0000001
 44
0.0000000001
 40
0.0
 40
0.0
 40
0.0
 40
0.0
 40
0.2202576248
 40
0.4178304595
 40
0.5072148718
 40
0.5899220513
 40
0.6656635086
 40
0.7341659522
 40
0.7951992574
 40
0.8485470518
 40
0.8940319368
 40
0.9314977112
 40
0.960823669
 40
0.9724100048
 40
0.9819354987
 40
0.989401328
 40
0.9948248733
 40
0.9967868528
 40
0.9982691454
 40
1.0
 40
1.0
 40
1.0
 40
1.0
 10
111.4338475331
 20
164.381037179
 30
0.0
 10
111.0979923026
 20
164.3730267432
 30
0.0
 10
110.4608865004
 20
164.3572233392
 30
0.0
 10
109.6875427139
 20
164.3359025616
 30
0.0
 10
109.1239718506
 20
164.3186191664
 30
0.0
 10
108.7461681937
 20
164.3061015406
 30
0.0
 10
108.4002334095
 20
164.2935980454
 30
0.0
 10
108.0873800342
 20
164.2811086171
 30
0.0
 10
107.8087116854
 20
164.2686459929
 30
0.0
 10
107.5651893079
 20
164.2562128199
 30
0.0
 10
107.3576626499
 20
164.2438447801
 30
0.0
 10
107.1868489374
 20
164.2315396916
 30
0.0
 10
107.0677746987
 20
164.2207804046
 30
0.0
 10
106.9913586671
 20
164.2117925549
 30
0.0
 10
106.9482120407
 20
164.2056628249
 30
0.0
 10
106.9145257069
 20
164.1995244286
 30
0.0
 10
106.8925671678
 20
164.1942499705
 30
0.0
 10
106.879691539
 20
164.1895475988
 30
0.0
 10
106.8728782867
 20
164.1862692333
 30
0.0
 10
106.8683264035
 20
164.1823821868
 30
0.0
 10
106.8683249265
 20
164.1797421792
 30
0.0
  0
SPLINE
  5
410
100
AcDbEntity
  8
0
100
AcDbSpline
 62
7
  6
CONTINUOUS
 70
0
 71
3
 72
16
 73
12
 74
0
 42
0.0000001
 43
0.0000001
 44
0.0000000001
 40
0.0
 40
0.0
 40
0.0
 40
0.0
 40
0.0079066463
 40
0.0214860615
 40
0.0702705
 40
0.1493956098
 40
0.2591073121
 40
0.3993367086
 40
0.5698788202
 40
0.7702759566
 40
1.0
 40
1.0
 40
1.0
 40
1.0
 10
107.6683399532
 20
165.1002930795
 30
0.0
 10
107.6683422231
 20
165.102228683
 30
0.0
 10
107.6720576505
 20
165.1069119789
 30
0.0
 10
107.6874777778
 20
165.1141232256
 30
0.0
 10
107.7214678232
 20
165.1227177031
 30
0.0
 10
107.7787070037
 20
165.1321073303
 30
0.0
 10
107.8587687108
 20
165.1418718253
 30
0.0
 10
107.961207794
 20
165.1517225867
 30
0.0
 10
108.0859659477
 20
165.1616588827
 30
0.0
 10
108.2326723119
 20
165.1716328654
 30
0.0
 10
108.3377859228
 20
165.1778781101
 30
0.0
 10
108.3939350709
 20
165.1810403515
 30
0.0
  0
SPLINE
  5
411
100
AcDbEntity
  8
0
100
AcDbSpline
 62
7
  6
CONTINUOUS
 70
0
 71
3
 72
22
 73
18
 74
0
 42
0.0000001
 43
0.0000001
 44
0.0000000001
 40
0.0
 40
0.0
 40
0.0
 40
0.0
 40
0.0054380609
 40
0.0127433608
 40
0.0219532886
 40
0.0330800291
 40
0.0610766663
 40
0.0966397766
 40
0.1396027877
 40
0.1897309354
 40
0.2467423634
 40
0.3103025168
 40
0.3800287563
 40
0.4554972148
 40
0.621744229
 40
0.8048225748
 40
1.0
 40
1.0
 40
1.0
 40
1.0
 10
107.1073385725
 20
164.612297639
 30
0.0
 10
107.1206022003
 20
164.619208858
 30
0.0
 10
107.153368379
 20
164.6320565951
 30
0.0
 10
107.2113545598
 20
164.6489174989
 30
0.0
 10
107.2854873414
 20
164.6659483017
 30
0.0
 10
107.4160961872
 20
164.6907622859
 30
0.0
 10
107.6193978016
 20
164.7206245098
 30
0.0
 10
107.9103691426
 20
164.7548732932
 30
0.0
 10
108.2625359968
 20
164.7894057801
 30
0.0
 10
108.673897236
 20
164.8242224552
 30
0.0
 10
109.1420689258
 20
164.8592387042
 30
0.0
 10
109.6642609547
 20
164.8944375451
 30
0.0
 10
110.2373089826
 20
164.9298021197
 30
0.0
 10
111.09246574
 20
164.9787463908
 30
0.0
 10
112.2592097669
 20
165.0392590217
 30
0.0
 10
113.7550582631
 20
165.1104354383
 30
0.0
 10
114.7943187285
 20
165.1572142832
 30
0.0
 10
115.3305836451
 20
165.1810403803
 30
0.0
  0
SPLINE
  5
412
100
AcDbEntity
  8
0
100
AcDbSpline
 62
7
  6
CONTINUOUS
 70
0
 71
3
 72
23
 73
19
 74
0
 42
0.0000001
 43
0.0000001
 44
0.0000000001
 40
0.0
 40
0.0
 40
0.0
 40
0.0
 40
0.0033817931
 40
0.008810893
 40
0.0163184762
 40
0.0259091101
 40
0.0375742997
 40
0.0512966489
 40
0.0848338963
 40
0.1263181983
 40
0.1754905351
 40
0.2320374086
 40
0.2956032374
 40
0.3657786729
 40
0.4421204102
 40
0.6113145505
 40
0.7988625808
 40
1.0
 40
1.0
 40
1.0
 40
1.0
 10
107.6765085321
 20
164.9088161538
 30
0.0
 10
107.6841685427
 20
164.9128067184
 30
0.0
 10
107.7060474758
 20
164.9190447631
 30
0.0
 10
107.7468209189
 20
164.9271769756
 30
0.0
 10
107.8038488787
 20
164.9353283273
 30
0.0
 10
107.8768192821
 20
164.9436646308
 30
0.0
 10
107.9657740487
 20
164.9520303772
 30
0.0
 10
108.1157862895
 20
164.9640657903
 30
0.0
 10
108.3419856449
 20
164.9786195485
 30
0.0
 10
108.6587413544
 20
164.9953087083
 30
0.0
 10
109.0343311959
 20
165.0120706659
 30
0.0
 10
109.4663614383
 20
165.028899382
 30
0.0
 10
109.9520687595
 20
165.0457619714
 30
0.0
 10
110.4883585999
 20
165.0626545305
 30
0.0
 10
111.2943524506
 20
165.0860076866
 30
0.0
 10
112.4000852312
 20
165.114700724
 30
0.0
 10
113.8245252398
 20
165.1481849155
 30
0.0
 10
114.8169947751
 20
165.1699781087
 30
0.0
 10
115.3305836451
 20
165.1810403803
 30
0.0
  0
SPLINE
  5
413
100
AcDbEntity
  8
0
100
AcDbSpline
 62
7
  6
CONTINUOUS
 70
0
 71
3
 72
30
 73
26
 74
0
 42
0.0000001
 43
0.0000001
 44
0.0000000001
 40
0.0
 40
0.0
 40
0.0
 40
0.0
 40
0.0005895113
 40
0.0010456881
 40
0.0016342671
 40
0.0032342368
 40
0.0054174823
 40
0.0115630045
 40
0.0200884145
 40
0.0309812639
 40
0.0442217949
 40
0.0597773749
 40
0.0776098088
 40
0.0976777606
 40
0.1199289271
 40
0.1707558308
 40
0.2295807397
 40
0.2958138882
 40
0.3687879195
 40
0.4477668456
 40
0.5319557899
 40
0.6205065506
 40
0.7125255737
 40
0.8070856204
 40
1.0
 40
1.0
 40
1.0
 40
1.0
 10
107.6683306869
 20
163.7632868563
 30
0.0
 10
107.6683329309
 20
163.7653673618
 30
0.0
 10
107.6711042082
 20
163.7686599205
 30
0.0
 10
107.6759082241
 20
163.7716030053
 30
0.0
 10
107.6844497866
 20
163.7755653778
 30
0.0
 10
107.6992035972
 20
163.7800899302
 30
0.0
 10
107.7333809081
 20
163.7879509813
 30
0.0
 10
107.792223427
 20
163.7969605313
 30
0.0
 10
107.8818456138
 20
163.8073313411
 30
0.0
 10
107.9966454768
 20
163.8177497766
 30
0.0
 10
108.1363215962
 20
163.8282761022
 30
0.0
 10
108.3005471831
 20
163.8388369022
 30
0.0
 10
108.4889078131
 20
163.8494318473
 30
0.0
 10
108.7009307132
 20
163.8600443581
 30
0.0
 10
109.0293281658
 20
163.8748811023
 30
0.0
 10
109.4944881372
 20
163.8930975711
 30
0.0
 10
110.1148651535
 20
163.9141984355
 30
0.0
 10
110.8134422697
 20
163.9353503386
 30
0.0
 10
111.5831748985
 20
163.9565433622
 30
0.0
 10
112.4162985184
 20
163.9777628591
 30
0.0
 10
113.3044117022
 20
163.9990013156
 30
0.0
 10
114.2385581754
 20
164.0202528741
 30
0.0
 10
115.2093152289
 20
164.0415141341
 30
0.0
 10
116.5483214925
 20
164.0700598717
 30
0.0
 10
117.562658607
 20
164.0911538837
 30
0.0
 10
118.2433448344
 20
164.1053638797
 30
0.0
  0
SPLINE
  5
414
100
AcDbEntity
  8
GEOM
100
AcDbSpline
 62
7
  6
CONTINUOUS
 70
0
 71
3
 72
9
 73
5
 74
0
 42
0.0000001
 43
0.0000001
 44
0.0000000001
 40
0.0
 40
0.0
 40
0.0
 40
0.0
 40
0.5000158191
 40
1.0
 40
1.0
 40
1.0
 40
1.0
 10
181.6569996135
 20
76.931040102
 30
0.0
 10
181.5736558269
 20
76.307352312
 30
0.0
 10
181.4069685101
 20
75.0600733789
 30
0.0
 10
181.2720669187
 20
73.8083894371
 30
0.0
 10
181.2239869116
 20
73.181037179
 30
0.0
  0
SPLINE
  5
415
100
AcDbEntity
  8
GEOM
100
AcDbSpline
 62
7
  6
CONTINUOUS
 70
0
 71
3
 72
9
 73
5
 74
0
 42
0.0000001
 43
0.0000001
 44
0.0000000001
 40
0.0
 40
0.0
 40
0.0
 40
0.0
 40
0.4992168195
 40
1.0
 40
1.0
 40
1.0
 40
1.0
 10
181.2239869116
 20
59.7836977353
 30
0.0
 10
181.2721684105
 20
59.3391563085
 30
0.0
 10
181.4073238209
 20
58.4530003956
 30
0.0
 10
181.5737067445
 20
57.5729788133
 30
0.0
 10
181.6569996135
 20
57.132232319
 30
0.0
  0
SPLINE
  5
416
100
AcDbEntity
  8
GEOM
100
AcDbSpline
 62
7
  6
CONTINUOUS
 70
0
 71
3
 72
9
 73
5
 74
0
 42
0.0000001
 43
0.0000001
 44
0.0000000001
 40
0.0
 40
0.0
 40
0.0
 40
0.0
 40
0.5007820839
 40
1.0
 40
1.0
 40
1.0
 40
1.0
 10
181.6569996135
 20
57.132232319
 30
0.0
 10
181.5736956454
 20
56.6914270938
 30
0.0
 10
181.407387122
 20
55.8112686813
 30
0.0
 10
181.2721750409
 20
54.9249994901
 30
0.0
 10
181.2239869116
 20
54.4803968764
 30
0.0
  0
SPLINE
  5
417
100
AcDbEntity
  8
GEOM
100
AcDbSpline
 62
7
  6
CONTINUOUS
 70
0
 71
3
 72
9
 73
5
 74
0
 42
0.0000001
 43
0.0000001
 44
0.0000000001
 40
0.0
 40
0.0
 40
0.0
 40
0.0
 40
0.5007830905
 40
1.0
 40
1.0
 40
1.0
 40
1.0
 10
181.6569996135
 20
96.7298723787
 30
0.0
 10
181.5737057728
 20
96.2891210806
 30
0.0
 10
181.4073290422
 20
95.4090882616
 30
0.0
 10
181.2721689529
 20
94.5229230667
 30
0.0
 10
181.2239869116
 20
94.0783766228
 30
0.0
  0
SPLINE
  5
418
100
AcDbEntity
  8
GEOM
100
AcDbSpline
 62
7
  6
CONTINUOUS
 70
0
 71
3
 72
9
 73
5
 74
0
 42
0.0000001
 43
0.0000001
 44
0.0000000001
 40
0.0
 40
0.0
 40
0.0
 40
0.0
 40
0.4999841813
 40
1.0
 40
1.0
 40
1.0
 40
1.0
 10
181.2239869116
 20
80.681037179
 30
0.0
 10
181.2720668462
 20
80.0536858839
 30
0.0
 10
181.4069677922
 20
78.8020038098
 30
0.0
 10
181.5736559549
 20
77.5547269337
 30
0.0
 10
181.6569996135
 20
76.931040102
 30
0.0
  0
SPLINE
  5
419
100
AcDbEntity
  8
GEOM
100
AcDbSpline
 62
7
  6
CONTINUOUS
 70
0
 71
3
 72
9
 73
5
 74
0
 42
0.0000001
 43
0.0000001
 44
0.0000000001
 40
0.0
 40
0.0
 40
0.0
 40
0.0
 40
0.4992178263
 40
1.0
 40
1.0
 40
1.0
 40
1.0
 10
181.2239869116
 20
99.3816774817
 30
0.0
 10
181.2721744985
 20
98.937079885
 30
0.0
 10
181.4073819616
 20
98.0508199875
 30
0.0
 10
181.5736964938
 20
97.1706727766
 30
0.0
 10
181.6569996135
 20
96.7298723787
 30
0.0
  0
SPLINE
  5
41A
100
AcDbEntity
  8
GEOM
100
AcDbSpline
 62
7
  6
CONTINUOUS
 70
0
 71
3
 72
9
 73
5
 74
0
 42
0.0000001
 43
0.0000001
 44
0.0000000001
 40
0.0
 40
0.0
 40
0.0
 40
0.0
 40
0.2489128926
 40
1.0
 40
1.0
 40
1.0
 40
1.0
 10
181.2239869116
 20
59.7836977353
 30
0.0
 10
181.1883749222
 20
60.1122685987
 30
0.0
 10
181.0194815795
 20
61.429445984
 30
0.0
 10
180.7505703137
 20
62.7331493537
 30
0.0
 10
180.5022990751
 20
63.6990100741
 30
0.0
  0
SPLINE
  5
41B
100
AcDbEntity
  8
GEOM
100
AcDbSpline
 62
7
  6
CONTINUOUS
 70
0
 71
3
 72
9
 73
5
 74
0
 42
0.0000001
 43
0.0000001
 44
0.0000000001
 40
0.0
 40
0.0
 40
0.0
 40
0.0
 40
0.2513503847
 40
1.0
 40
1.0
 40
1.0
 40
1.0
 10
180.5022990751
 20
50.5650845375
 30
0.0
 10
180.5853802016
 20
50.8882987654
 30
0.0
 10
180.8953129004
 20
52.1793444381
 30
0.0
 10
181.1168808211
 20
53.4921920254
 30
0.0
 10
181.2239869116
 20
54.4803968764
 30
0.0
  0
SPLINE
  5
41C
100
AcDbEntity
  8
0
100
AcDbSpline
 62
7
  6
CONTINUOUS
 70
0
 71
3
 72
9
 73
5
 74
0
 42
0.0000001
 43
0.0000001
 44
0.0000000001
 40
0.0
 40
0.0
 40
0.0
 40
0.0
 40
0.4979214665
 40
1.0
 40
1.0
 40
1.0
 40
1.0
 10
163.8683244789
 20
57.1320473048
 30
0.0
 10
163.868324479
 20
56.0304513146
 30
0.0
 10
164.0213552178
 20
53.8156119415
 30
0.0
 10
164.4578139375
 20
51.6409047121
 30
0.0
 10
164.7343498827
 20
50.5650845375
 30
0.0
  0
SPLINE
  5
41D
100
AcDbEntity
  8
0
100
AcDbSpline
 62
7
  6
CONTINUOUS
 70
0
 71
3
 72
9
 73
5
 74
0
 42
0.0000001
 43
0.0000001
 44
0.0000000001
 40
0.0
 40
0.0
 40
0.0
 40
0.0
 40
0.5020785398
 40
1.0
 40
1.0
 40
1.0
 40
1.0
 10
164.7343498827
 20
63.6990100741
 30
0.0
 10
164.457813934
 20
62.6231898859
 30
0.0
 10
164.02135523
 20
60.4484826532
 30
0.0
 10
163.8683244789
 20
58.2336432813
 30
0.0
 10
163.8683244789
 20
57.1320473048
 30
0.0
  0
SPLINE
  5
41E
100
AcDbEntity
  8
GEOM
100
AcDbSpline
 62
7
  6
CONTINUOUS
 70
0
 71
3
 72
8
 73
4
 74
0
 42
0.0000001
 43
0.0000001
 44
0.0000000001
 40
0.0
 40
0.0
 40
0.0
 40
0.0
 40
1.0
 40
1.0
 40
1.0
 40
1.0
 10
181.2239869116
 20
80.681037179
 30
0.0
 10
181.0817545238
 20
82.5369018857
 30
0.0
 10
180.8351556166
 20
84.3868220696
 30
0.0
 10
180.5022990751
 20
86.2181249895
 30
0.0
  0
SPLINE
  5
41F
100
AcDbEntity
  8
GEOM
100
AcDbSpline
 62
7
  6
CONTINUOUS
 70
0
 71
3
 72
8
 73
4
 74
0
 42
0.0000001
 43
0.0000001
 44
0.0000000001
 40
0.0
 40
0.0
 40
0.0
 40
0.0
 40
1.0
 40
1.0
 40
1.0
 40
1.0
 10
180.5022990751
 20
67.6439493685
 30
0.0
 10
180.8351556166
 20
69.4752522884
 30
0.0
 10
181.0817545238
 20
71.3251724724
 30
0.0
 10
181.2239869116
 20
73.181037179
 30
0.0
  0
SPLINE
  5
420
100
AcDbEntity
  8
0
100
AcDbSpline
 62
7
  6
CONTINUOUS
 70
0
 71
3
 72
9
 73
5
 74
0
 42
0.0000001
 43
0.0000001
 44
0.0000000001
 40
0.0
 40
0.0
 40
0.0
 40
0.0
 40
0.4999889942
 40
1.0
 40
1.0
 40
1.0
 40
1.0
 10
163.8683244789
 20
76.9310371762
 30
0.0
 10
163.868324479
 20
75.3749142184
 30
0.0
 10
164.019798528
 20
72.2608417173
 30
0.0
 10
164.4560569947
 20
69.1750551597
 30
0.0
 10
164.7343498827
 20
67.6439493685
 30
0.0
  0
SPLINE
  5
421
100
AcDbEntity
  8
0
100
AcDbSpline
 62
7
  6
CONTINUOUS
 70
0
 71
3
 72
9
 73
5
 74
0
 42
0.0000001
 43
0.0000001
 44
0.0000000001
 40
0.0
 40
0.0
 40
0.0
 40
0.0
 40
0.5000110122
 40
1.0
 40
1.0
 40
1.0
 40
1.0
 10
164.7343498827
 20
86.2181249895
 30
0.0
 10
164.456056991
 20
84.687019178
 30
0.0
 10
164.0197985401
 20
81.6012326167
 30
0.0
 10
163.8683244788
 20
78.487160115
 30
0.0
 10
163.8683244789
 20
76.9310371762
 30
0.0
  0
SPLINE
  5
422
100
AcDbEntity
  8
GEOM
100
AcDbSpline
 62
7
  6
CONTINUOUS
 70
0
 71
3
 72
9
 73
5
 74
0
 42
0.0000001
 43
0.0000001
 44
0.0000000001
 40
0.0
 40
0.0
 40
0.0
 40
0.0
 40
0.2489128926
 40
1.0
 40
1.0
 40
1.0
 40
1.0
 10
181.2239869116
 20
99.3816774817
 30
0.0
 10
181.1883749222
 20
99.7102483451
 30
0.0
 10
181.0194815795
 20
101.0274257304
 30
0.0
 10
180.7505703137
 20
102.3311291002
 30
0.0
 10
180.5022990751
 20
103.2969898205
 30
0.0
  0
SPLINE
  5
423
100
AcDbEntity
  8
GEOM
100
AcDbSpline
 62
7
  6
CONTINUOUS
 70
0
 71
3
 72
9
 73
5
 74
0
 42
0.0000001
 43
0.0000001
 44
0.0000000001
 40
0.0
 40
0.0
 40
0.0
 40
0.0
 40
0.2513503847
 40
1.0
 40
1.0
 40
1.0
 40
1.0
 10
180.5022990751
 20
90.163064284
 30
0.0
 10
180.5853802016
 20
90.4862785119
 30
0.0
 10
180.8953129004
 20
91.7773241845
 30
0.0
 10
181.1168808211
 20
93.0901717718
 30
0.0
 10
181.2239869116
 20
94.0783766228
 30
0.0
  0
SPLINE
  5
424
100
AcDbEntity
  8
0
100
AcDbSpline
 62
7
  6
CONTINUOUS
 70
0
 71
3
 72
9
 73
5
 74
0
 42
0.0000001
 43
0.0000001
 44
0.0000000001
 40
0.0
 40
0.0
 40
0.0
 40
0.0
 40
0.4979214665
 40
1.0
 40
1.0
 40
1.0
 40
1.0
 10
163.8683244789
 20
96.7300270502
 30
0.0
 10
163.868324479
 20
95.6284310602
 30
0.0
 10
164.0213552179
 20
93.4135916875
 30
0.0
 10
164.4578139375
 20
91.2388844584
 30
0.0
 10
164.7343498827
 20
90.163064284
 30
0.0
  0
SPLINE
  5
425
100
AcDbEntity
  8
0
100
AcDbSpline
 62
7
  6
CONTINUOUS
 70
0
 71
3
 72
9
 73
5
 74
0
 42
0.0000001
 43
0.0000001
 44
0.0000000001
 40
0.0
 40
0.0
 40
0.0
 40
0.0
 40
0.5020785398
 40
1.0
 40
1.0
 40
1.0
 40
1.0
 10
164.7343498827
 20
103.2969898205
 30
0.0
 10
164.4578139339
 20
102.2211696322
 30
0.0
 10
164.0213552299
 20
100.0464623992
 30
0.0
 10
163.8683244788
 20
97.8316230269
 30
0.0
 10
163.8683244789
 20
96.7300270502
 30
0.0
  0
SPLINE
  5
426
100
AcDbEntity
  8
GEOM
100
AcDbSpline
 62
7
  6
CONTINUOUS
 70
0
 71
3
 72
9
 73
5
 74
0
 42
0.0000001
 43
0.0000001
 44
0.0000000001
 40
0.0
 40
0.0
 40
0.0
 40
0.0
 40
0.4992178263
 40
1.0
 40
1.0
 40
1.0
 40
1.0
 10
54.5126620462
 20
54.4803968764
 30
0.0
 10
54.4644744594
 20
54.9249944731
 30
0.0
 10
54.3292669963
 20
55.8112543705
 30
0.0
 10
54.162952464
 20
56.6914015815
 30
0.0
 10
54.0796493443
 20
57.1322019794
 30
0.0
  0
SPLINE
  5
427
100
AcDbEntity
  8
GEOM
100
AcDbSpline
 62
7
  6
CONTINUOUS
 70
0
 71
3
 72
9
 73
5
 74
0
 42
0.0000001
 43
0.0000001
 44
0.0000000001
 40
0.0
 40
0.0
 40
0.0
 40
0.0
 40
0.4999841813
 40
1.0
 40
1.0
 40
1.0
 40
1.0
 10
54.5126620462
 20
73.181037179
 30
0.0
 10
54.4645821116
 20
73.8083884742
 30
0.0
 10
54.3296811657
 20
75.0600705483
 30
0.0
 10
54.1629930029
 20
76.3073474244
 30
0.0
 10
54.0796493443
 20
76.9310342561
 30
0.0
  0
SPLINE
  5
428
100
AcDbEntity
  8
GEOM
100
AcDbSpline
 62
7
  6
CONTINUOUS
 70
0
 71
3
 72
9
 73
5
 74
0
 42
0.0000001
 43
0.0000001
 44
0.0000000001
 40
0.0
 40
0.0
 40
0.0
 40
0.0
 40
0.5007830905
 40
1.0
 40
1.0
 40
1.0
 40
1.0
 10
54.0796493443
 20
57.1322019794
 30
0.0
 10
54.162943185
 20
57.5729532775
 30
0.0
 10
54.3293199156
 20
58.4529860965
 30
0.0
 10
54.4644800049
 20
59.3391512914
 30
0.0
 10
54.5126620462
 20
59.7836977353
 30
0.0
  0
SPLINE
  5
429
100
AcDbEntity
  8
GEOM
100
AcDbSpline
 62
7
  6
CONTINUOUS
 70
0
 71
3
 72
9
 73
5
 74
0
 42
0.0000001
 43
0.0000001
 44
0.0000000001
 40
0.0
 40
0.0
 40
0.0
 40
0.0
 40
0.4992168195
 40
1.0
 40
1.0
 40
1.0
 40
1.0
 10
54.5126620462
 20
94.0783766228
 30
0.0
 10
54.4644805473
 20
94.5229180496
 30
0.0
 10
54.329325137
 20
95.4090739625
 30
0.0
 10
54.1629422134
 20
96.2890955447
 30
0.0
 10
54.0796493443
 20
96.729842039
 30
0.0
  0
SPLINE
  5
42A
100
AcDbEntity
  8
GEOM
100
AcDbSpline
 62
7
  6
CONTINUOUS
 70
0
 71
3
 72
9
 73
5
 74
0
 42
0.0000001
 43
0.0000001
 44
0.0000000001
 40
0.0
 40
0.0
 40
0.0
 40
0.0
 40
0.5000158191
 40
1.0
 40
1.0
 40
1.0
 40
1.0
 10
54.0796493443
 20
76.9310342561
 30
0.0
 10
54.162993131
 20
77.554722046
 30
0.0
 10
54.3296804477
 20
78.8020009792
 30
0.0
 10
54.4645820392
 20
80.0536849209
 30
0.0
 10
54.5126620462
 20
80.681037179
 30
0.0
  0
SPLINE
  5
42B
100
AcDbEntity
  8
GEOM
100
AcDbSpline
 62
7
  6
CONTINUOUS
 70
0
 71
3
 72
9
 73
5
 74
0
 42
0.0000001
 43
0.0000001
 44
0.0000000001
 40
0.0
 40
0.0
 40
0.0
 40
0.0
 40
0.2489128926
 40
1.0
 40
1.0
 40
1.0
 40
1.0
 10
54.5126620462
 20
54.4803968764
 30
0.0
 10
54.5482740356
 20
54.151826013
 30
0.0
 10
54.7171673783
 20
52.8346486276
 30
0.0
 10
54.9860786441
 20
51.5309452579
 30
0.0
 10
55.2343498827
 20
50.5650845375
 30
0.0
  0
SPLINE
  5
42C
100
AcDbEntity
  8
GEOM
100
AcDbSpline
 62
7
  6
CONTINUOUS
 70
0
 71
3
 72
9
 73
5
 74
0
 42
0.0000001
 43
0.0000001
 44
0.0000000001
 40
0.0
 40
0.0
 40
0.0
 40
0.0
 40
0.2513503847
 40
1.0
 40
1.0
 40
1.0
 40
1.0
 10
55.2343498827
 20
63.6990100741
 30
0.0
 10
55.1512687562
 20
63.3757958462
 30
0.0
 10
54.8413360574
 20
62.0847501735
 30
0.0
 10
54.6197681368
 20
60.7719025862
 30
0.0
 10
54.5126620462
 20
59.7836977353
 30
0.0
  0
SPLINE
  5
42D
100
AcDbEntity
  8
0
100
AcDbSpline
 62
7
  6
CONTINUOUS
 70
0
 71
3
 72
9
 73
5
 74
0
 42
0.0000001
 43
0.0000001
 44
0.0000000001
 40
0.0
 40
0.0
 40
0.0
 40
0.0
 40
0.4979214665
 40
1.0
 40
1.0
 40
1.0
 40
1.0
 10
71.8683244789
 20
57.1320473078
 30
0.0
 10
71.8683244788
 20
58.2336432978
 30
0.0
 10
71.7152937399
 20
60.4484826706
 30
0.0
 10
71.2788350203
 20
62.6231898997
 30
0.0
 10
71.0022990751
 20
63.6990100741
 30
0.0
  0
SPLINE
  5
42E
100
AcDbEntity
  8
0
100
AcDbSpline
 62
7
  6
CONTINUOUS
 70
0
 71
3
 72
9
 73
5
 74
0
 42
0.0000001
 43
0.0000001
 44
0.0000000001
 40
0.0
 40
0.0
 40
0.0
 40
0.0
 40
0.5020785398
 40
1.0
 40
1.0
 40
1.0
 40
1.0
 10
71.0022990751
 20
50.5650845375
 30
0.0
 10
71.2788350239
 20
51.6409047259
 30
0.0
 10
71.715293728
 20
53.8156119589
 30
0.0
 10
71.868324479
 20
56.0304513312
 30
0.0
 10
71.8683244789
 20
57.1320473078
 30
0.0
  0
SPLINE
  5
42F
100
AcDbEntity
  8
GEOM
100
AcDbSpline
 62
7
  6
CONTINUOUS
 70
0
 71
3
 72
9
 73
5
 74
0
 42
0.0000001
 43
0.0000001
 44
0.0000000001
 40
0.0
 40
0.0
 40
0.0
 40
0.0
 40
0.5007820839
 40
1.0
 40
1.0
 40
1.0
 40
1.0
 10
54.0796493443
 20
96.729842039
 30
0.0
 10
54.1629533124
 20
97.1706472642
 30
0.0
 10
54.3292618359
 20
98.0508056768
 30
0.0
 10
54.464473917
 20
98.937074868
 30
0.0
 10
54.5126620462
 20
99.3816774817
 30
0.0
  0
SPLINE
  5
430
100
AcDbEntity
  8
0
100
AcDbSpline
 62
7
  6
CONTINUOUS
 70
0
 71
3
 72
9
 73
5
 74
0
 42
0.0000001
 43
0.0000001
 44
0.0000000001
 40
0.0
 40
0.0
 40
0.0
 40
0.0
 40
0.5000110122
 40
1.0
 40
1.0
 40
1.0
 40
1.0
 10
71.0022990751
 20
67.6439493685
 30
0.0
 10
71.2805919668
 20
69.17505518
 30
0.0
 10
71.7168504177
 20
72.2608417414
 30
0.0
 10
71.868324479
 20
75.3749142431
 30
0.0
 10
71.8683244789
 20
76.9310371819
 30
0.0
  0
SPLINE
  5
431
100
AcDbEntity
  8
0
100
AcDbSpline
 62
7
  6
CONTINUOUS
 70
0
 71
3
 72
9
 73
5
 74
0
 42
0.0000001
 43
0.0000001
 44
0.0000000001
 40
0.0
 40
0.0
 40
0.0
 40
0.0
 40
0.4999889942
 40
1.0
 40
1.0
 40
1.0
 40
1.0
 10
71.8683244789
 20
76.9310371819
 30
0.0
 10
71.8683244788
 20
78.4871601396
 30
0.0
 10
71.7168504298
 20
81.6012326407
 30
0.0
 10
71.2805919631
 20
84.6870191984
 30
0.0
 10
71.0022990751
 20
86.2181249895
 30
0.0
  0
SPLINE
  5
432
100
AcDbEntity
  8
GEOM
100
AcDbSpline
 62
7
  6
CONTINUOUS
 70
0
 71
3
 72
8
 73
4
 74
0
 42
0.0000001
 43
0.0000001
 44
0.0000000001
 40
0.0
 40
0.0
 40
0.0
 40
0.0
 40
1.0
 40
1.0
 40
1.0
 40
1.0
 10
55.2343498827
 20
86.2181249895
 30
0.0
 10
54.9014933412
 20
84.3868220696
 30
0.0
 10
54.654894434
 20
82.5369018857
 30
0.0
 10
54.5126620462
 20
80.681037179
 30
0.0
  0
SPLINE
  5
433
100
AcDbEntity
  8
GEOM
100
AcDbSpline
 62
7
  6
CONTINUOUS
 70
0
 71
3
 72
8
 73
4
 74
0
 42
0.0000001
 43
0.0000001
 44
0.0000000001
 40
0.0
 40
0.0
 40
0.0
 40
0.0
 40
1.0
 40
1.0
 40
1.0
 40
1.0
 10
54.5126620462
 20
73.181037179
 30
0.0
 10
54.654894434
 20
71.3251724724
 30
0.0
 10
54.9014933412
 20
69.4752522884
 30
0.0
 10
55.2343498827
 20
67.6439493685
 30
0.0
  0
SPLINE
  5
434
100
AcDbEntity
  8
0
100
AcDbSpline
 62
7
  6
CONTINUOUS
 70
0
 71
3
 72
9
 73
5
 74
0
 42
0.0000001
 43
0.0000001
 44
0.0000000001
 40
0.0
 40
0.0
 40
0.0
 40
0.0
 40
0.5020785398
 40
1.0
 40
1.0
 40
1.0
 40
1.0
 10
71.0022990751
 20
90.163064284
 30
0.0
 10
71.2788350239
 20
91.2388844723
 30
0.0
 10
71.715293728
 20
93.4135917053
 30
0.0
 10
71.868324479
 20
95.6284310776
 30
0.0
 10
71.8683244789
 20
96.7300270543
 30
0.0
  0
SPLINE
  5
435
100
AcDbEntity
  8
0
100
AcDbSpline
 62
7
  6
CONTINUOUS
 70
0
 71
3
 72
9
 73
5
 74
0
 42
0.0000001
 43
0.0000001
 44
0.0000000001
 40
0.0
 40
0.0
 40
0.0
 40
0.0
 40
0.4979214665
 40
1.0
 40
1.0
 40
1.0
 40
1.0
 10
71.8683244789
 20
96.7300270543
 30
0.0
 10
71.8683244788
 20
97.8316230443
 30
0.0
 10
71.7152937399
 20
100.046462417
 30
0.0
 10
71.2788350203
 20
102.2211696461
 30
0.0
 10
71.0022990751
 20
103.2969898205
 30
0.0
  0
SPLINE
  5
436
100
AcDbEntity
  8
GEOM
100
AcDbSpline
 62
7
  6
CONTINUOUS
 70
0
 71
3
 72
9
 73
5
 74
0
 42
0.0000001
 43
0.0000001
 44
0.0000000001
 40
0.0
 40
0.0
 40
0.0
 40
0.0
 40
0.2513503847
 40
1.0
 40
1.0
 40
1.0
 40
1.0
 10
55.2343498827
 20
103.2969898205
 30
0.0
 10
55.1512687562
 20
102.9737755926
 30
0.0
 10
54.8413360574
 20
101.68272992
 30
0.0
 10
54.6197681368
 20
100.3698823327
 30
0.0
 10
54.5126620462
 20
99.3816774817
 30
0.0
  0
SPLINE
  5
437
100
AcDbEntity
  8
GEOM
100
AcDbSpline
 62
7
  6
CONTINUOUS
 70
0
 71
3
 72
9
 73
5
 74
0
 42
0.0000001
 43
0.0000001
 44
0.0000000001
 40
0.0
 40
0.0
 40
0.0
 40
0.0
 40
0.2489128926
 40
1.0
 40
1.0
 40
1.0
 40
1.0
 10
54.5126620462
 20
94.0783766228
 30
0.0
 10
54.5482740356
 20
93.7498057594
 30
0.0
 10
54.7171673783
 20
92.4326283741
 30
0.0
 10
54.9860786441
 20
91.1289250043
 30
0.0
 10
55.2343498827
 20
90.163064284
 30
0.0
  0
SPLINE
  5
438
100
AcDbEntity
  8
0
100
AcDbSpline
 62
7
  6
CONTINUOUS
 70
0
 71
3
 72
9
 73
5
 74
0
 42
0.0000001
 43
0.0000001
 44
0.0000000001
 40
0.0
 40
0.0
 40
0.0
 40
0.0
 40
0.3456328396
 40
1.0
 40
1.0
 40
1.0
 40
1.0
 10
159.5112817772
 20
51.2470403789
 30
0.0
 10
159.5117496379
 20
51.246142941
 30
0.0
 10
159.5131384767
 20
51.2436985287
 30
0.0
 10
159.5155807457
 20
51.2410753833
 30
0.0
 10
159.5174968292
 20
51.2410680364
 30
0.0
  0
SPLINE
  5
439
100
AcDbEntity
  8
0
100
AcDbSpline
 62
7
  6
CONTINUOUS
 70
0
 71
3
 72
54
 73
50
 74
0
 42
0.0000001
 43
0.0000001
 44
0.0000000001
 40
0.0
 40
0.0
 40
0.0
 40
0.0
 40
0.0001223577
 40
0.0001983578
 40
0.0002869437
 40
0.0004325042
 40
0.0009318342
 40
0.0017234221
 40
0.0028114234
 40
0.0041964379
 40
0.0058781033
 40
0.0078557222
 40
0.0101284376
 40
0.0126953071
 40
0.0155552383
 40
0.0187064012
 40
0.0258737763
 40
0.0341800488
 40
0.0436071107
 40
0.054131614
 40
0.0783682811
 40
0.1066591637
 40
0.1387324501
 40
0.174278989
 40
0.2129588167
 40
0.2543991301
 40
0.2982017546
 40
0.3911926204
 40
0.4883644835
 40
0.5859904565
 40
0.6803262242
 40
0.7251205901
 40
0.7677533055
 40
0.8078149003
 40
0.8449192042
 40
0.8787111653
 40
0.9088653172
 40
0.9350916085
 40
0.9571399934
 40
0.966528597
 40
0.9747973889
 40
0.9819260264
 40
0.9878965576
 40
0.9926969223
 40
0.9963164941
 40
0.997680821
 40
0.9987481095
 40
0.9995196918
 40
1.0
 40
1.0
 40
1.0
 40
1.0
 10
160.5430550632
 20
52.433317583
 30
0.0
 10
160.542119113
 20
52.4315505474
 30
0.0
 10
160.5406046854
 20
52.4285825095
 30
0.0
 10
160.5356179652
 20
52.4265152261
 30
0.0
 10
160.531455322
 20
52.430512158
 30
0.0
 10
160.5263339031
 20
52.4410492723
 30
0.0
 10
160.5203266708
 20
52.4641807061
 30
0.0
 10
160.5136755188
 20
52.5022930511
 30
0.0
 10
160.5068280308
 20
52.5553029823
 30
0.0
 10
160.4999065269
 20
52.6228163938
 30
0.0
 10
160.4929331279
 20
52.7049715951
 30
0.0
 10
160.4859324156
 20
52.8016584864
 30
0.0
 10
160.4789124666
 20
52.9128484067
 30
0.0
 10
160.4718801091
 20
53.0384798356
 30
0.0
 10
160.4648389496
 20
53.1784871958
 30
0.0
 10
160.4550151127
 20
53.3936299188
 30
0.0
 10
160.442914151
 20
53.6977637696
 30
0.0
 10
160.4288956109
 20
54.1044580094
 30
0.0
 10
160.4148502008
 20
54.5660431408
 30
0.0
 10
160.3951528873
 20
55.2879121744
 30
0.0
 10
160.3710026104
 20
56.3180473571
 30
0.0
 10
160.3430747806
 20
57.7003378801
 30
0.0
 10
160.3150717745
 20
59.2674893156
 30
0.0
 10
160.2870072853
 20
61.0044428087
 30
0.0
 10
160.2589067571
 20
62.8944926019
 30
0.0
 10
160.2307766299
 20
64.9194790716
 30
0.0
 10
160.1924796456
 20
67.8319757662
 30
0.0
 10
160.1453856164
 20
71.6552155634
 30
0.0
 10
160.089837536
 20
76.3580135463
 30
0.0
 10
160.0342808044
 20
81.0827917078
 30
0.0
 10
159.9872752302
 20
84.9516431488
 30
0.0
 10
159.9490738974
 20
87.9218185924
 30
0.0
 10
159.920933701
 20
90.0050854833
 30
0.0
 10
159.8928183665
 20
91.9626674301
 30
0.0
 10
159.8647346663
 20
93.7757558372
 30
0.0
 10
159.8366974603
 20
95.4269136256
 30
0.0
 10
159.8087357197
 20
96.9002733071
 30
0.0
 10
159.7808638541
 20
98.1816783787
 30
0.0
 10
159.7566898262
 20
99.1237231499
 30
0.0
 10
159.7368830069
 20
99.7723051954
 30
0.0
 10
159.7228703546
 20
100.1771252915
 30
0.0
 10
159.7089020408
 20
100.5260476801
 30
0.0
 10
159.6950298955
 20
100.8182466571
 30
0.0
 10
159.6812354022
 20
101.0530090586
 30
0.0
 10
159.6691854605
 20
101.2124911574
 30
0.0
 10
159.6589464254
 20
101.3108331655
 30
0.0
 10
159.6521627677
 20
101.3627948509
 30
0.0
 10
159.6453864941
 20
101.4000066221
 30
0.0
 10
159.6402110556
 20
101.4199936583
 30
0.0
 10
159.6368794489
 20
101.42710087
 30
0.0
  0
SPLINE
  5
43A
100
AcDbEntity
  8
0
100
AcDbSpline
 62
7
  6
CONTINUOUS
 70
0
 71
3
 72
33
 73
29
 74
0
 42
0.0000001
 43
0.0000001
 44
0.0000000001
 40
0.0
 40
0.0
 40
0.0
 40
0.0
 40
0.2014636918
 40
0.3929327432
 40
0.4827367834
 40
0.5674892244
 40
0.6464232207
 40
0.7188260142
 40
0.7840386753
 40
0.8414750535
 40
0.8671102472
 40
0.8906137038
 40
0.9119298167
 40
0.9310100292
 40
0.9478144979
 40
0.9623040719
 40
0.9686694313
 40
0.9744443769
 40
0.979626293
 40
0.9842126322
 40
0.988200956
 40
0.9915890148
 40
0.9943751078
 40
0.9965596801
 40
0.9981456392
 40
0.9991421751
 40
0.9995980651
 40
1.0
 40
1.0
 40
1.0
 40
1.0
 10
163.8683251071
 20
78.6445063758
 30
0.0
 10
163.8502347676
 20
80.1761474309
 30
0.0
 10
163.8147258777
 20
83.1634419582
 30
0.0
 10
163.7689258089
 20
86.833451104
 30
0.0
 10
163.7316963398
 20
89.6161297187
 30
0.0
 10
163.7043913067
 20
91.5432491062
 30
0.0
 10
163.6771131924
 20
93.3380514151
 30
0.0
 10
163.6498763054
 20
94.9842731778
 30
0.0
 10
163.6226870309
 20
96.4670226947
 30
0.0
 10
163.5993062167
 20
97.5942014305
 30
0.0
 10
163.5803369043
 20
98.4042800565
 30
0.0
 10
163.5666678952
 20
98.939780478
 30
0.0
 10
163.5530144143
 20
99.4254254475
 30
0.0
 10
163.5393814018
 20
99.8601158784
 30
0.0
 10
163.5257776616
 20
100.2428758215
 30
0.0
 10
163.5140330971
 20
100.5289651783
 30
0.0
 10
163.5044949794
 20
100.7312109076
 30
0.0
 10
163.4976612389
 20
100.8627356858
 30
0.0
 10
163.4908346588
 20
100.9807186491
 30
0.0
 10
163.4840279548
 20
101.0850813454
 30
0.0
 10
163.4772173853
 20
101.1758101347
 30
0.0
 10
163.4705015131
 20
101.2527027075
 30
0.0
 10
163.4636448707
 20
101.3161262104
 30
0.0
 10
163.4573630243
 20
101.3649648668
 30
0.0
 10
163.4500680209
 20
101.4019881265
 30
0.0
 10
163.4455064919
 20
101.4217676403
 30
0.0
 10
163.4362907087
 20
101.4385087229
 30
0.0
 10
163.4300083287
 20
101.4314467219
 30
0.0
 10
163.4285812757
 20
101.4287444359
 30
0.0
  0
SPLINE
  5
43B
100
AcDbEntity
  8
0
100
AcDbSpline
 62
7
  6
CONTINUOUS
 70
0
 71
3
 72
28
 73
24
 74
0
 42
0.0000001
 43
0.0000001
 44
0.0000000001
 40
0.0
 40
0.0
 40
0.0
 40
0.0
 40
0.1939150366
 40
0.3797654055
 40
0.4675663814
 40
0.5508773504
 40
0.6289491258
 40
0.7010806849
 40
0.7666191376
 40
0.8249744013
 40
0.8756221722
 40
0.8979085246
 40
0.9181034687
 40
0.9361612555
 40
0.9520387943
 40
0.9657033825
 40
0.977125108
 40
0.9862764952
 40
0.9931415845
 40
0.9957137962
 40
0.997711795
 40
0.9991372843
 40
1.0
 40
1.0
 40
1.0
 40
1.0
 10
159.0723801111
 20
76.1866522824
 30
0.0
 10
159.0905082483
 20
74.5742348754
 30
0.0
 10
159.1261040679
 20
71.4164594151
 30
0.0
 10
159.1717467022
 20
67.5286332797
 30
0.0
 10
159.2088229529
 20
64.5605099054
 30
0.0
 10
159.2360857959
 20
62.4885776535
 30
0.0
 10
159.2633246378
 20
60.5469575293
 30
0.0
 10
159.2905309379
 20
58.7531415856
 30
0.0
 10
159.3176892362
 20
57.1232997616
 30
0.0
 10
159.3447869891
 20
55.6721350016
 30
0.0
 10
159.3681581781
 20
54.5806330818
 30
0.0
 10
159.3871693727
 20
53.8064420624
 30
0.0
 10
159.4007964091
 20
53.3032071723
 30
0.0
 10
159.4143996656
 20
52.8532865705
 30
0.0
 10
159.4279712381
 20
52.4576954211
 30
0.0
 10
159.4415024935
 20
52.1173254136
 30
0.0
 10
159.4549279853
 20
51.8329251991
 30
0.0
 10
159.4682861149
 20
51.605160813
 30
0.0
 10
159.4799497791
 20
51.4509787279
 30
0.0
 10
159.4898882309
 20
51.356434316
 30
0.0
 10
159.4964274772
 20
51.3069341281
 30
0.0
 10
159.5029917413
 20
51.2720136449
 30
0.0
 10
159.5079653801
 20
51.253401804
 30
0.0
 10
159.5112817772
 20
51.2470403789
 30
0.0
  0
SPLINE
  5
43C
100
AcDbEntity
  8
0
100
AcDbSpline
 62
7
  6
CONTINUOUS
 70
0
 71
3
 72
28
 73
24
 74
0
 42
0.0000001
 43
0.0000001
 44
0.0000000001
 40
0.0
 40
0.0
 40
0.0
 40
0.0
 40
0.1924511666
 40
0.3776955364
 40
0.4654443213
 40
0.5488319437
 40
0.6270776284
 40
0.6994518846
 40
0.7652760022
 40
0.8239320732
 40
0.8748732722
 40
0.8972967102
 40
0.9176196839
 40
0.9357933295
 40
0.951773723
 40
0.9655268857
 40
0.9770202665
 40
0.9862259697
 40
0.9931277451
 40
0.9957110172
 40
0.9977148526
 40
0.9991411155
 40
1.0
 40
1.0
 40
1.0
 40
1.0
 10
162.6920134602
 20
76.931037179
 30
0.0
 10
162.7105338365
 20
75.2830398703
 30
0.0
 10
162.7468798269
 20
72.0487584852
 30
0.0
 10
162.7933314563
 20
68.0630855605
 30
0.0
 10
162.8310753821
 20
65.0113671954
 30
0.0
 10
162.8588548332
 20
62.8759047842
 30
0.0
 10
162.8866103984
 20
60.8721172226
 30
0.0
 10
162.914333584
 20
59.0187538799
 30
0.0
 10
162.9420072394
 20
57.3331702789
 30
0.0
 10
162.9696205546
 20
55.8311602293
 30
0.0
 10
162.9934332134
 20
54.7008178213
 30
0.0
 10
163.0128046457
 20
53.8987349549
 30
0.0
 10
163.0266907544
 20
53.3772156387
 30
0.0
 10
163.0405534625
 20
52.9108941035
 30
0.0
 10
163.0543835764
 20
52.5008603317
 30
0.0
 10
163.068171453
 20
52.1480731175
 30
0.0
 10
163.0818516031
 20
51.8533400583
 30
0.0
 10
163.0954646732
 20
51.6173760017
 30
0.0
 10
163.1073461292
 20
51.4577062355
 30
0.0
 10
163.1174778292
 20
51.3598699814
 30
0.0
 10
163.1241342221
 20
51.3087275581
 30
0.0
 10
163.1308281032
 20
51.2727333519
 30
0.0
 10
163.1358825588
 20
51.2535701369
 30
0.0
 10
163.1392817737
 20
51.2470474672
 30
0.0
  0
SPLINE
  5
43D
100
AcDbEntity
  8
0
100
AcDbSpline
 62
7
  6
CONTINUOUS
 70
0
 71
3
 72
28
 73
24
 74
0
 42
0.0000001
 43
0.0000001
 44
0.0000000001
 40
0.0
 40
0.0
 40
0.0
 40
0.0
 40
0.1924525792
 40
0.3776980483
 40
0.4654468826
 40
0.5488346145
 40
0.6270806938
 40
0.6994549586
 40
0.7652779201
 40
0.8239324326
 40
0.8748722157
 40
0.8972954671
 40
0.917618491
 40
0.9357920987
 40
0.951772694
 40
0.9655262026
 40
0.9770197278
 40
0.986225641
 40
0.993127701
 40
0.9957110507
 40
0.9977148744
 40
0.9991411128
 40
1.0
 40
1.0
 40
1.0
 40
1.0
 10
160.8780134601
 20
76.931037179
 30
0.0
 10
160.8965339707
 20
75.283027934
 30
0.0
 10
160.9328801978
 20
72.0487253526
 30
0.0
 10
160.9793321135
 20
68.0630308823
 30
0.0
 10
161.0170761974
 20
65.0113020391
 30
0.0
 10
161.0448557576
 20
62.8758350963
 30
0.0
 10
161.072611494
 20
60.8720433409
 30
0.0
 10
161.1003345861
 20
59.0186866252
 30
0.0
 10
161.1280080772
 20
57.3331263618
 30
0.0
 10
161.1556206302
 20
55.8311518218
 30
0.0
 10
161.1794328706
 20
54.7008365901
 30
0.0
 10
161.1988038609
 20
53.8987670882
 30
0.0
 10
161.2126896922
 20
53.3772493087
 30
0.0
 10
161.2265525205
 20
52.910925988
 30
0.0
 10
161.2403826728
 20
52.5008878897
 30
0.0
 10
161.2541703911
 20
52.1480947714
 30
0.0
 10
161.2678508478
 20
51.8533557506
 30
0.0
 10
161.2814641578
 20
51.6173862508
 30
0.0
 10
161.2933455893
 20
51.4577115872
 30
0.0
 10
161.3034773245
 20
51.3598723265
 30
0.0
 10
161.3101339095
 20
51.3087295759
 30
0.0
 10
161.3168280012
 20
51.2727356889
 30
0.0
 10
161.3218825556
 20
51.2535727144
 30
0.0
 10
161.3252817748
 20
51.247050022
 30
0.0
  0
SPLINE
  5
43E
100
AcDbEntity
  8
0
100
AcDbSpline
 62
7
  6
CONTINUOUS
 70
0
 71
3
 72
11
 73
7
 74
0
 42
0.0000001
 43
0.0000001
 44
0.0000000001
 40
0.0
 40
0.0
 40
0.0
 40
0.0
 40
0.2502330425
 40
0.5000000004
 40
0.7497669584
 40
1.0
 40
1.0
 40
1.0
 40
1.0
 10
156.3324260941
 20
89.8668653785
 30
0.0
 10
156.462428434
 20
90.9475820806
 30
0.0
 10
156.6646464944
 20
93.1145438423
 30
0.0
 10
156.7691690881
 20
96.3764736675
 30
0.0
 10
156.6646464989
 20
99.6384034889
 30
0.0
 10
156.4624284335
 20
101.8053652468
 30
0.0
 10
156.3324260941
 20
102.8860819448
 30
0.0
  0
LINE
  5
43F
100
AcDbEntity
  8
0
100
AcDbLine
 62
7
  6
CONTINUOUS
 10
150.2434610798
 20
48.9046532937
 11
149.6975057284
 21
48.890880645
  0
SPLINE
  5
440
100
AcDbEntity
  8
0
100
AcDbSpline
 62
7
  6
CONTINUOUS
 70
0
 71
3
 72
9
 73
5
 74
0
 42
0.0000001
 43
0.0000001
 44
0.0000000001
 40
0.0
 40
0.0
 40
0.0
 40
0.0
 40
0.4999982642
 40
1.0
 40
1.0
 40
1.0
 40
1.0
 10
156.7343498827
 20
76.931037179
 30
0.0
 10
156.7343498827
 20
78.4671726923
 30
0.0
 10
156.6648030454
 20
81.5398359334
 30
0.0
 10
156.4626202267
 20
84.606394483
 30
0.0
 10
156.3324260941
 20
86.1370134988
 30
0.0
  0
SPLINE
  5
441
100
AcDbEntity
  8
0
100
AcDbSpline
 62
7
  6
CONTINUOUS
 70
0
 71
3
 72
9
 73
5
 74
0
 42
0.0000001
 43
0.0000001
 44
0.0000000001
 40
0.0
 40
0.0
 40
0.0
 40
0.0
 40
0.500001768
 40
1.0
 40
1.0
 40
1.0
 40
1.0
 10
156.3324260941
 20
67.7250608593
 30
0.0
 10
156.462620235
 20
69.2556799735
 30
0.0
 10
156.6648030485
 20
72.3222385236
 30
0.0
 10
156.7343498827
 20
75.3949017646
 30
0.0
 10
156.7343498827
 20
76.931037179
 30
0.0
  0
SPLINE
  5
442
100
AcDbEntity
  8
0
100
AcDbSpline
 62
7
  6
CONTINUOUS
 70
0
 71
3
 72
9
 73
5
 74
0
 42
0.0000001
 43
0.0000001
 44
0.0000000001
 40
0.0
 40
0.0
 40
0.0
 40
0.0
 40
0.353280275
 40
1.0
 40
1.0
 40
1.0
 40
1.0
 10
158.8934966281
 20
52.4335012516
 30
0.0
 10
158.8877513887
 20
52.4445495468
 30
0.0
 10
158.8809064909
 20
52.479829688
 30
0.0
 10
158.8755167915
 20
52.5143552259
 30
0.0
 10
158.8726967176
 20
52.5369764153
 30
0.0
  0
SPLINE
  5
443
100
AcDbEntity
  8
0
100
AcDbSpline
 62
7
  6
CONTINUOUS
 70
0
 71
3
 72
20
 73
16
 74
0
 42
0.0000001
 43
0.0000001
 44
0.0000000001
 40
0.0
 40
0.0
 40
0.0
 40
0.0
 40
0.0055015435
 40
0.013090877
 40
0.0344701837
 40
0.0639763756
 40
0.1013689009
 40
0.1463493026
 40
0.1985466381
 40
0.257539252
 40
0.3228447385
 40
0.4702166145
 40
0.6358679106
 40
0.8143922422
 40
1.0
 40
1.0
 40
1.0
 40
1.0
 10
158.8726967176
 20
52.5369764153
 30
0.0
 10
158.86733038
 20
52.5800224283
 30
0.0
 10
158.8576921961
 20
52.6828253463
 30
0.0
 10
158.8386319572
 20
52.9539507476
 30
0.0
 10
158.8166643914
 20
53.414545308
 30
0.0
 10
158.7914115824
 20
54.1101454154
 30
0.0
 10
158.7660075889
 20
54.9919483862
 30
0.0
 10
158.7403475216
 20
56.0527137961
 30
0.0
 10
158.714599255
 20
57.2838373625
 30
0.0
 10
158.6887717455
 20
58.67525045
 30
0.0
 10
158.6528124431
 20
60.8170451014
 30
0.0
 10
158.6088568621
 20
63.7998143505
 30
0.0
 10
158.5577319807
 20
67.6752896779
 30
0.0
 10
158.5064813874
 20
71.8522743565
 30
0.0
 10
158.4725519329
 20
74.7232256491
 30
0.0
 10
158.4553020046
 20
76.1866259924
 30
0.0
  0
SPLINE
  5
444
100
AcDbEntity
  8
0
100
AcDbSpline
 62
7
  6
CONTINUOUS
 70
0
 71
3
 72
33
 73
29
 74
0
 42
0.0000001
 43
0.0000001
 44
0.0000000001
 40
0.0
 40
0.0
 40
0.0
 40
0.0
 40
0.0003958589
 40
0.0008569445
 40
0.0018688391
 40
0.0034772311
 40
0.0056903238
 40
0.0085103764
 40
0.0119378953
 40
0.0159722069
 40
0.020610787
 40
0.0258506338
 40
0.0316886399
 40
0.038121633
 40
0.0527595265
 40
0.0697312091
 40
0.0889933892
 40
0.1105018587
 40
0.1342076883
 40
0.160051303
 40
0.2179048442
 40
0.2835119587
 40
0.3562501045
 40
0.4354220276
 40
0.5202759342
 40
0.6100047544
 40
0.8006054199
 40
1.0
 40
1.0
 40
1.0
 40
1.0
 10
158.7291610191
 20
52.4334898085
 30
0.0
 10
158.7277129711
 20
52.4307062801
 30
0.0
 10
158.7211038836
 20
52.4233666056
 30
0.0
 10
158.7118325994
 20
52.4413770229
 30
0.0
 10
158.7070916127
 20
52.4621280143
 30
0.0
 10
158.6996400149
 20
52.5014050066
 30
0.0
 10
158.6931774801
 20
52.5529571163
 30
0.0
 10
158.6861463355
 20
52.6199201186
 30
0.0
 10
158.6792507367
 20
52.7010321841
 30
0.0
 10
158.6722629216
 20
52.7967215074
 30
0.0
 10
158.6652778787
 20
52.9067657349
 30
0.0
 10
158.6582727712
 20
53.0311443338
 30
0.0
 10
158.651260153
 20
53.1697609677
 30
0.0
 10
158.6414734628
 20
53.3828224327
 30
0.0
 10
158.6294206751
 20
53.6841164409
 30
0.0
 10
158.6154620372
 20
54.0870954495
 30
0.0
 10
158.601472622
 20
54.5445594969
 30
0.0
 10
158.5874606126
 20
55.0554210784
 30
0.0
 10
158.5734342816
 20
55.6184656637
 30
0.0
 10
158.5539748057
 20
56.4695405519
 30
0.0
 10
158.5299882685
 20
57.6527138422
 30
0.0
 10
158.5020901321
 20
59.2075741362
 30
0.0
 10
158.4741425477
 20
60.9314316
 30
0.0
 10
158.446153011
 20
62.8078603525
 30
0.0
 10
158.4181361563
 20
64.8189739509
 30
0.0
 10
158.3799854051
 20
67.7132369995
 30
0.0
 10
158.3330662741
 20
71.5153338597
 30
0.0
 10
158.2965280854
 20
74.6062957268
 30
0.0
 10
158.2778998379
 20
76.1866259924
 30
0.0
  0
SPLINE
  5
445
100
AcDbEntity
  8
0
100
AcDbSpline
 62
7
  6
CONTINUOUS
 70
0
 71
3
 72
9
 73
5
 74
0
 42
0.0000001
 43
0.0000001
 44
0.0000000001
 40
0.0
 40
0.0
 40
0.0
 40
0.0
 40
0.3770541106
 40
1.0
 40
1.0
 40
1.0
 40
1.0
 10
160.7074966672
 20
52.4335140615
 30
0.0
 10
160.7040187081
 20
52.440186259
 30
0.0
 10
160.6988080041
 20
52.4597120829
 30
0.0
 10
160.6951085408
 20
52.4792337726
 30
0.0
 10
160.6931115851
 20
52.4915034445
 30
0.0
  0
SPLINE
  5
446
100
AcDbEntity
  8
0
100
AcDbSpline
 62
7
  6
CONTINUOUS
 70
0
 71
3
 72
46
 73
42
 74
0
 42
0.0000001
 43
0.0000001
 44
0.0000000001
 40
0.0
 40
0.0
 40
0.0
 40
0.0
 40
0.0023491825
 40
0.0058510702
 40
0.0105000861
 40
0.0162882418
 40
0.0312235976
 40
0.0505210947
 40
0.073999943
 40
0.1014437168
 40
0.1325957429
 40
0.1671654278
 40
0.2452425722
 40
0.3327697643
 40
0.4264900534
 40
0.522916279
 40
0.6184601966
 40
0.7095664253
 40
0.7523864359
 40
0.7928452112
 40
0.8305661123
 40
0.8651979528
 40
0.8964164253
 40
0.9239324143
 40
0.9474886067
 40
0.9577118992
 40
0.9668655706
 40
0.9749298507
 40
0.9818852952
 40
0.9849416598
 40
0.9877150944
 40
0.9902042716
 40
0.9924078954
 40
0.9943247206
 40
0.9959535891
 40
0.9972936996
 40
0.9983453103
 40
0.9991096956
 40
0.9995910044
 40
0.9998113845
 40
1.0
 40
1.0
 40
1.0
 40
1.0
 10
160.6931115851
 20
52.4915034445
 30
0.0
 10
160.6869517935
 20
52.5293503653
 30
0.0
 10
160.6766964337
 20
52.6243857394
 30
0.0
 10
160.6632909016
 20
52.7952292384
 30
0.0
 10
160.6497988928
 20
53.0223738709
 30
0.0
 10
160.6298069519
 20
53.4360360111
 30
0.0
 10
160.6060480093
 20
54.0888755193
 30
0.0
 10
160.5788653061
 20
55.0304917529
 30
0.0
 10
160.551522284
 20
56.1763500574
 30
0.0
 10
160.5240177343
 20
57.5157454819
 30
0.0
 10
160.496433057
 20
59.0362053899
 30
0.0
 10
160.4580015227
 20
61.3830718037
 30
0.0
 10
160.4111019298
 20
64.6501110702
 30
0.0
 10
160.3565419687
 20
68.8826284231
 30
0.0
 10
160.3018513192
 20
73.4146731281
 30
0.0
 10
160.2470987148
 20
78.077580344
 30
0.0
 10
160.1923608458
 20
82.6978163719
 30
0.0
 10
160.1459267837
 20
86.4430931459
 30
0.0
 10
160.1081752205
 20
89.2892708485
 30
0.0
 10
160.080466699
 20
91.2641138499
 30
0.0
 10
160.0527865365
 20
93.1052905903
 30
0.0
 10
160.0251449652
 20
94.7956232355
 30
0.0
 10
159.9975605364
 20
96.3193614145
 30
0.0
 10
159.9700525859
 20
97.662283688
 30
0.0
 10
159.9462624827
 20
98.6625095758
 30
0.0
 10
159.9268586681
 20
99.3630252347
 30
0.0
 10
159.9130222493
 20
99.8107266615
 30
0.0
 10
159.8992171248
 20
100.2050605761
 30
0.0
 10
159.88729883
 20
100.4998719079
 30
0.0
 10
159.8776200597
 20
100.7083375765
 30
0.0
 10
159.8706848817
 20
100.8439477979
 30
0.0
 10
159.8637571142
 20
100.9656236738
 30
0.0
 10
159.856848953
 20
101.0732799931
 30
0.0
 10
159.8499384342
 20
101.1669021818
 30
0.0
 10
159.8431190532
 20
101.2462710807
 30
0.0
 10
159.8361692729
 20
101.3117905956
 30
0.0
 10
159.8297686533
 20
101.362241747
 30
0.0
 10
159.8224187118
 20
101.4006492165
 30
0.0
 10
159.8176872301
 20
101.4210119964
 30
0.0
 10
159.8085627185
 20
101.4385886854
 30
0.0
 10
159.8020185457
 20
101.4314705843
 30
0.0
 10
159.8005812599
 20
101.4287479658
 30
0.0
  0
SPLINE
  5
447
100
AcDbEntity
  8
0
100
AcDbSpline
 62
7
  6
CONTINUOUS
 70
0
 71
3
 72
32
 73
28
 74
0
 42
0.0000001
 43
0.0000001
 44
0.0000000001
 40
0.0
 40
0.0
 40
0.0
 40
0.0
 40
0.0004080586
 40
0.0013516634
 40
0.0028807532
 40
0.0050040435
 40
0.0077228782
 40
0.0110364813
 40
0.014943417
 40
0.01944194
 40
0.0302057581
 40
0.0433042094
 40
0.0587037643
 40
0.0763698706
 40
0.0962611755
 40
0.1183271313
 40
0.1425163779
 40
0.168771928
 40
0.2272182276
 40
0.2931069154
 40
0.3658015068
 40
0.4446013162
 40
0.5287502617
 40
0.6174383358
 40
0.7098064125
 40
0.8049654409
 40
1.0
 40
1.0
 40
1.0
 40
1.0
 10
160.4245135245
 20
102.6210052032
 30
0.0
 10
160.4280091947
 20
102.6210050456
 30
0.0
 10
160.4345714983
 20
102.6077258484
 30
0.0
 10
160.4398584085
 20
102.5861365103
 30
0.0
 10
160.4470352874
 20
102.5460492624
 30
0.0
 10
160.4536387792
 20
102.4924391409
 30
0.0
 10
160.4606525154
 20
102.4226984575
 30
0.0
 10
160.4675952274
 20
102.3379119182
 30
0.0
 10
160.4746123513
 20
102.2377363906
 30
0.0
 10
160.4845807487
 20
102.073833699
 30
0.0
 10
160.4967276201
 20
101.8311693941
 30
0.0
 10
160.510674661
 20
101.4951195732
 30
0.0
 10
160.5246775772
 20
101.0998956414
 30
0.0
 10
160.5387215252
 20
100.6464518
 30
0.0
 10
160.5527898441
 20
100.1358758132
 30
0.0
 10
160.5668792393
 20
99.5694005721
 30
0.0
 10
160.580982541
 20
98.9483904815
 30
0.0
 10
160.6005039672
 20
98.0157691293
 30
0.0
 10
160.6245939524
 20
96.7259453045
 30
0.0
 10
160.6526429341
 20
95.0383062373
 30
0.0
 10
160.6807402234
 20
93.1762860887
 30
0.0
 10
160.7088750905
 20
91.1578221676
 30
0.0
 10
160.7370342947
 20
89.0023366218
 30
0.0
 10
160.7652118476
 20
86.7306082137
 30
0.0
 10
160.7934021056
 20
84.3645541908
 30
0.0
 10
160.8313095075
 20
81.0875248847
 30
0.0
 10
160.859238225
 20
78.6017125716
 30
0.0
 10
160.8780134601
 20
76.931037179
 30
0.0
  0
SPLINE
  5
448
100
AcDbEntity
  8
0
100
AcDbSpline
 62
7
  6
CONTINUOUS
 70
0
 71
3
 72
32
 73
28
 74
0
 42
0.0000001
 43
0.0000001
 44
0.0000000001
 40
0.0
 40
0.0
 40
0.0
 40
0.0
 40
0.0004080118
 40
0.0013515758
 40
0.0028806665
 40
0.0050039464
 40
0.0077227026
 40
0.0110361879
 40
0.0149429957
 40
0.0194414098
 40
0.0302051048
 40
0.0433032282
 40
0.0587024791
 40
0.0763685875
 40
0.0962598733
 40
0.1183259675
 40
0.1425158163
 40
0.1687722333
 40
0.2272203153
 40
0.2931105066
 40
0.3658054687
 40
0.4446050467
 40
0.5287535734
 40
0.6174410551
 40
0.7098086345
 40
0.8049669486
 40
1.0
 40
1.0
 40
1.0
 40
1.0
 10
162.2385132004
 20
102.6210057142
 30
0.0
 10
162.2420084701
 20
102.6210063589
 30
0.0
 10
162.2485718663
 20
102.6077278112
 30
0.0
 10
162.2538577236
 20
102.586139471
 30
0.0
 10
162.2610349181
 20
102.5460524236
 30
0.0
 10
162.2676380901
 20
102.4924431375
 30
0.0
 10
162.2746519373
 20
102.4227042057
 30
0.0
 10
162.2815945903
 20
102.3379204566
 30
0.0
 10
162.2886116929
 20
102.2377479654
 30
0.0
 10
162.2985800568
 20
102.0738483567
 30
0.0
 10
162.310726594
 20
101.8311888275
 30
0.0
 10
162.3246737222
 20
101.4951454723
 30
0.0
 10
162.3386766593
 20
101.0999269232
 30
0.0
 10
162.3527204264
 20
100.6464858109
 30
0.0
 10
162.36678896
 20
100.1359087709
 30
0.0
 10
162.3808786689
 20
99.5694273341
 30
0.0
 10
162.3949822298
 20
98.9484034516
 30
0.0
 10
162.4145041977
 20
98.015754217
 30
0.0
 10
162.4385949265
 20
96.7258947774
 30
0.0
 10
162.4666441705
 20
95.0382243238
 30
0.0
 10
162.4947416551
 20
93.1761900347
 30
0.0
 10
162.5228763424
 20
91.1577284314
 30
0.0
 10
162.5510353387
 20
89.0022534496
 30
0.0
 10
162.5792127117
 20
86.7305378789
 30
0.0
 10
162.6074027424
 20
84.3644992213
 30
0.0
 10
162.645309868
 20
81.087493088
 30
0.0
 10
162.6732383694
 20
78.6016997177
 30
0.0
 10
162.6920134602
 20
76.931037179
 30
0.0
  0
SPLINE
  5
449
100
AcDbEntity
  8
0
100
AcDbSpline
 62
7
  6
CONTINUOUS
 70
0
 71
3
 72
56
 73
52
 74
0
 42
0.0000001
 43
0.0000001
 44
0.0000000001
 40
0.0
 40
0.0
 40
0.0
 40
0.0
 40
0.0001244089
 40
0.0002011755
 40
0.0002887194
 40
0.0004328718
 40
0.0009294735
 40
0.0017183152
 40
0.0028032936
 40
0.0041854377
 40
0.0058649305
 40
0.0078415141
 40
0.0101140513
 40
0.0126810113
 40
0.0155408116
 40
0.0186918379
 40
0.0258609823
 40
0.0341724604
 40
0.0436048115
 40
0.0541358921
 40
0.0657417484
 40
0.078393004
 40
0.1067090076
 40
0.1388121021
 40
0.1743944239
 40
0.2131120136
 40
0.2545933826
 40
0.2984390495
 40
0.3915155677
 40
0.4887666987
 40
0.5864567887
 40
0.6808332464
 40
0.7256373912
 40
0.7682712234
 40
0.8083242529
 40
0.8454120045
 40
0.8791760455
 40
0.909292561
 40
0.9354721943
 40
0.947004618
 40
0.9574616792
 40
0.9668188338
 40
0.9750520835
 40
0.9821425893
 40
0.9880746092
 40
0.9928329352
 40
0.9964074992
 40
0.9977494705
 40
0.9987943292
 40
0.9995429932
 40
1.0
 40
1.0
 40
1.0
 40
1.0
 10
162.3571610238
 20
52.4334940894
 30
0.0
 10
162.3562228818
 20
52.4316902695
 30
0.0
 10
162.3547184225
 20
52.4286923098
 30
0.0
 10
162.3497689247
 20
52.4264397774
 30
0.0
 10
162.3455342168
 20
52.4303388391
 30
0.0
 10
162.3404313413
 20
52.4408062267
 30
0.0
 10
162.3344023957
 20
52.463803533
 30
0.0
 10
162.3277608216
 20
52.5017860834
 30
0.0
 10
162.3209024586
 20
52.5546504973
 30
0.0
 10
162.3139775126
 20
52.6220347415
 30
0.0
 10
162.3069980455
 20
52.7040919841
 30
0.0
 10
162.2999935469
 20
52.8007264995
 30
0.0
 10
162.2929692983
 20
52.9119013753
 30
0.0
 10
162.2859323257
 20
53.0375331259
 30
0.0
 10
162.2788854149
 20
53.1775419063
 30
0.0
 10
162.2690522881
 20
53.3927158625
 30
0.0
 10
162.2569411514
 20
53.6969711797
 30
0.0
 10
162.2429155612
 20
54.1038791095
 30
0.0
 10
162.2288590254
 20
54.5657582071
 30
0.0
 10
162.2147793775
 20
55.0814980612
 30
0.0
 10
162.2006855791
 20
55.6498611936
 30
0.0
 10
162.1811339288
 20
56.5088324305
 30
0.0
 10
162.1570331695
 20
57.7027670953
 30
0.0
 10
162.1290014892
 20
59.27145198
 30
0.0
 10
162.1009197863
 20
61.0101516681
 30
0.0
 10
162.0727961254
 20
62.9021363059
 30
0.0
 10
162.0446453508
 20
64.9291807734
 30
0.0
 10
162.0063204602
 20
67.8445472474
 30
0.0
 10
161.9591920887
 20
71.6713112139
 30
0.0
 10
161.9036033122
 20
76.3780066282
 30
0.0
 10
161.8480061844
 20
81.1059480877
 30
0.0
 10
161.8009632973
 20
84.9767990067
 30
0.0
 10
161.7627308862
 20
87.9479147829
 30
0.0
 10
161.7345700927
 20
90.0312879417
 30
0.0
 10
161.7064330987
 20
91.9885416442
 30
0.0
 10
161.6783295789
 20
93.8008223965
 30
0.0
 10
161.6502746428
 20
95.4506922246
 30
0.0
 10
161.6222826658
 20
96.9222650797
 30
0.0
 10
161.5981461496
 20
98.0305153416
 30
0.0
 10
161.5785138967
 20
98.8174906309
 30
0.0
 10
161.5644350905
 20
99.3295905578
 30
0.0
 10
161.5503813981
 20
99.7877506366
 30
0.0
 10
161.5363607356
 20
100.1908648933
 30
0.0
 10
161.5223800208
 20
100.5379630284
 30
0.0
 10
161.5085070804
 20
100.8282309211
 30
0.0
 10
161.4947081665
 20
101.0609427487
 30
0.0
 10
161.4826524775
 20
101.2186428382
 30
0.0
 10
161.4723921841
 20
101.3155033263
 30
0.0
 10
161.4656251178
 20
101.3663668387
 30
0.0
 10
161.4588464751
 20
101.40241235
 30
0.0
 10
161.453693295
 20
101.4216673938
 30
0.0
 10
161.4502963877
 20
101.4283189895
 30
0.0
  0
SPLINE
  5
44A
100
AcDbEntity
  8
0
100
AcDbSpline
 62
7
  6
CONTINUOUS
 70
0
 71
3
 72
11
 73
7
 74
0
 42
0.0000001
 43
0.0000001
 44
0.0000000001
 40
0.0
 40
0.0
 40
0.0
 40
0.0
 40
0.2502330425
 40
0.5000000004
 40
0.7497669584
 40
1.0
 40
1.0
 40
1.0
 40
1.0
 10
156.3324260941
 20
50.9759924133
 30
0.0
 10
156.462428434
 20
52.0567091154
 30
0.0
 10
156.6646464944
 20
54.2236708771
 30
0.0
 10
156.7691690881
 20
57.4856007022
 30
0.0
 10
156.6646464989
 20
60.7475305236
 30
0.0
 10
156.4624284335
 20
62.9144922815
 30
0.0
 10
156.3324260941
 20
63.9952089795
 30
0.0
  0
SPLINE
  5
44B
100
AcDbEntity
  8
0
100
AcDbSpline
 62
7
  6
CONTINUOUS
 70
0
 71
3
 72
10
 73
6
 74
0
 42
0.0000001
 43
0.0000001
 44
0.0000000001
 40
0.0
 40
0.0
 40
0.0
 40
0.0
 40
0.1363527221
 40
0.3476720362
 40
1.0
 40
1.0
 40
1.0
 40
1.0
 10
162.5214966304
 20
52.4334960436
 30
0.0
 10
162.5189096949
 20
52.4384704189
 30
0.0
 10
162.5146635549
 20
52.4522602485
 30
0.0
 10
162.5060897051
 20
52.4924143574
 30
0.0
 10
162.5016913895
 20
52.5277531448
 30
0.0
 10
162.4986050548
 20
52.5543987959
 30
0.0
  0
SPLINE
  5
44C
100
AcDbEntity
  8
0
100
AcDbSpline
 62
7
  6
CONTINUOUS
 70
0
 71
3
 72
45
 73
41
 74
0
 42
0.0000001
 43
0.0000001
 44
0.0000000001
 40
0.0
 40
0.0
 40
0.0
 40
0.0
 40
0.0030208462
 40
0.007172852
 40
0.0188306194
 40
0.0348734502
 40
0.0551541915
 40
0.0794901348
 40
0.1076582183
 40
0.1394005717
 40
0.1744286046
 40
0.2530293664
 40
0.3405923996
 40
0.4339216352
 40
0.5296101175
 40
0.6241651691
 40
0.7141353649
 40
0.7563646432
 40
0.7962363339
 40
0.8333855692
 40
0.8674718806
 40
0.8981852027
 40
0.9252430656
 40
0.9483993138
 40
0.9584468001
 40
0.9674431355
 40
0.9753663214
 40
0.9821995187
 40
0.9852028162
 40
0.9879281687
 40
0.9903737959
 40
0.992538219
 40
0.9944206787
 40
0.9960206039
 40
0.9973375843
 40
0.9983715486
 40
0.9991232763
 40
0.999596489
 40
0.9998135238
 40
1.0
 40
1.0
 40
1.0
 40
1.0
 10
162.4986050548
 20
52.5543987959
 30
0.0
 10
162.4929390338
 20
52.6033159847
 30
0.0
 10
162.4827373321
 20
52.7198300864
 30
0.0
 10
162.4625729613
 20
53.0261343116
 30
0.0
 10
162.4393046134
 20
53.5449042672
 30
0.0
 10
162.4125663788
 20
54.3266074631
 30
0.0
 10
162.3856650893
 20
55.3150915604
 30
0.0
 10
162.3584957578
 20
56.501279569
 30
0.0
 10
162.3312362841
 20
57.8743512568
 30
0.0
 10
162.3038906376
 20
59.4217471189
 30
0.0
 10
162.2658985517
 20
61.7912071462
 30
0.0
 10
162.2194683715
 20
65.0706037542
 30
0.0
 10
162.1653926066
 20
69.3003769819
 30
0.0
 10
162.1111981112
 20
73.8087249054
 30
0.0
 10
162.0569512257
 20
78.4310601783
 30
0.0
 10
162.002723356
 20
82.9986346056
 30
0.0
 10
161.9567070275
 20
86.6947813139
 30
0.0
 10
161.9192983123
 20
89.4995453672
 30
0.0
 10
161.8918549175
 20
91.4433057756
 30
0.0
 10
161.8644404822
 20
93.2543102428
 30
0.0
 10
161.8370613318
 20
94.9160019452
 30
0.0
 10
161.8097433472
 20
96.4131663084
 30
0.0
 10
161.7824968836
 20
97.7321225682
 30
0.0
 10
161.7589343195
 20
98.7141961068
 30
0.0
 10
161.7397132484
 20
99.4018516857
 30
0.0
 10
161.7260127431
 20
99.8412410711
 30
0.0
 10
161.7123386411
 20
100.2282051261
 30
0.0
 10
161.7005325928
 20
100.5174754743
 30
0.0
 10
161.6909480952
 20
100.7220286458
 30
0.0
 10
161.684080175
 20
100.8551039184
 30
0.0
 10
161.6772195567
 20
100.974488787
 30
0.0
 10
161.6703771921
 20
101.0800962556
 30
0.0
 10
161.6635321157
 20
101.1719243099
 30
0.0
 10
161.6567768647
 20
101.2497839136
 30
0.0
 10
161.649893847
 20
101.314072458
 30
0.0
 10
161.6435560208
 20
101.3636101149
 30
0.0
 10
161.636276692
 20
101.4012883524
 30
0.0
 10
161.631592653
 20
101.4213332795
 30
0.0
 10
161.6225314588
 20
101.4385075697
 30
0.0
 10
161.6160790687
 20
101.4315265659
 30
0.0
 10
161.6146495457
 20
101.4288438309
 30
0.0
  0
SPLINE
  5
44D
100
AcDbEntity
  8
0
100
AcDbSpline
 62
7
  6
CONTINUOUS
 70
0
 71
3
 72
9
 73
5
 74
0
 42
0.0000001
 43
0.0000001
 44
0.0000000001
 40
0.0
 40
0.0
 40
0.0
 40
0.0
 40
0.5009974243
 40
1.0
 40
1.0
 40
1.0
 40
1.0
 10
150.449259825
 20
104.4311707775
 30
0.0
 10
150.2874535731
 20
104.4341274821
 30
0.0
 10
149.9588980991
 20
104.5428681957
 30
0.0
 10
149.7523225192
 20
104.8196121243
 30
0.0
 10
149.6975057284
 20
104.9711937051
 30
0.0
  0
LINE
  5
44E
100
AcDbEntity
  8
0
100
AcDbLine
 62
7
  6
CONTINUOUS
 10
149.6975057284
 20
104.9711937051
 11
150.2434610807
 21
104.9574210638
  0
SPLINE
  5
44F
100
AcDbEntity
  8
0
100
AcDbSpline
 62
7
  6
CONTINUOUS
 70
0
 71
3
 72
11
 73
7
 74
0
 42
0.0000001
 43
0.0000001
 44
0.0000000001
 40
0.0
 40
0.0
 40
0.0
 40
0.0
 40
0.2504053969
 40
0.4999999074
 40
0.7495944169
 40
1.0
 40
1.0
 40
1.0
 40
1.0
 10
150.4639262606
 20
89.8668653785
 30
0.0
 10
150.6355008031
 20
90.9444603503
 30
0.0
 10
150.9028840097
 20
93.1092278009
 30
0.0
 10
151.0412614448
 20
96.376472438
 30
0.0
 10
150.9028848579
 20
99.6437180011
 30
0.0
 10
150.6355004801
 20
101.8084860997
 30
0.0
 10
150.4639262606
 20
102.8860819448
 30
0.0
  0
SPLINE
  5
450
100
AcDbEntity
  8
0
100
AcDbSpline
 62
7
  6
CONTINUOUS
 70
0
 71
3
 72
11
 73
7
 74
0
 42
0.0000001
 43
0.0000001
 44
0.0000000001
 40
0.0
 40
0.0
 40
0.0
 40
0.0
 40
0.2848488944
 40
0.5545526089
 40
0.7949434694
 40
1.0
 40
1.0
 40
1.0
 40
1.0
 10
150.449259825
 20
89.8672420798
 30
0.0
 10
150.3679564992
 20
89.8714307806
 30
0.0
 10
150.2100623274
 20
89.8938330335
 30
0.0
 10
149.9932229712
 20
89.9664773357
 30
0.0
 10
149.8163642561
 20
90.0722720959
 30
0.0
 10
149.7274655691
 20
90.1675263142
 30
0.0
 10
149.6975057284
 20
90.2178958028
 30
0.0
  0
SPLINE
  5
451
100
AcDbEntity
  8
0
100
AcDbSpline
 62
7
  6
CONTINUOUS
 70
0
 71
3
 72
11
 73
7
 74
0
 42
0.0000001
 43
0.0000001
 44
0.0000000001
 40
0.0
 40
0.0
 40
0.0
 40
0.0
 40
0.2498831593
 40
0.4992630674
 40
0.7490367259
 40
1.0
 40
1.0
 40
1.0
 40
1.0
 10
149.6975057284
 20
90.2178958028
 30
0.0
 10
149.873592603
 20
91.2979031498
 30
0.0
 10
150.148537105
 20
93.4694296916
 30
0.0
 10
150.2908978988
 20
96.7504141272
 30
0.0
 10
150.1481226723
 20
100.0360950469
 30
0.0
 10
149.8734070733
 20
102.21411863
 30
0.0
 10
149.6975057284
 20
103.2989482088
 30
0.0
  0
SPLINE
  5
452
100
AcDbEntity
  8
0
100
AcDbSpline
 62
7
  6
CONTINUOUS
 70
0
 71
3
 72
11
 73
7
 74
0
 42
0.0000001
 43
0.0000001
 44
0.0000000001
 40
0.0
 40
0.0
 40
0.0
 40
0.0
 40
0.2687126635
 40
0.5274187131
 40
0.7710842923
 40
1.0
 40
1.0
 40
1.0
 40
1.0
 10
150.449259825
 20
102.8858941917
 30
0.0
 10
150.3682818437
 20
102.8838148618
 30
0.0
 10
150.2080926849
 20
102.8997944341
 30
0.0
 10
149.987668461
 20
102.9819607133
 30
0.0
 10
149.8087578302
 20
103.1161971509
 30
0.0
 10
149.7257480827
 20
103.2359844757
 30
0.0
 10
149.6975057284
 20
103.2989482088
 30
0.0
  0
SPLINE
  5
453
100
AcDbEntity
  8
0
100
AcDbSpline
 62
7
  6
CONTINUOUS
 70
0
 71
3
 72
11
 73
7
 74
0
 42
0.0000001
 43
0.0000001
 44
0.0000000001
 40
0.0
 40
0.0
 40
0.0
 40
0.0
 40
0.2500018849
 40
0.4999999992
 40
0.749998113
 40
1.0
 40
1.0
 40
1.0
 40
1.0
 10
150.4639262606
 20
67.7250608593
 30
0.0
 10
150.6359401563
 20
69.2529132922
 30
0.0
 10
150.9032453343
 20
72.3179958199
 30
0.0
 10
151.0411560073
 20
76.9310371553
 30
0.0
 10
150.9032452862
 20
81.5440785203
 30
0.0
 10
150.6359397525
 20
84.6091610079
 30
0.0
 10
150.4639262606
 20
86.1370134988
 30
0.0
  0
SPLINE
  5
454
100
AcDbEntity
  8
0
100
AcDbSpline
 62
7
  6
CONTINUOUS
 70
0
 71
3
 72
12
 73
8
 74
0
 42
0.0000001
 43
0.0000001
 44
0.0000000001
 40
0.0
 40
0.0
 40
0.0
 40
0.0
 40
0.3198148773
 40
0.6090146868
 40
0.8416502726
 40
0.9309774993
 40
1.0
 40
1.0
 40
1.0
 40
1.0
 10
150.449259825
 20
67.7254599865
 30
0.0
 10
150.3687580139
 20
67.7298543165
 30
0.0
 10
150.2152107778
 20
67.7345252117
 30
0.0
 10
150.0030437986
 20
67.7298763387
 30
0.0
 10
149.8492633675
 20
67.7163798193
 30
0.0
 10
149.7523118076
 20
67.6984201236
 30
0.0
 10
149.7137293611
 20
67.6876248697
 30
0.0
 10
149.6975057284
 20
67.6813363022
 30
0.0
  0
SPLINE
  5
455
100
AcDbEntity
  8
0
100
AcDbSpline
 62
7
  6
CONTINUOUS
 70
0
 71
3
 72
11
 73
7
 74
0
 42
0.0000001
 43
0.0000001
 44
0.0000000001
 40
0.0
 40
0.0
 40
0.0
 40
0.0
 40
0.2500018001
 40
0.5
 40
0.7499981995
 40
1.0
 40
1.0
 40
1.0
 40
1.0
 10
149.6975057284
 20
67.6813363022
 30
0.0
 10
149.8739676311
 20
69.2161770336
 30
0.0
 10
150.148719033
 20
72.2956255854
 30
0.0
 10
150.2907840546
 20
76.9310371491
 30
0.0
 10
150.1487191962
 20
81.5664487432
 30
0.0
 10
149.8739673325
 20
84.6458972403
 30
0.0
 10
149.6975057284
 20
86.1807380079
 30
0.0
  0
SPLINE
  5
456
100
AcDbEntity
  8
0
100
AcDbSpline
 62
7
  6
CONTINUOUS
 70
0
 71
3
 72
12
 73
8
 74
0
 42
0.0000001
 43
0.0000001
 44
0.0000000001
 40
0.0
 40
0.0
 40
0.0
 40
0.0
 40
0.3198149184
 40
0.6090147952
 40
0.8416503908
 40
0.9309775479
 40
1.0
 40
1.0
 40
1.0
 40
1.0
 10
150.449259825
 20
86.1366143631
 30
0.0
 10
150.3687580092
 20
86.1322200601
 30
0.0
 10
150.2152107592
 20
86.12754914
 30
0.0
 10
150.0030437674
 20
86.1321983312
 30
0.0
 10
149.8492633758
 20
86.1456949401
 30
0.0
 10
149.7523117976
 20
86.1636542998
 30
0.0
 10
149.7137293466
 20
86.1744494413
 30
0.0
 10
149.6975057284
 20
86.1807380079
 30
0.0
  0
SPLINE
  5
457
100
AcDbEntity
  8
0
100
AcDbSpline
 62
7
  6
CONTINUOUS
 70
0
 71
3
 72
11
 73
7
 74
0
 42
0.0000001
 43
0.0000001
 44
0.0000000001
 40
0.0
 40
0.0
 40
0.0
 40
0.0
 40
0.2504055804
 40
0.5000000876
 40
0.7495945983
 40
1.0
 40
1.0
 40
1.0
 40
1.0
 10
150.4639262606
 20
50.9759924133
 30
0.0
 10
150.6355008765
 20
52.0535881832
 30
0.0
 10
150.9028849041
 20
54.2183563288
 30
0.0
 10
151.0412614585
 20
57.4856018472
 30
0.0
 10
150.9028839623
 20
60.7528465204
 30
0.0
 10
150.6355003999
 20
62.9176139224
 30
0.0
 10
150.4639262606
 20
63.9952089795
 30
0.0
  0
SPLINE
  5
458
100
AcDbEntity
  8
0
100
AcDbSpline
 62
7
  6
CONTINUOUS
 70
0
 71
3
 72
11
 73
7
 74
0
 42
0.0000001
 43
0.0000001
 44
0.0000000001
 40
0.0
 40
0.0
 40
0.0
 40
0.0
 40
0.2687126213
 40
0.5274185674
 40
0.7710841391
 40
1.0
 40
1.0
 40
1.0
 40
1.0
 10
150.449259825
 20
50.9761801624
 30
0.0
 10
150.368281849
 20
50.978259505
 30
0.0
 10
150.2080927288
 20
50.9622799221
 30
0.0
 10
149.9876684643
 20
50.8801138291
 30
0.0
 10
149.8087578027
 20
50.745877329
 30
0.0
 10
149.7257481076
 20
50.6260899064
 30
0.0
 10
149.6975057284
 20
50.5631261267
 30
0.0
  0
SPLINE
  5
459
100
AcDbEntity
  8
0
100
AcDbSpline
 62
7
  6
CONTINUOUS
 70
0
 71
3
 72
28
 73
24
 74
0
 42
0.0000001
 43
0.0000001
 44
0.0000000001
 40
0.0
 40
0.0
 40
0.0
 40
0.0
 40
0.1924523055
 40
0.3776976163
 40
0.4654467871
 40
0.5488347176
 40
0.6270808666
 40
0.6994551545
 40
0.7652781269
 40
0.8239326554
 40
0.8748724413
 40
0.8972956765
 40
0.9176186771
 40
0.9357922905
 40
0.951772861
 40
0.9655263262
 40
0.9770198352
 40
0.9862257037
 40
0.9931277023
 40
0.995711035
 40
0.9977148609
 40
0.9991411074
 40
1.0
 40
1.0
 40
1.0
 40
1.0
 10
163.0936441955
 20
76.931037179
 30
0.0
 10
163.0751237106
 20
78.5790441442
 30
0.0
 10
163.0387775276
 20
81.8133431511
 30
0.0
 10
162.9923256166
 20
85.7990369571
 30
0.0
 10
162.9545814998
 20
88.8507691447
 30
0.0
 10
162.9268018704
 20
90.9862413499
 30
0.0
 10
162.8990460938
 20
92.9900356787
 30
0.0
 10
162.8713229861
 20
94.8433933544
 30
0.0
 10
162.8436494687
 20
96.5289541103
 30
0.0
 10
162.8160368982
 20
98.0309289628
 30
0.0
 10
162.7922246471
 20
99.1612442601
 30
0.0
 10
162.7728536409
 20
99.9633134791
 30
0.0
 10
162.7589677794
 20
100.4848309884
 30
0.0
 10
162.7451049693
 20
100.9511539638
 30
0.0
 10
162.7312748113
 20
101.3611915418
 30
0.0
 10
162.717487054
 20
101.7139839486
 30
0.0
 10
162.7038066424
 20
102.008722089
 30
0.0
 10
162.6901933549
 20
102.2446905508
 30
0.0
 10
162.6783119071
 20
102.4043641614
 30
0.0
 10
162.6681801849
 20
102.5022027726
 30
0.0
 10
162.6615236399
 20
102.5533454705
 30
0.0
 10
162.6548296008
 20
102.5893395079
 30
0.0
 10
162.6497750807
 20
102.6085026058
 30
0.0
 10
162.6463758816
 20
102.6150253606
 30
0.0
  0
SPLINE
  5
45A
100
AcDbEntity
  8
0
100
AcDbSpline
 62
7
  6
CONTINUOUS
 70
0
 71
3
 72
11
 73
7
 74
0
 42
0.0000001
 43
0.0000001
 44
0.0000000001
 40
0.0
 40
0.0
 40
0.0
 40
0.0
 40
0.2509632735
 40
0.5007369287
 40
0.7501168357
 40
1.0
 40
1.0
 40
1.0
 40
1.0
 10
149.6975057284
 20
50.5631261267
 30
0.0
 10
149.8734073562
 20
51.6479556547
 30
0.0
 10
150.1481225095
 20
53.8259792903
 30
0.0
 10
150.2908979124
 20
57.1116601429
 30
0.0
 10
150.1485372736
 20
60.3926446166
 30
0.0
 10
149.8735922983
 20
62.5641710928
 30
0.0
 10
149.6975057284
 20
63.64417851
 30
0.0
  0
SPLINE
  5
45B
100
AcDbEntity
  8
0
100
AcDbSpline
 62
7
  6
CONTINUOUS
 70
0
 71
3
 72
11
 73
7
 74
0
 42
0.0000001
 43
0.0000001
 44
0.0000000001
 40
0.0
 40
0.0
 40
0.0
 40
0.0
 40
0.2848488455
 40
0.5545524644
 40
0.7949433006
 40
1.0
 40
1.0
 40
1.0
 40
1.0
 10
150.449259825
 20
63.9948322701
 30
0.0
 10
150.3679564972
 20
63.9906435955
 30
0.0
 10
150.210062347
 20
63.9682413294
 30
0.0
 10
149.993222915
 20
63.8955973179
 30
0.0
 10
149.8163641073
 20
63.7898025006
 30
0.0
 10
149.7274656004
 20
63.6945480484
 30
0.0
 10
149.6975057284
 20
63.64417851
 30
0.0
  0
SPLINE
  5
45C
100
AcDbEntity
  8
0
100
AcDbSpline
 62
7
  6
CONTINUOUS
 70
0
 71
3
 72
28
 73
24
 74
0
 42
0.0000001
 43
0.0000001
 44
0.0000000001
 40
0.0
 40
0.0
 40
0.0
 40
0.0
 40
0.1924507612
 40
0.3776948156
 40
0.465443408
 40
0.5488309232
 40
0.6270768023
 40
0.6994514781
 40
0.765276019
 40
0.8239323295
 40
0.8748736037
 40
0.8972970223
 40
0.9176199477
 40
0.9357935725
 40
0.951773915
 40
0.9655270046
 40
0.9770203479
 40
0.9862260175
 40
0.9931277534
 40
0.9957110146
 40
0.9977148509
 40
0.9991411165
 40
1.0
 40
1.0
 40
1.0
 40
1.0
 10
161.2796441955
 20
76.931037179
 30
0.0
 10
161.261123858
 20
78.5790310335
 30
0.0
 10
161.2247779359
 20
81.8133062794
 30
0.0
 10
161.1783264071
 20
85.7989714242
 30
0.0
 10
161.1405825568
 20
88.8506845531
 30
0.0
 10
161.112803142
 20
90.9861460847
 30
0.0
 10
161.0850475321
 20
92.9899380064
 30
0.0
 10
161.0573242306
 20
94.8433102507
 30
0.0
 10
161.0296504345
 20
96.5289031379
 30
0.0
 10
161.0020369941
 20
98.0309195225
 30
0.0
 10
160.9782242742
 20
99.1612644709
 30
0.0
 10
160.9588528136
 20
99.963347409
 30
0.0
 10
160.9449666758
 20
100.4848659711
 30
0.0
 10
160.9311040055
 20
100.9511864832
 30
0.0
 10
160.9172739187
 20
101.3612190189
 30
0.0
 10
160.9034860333
 20
101.7140048518
 30
0.0
 10
160.8898059335
 20
102.0087366804
 30
0.0
 10
160.8761929102
 20
102.244699793
 30
0.0
 10
160.8643114566
 20
102.4043688403
 30
0.0
 10
160.8541797636
 20
102.5022046688
 30
0.0
 10
160.8475233945
 20
102.5533470336
 30
0.0
 10
160.840829542
 20
102.5893412655
 30
0.0
 10
160.8357750976
 20
102.6085045024
 30
0.0
 10
160.8323758821
 20
102.6150271618
 30
0.0
  0
SPLINE
  5
45D
100
AcDbEntity
  8
0
100
AcDbSpline
 62
7
  6
CONTINUOUS
 70
0
 71
3
 72
28
 73
24
 74
0
 42
0.0000001
 43
0.0000001
 44
0.0000000001
 40
0.0
 40
0.0
 40
0.0
 40
0.0
 40
0.1924524029
 40
0.3776978072
 40
0.4654470477
 40
0.5488350205
 40
0.6270812148
 40
0.6994556371
 40
0.7652787899
 40
0.8239333506
 40
0.8748729994
 40
0.897296146
 40
0.9176190527
 40
0.9357926151
 40
0.9517731327
 40
0.9655265407
 40
0.9770200142
 40
0.9862258243
 40
0.9931277473
 40
0.9957110498
 40
0.9977148579
 40
0.9991411014
 40
1.0
 40
1.0
 40
1.0
 40
1.0
 10
159.4656441955
 20
76.931037179
 30
0.0
 10
159.4471237008
 20
78.5790450158
 30
0.0
 10
159.4107774993
 20
81.8133457302
 30
0.0
 10
159.3643255576
 20
85.7990418575
 30
0.0
 10
159.3265814158
 20
88.8507758729
 30
0.0
 10
159.2988017604
 20
90.9862494726
 30
0.0
 10
159.2710459514
 20
92.9900457467
 30
0.0
 10
159.2433227848
 20
94.8434065466
 30
0.0
 10
159.2156491782
 20
96.5289703112
 30
0.0
 10
159.1880365726
 20
98.0309458432
 30
0.0
 10
159.1642243103
 20
99.1612595091
 30
0.0
 10
159.1448533367
 20
99.9633260087
 30
0.0
 10
159.1309674746
 20
100.4848415294
 30
0.0
 10
159.1171046957
 20
100.9511628218
 30
0.0
 10
159.10327454
 20
101.3611990293
 30
0.0
 10
159.0894867586
 20
101.7139901955
 30
0.0
 10
159.0758063949
 20
102.0087270482
 30
0.0
 10
159.0621931646
 20
102.2446940659
 30
0.0
 10
159.050311741
 20
102.4043662701
 30
0.0
 10
159.04018006
 20
102.5022038266
 30
0.0
 10
159.0335235344
 20
102.5533460807
 30
0.0
 10
159.0268295355
 20
102.5893400073
 30
0.0
 10
159.0217750444
 20
102.608503124
 30
0.0
 10
159.0183758829
 20
102.615025957
 30
0.0
  0
SPLINE
  5
45E
100
AcDbEntity
  8
0
100
AcDbSpline
 62
7
  6
CONTINUOUS
 70
0
 71
3
 72
29
 73
25
 74
0
 42
0.0000001
 43
0.0000001
 44
0.0000000001
 40
0.0
 40
0.0
 40
0.0
 40
0.0
 40
0.1571502574
 40
0.3267942234
 40
0.4127155426
 40
0.4974193307
 40
0.5794622768
 40
0.6574462006
 40
0.7300424166
 40
0.7960143615
 40
0.8542384681
 40
0.8801298793
 40
0.9037232691
 40
0.9249184094
 40
0.9436263673
 40
0.9597650881
 40
0.9732695109
 40
0.9840797418
 40
0.9884608359
 40
0.9921537836
 40
0.9951548131
 40
0.9974610224
 40
0.9990733095
 40
1.0
 40
1.0
 40
1.0
 40
1.0
 10
163.8683249927
 20
64.2385634237
 30
0.0
 10
163.8414893966
 20
66.1868751208
 30
0.0
 10
163.790122644
 20
70.2384531869
 30
0.0
 10
163.7296622623
 20
75.3553307142
 30
0.0
 10
163.6800148575
 20
79.5740142069
 30
0.0
 10
163.6426293358
 20
82.7066070096
 30
0.0
 10
163.6052650182
 20
85.7407776569
 30
0.0
 10
163.5679364008
 20
88.6248158702
 30
0.0
 10
163.5306682825
 20
91.3095739902
 30
0.0
 10
163.4934817918
 20
93.7493068298
 30
0.0
 10
163.4614962995
 20
95.6099594533
 30
0.0
 10
163.4354695996
 20
96.9451826449
 30
0.0
 10
163.4167424679
 20
97.8213394268
 30
0.0
 10
163.3980472907
 20
98.6084076204
 30
0.0
 10
163.3793969269
 20
99.3030173643
 30
0.0
 10
163.3608194828
 20
99.9022355519
 30
0.0
 10
163.3423316819
 20
100.403473733
 30
0.0
 10
163.326193484
 20
100.7589198255
 30
0.0
 10
163.3128103769
 20
100.9926761196
 30
0.0
 10
163.3035678287
 20
101.1297064861
 30
0.0
 10
163.2943087541
 20
101.2408684805
 30
0.0
 10
163.2854445852
 20
101.3263429809
 30
0.0
 10
163.2763154436
 20
101.3854873132
 30
0.0
 10
163.2697572456
 20
101.4166950712
 30
0.0
 10
163.2648793361
 20
101.4270982253
 30
0.0
  0
SPLINE
  5
45F
100
AcDbEntity
  8
0
100
AcDbSpline
 62
7
  6
CONTINUOUS
 70
0
 71
3
 72
31
 73
27
 74
0
 42
0.0000001
 43
0.0000001
 44
0.0000000001
 40
0.0
 40
0.0
 40
0.0
 40
0.0
 40
0.000409173
 40
0.0013482428
 40
0.0028681174
 40
0.0049771029
 40
0.0076765112
 40
0.0109658938
 40
0.0193096726
 40
0.0299956392
 40
0.0429992228
 40
0.0582894532
 40
0.0758342313
 40
0.0955922208
 40
0.1175158575
 40
0.1415569121
 40
0.1676592971
 40
0.2257978382
 40
0.291395258
 40
0.3638427151
 40
0.4424665802
 40
0.526540653
 40
0.6152869038
 40
0.707875281
 40
0.8034479357
 40
1.0
 40
1.0
 40
1.0
 40
1.0
 10
158.1051275646
 20
51.2410680364
 30
0.0
 10
158.1017239059
 20
51.2410810871
 30
0.0
 10
158.0952629521
 20
51.2538162079
 30
0.0
 10
158.0900695414
 20
51.2747461332
 30
0.0
 10
158.0830240434
 20
51.3133712413
 30
0.0
 10
158.0765416707
 20
51.3650829649
 30
0.0
 10
158.0696557926
 20
51.4323010611
 30
0.0
 10
158.0597648894
 20
51.5510224079
 30
0.0
 10
158.0478312468
 20
51.7363745657
 30
0.0
 10
158.0342415641
 20
52.0024709149
 30
0.0
 10
158.0205604886
 20
52.3264466983
 30
0.0
 10
158.0068128776
 20
52.7075027444
 30
0.0
 10
157.9930303773
 20
53.1447799175
 30
0.0
 10
157.9792210917
 20
53.6372583685
 30
0.0
 10
157.9653918544
 20
54.1837946571
 30
0.0
 10
157.9515496977
 20
54.7831212636
 30
0.0
 10
157.9323845878
 20
55.6836555532
 30
0.0
 10
157.9087351841
 20
56.9298548944
 30
0.0
 10
157.8812024243
 20
58.5615645262
 30
0.0
 10
157.8536230029
 20
60.3637012969
 30
0.0
 10
157.8260059676
 20
62.3195509042
 30
0.0
 10
157.7983645709
 20
64.4109933502
 30
0.0
 10
157.770705002
 20
66.6186081277
 30
0.0
 10
157.7430320188
 20
68.9218802161
 30
0.0
 10
157.7057770555
 20
72.1218784859
 30
0.0
 10
157.678391801
 20
74.5517478931
 30
0.0
 10
157.6600108465
 20
76.1866522824
 30
0.0
  0
SPLINE
  5
460
100
AcDbEntity
  8
0
100
AcDbSpline
 62
7
  6
CONTINUOUS
 70
0
 71
3
 72
32
 73
28
 74
0
 42
0.0000001
 43
0.0000001
 44
0.0000000001
 40
0.0
 40
0.0
 40
0.0
 40
0.0
 40
0.0004067245
 40
0.0013486427
 40
0.0028760603
 40
0.0049977485
 40
0.007715069
 40
0.0110272347
 40
0.0149327966
 40
0.0194299954
 40
0.0301912842
 40
0.0432875052
 40
0.0586850966
 40
0.0763494411
 40
0.0962393126
 40
0.1183041168
 40
0.1424924018
 40
0.1687472778
 40
0.2271928189
 40
0.2930815189
 40
0.3657770447
 40
0.4445786777
 40
0.5287300541
 40
0.6174210179
 40
0.7097926565
 40
0.8049561722
 40
1.0
 40
1.0
 40
1.0
 40
1.0
 10
159.9191658904
 20
51.2410711559
 30
0.0
 10
159.9156817242
 20
51.2410478924
 30
0.0
 10
159.909086986
 20
51.2543011239
 30
0.0
 10
159.9038287179
 20
51.2758448013
 30
0.0
 10
159.896636928
 20
51.3158926426
 30
0.0
 10
159.8900402339
 20
51.3694596513
 30
0.0
 10
159.8830236763
 20
51.4391619347
 30
0.0
 10
159.8760816733
 20
51.523911038
 30
0.0
 10
159.8690639241
 20
51.6240511949
 30
0.0
 10
159.8590950026
 20
51.787909036
 30
0.0
 10
159.8469473316
 20
52.0305213001
 30
0.0
 10
159.8329998176
 20
52.3665136446
 30
0.0
 10
159.8189963324
 20
52.7616867438
 30
0.0
 10
159.8049517037
 20
53.2150866161
 30
0.0
 10
159.7908827648
 20
53.7256256363
 30
0.0
 10
159.7767927352
 20
54.292070803
 30
0.0
 10
159.76268872
 20
54.9130573593
 30
0.0
 10
159.7431663299
 20
55.8456587242
 30
0.0
 10
159.7190751978
 20
57.1354711164
 30
0.0
 10
159.6910250361
 20
58.8231127684
 30
0.0
 10
159.662926521
 20
60.6851577282
 30
0.0
 10
159.6347904133
 20
62.7036672745
 30
0.0
 10
159.6066299778
 20
64.859215279
 30
0.0
 10
159.5784511888
 20
67.131021107
 30
0.0
 10
159.5502596384
 20
69.4971702226
 30
0.0
 10
159.5123503933
 20
72.7743497995
 30
0.0
 10
159.484420334
 20
75.2602814084
 30
0.0
 10
159.4656441955
 20
76.931037179
 30
0.0
  0
SPLINE
  5
461
100
AcDbEntity
  8
0
100
AcDbSpline
 62
7
  6
CONTINUOUS
 70
0
 71
3
 72
32
 73
28
 74
0
 42
0.0000001
 43
0.0000001
 44
0.0000000001
 40
0.0
 40
0.0
 40
0.0
 40
0.0
 40
0.0004080169
 40
0.0013515852
 40
0.002880676
 40
0.0050039605
 40
0.0077227327
 40
0.0110362408
 40
0.0149430734
 40
0.0194415096
 40
0.0302052367
 40
0.0433034322
 40
0.058702754
 40
0.0763688867
 40
0.0962602209
 40
0.1183263532
 40
0.1425161766
 40
0.1687725594
 40
0.2272204372
 40
0.293110207
 40
0.3658047369
 40
0.4446040772
 40
0.5287526931
 40
0.6174403646
 40
0.709808058
 40
0.8049665564
 40
1.0
 40
1.0
 40
1.0
 40
1.0
 10
161.7331444213
 20
51.2410688597
 30
0.0
 10
161.7296491084
 20
51.2410682976
 30
0.0
 10
161.7230858138
 20
51.254346907
 30
0.0
 10
161.7177998424
 20
51.275935358
 30
0.0
 10
161.7106226636
 20
51.3160224549
 30
0.0
 10
161.7040194545
 20
51.3696319273
 30
0.0
 10
161.6970056129
 20
51.4393712292
 30
0.0
 10
161.6900629475
 20
51.5241555234
 30
0.0
 10
161.6830458355
 20
51.6243286107
 30
0.0
 10
161.6730774583
 20
51.7882288953
 30
0.0
 10
161.6609308565
 20
52.030889503
 30
0.0
 10
161.6469837356
 20
52.3669343573
 30
0.0
 10
161.6329807896
 20
52.762154336
 30
0.0
 10
161.6189369703
 20
53.2155966721
 30
0.0
 10
161.6048684559
 20
53.726174657
 30
0.0
 10
161.5907787739
 20
54.292656612
 30
0.0
 10
161.5766752105
 20
54.9136803046
 30
0.0
 10
161.5571533209
 20
55.846327271
 30
0.0
 10
161.5330627075
 20
57.1361810461
 30
0.0
 10
161.5050136016
 20
58.8238424217
 30
0.0
 10
161.4769162499
 20
60.6858673447
 30
0.0
 10
161.4487816109
 20
62.7043239536
 30
0.0
 10
161.4206225904
 20
64.859799268
 30
0.0
 10
161.3924451669
 20
67.1315181817
 30
0.0
 10
161.3642550775
 20
69.4975609971
 30
0.0
 10
161.3263478814
 20
72.7745730124
 30
0.0
 10
161.2984193238
 20
75.2603712968
 30
0.0
 10
161.2796441955
 20
76.931037179
 30
0.0
  0
SPLINE
  5
462
100
AcDbEntity
  8
0
100
AcDbSpline
 62
7
  6
CONTINUOUS
 70
0
 71
3
 72
32
 73
28
 74
0
 42
0.0000001
 43
0.0000001
 44
0.0000000001
 40
0.0
 40
0.0
 40
0.0
 40
0.0
 40
0.0004080634
 40
0.0013516713
 40
0.0028807582
 40
0.0050040431
 40
0.0077228762
 40
0.0110364802
 40
0.0149434178
 40
0.0194419424
 40
0.0302057602
 40
0.0433042172
 40
0.0587037606
 40
0.0763698095
 40
0.0962610227
 40
0.1183268965
 40
0.1425161113
 40
0.1687716671
 40
0.2272180952
 40
0.2931070063
 40
0.3658017146
 40
0.4446015391
 40
0.5287504623
 40
0.6174384965
 40
0.7098065482
 40
0.8049655331
 40
1.0
 40
1.0
 40
1.0
 40
1.0
 10
163.5471440964
 20
51.2410691402
 30
0.0
 10
163.5436483851
 20
51.2410693903
 30
0.0
 10
163.5370862164
 20
51.2543486394
 30
0.0
 10
163.5317991916
 20
51.2759380559
 30
0.0
 10
163.5246223644
 20
51.3160252307
 30
0.0
 10
163.5180188415
 20
51.3696352786
 30
0.0
 10
163.5110051257
 20
51.4393759058
 30
0.0
 10
163.504062415
 20
51.5241624567
 30
0.0
 10
163.4970452973
 20
51.6243380209
 30
0.0
 10
163.487076905
 20
51.7882407403
 30
0.0
 10
163.4749300269
 20
52.030905105
 30
0.0
 10
163.460983001
 20
52.3669548748
 30
0.0
 10
163.4469801036
 20
52.7621782648
 30
0.0
 10
163.4329361782
 20
53.2156207292
 30
0.0
 10
163.4188678949
 20
53.7261947358
 30
0.0
 10
163.4047785362
 20
54.2926682164
 30
0.0
 10
163.3906752651
 20
54.9136773808
 30
0.0
 10
163.3711538041
 20
55.8462996077
 30
0.0
 10
163.3470637414
 20
57.1361264919
 30
0.0
 10
163.3190147038
 20
58.8237695715
 30
0.0
 10
163.290917362
 20
60.6857927612
 30
0.0
 10
163.262782493
 20
62.7042576186
 30
0.0
 10
163.2346232983
 20
64.8597427576
 30
0.0
 10
163.2064457551
 20
67.1314704157
 30
0.0
 10
163.1782555116
 20
69.4975235075
 30
0.0
 10
163.1403481259
 20
72.7745514325
 30
0.0
 10
163.1124194218
 20
75.2603625789
 30
0.0
 10
163.0936441955
 20
76.931037179
 30
0.0
  0
SPLINE
  5
463
100
AcDbEntity
  8
0
100
AcDbSpline
 62
7
  6
CONTINUOUS
 70
0
 71
3
 72
9
 73
5
 74
0
 42
0.0000001
 43
0.0000001
 44
0.0000000001
 40
0.0
 40
0.0
 40
0.0
 40
0.0
 40
0.5009974168
 40
1.0
 40
1.0
 40
1.0
 40
1.0
 10
150.449259825
 20
49.4309035792
 30
0.0
 10
150.2874535704
 20
49.4279468844
 30
0.0
 10
149.9588980529
 20
49.3192062207
 30
0.0
 10
149.75232252
 20
49.0424622332
 30
0.0
 10
149.6975057284
 20
48.890880645
 30
0.0
  0
SPLINE
  5
464
100
AcDbEntity
  8
0
100
AcDbSpline
 62
7
  6
CONTINUOUS
 70
0
 71
3
 72
9
 73
5
 74
0
 42
0.0000001
 43
0.0000001
 44
0.0000000001
 40
0.0
 40
0.0
 40
0.0
 40
0.0
 40
0.1537171539
 40
1.0
 40
1.0
 40
1.0
 40
1.0
 10
77.9992233045
 20
101.426521025
 30
0.0
 10
78.0000124086
 20
101.42652403
 30
0.0
 10
78.0050212473
 20
101.4243941931
 30
0.0
 10
78.0066874338
 20
101.4186997938
 30
0.0
 10
78.0082233917
 20
101.4146359632
 30
0.0
  0
SPLINE
  5
465
100
AcDbEntity
  8
0
100
AcDbSpline
 62
7
  6
CONTINUOUS
 70
0
 71
3
 72
17
 73
13
 74
0
 42
0.0000001
 43
0.0000001
 44
0.0000000001
 40
0.0
 40
0.0
 40
0.0
 40
0.0
 40
0.0109950032
 40
0.0289462938
 40
0.0538983122
 40
0.0858467454
 40
0.1706544469
 40
0.2831419668
 40
0.4228761988
 40
0.5893627679
 40
0.7820420693
 40
1.0
 40
1.0
 40
1.0
 40
1.0
 10
78.0082233917
 20
101.4146359632
 30
0.0
 10
78.0125588444
 20
101.4031652412
 30
0.0
 10
78.0190341015
 20
101.3713157227
 30
0.0
 10
78.0276647279
 20
101.3119253578
 30
0.0
 10
78.0362414602
 20
101.2288187576
 30
0.0
 10
78.0492525622
 20
101.0713312316
 30
0.0
 10
78.0645399312
 20
100.8160699405
 30
0.0
 10
78.0820424608
 20
100.4405976676
 30
0.0
 10
78.0996456211
 20
99.9739360821
 30
0.0
 10
78.1173851068
 20
99.4177970503
 30
0.0
 10
78.1351705802
 20
98.7743764276
 30
0.0
 10
78.146385398
 20
98.3165308853
 30
0.0
 10
78.1520580626
 20
98.0735092994
 30
0.0
  0
SPLINE
  5
466
100
AcDbEntity
  8
0
100
AcDbSpline
 62
7
  6
CONTINUOUS
 70
0
 71
3
 72
9
 73
5
 74
0
 42
0.0000001
 43
0.0000001
 44
0.0000000001
 40
0.0
 40
0.0
 40
0.0
 40
0.0
 40
0.1635022665
 40
1.0
 40
1.0
 40
1.0
 40
1.0
 10
76.1852233428
 20
101.4265162523
 30
0.0
 10
76.1859174394
 20
101.4265192677
 30
0.0
 10
76.1901134364
 20
101.4249871655
 30
0.0
 10
76.1918332987
 20
101.4204013222
 30
0.0
 10
76.1932233917
 20
101.4171335894
 30
0.0
  0
SPLINE
  5
467
100
AcDbEntity
  8
0
100
AcDbSpline
 62
7
  6
CONTINUOUS
 70
0
 71
3
 72
33
 73
29
 74
0
 42
0.0000001
 43
0.0000001
 44
0.0000000001
 40
0.0
 40
0.0
 40
0.0
 40
0.0
 40
0.0012264808
 40
0.0035266273
 40
0.0069036992
 40
0.0113540321
 40
0.0168712341
 40
0.0234421439
 40
0.0396833022
 40
0.0599440822
 40
0.0840432823
 40
0.1117771824
 40
0.1429001731
 40
0.1771461381
 40
0.2142139202
 40
0.2955113617
 40
0.3839726069
 40
0.4765290463
 40
0.569969921
 40
0.6610537763
 40
0.7466209745
 40
0.8237033847
 40
0.8896274851
 40
0.9421074129
 40
0.9627179872
 40
0.9793253875
 40
0.9917885208
 40
1.0
 40
1.0
 40
1.0
 40
1.0
 10
76.1932233917
 20
101.4171335894
 30
0.0
 10
76.2010313556
 20
101.3987791766
 30
0.0
 10
76.2094171787
 20
101.3411756596
 30
0.0
 10
76.2229648475
 20
101.2302997069
 30
0.0
 10
76.2352204019
 20
101.065726769
 30
0.0
 10
76.2485515877
 20
100.8492379237
 30
0.0
 10
76.2616755102
 20
100.5805425725
 30
0.0
 10
76.2808005378
 20
100.120242689
 30
0.0
 10
76.3037905423
 20
99.4201055675
 30
0.0
 10
76.3301538539
 20
98.4349111207
 30
0.0
 10
76.3566458975
 20
97.2627491825
 30
0.0
 10
76.383247018
 20
95.9139035728
 30
0.0
 10
76.4099152443
 20
94.4000139269
 30
0.0
 10
76.4366255688
 20
92.7343081406
 30
0.0
 10
76.473424676
 20
90.2526783831
 30
0.0
 10
76.5185684521
 20
86.8893796376
 30
0.0
 10
76.5714008543
 20
82.623699142
 30
0.0
 10
76.6243076875
 20
78.160517625
 30
0.0
 10
76.6772358166
 20
73.654682305
 30
0.0
 10
76.7301120901
 20
69.2625193504
 30
0.0
 10
76.7828812335
 20
65.136412194
 30
0.0
 10
76.8353603338
 20
61.4195049564
 30
0.0
 10
76.8875409638
 20
58.2407566496
 30
0.0
 10
76.9329721557
 20
55.9804087424
 30
0.0
 10
76.9713184094
 20
54.5221689418
 30
0.0
 10
76.9972538318
 20
53.7145979835
 30
0.0
 10
77.0230767151
 20
53.1088657625
 30
0.0
 10
77.0427389848
 20
52.7731093412
 30
0.0
 10
77.0548900085
 20
52.6401207495
 30
0.0
  0
SPLINE
  5
468
100
AcDbEntity
  8
0
100
AcDbSpline
 62
7
  6
CONTINUOUS
 70
0
 71
3
 72
10
 73
6
 74
0
 42
0.0000001
 43
0.0000001
 44
0.0000000001
 40
0.0
 40
0.0
 40
0.0
 40
0.0
 40
0.6703239866
 40
0.8772185165
 40
1.0
 40
1.0
 40
1.0
 40
1.0
 10
77.0548900085
 20
52.6401207495
 30
0.0
 10
77.0589785178
 20
52.5953734823
 30
0.0
 10
77.0645611316
 20
52.5366202757
 30
0.0
 10
77.0763496725
 20
52.4708557497
 30
0.0
 10
77.0818794568
 20
52.4491509245
 30
0.0
 10
77.0856879687
 20
52.4418547337
 30
0.0
  0
SPLINE
  5
469
100
AcDbEntity
  8
0
100
AcDbSpline
 62
7
  6
CONTINUOUS
 70
0
 71
3
 72
9
 73
5
 74
0
 42
0.0000001
 43
0.0000001
 44
0.0000000001
 40
0.0
 40
0.0
 40
0.0
 40
0.0
 40
0.6476528091
 40
1.0
 40
1.0
 40
1.0
 40
1.0
 10
74.3712233471
 20
101.4265204706
 30
0.0
 10
74.3734303918
 20
101.4265294761
 30
0.0
 10
74.3761752662
 20
101.4232872348
 30
0.0
 10
74.377698404
 20
101.4204173213
 30
0.0
 10
74.3782233917
 20
101.4193374477
 30
0.0
  0
SPLINE
  5
46A
100
AcDbEntity
  8
0
100
AcDbSpline
 62
7
  6
CONTINUOUS
 70
0
 71
3
 72
39
 73
35
 74
0
 42
0.0000001
 43
0.0000001
 44
0.0000000001
 40
0.0
 40
0.0
 40
0.0
 40
0.0
 40
0.0004553197
 40
0.001187631
 40
0.0034958733
 40
0.006931287
 40
0.0114901818
 40
0.0171654151
 40
0.0239425047
 40
0.0318050947
 40
0.0407367043
 40
0.06172745
 40
0.0867177171
 40
0.1154857021
 40
0.1477635592
 40
0.1832619456
 40
0.2216523151
 40
0.3056932524
 40
0.3968254335
 40
0.4917294074
 40
0.5869482473
 40
0.6790135509
 40
0.7645718553
 40
0.8405068923
 40
0.8739837402
 40
0.9040533138
 40
0.9304363904
 40
0.9528978458
 40
0.9712275869
 40
0.9852653498
 40
0.9906308667
 40
0.9948797546
 40
0.998004483
 40
1.0
 40
1.0
 40
1.0
 40
1.0
 10
74.3782233917
 20
101.4193374477
 30
0.0
 10
74.3814719917
 20
101.4126552392
 30
0.0
 10
74.3865225384
 20
101.3937482843
 30
0.0
 10
74.3969318297
 20
101.3377701975
 30
0.0
 10
74.4081851007
 20
101.2324815779
 30
0.0
 10
74.4215509789
 20
101.0649796662
 30
0.0
 10
74.4348567222
 20
100.8422639007
 30
0.0
 10
74.4484194725
 20
100.5650143259
 30
0.0
 10
74.4620145074
 20
100.2337810563
 30
0.0
 10
74.4756769468
 20
99.8493817378
 30
0.0
 10
74.4949804003
 20
99.2330970804
 30
0.0
 10
74.5185410196
 20
98.3373238618
 30
0.0
 10
74.5457065207
 20
97.117850602
 30
0.0
 10
74.5729524907
 20
95.7141535516
 30
0.0
 10
74.6002799416
 20
94.1389555596
 30
0.0
 10
74.6276466782
 20
92.4067163246
 30
0.0
 10
74.6653283567
 20
89.8298528917
 30
0.0
 10
74.7115386628
 20
86.3451724865
 30
0.0
 10
74.7656469311
 20
81.9383150486
 30
0.0
 10
74.8198248843
 20
77.3490413809
 30
0.0
 10
74.8740141415
 20
72.7445399702
 30
0.0
 10
74.9281293921
 20
68.2925532617
 30
0.0
 10
74.982108134
 20
64.1552678246
 30
0.0
 10
75.0285452248
 20
60.9740285917
 30
0.0
 10
75.0666215925
 20
58.6982509963
 30
0.0
 10
75.0938993119
 20
57.2310096669
 30
0.0
 10
75.1211063258
 20
55.9435552791
 30
0.0
 10
75.1481191781
 20
54.8477137909
 30
0.0
 10
75.1749983036
 20
53.9534074706
 30
0.0
 10
75.1984493214
 20
53.3380856403
 30
0.0
 10
75.2183200439
 20
52.9526452573
 30
0.0
 10
75.2315690149
 20
52.7451471261
 30
0.0
 10
75.2448177084
 20
52.5928863011
 30
0.0
 10
75.2548418846
 20
52.5097960365
 30
0.0
 10
75.2612485162
 20
52.4778691132
 30
0.0
  0
SPLINE
  5
46B
100
AcDbEntity
  8
0
100
AcDbSpline
 62
7
  6
CONTINUOUS
 70
0
 71
3
 72
9
 73
5
 74
0
 42
0.0000001
 43
0.0000001
 44
0.0000000001
 40
0.0
 40
0.0
 40
0.0
 40
0.0
 40
0.3273054216
 40
1.0
 40
1.0
 40
1.0
 40
1.0
 10
75.2612485162
 20
52.4778691132
 30
0.0
 10
75.2620542015
 20
52.4738540467
 30
0.0
 10
75.2647550731
 20
52.46167837
 30
0.0
 10
75.267793464
 20
52.4493206445
 30
0.0
 10
75.2716879689
 20
52.4418594287
 30
0.0
  0
SPLINE
  5
46C
100
AcDbEntity
  8
0
100
AcDbSpline
 62
7
  6
CONTINUOUS
 70
0
 71
3
 72
14
 73
10
 74
0
 42
0.0000001
 43
0.0000001
 44
0.0000000001
 40
0.0
 40
0.0
 40
0.0
 40
0.0
 40
0.1296656547
 40
0.2357912073
 40
0.3216305528
 40
0.4043421357
 40
0.5097552082
 40
0.6471436751
 40
1.0
 40
1.0
 40
1.0
 40
1.0
 10
96.9948550405
 20
104.431037179
 30
0.0
 10
97.0140040701
 20
104.431037179
 30
0.0
 10
97.0489230334
 20
104.4292195153
 30
0.0
 10
97.0954597434
 20
104.4179631748
 30
0.0
 10
97.1301503046
 20
104.3929733264
 30
0.0
 10
97.1415196068
 20
104.3511694873
 30
0.0
 10
97.1267504965
 20
104.3039881022
 30
0.0
 10
97.0823590284
 20
104.2279851301
 30
0.0
 10
97.0322834068
 20
104.1744007189
 30
0.0
 10
96.9948550405
 20
104.1381439602
 30
0.0
  0
SPLINE
  5
46D
100
AcDbEntity
  8
0
100
AcDbSpline
 62
7
  6
CONTINUOUS
 70
0
 71
3
 72
18
 73
14
 74
0
 42
0.0000001
 43
0.0000001
 44
0.0000000001
 40
0.0
 40
0.0
 40
0.0
 40
0.0
 40
0.009316737
 40
0.0257794835
 40
0.0494680717
 40
0.0803844467
 40
0.1185117165
 40
0.1638261945
 40
0.2758783783
 40
0.4161023182
 40
0.5839792152
 40
0.7789281215
 40
1.0
 40
1.0
 40
1.0
 40
1.0
 10
77.8057588448
 20
101.4202618318
 30
0.0
 10
77.8105681073
 20
101.4110294453
 30
0.0
 10
77.8168667624
 20
101.3824324731
 30
0.0
 10
77.825738097
 20
101.3281609976
 30
0.0
 10
77.8343017928
 20
101.2490520136
 30
0.0
 10
77.8432869168
 20
101.1458863938
 30
0.0
 10
77.8522440481
 20
101.0183977391
 30
0.0
 10
77.8652301653
 20
100.8003599939
 30
0.0
 10
77.8808723028
 20
100.4682033742
 30
0.0
 10
77.8988009586
 20
99.9990954815
 30
0.0
 10
77.91681683
 20
99.4373062001
 30
0.0
 10
77.9349044133
 20
98.7851479716
 30
0.0
 10
77.9462938487
 20
98.3204529343
 30
0.0
 10
77.9520580626
 20
98.0735092994
 30
0.0
  0
SPLINE
  5
46E
100
AcDbEntity
  8
0
100
AcDbSpline
 62
7
  6
CONTINUOUS
 70
0
 71
3
 72
9
 73
5
 74
0
 42
0.0000001
 43
0.0000001
 44
0.0000000001
 40
0.0
 40
0.0
 40
0.0
 40
0.0
 40
0.6615714356
 40
1.0
 40
1.0
 40
1.0
 40
1.0
 10
72.5572233969
 20
101.4265067639
 30
0.0
 10
72.5590171316
 20
101.4265179032
 30
0.0
 10
72.5613926315
 20
101.4242745007
 30
0.0
 10
72.5627700372
 20
101.4220453042
 30
0.0
 10
72.5632233917
 20
101.4212475118
 30
0.0
  0
SPLINE
  5
46F
100
AcDbEntity
  8
0
100
AcDbSpline
 62
7
  6
CONTINUOUS
 70
0
 71
3
 72
16
 73
12
 74
0
 42
0.0000001
 43
0.0000001
 44
0.0000000001
 40
0.0
 40
0.0
 40
0.0
 40
0.0
 40
0.0103842204
 40
0.0276358731
 40
0.0831550749
 40
0.166805416
 40
0.2785323045
 40
0.4181721332
 40
0.5852959582
 40
0.7794056983
 40
1.0
 40
1.0
 40
1.0
 40
1.0
 10
72.5632233917
 20
101.4212475118
 30
0.0
 10
72.5665588556
 20
101.4153779149
 30
0.0
 10
72.5715534213
 20
101.3978441955
 30
0.0
 10
72.5820047564
 20
101.3449827885
 30
0.0
 10
72.5931127757
 20
101.2436030835
 30
0.0
 10
72.6064527393
 20
101.0811626683
 30
0.0
 10
72.6196822364
 20
100.8636904476
 30
0.0
 10
72.633203002
 20
100.5919723041
 30
0.0
 10
72.6467487173
 20
100.2666097852
 30
0.0
 10
72.6603591794
 20
99.8885914853
 30
0.0
 10
72.6689030545
 20
99.619113197
 30
0.0
 10
72.6732233917
 20
99.4757629548
 30
0.0
  0
SPLINE
  5
470
100
AcDbEntity
  8
0
100
AcDbSpline
 62
7
  6
CONTINUOUS
 70
0
 71
3
 72
49
 73
45
 74
0
 42
0.0000001
 43
0.0000001
 44
0.0000000001
 40
0.0
 40
0.0
 40
0.0
 40
0.0
 40
0.0001636642
 40
0.0006507022
 40
0.0014596571
 40
0.0025890714
 40
0.0040374886
 40
0.005803453
 40
0.0102821979
 40
0.016008649
 40
0.0229521581
 40
0.0310797637
 40
0.0403586435
 40
0.0507535533
 40
0.0622230454
 40
0.0882175549
 40
0.1180061492
 40
0.1512464139
 40
0.1876013406
 40
0.2267355617
 40
0.3119915136
 40
0.4041666042
 40
0.4999992423
 40
0.5958322956
 40
0.6880081709
 40
0.7732644134
 40
0.8123986794
 40
0.8487536189
 40
0.881993875
 40
0.9117824561
 40
0.9377769635
 40
0.9492464574
 40
0.9596413692
 40
0.9689202497
 40
0.9770478547
 40
0.9839913654
 40
0.9897178237
 40
0.9941965755
 40
0.9959625389
 40
0.9974109529
 40
0.9985403623
 40
0.999349311
 40
0.9998363424
 40
1.0
 40
1.0
 40
1.0
 40
1.0
 10
104.8683244789
 20
112.7197164241
 30
0.0
 10
104.8691399125
 20
112.7185062976
 30
0.0
 10
104.8757811758
 20
112.7178421253
 30
0.0
 10
104.8865913671
 20
112.7114095665
 30
0.0
 10
104.9073066021
 20
112.7040741036
 30
0.0
 10
104.934965046
 20
112.6923109949
 30
0.0
 10
104.9709682358
 20
112.6778861476
 30
0.0
 10
105.034493543
 20
112.6520847124
 30
0.0
 10
105.1335332971
 20
112.6122460497
 30
0.0
 10
105.2754693578
 20
112.5554174907
 30
0.0
 10
105.4478972588
 20
112.4871949974
 30
0.0
 10
105.6501359407
 20
112.4082422423
 30
0.0
 10
105.8815067705
 20
112.3192986204
 30
0.0
 10
106.1412555063
 20
112.2211475738
 30
0.0
 10
106.5414357307
 20
112.0730308637
 30
0.0
 10
107.1062272017
 20
111.8715571198
 30
0.0
 10
107.8585087581
 20
111.6182597519
 30
0.0
 10
108.7042233541
 20
111.353533636
 30
0.0
 10
109.6363193484
 20
111.0866623912
 30
0.0
 10
111.0247865525
 20
110.7307608256
 30
0.0
 10
112.9177255609
 20
110.3416302286
 30
0.0
 10
115.3367914839
 20
110.0303750399
 30
0.0
 10
117.8683078771
 20
109.9193174171
 30
0.0
 10
120.399831351
 20
110.0303730274
 30
0.0
 10
122.8189108476
 20
110.3416273401
 30
0.0
 10
124.7118596764
 20
110.7307599633
 30
0.0
 10
126.1003298656
 20
111.0866623785
 30
0.0
 10
127.0324262546
 20
111.3535338345
 30
0.0
 10
127.8781407786
 20
111.6182599119
 30
0.0
 10
128.6304221304
 20
111.8715572232
 30
0.0
 10
129.1952134402
 20
112.0730310605
 30
0.0
 10
129.5953936562
 20
112.2211478361
 30
0.0
 10
129.8551424239
 20
112.3192989134
 30
0.0
 10
130.0865132913
 20
112.4082424893
 30
0.0
 10
130.2887520312
 20
112.4871951398
 30
0.0
 10
130.4611800218
 20
112.5554175914
 30
0.0
 10
130.6031162085
 20
112.6122462512
 30
0.0
 10
130.7021559515
 20
112.6520851696
 30
0.0
 10
130.7656813244
 20
112.6778866379
 30
0.0
 10
130.8016842829
 20
112.6923115595
 30
0.0
 10
130.8293429953
 20
112.7040743885
 30
0.0
 10
130.8500572273
 20
112.711410264
 30
0.0
 10
130.8608688306
 20
112.7178417874
 30
0.0
 10
130.8675083837
 20
112.7185068151
 30
0.0
 10
130.8683244789
 20
112.7197164241
 30
0.0
  0
SPLINE
  5
471
100
AcDbEntity
  8
0
100
AcDbSpline
 62
7
  6
CONTINUOUS
 70
0
 71
3
 72
9
 73
5
 74
0
 42
0.0000001
 43
0.0000001
 44
0.0000000001
 40
0.0
 40
0.0
 40
0.0
 40
0.0
 40
0.5041420156
 40
1.0
 40
1.0
 40
1.0
 40
1.0
 10
100.5580934559
 20
157.741268202
 30
0.0
 10
100.5635004492
 20
157.8457458944
 30
0.0
 10
100.6651142122
 20
158.047278923
 30
0.0
 10
100.869056399
 20
158.1551295882
 30
0.0
 10
100.9719548421
 20
158.1551295882
 30
0.0
  0
SPLINE
  5
472
100
AcDbEntity
  8
0
100
AcDbSpline
 62
7
  6
CONTINUOUS
 70
0
 71
3
 72
9
 73
5
 74
0
 42
0.0000001
 43
0.0000001
 44
0.0000000001
 40
0.0
 40
0.0
 40
0.0
 40
0.0
 40
0.4972859649
 40
1.0
 40
1.0
 40
1.0
 40
1.0
 10
79.9279452986
 20
104.431037179
 30
0.0
 10
79.7523118086
 20
104.4310371795
 30
0.0
 10
79.3924347214
 20
104.3287227654
 30
0.0
 10
79.1417369708
 20
104.0515753497
 30
0.0
 10
79.0619199025
 20
103.8929769561
 30
0.0
  0
SPLINE
  5
473
100
AcDbEntity
  8
0
100
AcDbSpline
 62
7
  6
CONTINUOUS
 70
0
 71
3
 72
9
 73
5
 74
0
 42
0.0000001
 43
0.0000001
 44
0.0000000001
 40
0.0
 40
0.0
 40
0.0
 40
0.0
 40
0.4855523579
 40
1.0
 40
1.0
 40
1.0
 40
1.0
 10
78.8683118104
 20
103.8984447147
 30
0.0
 10
78.899907847
 20
103.8975424655
 30
0.0
 10
78.9649686789
 20
103.8936450998
 30
0.0
 10
79.0300812019
 20
103.8982957596
 30
0.0
 10
79.0635582128
 20
103.8973642941
 30
0.0
  0
SPLINE
  5
474
100
AcDbEntity
  8
0
100
AcDbSpline
 62
7
  6
CONTINUOUS
 70
0
 71
3
 72
9
 73
5
 74
0
 42
0.0000001
 43
0.0000001
 44
0.0000000001
 40
0.0
 40
0.0
 40
0.0
 40
0.0
 40
0.3562968524
 40
1.0
 40
1.0
 40
1.0
 40
1.0
 10
75.991758863
 20
101.420260339
 30
0.0
 10
75.9971277385
 20
101.4099560234
 30
0.0
 10
76.0037555382
 20
101.3774056057
 30
0.0
 10
76.008864222
 20
101.3454642961
 30
0.0
 10
76.0115567749
 20
101.3246460474
 30
0.0
  0
SPLINE
  5
475
100
AcDbEntity
  8
0
100
AcDbSpline
 62
7
  6
CONTINUOUS
 70
0
 71
3
 72
40
 73
36
 74
0
 42
0.0000001
 43
0.0000001
 44
0.0000000001
 40
0.0
 40
0.0
 40
0.0
 40
0.0
 40
0.0066300488
 40
0.0177210962
 40
0.0331750842
 40
0.0528565656
 40
0.0765849595
 40
0.1041479046
 40
0.1697400321
 40
0.2472577113
 40
0.3338928542
 40
0.4265067143
 40
0.5217437725
 40
0.6161534093
 40
0.7063150017
 40
0.7487732581
 40
0.7889619453
 40
0.8265187891
 40
0.8611001204
 40
0.8923951153
 40
0.9201166246
 40
0.9440166406
 40
0.9544636221
 40
0.9638751395
 40
0.9722322229
 40
0.9795163354
 40
0.985709123
 40
0.9907964009
 40
0.9947698535
 40
0.9963366944
 40
0.9976226556
 40
0.9986274376
 40
0.9993517635
 40
0.9998003743
 40
1.0
 40
1.0
 40
1.0
 40
1.0
 10
76.0115567749
 20
101.3246460474
 30
0.0
 10
76.0254199227
 20
101.2174591231
 30
0.0
 10
76.0446020784
 20
100.928936396
 30
0.0
 10
76.0712082578
 20
100.3889318368
 30
0.0
 10
76.0972012489
 20
99.6357298405
 30
0.0
 10
76.1241960501
 20
98.6765674197
 30
0.0
 10
76.1511761337
 20
97.5199048219
 30
0.0
 10
76.1896728364
 20
95.6149213052
 30
0.0
 10
76.2361378589
 20
92.8330786004
 30
0.0
 10
76.2897611682
 20
89.0882763993
 30
0.0
 10
76.3436029392
 20
84.9029403258
 30
0.0
 10
76.397604226
 20
80.4287329602
 30
0.0
 10
76.4516532197
 20
75.8277812134
 30
0.0
 10
76.505691596
 20
71.2668078341
 30
0.0
 10
76.5515104251
 20
67.5661708572
 30
0.0
 10
76.5887421445
 20
64.7493791581
 30
0.0
 10
76.6160903129
 20
62.7900682987
 30
0.0
 10
76.6434090765
 20
60.9591758946
 30
0.0
 10
76.6706976863
 20
59.2732808383
 30
0.0
 10
76.6979284984
 20
57.747738154
 30
0.0
 10
76.725096903
 20
56.3963466851
 30
0.0
 10
76.7485587103
 20
55.3848064
 30
0.0
 10
76.7676656734
 20
54.6717322023
 30
0.0
 10
76.7813303953
 20
54.2119785541
 30
0.0
 10
76.7949662652
 20
53.8038073812
 30
0.0
 10
76.8085628992
 20
53.4481418741
 30
0.0
 10
76.8220964248
 20
53.1458088424
 30
0.0
 10
76.8355449399
 20
52.8975374318
 30
0.0
 10
76.847351275
 20
52.7246288936
 30
0.0
 10
76.8571321456
 20
52.6138580073
 30
0.0
 10
76.8639495205
 20
52.5511665645
 30
0.0
 10
76.8703478424
 20
52.5028790976
 30
0.0
 10
76.8773555509
 20
52.4669788648
 30
0.0
 10
76.8824481767
 20
52.4472096748
 30
0.0
 10
76.8889692605
 20
52.4355952855
 30
0.0
 10
76.892223439
 20
52.4356065165
 30
0.0
  0
SPLINE
  5
476
100
AcDbEntity
  8
0
100
AcDbSpline
 62
7
  6
CONTINUOUS
 70
0
 71
3
 72
11
 73
7
 74
0
 42
0.0000001
 43
0.0000001
 44
0.0000000001
 40
0.0
 40
0.0
 40
0.0
 40
0.0
 40
0.0758936888
 40
0.2642715911
 40
0.5720134
 40
1.0
 40
1.0
 40
1.0
 40
1.0
 10
72.6593244789
 20
51.273537179
 30
0.0
 10
72.6544113154
 20
51.273537179
 30
0.0
 10
72.6471351457
 20
51.2952066674
 30
0.0
 10
72.640124734
 20
51.3265801906
 30
0.0
 10
72.6315467163
 20
51.3886095537
 30
0.0
 10
72.6268234906
 20
51.4351001936
 30
0.0
 10
72.6242598989
 20
51.4626880984
 30
0.0
  0
SPLINE
  5
477
100
AcDbEntity
  8
0
100
AcDbSpline
 62
7
  6
CONTINUOUS
 70
0
 71
3
 72
20
 73
16
 74
0
 42
0.0000001
 43
0.0000001
 44
0.0000000001
 40
0.0
 40
0.0
 40
0.0
 40
0.0
 40
0.0065054323
 40
0.0159579794
 40
0.0434844062
 40
0.082004615
 40
0.1307058213
 40
0.1885563176
 40
0.2543310667
 40
0.3266356111
 40
0.4039383124
 40
0.566918027
 40
0.7295317626
 40
0.8780729369
 40
1.0
 40
1.0
 40
1.0
 40
1.0
 10
72.6242598989
 20
51.4626880984
 30
0.0
 10
72.6151744963
 20
51.560459995
 30
0.0
 10
72.5996610416
 20
51.8008895049
 30
0.0
 10
72.5687207358
 20
52.4565004121
 30
0.0
 10
72.5337756792
 20
53.5956237405
 30
0.0
 10
72.493215253
 20
55.327136559
 30
0.0
 10
72.4524978073
 20
57.516491676
 30
0.0
 10
72.4112629319
 20
60.1172616287
 30
0.0
 10
72.3698997151
 20
63.0743427018
 30
0.0
 10
72.3283993498
 20
66.3250577833
 30
0.0
 10
72.2719924535
 20
71.0429145774
 30
0.0
 10
72.2036836859
 20
77.1238529201
 30
0.0
 10
72.123128676
 20
84.2799977939
 30
0.0
 10
72.0430320349
 20
90.816452831
 30
0.0
 10
71.9837655911
 20
94.8984899307
 30
0.0
 10
71.9511911898
 20
96.7385710117
 30
0.0
  0
SPLINE
  5
478
100
AcDbEntity
  8
0
100
AcDbSpline
 62
7
  6
CONTINUOUS
 70
0
 71
3
 72
9
 73
5
 74
0
 42
0.0000001
 43
0.0000001
 44
0.0000000001
 40
0.0
 40
0.0
 40
0.0
 40
0.0
 40
0.2937471123
 40
1.0
 40
1.0
 40
1.0
 40
1.0
 10
71.9511911898
 20
96.7385710117
 30
0.0
 10
71.9445923003
 20
97.1113327886
 30
0.0
 10
71.9210673341
 20
98.3802987024
 30
0.0
 10
71.8941053462
 20
99.6492269667
 30
0.0
 10
71.8683244789
 20
100.5452235231
 30
0.0
  0
LINE
  5
479
100
AcDbEntity
  8
0
100
AcDbLine
 62
7
  6
CONTINUOUS
 10
95.6612176977
 20
104.7239303978
 11
97.7020344896
 21
104.7712679162
  0
SPLINE
  5
47A
100
AcDbEntity
  8
0
100
AcDbSpline
 62
7
  6
CONTINUOUS
 70
0
 71
3
 72
11
 73
7
 74
0
 42
0.0000001
 43
0.0000001
 44
0.0000000001
 40
0.0
 40
0.0
 40
0.0
 40
0.0
 40
0.0757783597
 40
0.2641497128
 40
0.5719343416
 40
1.0
 40
1.0
 40
1.0
 40
1.0
 10
74.4733244789
 20
51.273537179
 30
0.0
 10
74.4683703446
 20
51.273537179
 30
0.0
 10
74.4610841277
 20
51.295454463
 30
0.0
 10
74.4540198573
 20
51.3271090335
 30
0.0
 10
74.4454100389
 20
51.3897821198
 30
0.0
 10
74.4406593833
 20
51.436736072
 30
0.0
 10
74.4380828356
 20
51.4646027051
 30
0.0
  0
SPLINE
  5
47B
100
AcDbEntity
  8
0
100
AcDbSpline
 62
7
  6
CONTINUOUS
 70
0
 71
3
 72
36
 73
32
 74
0
 42
0.0000001
 43
0.0000001
 44
0.0000000001
 40
0.0
 40
0.0
 40
0.0
 40
0.0
 40
0.0079185431
 40
0.0201315626
 40
0.0365326
 40
0.0569820675
 40
0.081297773
 40
0.1092694864
 40
0.1751634358
 40
0.2523613362
 40
0.3381606995
 40
0.42956067
 40
0.5233608366
 40
0.616283071
 40
0.7050741353
 40
0.786621623
 40
0.8237731571
 40
0.8580693513
 40
0.8892093527
 40
0.9169223706
 40
0.9409627731
 40
0.9611225474
 40
0.9696902188
 40
0.9772230686
 40
0.9837068711
 40
0.9891278708
 40
0.9934726958
 40
0.9967327304
 40
0.9989057174
 40
0.9995859572
 40
1.0
 40
1.0
 40
1.0
 40
1.0
 10
74.4380828356
 20
51.4646027051
 30
0.0
 10
74.4256576773
 20
51.5989869184
 30
0.0
 10
74.4060027749
 20
51.9416465107
 30
0.0
 10
74.3800610182
 20
52.5636979972
 30
0.0
 10
74.3540885357
 20
53.3995271638
 30
0.0
 10
74.3275746447
 20
54.4416525251
 30
0.0
 10
74.3009705643
 20
55.6810427611
 30
0.0
 10
74.2632472692
 20
57.6948797958
 30
0.0
 10
74.2175678368
 20
60.6100006843
 30
0.0
 10
74.1648022682
 20
64.5106858066
 30
0.0
 10
74.1118337969
 20
68.8461091274
 30
0.0
 10
74.0587260443
 20
73.4645056453
 30
0.0
 10
74.0055727905
 20
78.2043060255
 30
0.0
 10
73.9524375109
 20
82.8996397196
 30
0.0
 10
73.8993777937
 20
87.3861354737
 30
0.0
 10
73.8540313088
 20
90.9221434811
 30
0.0
 10
73.8170620205
 20
93.5294116545
 30
0.0
 10
73.7902355427
 20
95.2776307361
 30
0.0
 10
73.7634527756
 20
96.8649673106
 30
0.0
 10
73.7367453834
 20
98.2774863791
 30
0.0
 10
73.7101233991
 20
99.5028308994
 30
0.0
 10
73.6870201275
 20
100.401871769
 30
0.0
 10
73.6680979536
 20
101.0195762129
 30
0.0
 10
73.6547090573
 20
101.4042517353
 30
0.0
 10
73.6413884109
 20
101.73527308
 30
0.0
 10
73.6280921279
 20
102.0118835025
 30
0.0
 10
73.6150725416
 20
102.2335626893
 30
0.0
 10
73.6019501841
 20
102.399584382
 30
0.0
 10
73.5909858295
 20
102.5034456165
 30
0.0
 10
73.5807294606
 20
102.5580319032
 30
0.0
 10
73.5758131024
 20
102.5762544968
 30
0.0
 10
73.5725640717
 20
102.5825186542
 30
0.0
  0
SPLINE
  5
47C
100
AcDbEntity
  8
0
100
AcDbSpline
 62
7
  6
CONTINUOUS
 70
0
 71
3
 72
11
 73
7
 74
0
 42
0.0000001
 43
0.0000001
 44
0.0000000001
 40
0.0
 40
0.0
 40
0.0
 40
0.0
 40
0.075552442
 40
0.263914508
 40
0.571784482
 40
1.0
 40
1.0
 40
1.0
 40
1.0
 10
76.2873244789
 20
51.273537179
 30
0.0
 10
76.2822871659
 20
51.273537179
 30
0.0
 10
76.2749823772
 20
51.2959582141
 30
0.0
 10
76.2678080756
 20
51.3281823165
 30
0.0
 10
76.2591351293
 20
51.3921614151
 30
0.0
 10
76.2543289389
 20
51.440054602
 30
0.0
 10
76.2517263215
 20
51.4684861708
 30
0.0
  0
SPLINE
  5
47D
100
AcDbEntity
  8
0
100
AcDbSpline
 62
7
  6
CONTINUOUS
 70
0
 71
3
 72
35
 73
31
 74
0
 42
0.0000001
 43
0.0000001
 44
0.0000000001
 40
0.0
 40
0.0
 40
0.0
 40
0.0
 40
0.0079722834
 40
0.0202350493
 40
0.0366810373
 40
0.0571706005
 40
0.1095213949
 40
0.1754579499
 40
0.25267799
 40
0.338480127
 40
0.4298657779
 40
0.5236375388
 40
0.6165167213
 40
0.7052571347
 40
0.7867561501
 40
0.8238850978
 40
0.8581605262
 40
0.8892809072
 40
0.916976562
 40
0.9410015766
 40
0.9611488
 40
0.9697109214
 40
0.9772386946
 40
0.983718009
 40
0.9891352097
 40
0.9934770143
 40
0.9967348035
 40
0.998906341
 40
0.9995861645
 40
1.0
 40
1.0
 40
1.0
 40
1.0
 10
76.2517263215
 20
51.4684861708
 30
0.0
 10
76.23934125
 20
51.6037834356
 30
0.0
 10
76.2196768505
 20
51.9481794926
 30
0.0
 10
76.1937479575
 20
52.5727176683
 30
0.0
 10
76.1677650542
 20
53.410779735
 30
0.0
 10
76.129220195
 20
54.931894457
 30
0.0
 10
76.0836272638
 20
57.2965023117
 30
0.0
 10
76.0312539222
 20
60.6279076272
 30
0.0
 10
75.9785815014
 20
64.5294505364
 30
0.0
 10
75.9256095609
 20
68.8647223749
 30
0.0
 10
75.8725292731
 20
73.4820861972
 30
0.0
 10
75.8193957902
 20
78.2200630889
 30
0.0
 10
75.7662840989
 20
82.9129576598
 30
0.0
 10
75.7132479274
 20
87.3966881929
 30
0.0
 10
75.6679213592
 20
90.9303522664
 30
0.0
 10
75.6309666212
 20
93.5358566371
 30
0.0
 10
75.6041513382
 20
95.282869163
 30
0.0
 10
75.5773785359
 20
96.8691004524
 30
0.0
 10
75.5506820511
 20
98.2806192403
 30
0.0
 10
75.5240689751
 20
99.5050981981
 30
0.0
 10
75.5009744836
 20
100.4034997436
 30
0.0
 10
75.4820591618
 20
101.0207620437
 30
0.0
 10
75.4686753119
 20
101.4051506175
 30
0.0
 10
75.455359842
 20
101.7359189384
 30
0.0
 10
75.4420688489
 20
102.0123155575
 30
0.0
 10
75.4290546143
 20
102.2338232781
 30
0.0
 10
75.4159379006
 20
102.3997180038
 30
0.0
 10
75.4049777056
 20
102.503500966
 30
0.0
 10
75.3947259316
 20
102.5580480865
 30
0.0
 10
75.3898113302
 20
102.576258424
 30
0.0
 10
75.3865640717
 20
102.5825189152
 30
0.0
  0
SPLINE
  5
47E
100
AcDbEntity
  8
0
100
AcDbSpline
 62
7
  6
CONTINUOUS
 70
0
 71
3
 72
14
 73
10
 74
0
 42
0.0000001
 43
0.0000001
 44
0.0000000001
 40
0.0
 40
0.0
 40
0.0
 40
0.0
 40
0.3528177483
 40
0.4902056934
 40
0.5956297059
 40
0.6783163052
 40
0.7641320498
 40
0.8702713466
 40
1.0
 40
1.0
 40
1.0
 40
1.0
 10
96.9948550405
 20
49.7239303978
 30
0.0
 10
97.03226161
 20
49.6876576393
 30
0.0
 10
97.0823212414
 20
49.6340682588
 30
0.0
 10
97.1267156317
 20
49.5580705813
 30
0.0
 10
97.1415145149
 20
49.5109046307
 30
0.0
 10
97.1301852955
 20
49.4690906693
 30
0.0
 10
97.0954905555
 20
49.4441037768
 30
0.0
 10
97.0489453445
 20
49.4328527881
 30
0.0
 10
97.0140138077
 20
49.431037179
 30
0.0
 10
96.9948550405
 20
49.431037179
 30
0.0
  0
SPLINE
  5
47F
100
AcDbEntity
  8
0
100
AcDbSpline
 62
7
  6
CONTINUOUS
 70
0
 71
3
 72
11
 73
7
 74
0
 42
0.0000001
 43
0.0000001
 44
0.0000000001
 40
0.0
 40
0.0
 40
0.0
 40
0.0
 40
0.2260971123
 40
0.4668279358
 40
0.7282900179
 40
1.0
 40
1.0
 40
1.0
 40
1.0
 10
96.9948550405
 20
88.6148033631
 30
0.0
 10
97.0367952707
 20
88.5741343613
 30
0.0
 10
97.1107983765
 20
88.4747990224
 30
0.0
 10
97.1520081475
 20
88.2845734481
 30
0.0
 10
97.1058205222
 20
88.0849758474
 30
0.0
 10
97.0362478201
 20
87.9644024095
 30
0.0
 10
96.9948550405
 20
87.9076965819
 30
0.0
  0
SPLINE
  5
480
100
AcDbEntity
  8
0
100
AcDbSpline
 62
7
  6
CONTINUOUS
 70
0
 71
3
 72
11
 73
7
 74
0
 42
0.0000001
 43
0.0000001
 44
0.0000000001
 40
0.0
 40
0.0
 40
0.0
 40
0.0
 40
0.3034367059
 40
0.5848305003
 40
0.8228425964
 40
1.0
 40
1.0
 40
1.0
 40
1.0
 10
79.9279452986
 20
87.9076965799
 30
0.0
 10
79.8406248428
 20
87.9282534841
 30
0.0
 10
79.6714587412
 20
87.9640555222
 30
0.0
 10
79.4338338478
 20
88.0161902479
 30
0.0
 10
79.2329090015
 20
88.0610967789
 30
0.0
 10
79.1124548909
 20
88.085279385
 30
0.0
 10
79.0619198974
 20
88.0990382995
 30
0.0
  0
SPLINE
  5
481
100
AcDbEntity
  8
0
100
AcDbSpline
 62
7
  6
CONTINUOUS
 70
0
 71
3
 72
9
 73
5
 74
0
 42
0.0000001
 43
0.0000001
 44
0.0000000001
 40
0.0
 40
0.0
 40
0.0
 40
0.0
 40
0.5000014972
 40
1.0
 40
1.0
 40
1.0
 40
1.0
 10
79.9258821167
 20
87.9076965819
 30
0.0
 10
79.6830202159
 20
86.808529312
 30
0.0
 10
79.259677958
 20
84.5959380371
 30
0.0
 10
78.9721760443
 20
82.3611219007
 30
0.0
 10
78.8683244789
 20
81.240251585
 30
0.0
  0
SPLINE
  5
482
100
AcDbEntity
  8
0
100
AcDbSpline
 62
7
  6
CONTINUOUS
 70
0
 71
3
 72
9
 73
5
 74
0
 42
0.0000001
 43
0.0000001
 44
0.0000000001
 40
0.0
 40
0.0
 40
0.0
 40
0.0
 40
0.3596649812
 40
1.0
 40
1.0
 40
1.0
 40
1.0
 10
74.1777588703
 20
101.4202611528
 30
0.0
 10
74.1827537564
 20
101.4106706173
 30
0.0
 10
74.1891589423
 20
101.3807565408
 30
0.0
 10
74.1939919444
 20
101.3513078111
 30
0.0
 10
74.1965567749
 20
101.3322278214
 30
0.0
  0
SPLINE
  5
483
100
AcDbEntity
  8
0
100
AcDbSpline
 62
7
  6
CONTINUOUS
 70
0
 71
3
 72
40
 73
36
 74
0
 42
0.0000001
 43
0.0000001
 44
0.0000000001
 40
0.0
 40
0.0
 40
0.0
 40
0.0
 40
0.0064757652
 40
0.0174243943
 40
0.0327491621
 40
0.0523155991
 40
0.0759437145
 40
0.1034216705
 40
0.1688901152
 40
0.2463448245
 40
0.3329736421
 40
0.4256309433
 40
0.520952031
 40
0.6154754176
 40
0.7057686
 40
0.7482955713
 40
0.7885527941
 40
0.8261767402
 40
0.8608221118
 40
0.8921770798
 40
0.9199529671
 40
0.9439010826
 40
0.9543692076
 40
0.9638000444
 40
0.9721744867
 40
0.9794737595
 40
0.9856793277
 40
0.9907772717
 40
0.9947591759
 40
0.996329345
 40
0.9976180005
 40
0.9986248164
 40
0.9993505532
 40
0.9998000433
 40
1.0
 40
1.0
 40
1.0
 40
1.0
 10
74.1965567749
 20
101.3322278214
 30
0.0
 10
74.2106230158
 20
101.2275878724
 30
0.0
 10
74.2296647005
 20
100.9438271565
 30
0.0
 10
74.2563662813
 20
100.4107176382
 30
0.0
 10
74.2823144655
 20
99.6636927732
 30
0.0
 10
74.3093506901
 20
98.7100058908
 30
0.0
 10
74.3363479168
 20
97.5580587822
 30
0.0
 10
74.3749032473
 20
95.6578177065
 30
0.0
 10
74.4214193168
 20
92.879970132
 30
0.0
 10
74.4750969487
 20
89.1377305365
 30
0.0
 10
74.5289943414
 20
84.9521628598
 30
0.0
 10
74.5830537464
 20
80.4752820016
 30
0.0
 10
74.637161672
 20
75.8696790987
 30
0.0
 10
74.6912595767
 20
71.302623542
 30
0.0
 10
74.7371270501
 20
67.5962883432
 30
0.0
 10
74.7743987113
 20
64.7746735863
 30
0.0
 10
74.8017779039
 20
62.8117249822
 30
0.0
 10
74.8291273959
 20
60.9772910902
 30
0.0
 10
74.8564470787
 20
59.2880167878
 30
0.0
 10
74.8837084119
 20
57.7593273432
 30
0.0
 10
74.9109079383
 20
56.4050762132
 30
0.0
 10
74.9343956322
 20
55.3913623931
 30
0.0
 10
74.9535244487
 20
54.6767328845
 30
0.0
 10
74.9672046403
 20
54.2159646828
 30
0.0
 10
74.9808558864
 20
53.8068845507
 30
0.0
 10
74.994467714
 20
53.4504248958
 30
0.0
 10
75.0080170254
 20
53.1474151424
 30
0.0
 10
75.0214808237
 20
52.8985849318
 30
0.0
 10
75.0333002944
 20
52.7252831389
 30
0.0
 10
75.0430922412
 20
52.6142592172
 30
0.0
 10
75.0499171028
 20
52.551425879
 30
0.0
 10
75.0563229423
 20
52.503032476
 30
0.0
 10
75.0633381009
 20
52.4670522064
 30
0.0
 10
75.0684379137
 20
52.4472444535
 30
0.0
 10
75.0749633476
 20
52.435599642
 30
0.0
 10
75.0782234349
 20
52.4356098029
 30
0.0
  0
SPLINE
  5
484
100
AcDbEntity
  8
0
100
AcDbSpline
 62
7
  6
CONTINUOUS
 70
0
 71
3
 72
8
 73
4
 74
0
 42
0.0000001
 43
0.0000001
 44
0.0000000001
 40
0.0
 40
0.0
 40
0.0
 40
0.0
 40
1.0
 40
1.0
 40
1.0
 40
1.0
 10
78.8683244789
 20
72.6218232083
 30
0.0
 10
79.0759280754
 20
70.3811350605
 30
0.0
 10
79.4407614537
 20
68.1516669072
 30
0.0
 10
79.926254094
 20
65.9543777761
 30
0.0
  0
SPLINE
  5
485
100
AcDbEntity
  8
0
100
AcDbSpline
 62
7
  6
CONTINUOUS
 70
0
 71
3
 72
9
 73
5
 74
0
 42
0.0000001
 43
0.0000001
 44
0.0000000001
 40
0.0
 40
0.0
 40
0.0
 40
0.0
 40
0.3034452688
 40
1.0
 40
1.0
 40
1.0
 40
1.0
 10
79.9279452987
 20
65.9543777778
 30
0.0
 10
79.8403131846
 20
65.9351827915
 30
0.0
 10
79.5515391183
 20
65.8718524863
 30
0.0
 10
79.2628220193
 20
65.8082520319
 30
0.0
 10
79.0619198977
 20
65.763036059
 30
0.0
  0
SPLINE
  5
486
100
AcDbEntity
  8
0
100
AcDbSpline
 62
7
  6
CONTINUOUS
 70
0
 71
3
 72
11
 73
7
 74
0
 42
0.0000001
 43
0.0000001
 44
0.0000000001
 40
0.0
 40
0.0
 40
0.0
 40
0.0
 40
0.2717131623
 40
0.5331839476
 40
0.7738972227
 40
1.0
 40
1.0
 40
1.0
 40
1.0
 10
96.9948550405
 20
65.9543777761
 30
0.0
 10
97.0362208664
 20
65.8976508304
 30
0.0
 10
97.105768298
 20
65.7770674125
 30
0.0
 10
97.1520052652
 20
65.5774887047
 30
0.0
 10
97.1108494638
 20
65.3872441714
 30
0.0
 10
97.0368173339
 20
65.2879197567
 30
0.0
 10
96.9948550405
 20
65.247270995
 30
0.0
  0
SPLINE
  5
487
100
AcDbEntity
  8
0
100
AcDbSpline
 62
7
  6
CONTINUOUS
 70
0
 71
3
 72
8
 73
4
 74
0
 42
0.0000001
 43
0.0000001
 44
0.0000000001
 40
0.0
 40
0.0
 40
0.0
 40
0.0
 40
1.0
 40
1.0
 40
1.0
 40
1.0
 10
79.062307576
 20
65.7606994159
 30
0.0
 10
78.9957875171
 20
65.5433194538
 30
0.0
 10
78.9304277228
 20
65.3255615833
 30
0.0
 10
78.868332003
 20
65.1068766781
 30
0.0
  0
SPLINE
  5
488
100
AcDbEntity
  8
0
100
AcDbSpline
 62
7
  6
CONTINUOUS
 70
0
 71
3
 72
11
 73
7
 74
0
 42
0.0000001
 43
0.0000001
 44
0.0000000001
 40
0.0
 40
0.0
 40
0.0
 40
0.0
 40
0.2622010577
 40
0.5225036075
 40
0.7711953533
 40
1.0
 40
1.0
 40
1.0
 40
1.0
 10
79.9279452987
 20
65.2472709928
 30
0.0
 10
79.8382634675
 20
65.2588633116
 30
0.0
 10
79.6626156568
 20
65.3060273952
 30
0.0
 10
79.4203900475
 20
65.4187126859
 30
0.0
 10
79.213944285
 20
65.5711158749
 30
0.0
 10
79.1065299852
 20
65.6979456834
 30
0.0
 10
79.0619198977
 20
65.763036059
 30
0.0
  0
SPLINE
  5
489
100
AcDbEntity
  8
0
100
AcDbSpline
 62
7
  6
CONTINUOUS
 70
0
 71
3
 72
9
 73
5
 74
0
 42
0.0000001
 43
0.0000001
 44
0.0000000001
 40
0.0
 40
0.0
 40
0.0
 40
0.0
 40
0.2519327422
 40
1.0
 40
1.0
 40
1.0
 40
1.0
 10
79.926433544
 20
65.247270995
 30
0.0
 10
79.8053327119
 20
64.8597123584
 30
0.0
 10
79.3539258911
 20
63.312576671
 30
0.0
 10
79.0249614913
 20
61.7281121382
 30
0.0
 10
78.8683244789
 20
60.532675495
 30
0.0
  0
SPLINE
  5
48A
100
AcDbEntity
  8
0
100
AcDbSpline
 62
7
  6
CONTINUOUS
 70
0
 71
3
 72
9
 73
5
 74
0
 42
0.0000001
 43
0.0000001
 44
0.0000000001
 40
0.0
 40
0.0
 40
0.0
 40
0.0
 40
0.2484140662
 40
1.0
 40
1.0
 40
1.0
 40
1.0
 10
78.8683244789
 20
54.438526171
 30
0.0
 10
78.9203426513
 20
54.0415221078
 30
0.0
 10
79.1695807451
 20
52.4486566245
 30
0.0
 10
79.565404589
 20
50.8802135472
 30
0.0
 10
79.9267092831
 20
49.7239303978
 30
0.0
  0
SPLINE
  5
48B
100
AcDbEntity
  8
0
100
AcDbSpline
 62
7
  6
CONTINUOUS
 70
0
 71
3
 72
11
 73
7
 74
0
 42
0.0000001
 43
0.0000001
 44
0.0000000001
 40
0.0
 40
0.0
 40
0.0
 40
0.0
 40
0.2808861915
 40
0.544306146
 40
0.7841647081
 40
1.0
 40
1.0
 40
1.0
 40
1.0
 10
79.9279452986
 20
49.7239303997
 30
0.0
 10
79.8413991209
 20
49.7095245236
 30
0.0
 10
79.6702004104
 20
49.7002138482
 30
0.0
 10
79.4259903212
 20
49.7361587372
 30
0.0
 10
79.2161367883
 20
49.8235809224
 30
0.0
 10
79.1048078583
 20
49.9170802738
 30
0.0
 10
79.0619198998
 20
49.9690974054
 30
0.0
  0
SPLINE
  5
48C
100
AcDbEntity
  8
0
100
AcDbSpline
 62
7
  6
CONTINUOUS
 70
0
 71
3
 72
37
 73
33
 74
0
 42
0.0000001
 43
0.0000001
 44
0.0000000001
 40
0.0
 40
0.0
 40
0.0
 40
0.0
 40
0.0006598511
 40
0.0026230716
 40
0.0058778589
 40
0.0104124107
 40
0.0162088874
 40
0.0232345429
 40
0.0408338255
 40
0.0629136824
 40
0.0891275949
 40
0.11912046
 40
0.1525304742
 40
0.2281761819
 40
0.3132699312
 40
0.4049270815
 40
0.4999992753
 40
0.5950718559
 40
0.6867297488
 40
0.7718237892
 40
0.847469555
 40
0.8808795587
 40
0.9108724112
 40
0.937086327
 40
0.9591661915
 40
0.9767654684
 40
0.9837911217
 40
0.9895876038
 40
0.9941221647
 40
0.9973769513
 40
0.9993401632
 40
1.0
 40
1.0
 40
1.0
 40
1.0
 10
104.0796452338
 20
111.931037179
 30
0.0
 10
104.0856589993
 20
111.9294706731
 30
0.0
 10
104.1082812024
 20
111.9192085598
 30
0.0
 10
104.1605641744
 20
111.9011939623
 30
0.0
 10
104.2463338668
 20
111.8682009032
 30
0.0
 10
104.3663891717
 20
111.8240017931
 30
0.0
 10
104.5197085192
 20
111.7672914123
 30
0.0
 10
104.7889074123
 20
111.6692241413
 30
0.0
 10
105.2032143581
 20
111.5214492789
 30
0.0
 10
105.7900220845
 20
111.3194756419
 30
0.0
 10
106.4906043262
 20
111.089607912
 30
0.0
 10
107.296954357
 20
110.8401371176
 30
0.0
 10
108.5556532629
 20
110.4784671412
 30
0.0
 10
110.3309544802
 20
110.0369834316
 30
0.0
 10
112.6687253093
 20
109.5978313717
 30
0.0
 10
115.2136199344
 20
109.299274491
 30
0.0
 10
117.8683076123
 20
109.1932515244
 30
0.0
 10
120.5230023596
 20
109.2992726014
 30
0.0
 10
123.0679105909
 20
109.5978287622
 30
0.0
 10
125.4056915752
 20
110.036982647
 30
0.0
 10
127.1809958746
 20
110.4784671687
 30
0.0
 10
128.4396950818
 20
110.8401372925
 30
0.0
 10
129.2460449266
 20
111.0896080533
 30
0.0
 10
129.9466271671
 20
111.3194757305
 30
0.0
 10
130.53343497
 20
111.5214492918
 30
0.0
 10
130.947741907
 20
111.6692241794
 30
0.0
 10
131.2169407805
 20
111.7672914213
 30
0.0
 10
131.3702601729
 20
111.8240020478
 30
0.0
 10
131.4903156314
 20
111.8682010304
 30
0.0
 10
131.5760851587
 20
111.9011947297
 30
0.0
 10
131.6283682569
 20
111.9192080003
 30
0.0
 10
131.6509899572
 20
111.9294712124
 30
0.0
 10
131.657003724
 20
111.931037179
 30
0.0
  0
SPLINE
  5
48D
100
AcDbEntity
  8
0
100
AcDbSpline
 62
7
  6
CONTINUOUS
 70
0
 71
3
 72
9
 73
5
 74
0
 42
0.0000001
 43
0.0000001
 44
0.0000000001
 40
0.0
 40
0.0
 40
0.0
 40
0.0
 40
0.5123924867
 40
1.0
 40
1.0
 40
1.0
 40
1.0
 10
79.0629839581
 20
49.9663624333
 30
0.0
 10
79.0297439692
 20
49.9654371821
 30
0.0
 10
78.96481427
 20
49.967691064
 30
0.0
 10
78.8999622152
 20
49.9645229426
 30
0.0
 10
78.8683307152
 20
49.9636199209
 30
0.0
  0
SPLINE
  5
48E
100
AcDbEntity
  8
0
100
AcDbSpline
 62
7
  6
CONTINUOUS
 70
0
 71
3
 72
9
 73
5
 74
0
 42
0.0000001
 43
0.0000001
 44
0.0000000001
 40
0.0
 40
0.0
 40
0.0
 40
0.0
 40
0.4973151771
 40
1.0
 40
1.0
 40
1.0
 40
1.0
 10
79.9279452986
 20
49.431037179
 30
0.0
 10
79.752299683
 20
49.4310371788
 30
0.0
 10
79.3924126685
 20
49.5333305107
 30
0.0
 10
79.1417130078
 20
49.8104964589
 30
0.0
 10
79.0619198998
 20
49.9690974054
 30
0.0
  0
SPLINE
  5
48F
100
AcDbEntity
  8
0
100
AcDbSpline
 62
7
  6
CONTINUOUS
 70
0
 71
3
 72
9
 73
5
 74
0
 42
0.0000001
 43
0.0000001
 44
0.0000000001
 40
0.0
 40
0.0
 40
0.0
 40
0.0
 40
0.4951212052
 40
1.0
 40
1.0
 40
1.0
 40
1.0
 10
96.994880826
 20
104.4310333374
 30
0.0
 10
97.1275954154
 20
104.4310416839
 30
0.0
 10
97.3990064723
 20
104.4934009152
 30
0.0
 10
97.6157263163
 20
104.6668610073
 30
0.0
 10
97.7019365858
 20
104.7711779013
 30
0.0
  0
SPLINE
  5
490
100
AcDbEntity
  8
0
100
AcDbSpline
 62
7
  6
CONTINUOUS
 70
0
 71
3
 72
30
 73
26
 74
0
 42
0.0000001
 43
0.0000001
 44
0.0000000001
 40
0.0
 40
0.0
 40
0.0
 40
0.0
 40
0.0413196603
 40
0.095240601
 40
0.234345893
 40
0.3155334708
 40
0.4014317392
 40
0.4895695845
 40
0.5774117953
 40
0.662431359
 40
0.7421823211
 40
0.8143705207
 40
0.8469694382
 40
0.8769198472
 40
0.9040064119
 40
0.9280319824
 40
0.9488276687
 40
0.9662386227
 40
0.9801463762
 40
0.9857523489
 40
0.9904461387
 40
0.9942216131
 40
0.9970732626
 40
0.9989972905
 40
1.0
 40
1.0
 40
1.0
 40
1.0
 10
72.6732233917
 20
99.4757629548
 30
0.0
 10
72.6927425825
 20
98.8281096293
 30
0.0
 10
72.7283876003
 20
97.335014114
 30
0.0
 10
72.797508075
 20
93.6608070858
 30
0.0
 10
72.8583654859
 20
89.3611795856
 30
0.0
 10
72.9197676628
 20
84.5600897003
 30
0.0
 10
72.9680085915
 20
80.5581314683
 30
0.0
 10
73.0163482337
 20
76.4518147377
 30
0.0
 10
73.0646666043
 20
72.3592776632
 30
0.0
 10
73.1129406204
 20
68.3982668757
 30
0.0
 10
73.1611252454
 20
64.6827499111
 30
0.0
 10
73.202400362
 20
61.7892393572
 30
0.0
 10
73.236025284
 20
59.6766422134
 30
0.0
 10
73.2603524034
 20
58.2712419343
 30
0.0
 10
73.2846318344
 20
57.0003037254
 30
0.0
 10
73.3088628594
 20
55.8729532947
 30
0.0
 10
73.3329725834
 20
54.8973613053
 30
0.0
 10
73.3569908499
 20
54.0804966348
 30
0.0
 10
73.3779168615
 20
53.5018174867
 30
0.0
 10
73.395354613
 20
53.1226376615
 30
0.0
 10
73.4072925739
 20
52.9021760404
 30
0.0
 10
73.4194511325
 20
52.7252248352
 30
0.0
 10
73.4305149869
 20
52.5911776236
 30
0.0
 10
73.4429399592
 20
52.5021539597
 30
0.0
 10
73.4504125372
 20
52.4558034212
 30
0.0
 10
73.4576879683
 20
52.4418640267
 30
0.0
  0
SPLINE
  5
491
100
AcDbEntity
  8
0
100
AcDbSpline
 62
7
  6
CONTINUOUS
 70
0
 71
3
 72
36
 73
32
 74
0
 42
0.0000001
 43
0.0000001
 44
0.0000000001
 40
0.0
 40
0.0
 40
0.0
 40
0.0
 40
0.0417107046
 40
0.0962183877
 40
0.161921112
 40
0.2369042085
 40
0.3189721743
 40
0.4057261071
 40
0.4946286156
 40
0.5830798262
 40
0.6684928209
 40
0.7483694438
 40
0.7854922589
 40
0.8203734742
 40
0.8527537708
 40
0.8823994194
 40
0.9090910993
 40
0.93263426
 40
0.9528577697
 40
0.961675729
 40
0.9696110558
 40
0.9766495172
 40
0.9827769404
 40
0.9879811321
 40
0.9922549278
 40
0.9955923152
 40
0.9979882705
 40
0.9988326068
 40
0.9994424525
 40
0.9998229307
 40
1.0
 40
1.0
 40
1.0
 40
1.0
 10
72.4732233917
 20
99.4757629548
 30
0.0
 10
72.4929311568
 20
98.8218526733
 30
0.0
 10
72.528856863
 20
97.3131313645
 30
0.0
 10
72.5765941984
 20
94.7739452436
 30
0.0
 10
72.6247127483
 20
91.7128263209
 30
0.0
 10
72.6731666003
 20
88.2194033721
 30
0.0
 10
72.7217602429
 20
84.3957774239
 30
0.0
 10
72.7704445025
 20
80.3538189799
 30
0.0
 10
72.8191620949
 20
76.2117365562
 30
0.0
 10
72.8678715018
 20
72.0906872711
 30
0.0
 10
72.9165357826
 20
68.1112131225
 30
0.0
 10
72.9579393373
 20
64.9367656757
 30
0.0
 10
72.9915515635
 20
62.5548463197
 30
0.0
 10
73.0161224859
 20
60.917825351
 30
0.0
 10
73.040673087
 20
59.3980929645
 30
0.0
 10
73.0651894009
 20
58.0068260259
 30
0.0
 10
73.0896586125
 20
56.7541866818
 30
0.0
 10
73.1140689049
 20
55.6493584408
 30
0.0
 10
73.1351598225
 20
54.824866812
 30
0.0
 10
73.1523412814
 20
54.2451621663
 30
0.0
 10
73.1646144588
 20
53.8722033285
 30
0.0
 10
73.1768610709
 20
53.5414713176
 30
0.0
 10
73.1890750386
 20
53.2535980671
 30
0.0
 10
73.2012325603
 20
53.0091559291
 30
0.0
 10
73.2133205572
 20
52.8084570803
 30
0.0
 10
73.2251871026
 20
52.6520857381
 30
0.0
 10
73.2358373197
 20
52.5491445744
 30
0.0
 10
73.2445814518
 20
52.4897778374
 30
0.0
 10
73.2508826644
 20
52.460975928
 30
0.0
 10
73.25549399
 20
52.4446019473
 30
0.0
 10
73.2614462162
 20
52.4356050886
 30
0.0
 10
73.2642234302
 20
52.4356127411
 30
0.0
  0
SPLINE
  5
492
100
AcDbEntity
  8
0
100
AcDbSpline
 62
7
  6
CONTINUOUS
 70
0
 71
3
 72
16
 73
12
 74
0
 42
0.0000001
 43
0.0000001
 44
0.0000000001
 40
0.0
 40
0.0
 40
0.0
 40
0.0
 40
0.0108448424
 40
0.0285118966
 40
0.0846784091
 40
0.1687186107
 40
0.2805763903
 40
0.4200862066
 40
0.5868213968
 40
0.7802907832
 40
1.0
 40
1.0
 40
1.0
 40
1.0
 10
72.3637588732
 20
101.4202629675
 30
0.0
 10
72.3670172972
 20
101.4140150343
 30
0.0
 10
72.3720135295
 20
101.3959506165
 30
0.0
 10
72.3823658102
 20
101.3420476037
 30
0.0
 10
72.3934857918
 20
101.2398299165
 30
0.0
 10
72.4067479245
 20
101.0766870179
 30
0.0
 10
72.4199333184
 20
100.8590945012
 30
0.0
 10
72.4333876845
 20
100.587775863
 30
0.0
 10
72.4468717497
 20
100.2633518619
 30
0.0
 10
72.4604169326
 20
99.8867907378
 30
0.0
 10
72.4689228397
 20
99.6184567164
 30
0.0
 10
72.4732233917
 20
99.4757629548
 30
0.0
  0
LINE
  5
493
100
AcDbEntity
  8
0
100
AcDbLine
 62
7
  6
CONTINUOUS
 10
97.7020436151
 20
49.0907953435
 11
95.6612176061
 21
49.1381440251
  0
SPLINE
  5
494
100
AcDbEntity
  8
0
100
AcDbSpline
 62
7
  6
CONTINUOUS
 70
0
 71
3
 72
9
 73
5
 74
0
 42
0.0000001
 43
0.0000001
 44
0.0000000001
 40
0.0
 40
0.0
 40
0.0
 40
0.0
 40
0.4953994065
 40
1.0
 40
1.0
 40
1.0
 40
1.0
 10
96.9948785496
 20
49.4310413425
 30
0.0
 10
97.1276757946
 20
49.4310330834
 30
0.0
 10
97.3991027057
 20
49.3687670922
 30
0.0
 10
97.6159199588
 20
49.1952882037
 30
0.0
 10
97.7019353707
 20
49.0908965179
 30
0.0
  0
SPLINE
  5
495
100
AcDbEntity
  8
0
100
AcDbSpline
 62
7
  6
CONTINUOUS
 70
0
 71
3
 72
13
 73
9
 74
0
 42
0.0000001
 43
0.0000001
 44
0.0000000001
 40
0.0
 40
0.0
 40
0.0
 40
0.0
 40
0.2535150009
 40
0.3773096767
 40
0.4999992022
 40
0.622688132
 40
0.746482142
 40
1.0
 40
1.0
 40
1.0
 40
1.0
 10
96.9943893869
 20
49.7239303978
 30
0.0
 10
96.3747111885
 20
50.9429881948
 30
0.0
 10
95.5989864641
 20
52.8456751268
 30
0.0
 10
95.0478929357
 20
55.4925264721
 30
0.0
 10
94.907454009
 20
57.4855825418
 30
0.0
 10
95.0478236818
 20
59.4786431191
 30
0.0
 10
95.5989495621
 20
62.1255001386
 30
0.0
 10
96.3746888904
 20
64.0281877783
 30
0.0
 10
96.9943510934
 20
65.247270995
 30
0.0
  0
SPLINE
  5
496
100
AcDbEntity
  8
0
100
AcDbSpline
 62
7
  6
CONTINUOUS
 70
0
 71
3
 72
9
 73
5
 74
0
 42
0.0000001
 43
0.0000001
 44
0.0000000001
 40
0.0
 40
0.0
 40
0.0
 40
0.0
 40
0.243488722
 40
1.0
 40
1.0
 40
1.0
 40
1.0
 10
97.7019824141
 20
64.8270438723
 30
0.0
 10
97.6565472834
 20
64.8766493373
 30
0.0
 10
97.4536242282
 20
65.064781322
 30
0.0
 10
97.1972160777
 20
65.1953551278
 30
0.0
 10
96.9947713165
 20
65.2472930206
 30
0.0
  0
SPLINE
  5
497
100
AcDbEntity
  8
0
100
AcDbSpline
 62
7
  6
CONTINUOUS
 70
0
 71
3
 72
14
 73
10
 74
0
 42
0.0000001
 43
0.0000001
 44
0.0000000001
 40
0.0
 40
0.0
 40
0.0
 40
0.0
 40
0.2549518311
 40
0.3790928176
 40
0.5017941491
 40
0.6241913481
 40
0.747467172
 40
0.872587548
 40
1.0
 40
1.0
 40
1.0
 40
1.0
 10
97.7015951411
 20
49.6633367181
 30
0.0
 10
97.0854306879
 20
50.8604973731
 30
0.0
 10
96.3100572744
 20
52.727009243
 30
0.0
 10
95.7559211734
 20
55.3252246985
 30
0.0
 10
95.6142885165
 20
57.2768949425
 30
0.0
 10
95.7551313794
 20
59.2238877388
 30
0.0
 10
96.1674731357
 20
61.1440751165
 30
0.0
 10
96.8214746824
 20
63.0222975637
 30
0.0
 10
97.3895892065
 20
64.2314246036
 30
0.0
 10
97.7013808101
 20
64.8277029894
 30
0.0
  0
SPLINE
  5
498
100
AcDbEntity
  8
0
100
AcDbSpline
 62
7
  6
CONTINUOUS
 70
0
 71
3
 72
9
 73
5
 74
0
 42
0.0000001
 43
0.0000001
 44
0.0000000001
 40
0.0
 40
0.0
 40
0.0
 40
0.0
 40
0.2224556089
 40
1.0
 40
1.0
 40
1.0
 40
1.0
 10
97.7019675344
 20
49.6631207124
 30
0.0
 10
97.6561783214
 20
49.6906617413
 30
0.0
 10
97.4326750347
 20
49.7853215101
 30
0.0
 10
97.1758114009
 20
49.7699287153
 30
0.0
 10
96.994801653
 20
49.7239190249
 30
0.0
  0
SPLINE
  5
499
100
AcDbEntity
  8
0
100
AcDbSpline
 62
7
  6
CONTINUOUS
 70
0
 71
3
 72
13
 73
9
 74
0
 42
0.0000001
 43
0.0000001
 44
0.0000000001
 40
0.0
 40
0.0
 40
0.0
 40
0.0
 40
0.2499096627
 40
0.3749547569
 40
0.4999999311
 40
0.6250451064
 40
0.7500901991
 40
1.0
 40
1.0
 40
1.0
 40
1.0
 10
96.9939403095
 20
65.9543777761
 30
0.0
 10
96.3620670049
 20
67.7125007585
 30
0.0
 10
95.5896325543
 20
70.4227489733
 30
0.0
 10
95.0468104604
 20
74.1254415496
 30
0.0
 10
94.9079053535
 20
76.9310328166
 30
0.0
 10
95.0468054881
 20
79.7366249657
 30
0.0
 10
95.5896398845
 20
83.4393160183
 30
0.0
 10
96.3620461125
 20
86.1495728955
 30
0.0
 10
96.9939205137
 20
87.9076965819
 30
0.0
  0
SPLINE
  5
49A
100
AcDbEntity
  8
0
100
AcDbSpline
 62
7
  6
CONTINUOUS
 70
0
 71
3
 72
9
 73
5
 74
0
 42
0.0000001
 43
0.0000001
 44
0.0000000001
 40
0.0
 40
0.0
 40
0.0
 40
0.0
 40
0.2077043507
 40
1.0
 40
1.0
 40
1.0
 40
1.0
 10
97.7019218149
 20
87.6535696032
 30
0.0
 10
97.6531683388
 20
87.6717057837
 30
0.0
 10
97.4180170538
 20
87.7578790399
 30
0.0
 10
97.1817522052
 20
87.8409598146
 30
0.0
 10
96.9948853752
 20
87.9076857511
 30
0.0
  0
SPLINE
  5
49B
100
AcDbEntity
  8
0
100
AcDbSpline
 62
7
  6
CONTINUOUS
 70
0
 71
3
 72
13
 73
9
 74
0
 42
0.0000001
 43
0.0000001
 44
0.0000000001
 40
0.0
 40
0.0
 40
0.0
 40
0.0
 40
0.2499055096
 40
0.3749526749
 40
0.4999999625
 40
0.6250472257
 40
0.7500944451
 40
1.0
 40
1.0
 40
1.0
 40
1.0
 10
97.7017286981
 20
66.2084317758
 30
0.0
 10
97.0726467286
 20
67.9234667559
 30
0.0
 10
96.2992005299
 20
70.5687578322
 30
0.0
 10
95.7545029676
 20
74.1875575865
 30
0.0
 10
95.6147067522
 20
76.9310351555
 30
0.0
 10
95.7545056363
 20
79.6745120977
 30
0.0
 10
96.2991860361
 20
83.2933164557
 30
0.0
 10
97.0726814963
 20
85.9385946147
 30
0.0
 10
97.7017636652
 20
87.6536298737
 30
0.0
  0
SPLINE
  5
49C
100
AcDbEntity
  8
0
100
AcDbSpline
 62
7
  6
CONTINUOUS
 70
0
 71
3
 72
13
 73
9
 74
0
 42
0.0000001
 43
0.0000001
 44
0.0000000001
 40
0.0
 40
0.0
 40
0.0
 40
0.0
 40
0.2522756714
 40
0.3755939053
 40
0.498033173
 40
0.6207766843
 40
0.744960346
 40
1.0
 40
1.0
 40
1.0
 40
1.0
 10
97.7013830407
 20
89.0343738862
 30
0.0
 10
97.0842501285
 20
90.2145945244
 30
0.0
 10
96.3084694916
 20
92.0607532436
 30
0.0
 10
95.7551887187
 20
94.6380410454
 30
0.0
 10
95.6142731627
 20
96.5852182336
 30
0.0
 10
95.7559250975
 20
98.5368388488
 30
0.0
 10
96.3100541826
 20
101.1350718972
 30
0.0
 10
97.0854321364
 20
103.0015772763
 30
0.0
 10
97.7015968592
 20
104.198738661
 30
0.0
  0
SPLINE
  5
49D
100
AcDbEntity
  8
0
100
AcDbSpline
 62
7
  6
CONTINUOUS
 70
0
 71
3
 72
9
 73
5
 74
0
 42
0.0000001
 43
0.0000001
 44
0.0000000001
 40
0.0
 40
0.0
 40
0.0
 40
0.0
 40
0.2437972726
 40
1.0
 40
1.0
 40
1.0
 40
1.0
 10
97.7019822597
 20
89.0350305055
 30
0.0
 10
97.6568763009
 20
88.9849736077
 30
0.0
 10
97.4549111281
 20
88.7954727801
 30
0.0
 10
97.1973372045
 20
88.6662449189
 30
0.0
 10
96.9947711025
 20
88.6147814794
 30
0.0
  0
SPLINE
  5
49E
100
AcDbEntity
  8
0
100
AcDbSpline
 62
7
  6
CONTINUOUS
 70
0
 71
3
 72
13
 73
9
 74
0
 42
0.0000001
 43
0.0000001
 44
0.0000000001
 40
0.0
 40
0.0
 40
0.0
 40
0.0
 40
0.2535178743
 40
0.3773118781
 40
0.5000007827
 40
0.6226902831
 40
0.7464849454
 40
1.0
 40
1.0
 40
1.0
 40
1.0
 10
96.9943548153
 20
88.6148033631
 30
0.0
 10
96.3746921962
 20
89.8338867634
 30
0.0
 10
95.5989487085
 20
91.7365733481
 30
0.0
 10
95.0478241389
 20
94.383431197
 30
0.0
 10
94.9074537374
 20
96.3764917739
 30
0.0
 10
95.0478929835
 20
98.3695478045
 30
0.0
 10
95.5989846142
 20
101.0164003694
 30
0.0
 10
96.3747154351
 20
102.9190856229
 30
0.0
 10
96.9943937934
 20
104.1381439602
 30
0.0
  0
SPLINE
  5
49F
100
AcDbEntity
  8
0
100
AcDbSpline
 62
7
  6
CONTINUOUS
 70
0
 71
3
 72
9
 73
5
 74
0
 42
0.0000001
 43
0.0000001
 44
0.0000000001
 40
0.0
 40
0.0
 40
0.0
 40
0.0
 40
0.2233787917
 40
1.0
 40
1.0
 40
1.0
 40
1.0
 10
97.7019676678
 20
104.1989536302
 30
0.0
 10
97.6560983732
 20
104.1710717156
 30
0.0
 10
97.4328373564
 20
104.0753167336
 30
0.0
 10
97.1755872089
 20
104.0918384125
 30
0.0
 10
96.9948016348
 20
104.1381554546
 30
0.0
  0
SPLINE
  5
4A0
100
AcDbEntity
  8
0
100
AcDbSpline
 62
7
  6
CONTINUOUS
 70
0
 71
3
 72
11
 73
7
 74
0
 42
0.0000001
 43
0.0000001
 44
0.0000000001
 40
0.0
 40
0.0
 40
0.0
 40
0.0
 40
0.2808863167
 40
0.5443063636
 40
0.7841649117
 40
1.0
 40
1.0
 40
1.0
 40
1.0
 10
79.9279452986
 20
104.1381439581
 30
0.0
 10
79.8413990805
 20
104.1525497231
 30
0.0
 10
79.6702003356
 20
104.1618602286
 30
0.0
 10
79.4259902549
 20
104.1259152594
 30
0.0
 10
79.216136782
 20
104.0384931874
 30
0.0
 10
79.1048078495
 20
103.9449939973
 30
0.0
 10
79.0619199025
 20
103.8929769561
 30
0.0
  0
SPLINE
  5
4A1
100
AcDbEntity
  8
0
100
AcDbSpline
 62
7
  6
CONTINUOUS
 70
0
 71
3
 72
9
 73
5
 74
0
 42
0.0000001
 43
0.0000001
 44
0.0000000001
 40
0.0
 40
0.0
 40
0.0
 40
0.0
 40
0.2519324011
 40
1.0
 40
1.0
 40
1.0
 40
1.0
 10
79.9263920413
 20
104.1381439602
 30
0.0
 10
79.8052916444
 20
103.7505865873
 30
0.0
 10
79.3539212068
 20
102.2034432668
 30
0.0
 10
79.0249586574
 20
100.6189834122
 30
0.0
 10
78.8683244789
 20
99.4235481973
 30
0.0
  0
SPLINE
  5
4A2
100
AcDbEntity
  8
0
100
AcDbSpline
 62
7
  6
CONTINUOUS
 70
0
 71
3
 72
9
 73
5
 74
0
 42
0.0000001
 43
0.0000001
 44
0.0000000001
 40
0.0
 40
0.0
 40
0.0
 40
0.0
 40
0.2484141202
 40
1.0
 40
1.0
 40
1.0
 40
1.0
 10
78.8683244789
 20
93.3293989029
 30
0.0
 10
78.9203435192
 20
92.9323950638
 30
0.0
 10
79.169584822
 20
91.3395310832
 30
0.0
 10
79.5653962844
 20
89.7710858106
 30
0.0
 10
79.9267009385
 20
88.6148033631
 30
0.0
  0
SPLINE
  5
4A3
100
AcDbEntity
  8
0
100
AcDbSpline
 62
7
  6
CONTINUOUS
 70
0
 71
3
 72
10
 73
6
 74
0
 42
0.0000001
 43
0.0000001
 44
0.0000000001
 40
0.0
 40
0.0
 40
0.0
 40
0.0
 40
0.2626518696
 40
0.6488832525
 40
1.0
 40
1.0
 40
1.0
 40
1.0
 10
79.9279452986
 20
88.6148033649
 30
0.0
 10
79.8387579094
 20
88.5999580573
 30
0.0
 10
79.6207177529
 20
88.5454523379
 30
0.0
 10
79.3120894886
 20
88.3841242592
 30
0.0
 10
79.1260379813
 20
88.2014969828
 30
0.0
 10
79.0619198974
 20
88.0990382995
 30
0.0
  0
SPLINE
  5
4A4
100
AcDbEntity
  8
0
100
AcDbSpline
 62
7
  6
CONTINUOUS
 70
0
 71
3
 72
13
 73
9
 74
0
 42
0.0000001
 43
0.0000001
 44
0.0000000001
 40
0.0
 40
0.0
 40
0.0
 40
0.0
 40
0.0889994175
 40
0.1652737718
 40
0.3373982965
 40
0.4611770121
 40
0.6140775334
 40
1.0
 40
1.0
 40
1.0
 40
1.0
 10
97.7020344896
 20
104.7712679162
 30
0.0
 10
97.7223187497
 20
104.7717049923
 30
0.0
 10
97.7605471682
 20
104.7685717311
 30
0.0
 10
97.8310672243
 20
104.7291882213
 30
0.0
 10
97.8504869737
 20
104.6345649299
 30
0.0
 10
97.8359489986
 20
104.5347698827
 30
0.0
 10
97.7943373806
 20
104.3884400729
 30
0.0
 10
97.7418534618
 20
104.2769658368
 30
0.0
 10
97.7015968592
 20
104.198738661
 30
0.0
  0
SPLINE
  5
4A5
100
AcDbEntity
  8
0
100
AcDbSpline
 62
7
  6
CONTINUOUS
 70
0
 71
3
 72
10
 73
6
 74
0
 42
0.0000001
 43
0.0000001
 44
0.0000000001
 40
0.0
 40
0.0
 40
0.0
 40
0.0
 40
0.217467016
 40
0.4613396647
 40
1.0
 40
1.0
 40
1.0
 40
1.0
 10
97.7013830407
 20
89.0343738862
 30
0.0
 10
97.7489108971
 20
88.9434702039
 30
0.0
 10
97.8237394192
 20
88.7360217999
 30
0.0
 10
97.8690910522
 20
88.2630385433
 30
0.0
 10
97.7892528461
 20
87.8921768932
 30
0.0
 10
97.7017636652
 20
87.6536298737
 30
0.0
  0
SPLINE
  5
4A6
100
AcDbEntity
  8
0
100
AcDbSpline
 62
7
  6
CONTINUOUS
 70
0
 71
3
 72
10
 73
6
 74
0
 42
0.0000001
 43
0.0000001
 44
0.0000000001
 40
0.0
 40
0.0
 40
0.0
 40
0.0
 40
0.5386555437
 40
0.7825351535
 40
1.0
 40
1.0
 40
1.0
 40
1.0
 10
97.7017286981
 20
66.2084317758
 30
0.0
 10
97.7892217948
 20
65.969888643
 30
0.0
 10
97.8690532633
 20
65.5990399208
 30
0.0
 10
97.8237975846
 20
65.1260360721
 30
0.0
 10
97.748905877
 20
64.918606957
 30
0.0
 10
97.7013808101
 20
64.8277029894
 30
0.0
  0
SPLINE
  5
4A7
100
AcDbEntity
  8
0
100
AcDbSpline
 62
7
  6
CONTINUOUS
 70
0
 71
3
 72
13
 73
9
 74
0
 42
0.0000001
 43
0.0000001
 44
0.0000000001
 40
0.0
 40
0.0
 40
0.0
 40
0.0
 40
0.385857202
 40
0.5387463648
 40
0.6625688526
 40
0.8347136414
 40
0.9109944925
 40
1.0
 40
1.0
 40
1.0
 40
1.0
 10
97.7015951411
 20
49.6633367181
 30
0.0
 10
97.7418483435
 20
49.5851208128
 30
0.0
 10
97.7943166497
 20
49.4736525734
 30
0.0
 10
97.8359108246
 20
49.3273195197
 30
0.0
 10
97.8504917867
 20
49.227522896
 30
0.0
 10
97.8311122696
 20
49.1328466997
 30
0.0
 10
97.7605599616
 20
49.0934869154
 30
0.0
 10
97.7223300252
 20
49.090358252
 30
0.0
 10
97.7020436151
 20
49.0907953435
 30
0.0
  0
SPLINE
  5
4A8
100
AcDbEntity
  8
0
100
AcDbSpline
 62
7
  6
CONTINUOUS
 70
0
 71
3
 72
9
 73
5
 74
0
 42
0.0000001
 43
0.0000001
 44
0.0000000001
 40
0.0
 40
0.0
 40
0.0
 40
0.0
 40
0.2425975193
 40
1.0
 40
1.0
 40
1.0
 40
1.0
 10
104.7145489667
 20
150.084233872
 30
0.0
 10
104.721519162
 20
150.0768957248
 30
0.0
 10
104.749887501
 20
150.0463036601
 30
0.0
 10
104.7768343038
 20
150.0144009572
 30
0.0
 10
104.7964789664
 20
149.9896519238
 30
0.0
  0
SPLINE
  5
4A9
100
AcDbEntity
  8
0
100
AcDbSpline
 62
7
  6
CONTINUOUS
 70
0
 71
3
 72
9
 73
5
 74
0
 42
0.0000001
 43
0.0000001
 44
0.0000000001
 40
0.0
 40
0.0
 40
0.0
 40
0.0
 40
0.2425293711
 40
1.0
 40
1.0
 40
1.0
 40
1.0
 10
104.7964789664
 20
149.9896519238
 30
0.0
 10
104.8082549428
 20
149.9748161366
 30
0.0
 10
104.8556790211
 20
149.9127544239
 30
0.0
 10
104.8986790572
 20
149.8473246587
 30
0.0
 10
104.9286308139
 20
149.7963095795
 30
0.0
  0
LINE
  5
4AA
100
AcDbEntity
  8
0
100
AcDbLine
 62
7
  6
CONTINUOUS
 10
104.9897855987
 20
149.6825090416
 11
105.0385230844
 21
149.632626073
  0
LINE
  5
4AB
100
AcDbEntity
  8
0
100
AcDbLine
 62
7
  6
CONTINUOUS
 10
105.0385230844
 20
149.632626073
 11
105.235685117
 21
149.4309458052
  0
LINE
  5
4AC
100
AcDbEntity
  8
0
100
AcDbLine
 62
7
  6
CONTINUOUS
 10
105.235685117
 20
149.4309458052
 11
105.4102314614
 21
149.2525781616
  0
SPLINE
  5
4AD
100
AcDbEntity
  8
0
100
AcDbSpline
 62
7
  6
CONTINUOUS
 70
0
 71
3
 72
9
 73
5
 74
0
 42
0.0000001
 43
0.0000001
 44
0.0000000001
 40
0.0
 40
0.0
 40
0.0
 40
0.0
 40
0.2528731884
 40
1.0
 40
1.0
 40
1.0
 40
1.0
 10
104.9897850151
 20
149.6825090416
 30
0.0
 10
104.9901093296
 20
149.6999444686
 30
0.0
 10
104.9854781937
 20
149.7689117538
 30
0.0
 10
104.955250724
 20
149.8358795032
 30
0.0
 10
104.9222510519
 20
149.8754473938
 30
0.0
  0
SPLINE
  5
4AE
100
AcDbEntity
  8
0
100
AcDbSpline
 62
7
  6
CONTINUOUS
 70
0
 71
3
 72
11
 73
7
 74
0
 42
0.0000001
 43
0.0000001
 44
0.0000000001
 40
0.0
 40
0.0
 40
0.0
 40
0.0
 40
0.0757356171
 40
0.2641082385
 40
0.5719103371
 40
1.0
 40
1.0
 40
1.0
 40
1.0
 10
74.9761223044
 20
102.588537179
 30
0.0
 10
74.9810926112
 20
102.588537179
 30
0.0
 10
74.9883823482
 20
102.5665219644
 30
0.0
 10
74.9954679865
 20
102.5347572044
 30
0.0
 10
75.0040900124
 20
102.4718318797
 30
0.0
 10
75.0088514553
 20
102.4246968088
 30
0.0
 10
75.0114330486
 20
102.3967214006
 30
0.0
  0
SPLINE
  5
4AF
100
AcDbEntity
  8
0
100
AcDbSpline
 62
7
  6
CONTINUOUS
 70
0
 71
3
 72
36
 73
32
 74
0
 42
0.0000001
 43
0.0000001
 44
0.0000000001
 40
0.0
 40
0.0
 40
0.0
 40
0.0
 40
0.0079286037
 40
0.0201501845
 40
0.0365583494
 40
0.0570127562
 40
0.0813332649
 40
0.1093082867
 40
0.1752075425
 40
0.2524102947
 40
0.338216079
 40
0.4296183068
 40
0.5234138414
 40
0.6163254187
 40
0.70510123
 40
0.7866366006
 40
0.8237837417
 40
0.8580772706
 40
0.8892146633
 40
0.9169263676
 40
0.9409654802
 40
0.9611252129
 40
0.9696925167
 40
0.9772249695
 40
0.9837084188
 40
0.9891290682
 40
0.9934735115
 40
0.996733175
 40
0.998905869
 40
0.9995860115
 40
1.0
 40
1.0
 40
1.0
 40
1.0
 10
75.0114330486
 20
102.3967214006
 30
0.0
 10
75.0238499093
 20
102.2621662253
 30
0.0
 10
75.0435056898
 20
101.9191945033
 30
0.0
 10
75.0694438797
 20
101.2967124431
 30
0.0
 10
75.0954139697
 20
100.4605439971
 30
0.0
 10
75.1219256805
 20
99.4181462583
 30
0.0
 10
75.1485249937
 20
98.1785517314
 30
0.0
 10
75.1862450172
 20
96.1645155705
 30
0.0
 10
75.2319201617
 20
93.2492080224
 30
0.0
 10
75.2846840447
 20
89.3482977412
 30
0.0
 10
75.3376512837
 20
85.0127076483
 30
0.0
 10
75.3907575253
 20
80.3943101628
 30
0.0
 10
75.4439072333
 20
75.6548016623
 30
0.0
 10
75.4970366981
 20
70.9600576107
 30
0.0
 10
75.5500895993
 20
66.4742759935
 30
0.0
 10
75.5954294837
 20
62.9388613605
 30
0.0
 10
75.6323955504
 20
60.3319583822
 30
0.0
 10
75.659219137
 20
58.5839297775
 30
0.0
 10
75.6860012368
 20
56.9967288607
 30
0.0
 10
75.7127061934
 20
55.5843193974
 30
0.0
 10
75.7393292216
 20
54.3590380454
 30
0.0
 10
75.7624308845
 20
53.4600393497
 30
0.0
 10
75.7813533952
 20
52.842357767
 30
0.0
 10
75.7947422362
 20
52.4577069753
 30
0.0
 10
75.8080626457
 20
52.1267092739
 30
0.0
 10
75.821358482
 20
51.8501214293
 30
0.0
 10
75.8343774602
 20
51.628464318
 30
0.0
 10
75.8474989269
 20
51.462462882
 30
0.0
 10
75.858462498
 20
51.3586161858
 30
0.0
 10
75.8687180094
 20
51.3040382449
 30
0.0
 10
75.8736340316
 20
51.2858185569
 30
0.0
 10
75.8768827122
 20
51.2795553765
 30
0.0
  0
SPLINE
  5
4B0
100
AcDbEntity
  8
0
100
AcDbSpline
 62
7
  6
CONTINUOUS
 70
0
 71
3
 72
18
 73
14
 74
0
 42
0.0000001
 43
0.0000001
 44
0.0000000001
 40
0.0
 40
0.0
 40
0.0
 40
0.0
 40
0.2211587385
 40
0.4166531912
 40
0.5852417406
 40
0.7260678602
 40
0.8384220729
 40
0.8837466123
 40
0.921755812
 40
0.9523935048
 40
0.9756310337
 40
0.9914744454
 40
1.0
 40
1.0
 40
1.0
 40
1.0
 10
77.3683244789
 20
98.0680817028
 30
0.0
 10
77.3617117987
 20
98.4012079244
 30
0.0
 10
77.3486425928
 20
99.0287913018
 30
0.0
 10
77.3279129385
 20
99.9102576713
 30
0.0
 10
77.3072679761
 20
100.6706647899
 30
0.0
 10
77.2867209739
 20
101.3057553631
 30
0.0
 10
77.2687956916
 20
101.7551396911
 30
0.0
 10
77.25388779
 20
102.0495647493
 30
0.0
 10
77.2436519227
 20
102.2210105121
 30
0.0
 10
77.2332986114
 20
102.3589497216
 30
0.0
 10
77.2236671784
 20
102.4638210376
 30
0.0
 10
77.2132558479
 20
102.5342933702
 30
0.0
 10
77.206485276
 20
102.5711307509
 30
0.0
 10
77.2005640685
 20
102.5825288741
 30
0.0
  0
SPLINE
  5
4B1
100
AcDbEntity
  8
0
100
AcDbSpline
 62
7
  6
CONTINUOUS
 70
0
 71
3
 72
11
 73
7
 74
0
 42
0.0000001
 43
0.0000001
 44
0.0000000001
 40
0.0
 40
0.0
 40
0.0
 40
0.0
 40
0.0758392645
 40
0.2642160041
 40
0.5719788628
 40
1.0
 40
1.0
 40
1.0
 40
1.0
 10
76.7901223044
 20
102.588537179
 30
0.0
 10
76.79505508
 20
102.588537179
 30
0.0
 10
76.8023359055
 20
102.5667489929
 30
0.0
 10
76.8093720931
 20
102.5352412717
 30
0.0
 10
76.8179652282
 20
102.4729046811
 30
0.0
 10
76.8227015798
 20
102.4261931241
 30
0.0
 10
76.825271358
 20
102.3984724155
 30
0.0
  0
SPLINE
  5
4B2
100
AcDbEntity
  8
0
100
AcDbSpline
 62
7
  6
CONTINUOUS
 70
0
 71
3
 72
36
 73
32
 74
0
 42
0.0000001
 43
0.0000001
 44
0.0000000001
 40
0.0
 40
0.0
 40
0.0
 40
0.0
 40
0.007904305
 40
0.0201036922
 40
0.0364924253
 40
0.0569304531
 40
0.081236511
 40
0.1091997178
 40
0.1750819062
 40
0.2522751312
 40
0.3380756066
 40
0.429478653
 40
0.5232858538
 40
0.6162156194
 40
0.7050123882
 40
0.7865696501
 40
0.8237274941
 40
0.8580313086
 40
0.8891779658
 40
0.9168980476
 40
0.9409447402
 40
0.9611114444
 40
0.9696816283
 40
0.9772167651
 40
0.9837026308
 40
0.9891252868
 40
0.9934712261
 40
0.9967320342
 40
0.998905509
 40
0.9995858874
 40
1.0
 40
1.0
 40
1.0
 40
1.0
 10
76.825271358
 20
102.3984724155
 30
0.0
 10
76.8377066742
 20
102.2643301857
 30
0.0
 10
76.8573585792
 20
101.9221386024
 30
0.0
 10
76.8833026971
 20
101.3007607752
 30
0.0
 10
76.9092733073
 20
100.4655521729
 30
0.0
 10
76.9357902557
 20
99.4239757947
 30
0.0
 10
76.9623953416
 20
98.1850656783
 30
0.0
 10
77.0001243279
 20
96.1716991393
 30
0.0
 10
77.0458087056
 20
93.256946195
 30
0.0
 10
77.0985802331
 20
89.3564457174
 30
0.0
 10
77.1515543963
 20
85.0209455891
 30
0.0
 10
77.2046677622
 20
80.4022671155
 30
0.0
 10
77.2578257516
 20
75.6620729736
 30
0.0
 10
77.310964727
 20
70.9663015739
 30
0.0
 10
77.364027553
 20
66.47932551
 30
0.0
 10
77.4093755103
 20
62.9428766597
 30
0.0
 10
77.4463484679
 20
60.3351532609
 30
0.0
 10
77.4731769236
 20
58.5865489563
 30
0.0
 10
77.4999638579
 20
56.9988174993
 30
0.0
 10
77.5266732896
 20
55.5859296078
 30
0.0
 10
77.55330158
 20
54.3602153531
 30
0.0
 10
77.5764068462
 20
53.4608886357
 30
0.0
 10
77.5953333024
 20
52.8429721718
 30
0.0
 10
77.6087247605
 20
52.4581721377
 30
0.0
 10
77.6220478455
 20
52.1270419208
 30
0.0
 10
77.6353463339
 20
51.8503436836
 30
0.0
 10
77.6483685451
 20
51.6285997537
 30
0.0
 10
77.661493019
 20
51.4625343697
 30
0.0
 10
77.6724586893
 20
51.3586471581
 30
0.0
 10
77.6827163736
 20
51.3040479973
 30
0.0
 10
77.6876331953
 20
51.285821407
 30
0.0
 10
77.690882712
 20
51.2795560043
 30
0.0
  0
SPLINE
  5
4B3
100
AcDbEntity
  8
0
100
AcDbSpline
 62
7
  6
CONTINUOUS
 70
0
 71
3
 72
11
 73
7
 74
0
 42
0.0000001
 43
0.0000001
 44
0.0000000001
 40
0.0
 40
0.0
 40
0.0
 40
0.0
 40
0.0809177885
 40
0.2695960388
 40
0.5754546649
 40
1.0
 40
1.0
 40
1.0
 40
1.0
 10
78.6041223044
 20
102.588537179
 30
0.0
 10
78.6077455026
 20
102.588537179
 30
0.0
 10
78.6143972535
 20
102.574515002
 30
0.0
 10
78.6198281197
 20
102.5520580994
 30
0.0
 10
78.6271674148
 20
102.5100389345
 30
0.0
 10
78.6310017103
 20
102.4780338453
 30
0.0
 10
78.6331222376
 20
102.4591429245
 30
0.0
  0
SPLINE
  5
4B4
100
AcDbEntity
  8
0
100
AcDbSpline
 62
7
  6
CONTINUOUS
 70
0
 71
3
 72
11
 73
7
 74
0
 42
0.0000001
 43
0.0000001
 44
0.0000000001
 40
0.0
 40
0.0
 40
0.0
 40
0.0
 40
0.1274943451
 40
0.3381347137
 40
0.6298947936
 40
1.0
 40
1.0
 40
1.0
 40
1.0
 10
78.6331222376
 20
102.4591429245
 30
0.0
 10
78.6475393001
 20
102.3307071385
 30
0.0
 10
78.6678816711
 20
101.9883016949
 30
0.0
 10
78.6958641281
 20
101.3505023043
 30
0.0
 10
78.7233054682
 20
100.4663836693
 30
0.0
 10
78.7403397013
 20
99.7956771689
 30
0.0
 10
78.7491073011
 20
99.4205999131
 30
0.0
  0
SPLINE
  5
4B5
100
AcDbEntity
  8
0
100
AcDbSpline
 62
7
  6
CONTINUOUS
 70
0
 71
3
 72
31
 73
27
 74
0
 42
0.0000001
 43
0.0000001
 44
0.0000000001
 40
0.0
 40
0.0
 40
0.0
 40
0.0
 40
0.041336469
 40
0.0952805427
 40
0.2344593958
 40
0.3156921255
 40
0.4016322042
 40
0.4898036652
 40
0.5776718734
 40
0.6627083995
 40
0.742463955
 40
0.8146444848
 40
0.8472335114
 40
0.877170412
 40
0.9042380029
 40
0.9282438516
 40
0.9490115453
 40
0.9663961686
 40
0.9737775074
 40
0.9802679961
 40
0.9858569787
 40
0.9905339171
 40
0.9942890927
 40
0.9971178519
 40
0.9990192476
 40
1.0
 40
1.0
 40
1.0
 40
1.0
 10
73.2781223044
 20
100.5452235231
 30
0.0
 10
73.2976501142
 20
99.8665477368
 30
0.0
 10
73.3333084157
 20
98.301938886
 30
0.0
 10
73.4024525428
 20
94.4515339415
 30
0.0
 10
73.4633331614
 20
89.9456003522
 30
0.0
 10
73.5247597341
 20
84.9141138531
 30
0.0
 10
73.5730192547
 20
80.720329015
 30
0.0
 10
73.6213761945
 20
76.4175508701
 30
0.0
 10
73.6697112708
 20
72.1296140854
 30
0.0
 10
73.7180015122
 20
67.9799179939
 30
0.0
 10
73.7662026817
 20
64.087911277
 30
0.0
 10
73.8074922963
 20
61.0573428859
 30
0.0
 10
73.8411320298
 20
58.8450277642
 30
0.0
 10
73.8654641961
 20
57.3736436047
 30
0.0
 10
73.8897582728
 20
56.0432597517
 30
0.0
 10
73.9139813097
 20
54.8635069837
 30
0.0
 10
73.9381346845
 20
53.8428362385
 30
0.0
 10
73.9590878543
 20
53.0952270496
 30
0.0
 10
73.976262692
 20
52.5821254203
 30
0.0
 10
73.9883883355
 20
52.2626996829
 30
0.0
 10
74.0005193373
 20
51.9877631525
 30
0.0
 10
74.0124401592
 20
51.7577013389
 30
0.0
 10
74.0246365805
 20
51.5733165781
 30
0.0
 10
74.035629823
 20
51.4339336784
 30
0.0
 10
74.0481980012
 20
51.3417700405
 30
0.0
 10
74.055465264
 20
51.2938548233
 30
0.0
 10
74.0628827121
 20
51.2795551474
 30
0.0
  0
SPLINE
  5
4B6
100
AcDbEntity
  8
0
100
AcDbSpline
 62
7
  6
CONTINUOUS
 70
0
 71
3
 72
18
 73
14
 74
0
 42
0.0000001
 43
0.0000001
 44
0.0000000001
 40
0.0
 40
0.0
 40
0.0
 40
0.0
 40
0.0053000486
 40
0.0176567276
 40
0.037687141
 40
0.0654898707
 40
0.1010893535
 40
0.1444879263
 40
0.2545976889
 40
0.3955852438
 40
0.567166009
 40
0.7688464812
 40
1.0
 40
1.0
 40
1.0
 40
1.0
 10
73.1621223044
 20
102.588537179
 30
0.0
 10
73.1657449076
 20
102.588537179
 30
0.0
 10
73.1723973659
 20
102.5745212522
 30
0.0
 10
73.1778293358
 20
102.552065319
 30
0.0
 10
73.1851548653
 20
102.5100933353
 30
0.0
 10
73.1919221337
 20
102.4540882776
 30
0.0
 10
73.1990992265
 20
102.381198486
 30
0.0
 10
73.2094117592
 20
102.2524634872
 30
0.0
 10
73.2218460419
 20
102.0514723962
 30
0.0
 10
73.2360157886
 20
101.7629471754
 30
0.0
 10
73.2502765446
 20
101.4117305314
 30
0.0
 10
73.2646055629
 20
100.9988619632
 30
0.0
 10
73.2735781519
 20
100.7031524612
 30
0.0
 10
73.2781223044
 20
100.5452235231
 30
0.0
  0
SPLINE
  5
4B7
100
AcDbEntity
  8
0
100
AcDbSpline
 62
7
  6
CONTINUOUS
 70
0
 71
3
 72
9
 73
5
 74
0
 42
0.0000001
 43
0.0000001
 44
0.0000000001
 40
0.0
 40
0.0
 40
0.0
 40
0.0
 40
0.5049618168
 40
1.0
 40
1.0
 40
1.0
 40
1.0
 10
104.7419288474
 20
158.731037179
 30
0.0
 10
104.7419288474
 20
158.654801886
 30
0.0
 10
104.6817474307
 20
158.4970523381
 30
0.0
 10
104.524968265
 20
158.431037179
 30
0.0
 10
104.4502311666
 20
158.431037179
 30
0.0
  0
SPLINE
  5
4B8
100
AcDbEntity
  8
0
100
AcDbSpline
 62
7
  6
CONTINUOUS
 70
0
 71
3
 72
12
 73
8
 74
0
 42
0.0000001
 43
0.0000001
 44
0.0000000001
 40
0.0
 40
0.0
 40
0.0
 40
0.0
 40
0.3607601469
 40
0.6698559868
 40
0.7919143016
 40
0.8875298261
 40
1.0
 40
1.0
 40
1.0
 40
1.0
 10
104.8902274732
 20
158.1551295882
 30
0.0
 10
104.890205938
 20
158.2289858453
 30
0.0
 10
104.8827759271
 20
158.366440137
 30
0.0
 10
104.8565355865
 20
158.5261473276
 30
0.0
 10
104.8237262267
 20
158.6305985053
 30
0.0
 10
104.7975454514
 20
158.6894836075
 30
0.0
 10
104.7649541842
 20
158.7310192599
 30
0.0
 10
104.7419288473
 20
158.731037179
 30
0.0
  0
SPLINE
  5
4B9
100
AcDbEntity
  8
0
100
AcDbSpline
 62
7
  6
CONTINUOUS
 70
0
 71
3
 72
10
 73
6
 74
0
 42
0.0000001
 43
0.0000001
 44
0.0000000001
 40
0.0
 40
0.0
 40
0.0
 40
0.0
 40
0.3359136511
 40
0.6237914327
 40
1.0
 40
1.0
 40
1.0
 40
1.0
 10
104.6018253175
 20
158.1551295882
 30
0.0
 10
104.6018153598
 20
158.1926171427
 30
0.0
 10
104.592679219
 20
158.2633385749
 30
0.0
 10
104.5551661209
 20
158.3652943161
 30
0.0
 10
104.4922155854
 20
158.4310287161
 30
0.0
 10
104.4502311666
 20
158.431037179
 30
0.0
  0
SPLINE
  5
4BA
100
AcDbEntity
  8
0
100
AcDbSpline
 62
7
  6
CONTINUOUS
 70
0
 71
3
 72
9
 73
5
 74
0
 42
0.0000001
 43
0.0000001
 44
0.0000000001
 40
0.0
 40
0.0
 40
0.0
 40
0.0
 40
0.4995201298
 40
1.0
 40
1.0
 40
1.0
 40
1.0
 10
105.0798510777
 20
150.2553012477
 30
0.0
 10
105.021812642
 20
150.308989473
 30
0.0
 10
104.9250980638
 20
150.4402642082
 30
0.0
 10
104.8902381384
 20
150.6003508703
 30
0.0
 10
104.8902274732
 20
150.6795653165
 30
0.0
  0
LINE
  5
4BB
100
AcDbEntity
  8
0
100
AcDbLine
 62
7
  6
CONTINUOUS
 10
105.2344811106
 20
150.1067731103
 11
105.0798510777
 21
150.2553012477
  0
SPLINE
  5
4BC
100
AcDbEntity
  8
0
100
AcDbSpline
 62
7
  6
CONTINUOUS
 70
0
 71
3
 72
9
 73
5
 74
0
 42
0.0000001
 43
0.0000001
 44
0.0000000001
 40
0.0
 40
0.0
 40
0.0
 40
0.0
 40
0.1632086025
 40
1.0
 40
1.0
 40
1.0
 40
1.0
 10
105.4102314614
 20
149.6825090447
 30
0.0
 10
105.40500997
 20
149.6822123334
 30
0.0
 10
105.3729862286
 20
149.6809815616
 30
0.0
 10
105.3409405656
 20
149.6805941795
 30
0.0
 10
105.3141279843
 20
149.68027818
 30
0.0
  0
SPLINE
  5
4BD
100
AcDbEntity
  8
0
100
AcDbSpline
 62
7
  6
CONTINUOUS
 70
0
 71
3
 72
23
 73
19
 74
0
 42
0.0000001
 43
0.0000001
 44
0.0000000001
 40
0.0
 40
0.0
 40
0.0
 40
0.0
 40
0.2030739791
 40
0.3925995467
 40
0.5634429325
 40
0.6403937666
 40
0.7109847774
 40
0.7747438241
 40
0.8312346457
 40
0.8800733767
 40
0.9209354603
 40
0.9535364847
 40
0.9666742825
 40
0.977671401
 40
0.9865067264
 40
0.993171405
 40
0.9976636269
 40
1.0
 40
1.0
 40
1.0
 40
1.0
 10
71.8683233495
 20
71.0558896853
 30
0.0
 10
71.883801961
 20
69.7168352706
 30
0.0
 10
71.9142766618
 20
67.1280698448
 30
0.0
 10
71.9610500701
 20
63.4128156132
 30
0.0
 10
72.001143181
 20
60.5292465035
 30
0.0
 10
72.0337974059
 20
58.4299515854
 30
0.0
 10
72.0574023976
 20
57.0367559582
 30
0.0
 10
72.0809617284
 20
55.7785009221
 30
0.0
 10
72.1044684383
 20
54.6637166198
 30
0.0
 10
72.127870827
 20
53.6999541273
 30
0.0
 10
72.1511620092
 20
52.8937931345
 30
0.0
 10
72.1714739298
 20
52.3230479039
 30
0.0
 10
72.1883956152
 20
51.9493188013
 30
0.0
 10
72.199970631
 20
51.7321438323
 30
0.0
 10
72.2117812732
 20
51.5579691587
 30
0.0
 10
72.2225014763
 20
51.426164196
 30
0.0
 10
72.2346031136
 20
51.3387343168
 30
0.0
 10
72.2417892778
 20
51.2932328298
 30
0.0
 10
72.2488827116
 20
51.2795560006
 30
0.0
  0
SPLINE
  5
4BE
100
AcDbEntity
  8
0
100
AcDbSpline
 62
7
  6
CONTINUOUS
 70
0
 71
3
 72
15
 73
11
 74
0
 42
0.0000001
 43
0.0000001
 44
0.0000000001
 40
0.0
 40
0.0
 40
0.0
 40
0.0
 40
0.1435221877
 40
0.2770816526
 40
0.3939046145
 40
0.4984092204
 40
0.604236766
 40
0.7219689198
 40
0.8560598043
 40
1.0
 40
1.0
 40
1.0
 40
1.0
 10
100.5580934559
 20
158.431037179
 30
0.0
 10
100.4959814422
 20
158.431037179
 30
0.0
 10
100.3753181749
 20
158.4147604751
 30
0.0
 10
100.2174769669
 20
158.3437978324
 30
0.0
 10
100.1049001448
 20
158.2321671825
 30
0.0
 10
100.0632383807
 20
158.089631173
 30
0.0
 10
100.1033623506
 20
157.9460109933
 30
0.0
 10
100.216563746
 20
157.8328614426
 30
0.0
 10
100.3757644983
 20
157.7629394828
 30
0.0
 10
100.4958837945
 20
157.7444877144
 30
0.0
 10
100.5580934559
 20
157.741268202
 30
0.0
  0
SPLINE
  5
4BF
100
AcDbEntity
  8
0
100
AcDbSpline
 62
7
  6
CONTINUOUS
 70
0
 71
3
 72
9
 73
5
 74
0
 42
0.0000001
 43
0.0000001
 44
0.0000000001
 40
0.0
 40
0.0
 40
0.0
 40
0.0
 40
0.2563964549
 40
1.0
 40
1.0
 40
1.0
 40
1.0
 10
105.2602727699
 20
149.5291257387
 30
0.0
 10
105.2676693193
 20
149.5194386264
 30
0.0
 10
105.2957336622
 20
149.4810605471
 30
0.0
 10
105.3208544926
 20
149.4405630367
 30
0.0
 10
105.3380185284
 20
149.4096619917
 30
0.0
  0
SPLINE
  5
4C0
100
AcDbEntity
  8
0
100
AcDbSpline
 62
7
  6
CONTINUOUS
 70
0
 71
3
 72
9
 73
5
 74
0
 42
0.0000001
 43
0.0000001
 44
0.0000000001
 40
0.0
 40
0.0
 40
0.0
 40
0.0
 40
0.5857263876
 40
1.0
 40
1.0
 40
1.0
 40
1.0
 10
105.3141250984
 20
149.6802791484
 30
0.0
 10
105.2949208754
 20
149.6572570468
 30
0.0
 10
105.2654710479
 20
149.6154053003
 30
0.0
 10
105.2520503511
 20
149.5622353035
 30
0.0
 10
105.2563108197
 20
149.541463193
 30
0.0
  0
SPLINE
  5
4C1
100
AcDbEntity
  8
0
100
AcDbSpline
 62
7
  6
CONTINUOUS
 70
0
 71
3
 72
8
 73
4
 74
0
 42
0.0000001
 43
0.0000001
 44
0.0000000001
 40
0.0
 40
0.0
 40
0.0
 40
0.0
 40
1.0
 40
1.0
 40
1.0
 40
1.0
 10
105.2563108197
 20
149.541463193
 30
0.0
 10
105.2571786713
 20
149.5372319425
 30
0.0
 10
105.2584866301
 20
149.5330584671
 30
0.0
 10
105.2602727699
 20
149.5291257387
 30
0.0
  0
SPLINE
  5
4C2
100
AcDbEntity
  8
0
100
AcDbSpline
 62
7
  6
CONTINUOUS
 70
0
 71
3
 72
8
 73
4
 74
0
 42
0.0000001
 43
0.0000001
 44
0.0000000001
 40
0.0
 40
0.0
 40
0.0
 40
0.0
 40
1.0
 40
1.0
 40
1.0
 40
1.0
 10
105.3141279843
 20
149.68027818
 30
0.0
 10
105.3448553916
 20
149.5973060469
 30
0.0
 10
105.3673964655
 20
149.5111341694
 30
0.0
 10
105.3843048133
 20
149.4242857025
 30
0.0
  0
SPLINE
  5
4C3
100
AcDbEntity
  8
0
100
AcDbSpline
 62
7
  6
CONTINUOUS
 70
0
 71
3
 72
8
 73
4
 74
0
 42
0.0000001
 43
0.0000001
 44
0.0000000001
 40
0.0
 40
0.0
 40
0.0
 40
0.0
 40
1.0
 40
1.0
 40
1.0
 40
1.0
 10
105.259397244
 20
149.7713245453
 30
0.0
 10
105.280093918
 20
149.7426361044
 30
0.0
 10
105.2983819603
 20
149.7120993802
 30
0.0
 10
105.3143280779
 20
149.6805224853
 30
0.0
  0
SPLINE
  5
4C4
100
AcDbEntity
  8
0
100
AcDbSpline
 62
7
  6
CONTINUOUS
 70
0
 71
3
 72
9
 73
5
 74
0
 42
0.0000001
 43
0.0000001
 44
0.0000000001
 40
0.0
 40
0.0
 40
0.0
 40
0.0
 40
0.2602084838
 40
1.0
 40
1.0
 40
1.0
 40
1.0
 10
105.1956109972
 20
149.6037221208
 30
0.0
 10
105.2016667748
 20
149.5976631402
 30
0.0
 10
105.2244625768
 20
149.5739004241
 30
0.0
 10
105.2454792399
 20
149.5484744891
 30
0.0
 10
105.2602687434
 20
149.5291241577
 30
0.0
  0
SPLINE
  5
4C5
100
AcDbEntity
  8
0
100
AcDbSpline
 62
7
  6
CONTINUOUS
 70
0
 71
3
 72
10
 73
6
 74
0
 42
0.0000001
 43
0.0000001
 44
0.0000000001
 40
0.0
 40
0.0
 40
0.0
 40
0.0
 40
0.3666825498
 40
0.6635088729
 40
1.0
 40
1.0
 40
1.0
 40
1.0
 10
105.259397244
 20
149.7713245453
 30
0.0
 10
105.2455631699
 20
149.7533667975
 30
0.0
 10
105.2215624487
 20
149.7186710335
 30
0.0
 10
105.194110994
 20
149.6679254837
 30
0.0
 10
105.1809041093
 20
149.6184338158
 30
0.0
 10
105.1956109972
 20
149.6037221208
 30
0.0
  0
SPLINE
  5
4C6
100
AcDbEntity
  8
0
100
AcDbSpline
 62
7
  6
CONTINUOUS
 70
0
 71
3
 72
8
 73
4
 74
0
 42
0.0000001
 43
0.0000001
 44
0.0000000001
 40
0.0
 40
0.0
 40
0.0
 40
0.0
 40
1.0
 40
1.0
 40
1.0
 40
1.0
 10
105.1595253204
 20
149.8995365617
 30
0.0
 10
105.1894736355
 20
149.8650271856
 30
0.0
 10
105.2174361602
 20
149.8287862415
 30
0.0
 10
105.2444320567
 20
149.7919213505
 30
0.0
  0
SPLINE
  5
4C7
100
AcDbEntity
  8
0
100
AcDbSpline
 62
7
  6
CONTINUOUS
 70
0
 71
3
 72
14
 73
10
 74
0
 42
0.0000001
 43
0.0000001
 44
0.0000000001
 40
0.0
 40
0.0
 40
0.0
 40
0.0
 40
0.4038918114
 40
0.5769868558
 40
0.7242703524
 40
0.8426307571
 40
0.9291790017
 40
0.9820347736
 40
1.0
 40
1.0
 40
1.0
 40
1.0
 10
105.0983512641
 20
149.9648016383
 30
0.0
 10
105.080546263
 20
149.9470844663
 30
0.0
 10
105.0550775785
 20
149.9217472082
 30
0.0
 10
105.0230448903
 20
149.8902217844
 30
0.0
 10
105.0035642915
 20
149.8708022879
 30
0.0
 10
104.9879715281
 20
149.8562688546
 30
0.0
 10
104.976285354
 20
149.8433081259
 30
0.0
 10
104.9694857073
 20
149.8398227896
 30
0.0
 10
104.9659084913
 20
149.8334397921
 30
0.0
 10
104.965113409
 20
149.8342247187
 30
0.0
  0
LINE
  5
4C8
100
AcDbEntity
  8
0
100
AcDbLine
 62
7
  6
CONTINUOUS
 10
104.9451647566
 20
150.1149722072
 11
104.9962360887
 21
150.0648986742
  0
LINE
  5
4C9
100
AcDbEntity
  8
0
100
AcDbLine
 62
7
  6
CONTINUOUS
 10
104.9962360887
 20
150.0648986742
 11
105.0728259661
 21
149.9898197153
  0
LINE
  5
4CA
100
AcDbEntity
  8
0
100
AcDbLine
 62
7
  6
CONTINUOUS
 10
105.0728259661
 20
149.9898197153
 11
105.0983513723
 21
149.9648017694
  0
SPLINE
  5
4CB
100
AcDbEntity
  8
0
100
AcDbSpline
 62
7
  6
CONTINUOUS
 70
0
 71
3
 72
9
 73
5
 74
0
 42
0.0000001
 43
0.0000001
 44
0.0000000001
 40
0.0
 40
0.0
 40
0.0
 40
0.0
 40
0.6720198877
 40
1.0
 40
1.0
 40
1.0
 40
1.0
 10
104.9451647566
 20
150.1149722072
 30
0.0
 10
104.916297878
 20
150.0862513931
 30
0.0
 10
104.8729818532
 20
150.0439030873
 30
0.0
 10
104.8302579459
 20
150.0008797157
 30
0.0
 10
104.8154954684
 20
149.9875741462
 30
0.0
  0
SPLINE
  5
4CC
100
AcDbEntity
  8
0
100
AcDbSpline
 62
7
  6
CONTINUOUS
 70
0
 71
3
 72
9
 73
5
 74
0
 42
0.0000001
 43
0.0000001
 44
0.0000000001
 40
0.0
 40
0.0
 40
0.0
 40
0.0
 40
0.7452470707
 40
1.0
 40
1.0
 40
1.0
 40
1.0
 10
104.8154954684
 20
149.9875741462
 30
0.0
 10
104.8150082293
 20
149.9871349926
 30
0.0
 10
104.8144309755
 20
149.9869088119
 30
0.0
 10
104.8136079307
 20
149.9857537925
 30
0.0
 10
104.8134493473
 20
149.9859123106
 30
0.0
  0
SPLINE
  5
4CD
100
AcDbEntity
  8
0
100
AcDbSpline
 62
7
  6
CONTINUOUS
 70
0
 71
3
 72
8
 73
4
 74
0
 42
0.0000001
 43
0.0000001
 44
0.0000000001
 40
0.0
 40
0.0
 40
0.0
 40
0.0
 40
1.0
 40
1.0
 40
1.0
 40
1.0
 10
104.6291532549
 20
150.5431810962
 30
0.0
 10
104.661176789
 20
150.4865179828
 30
0.0
 10
104.6945300738
 20
150.4305234299
 30
0.0
 10
104.7305686116
 20
150.3763252846
 30
0.0
  0
SPLINE
  5
4CE
100
AcDbEntity
  8
0
100
AcDbSpline
 62
7
  6
CONTINUOUS
 70
0
 71
3
 72
8
 73
4
 74
0
 42
0.0000001
 43
0.0000001
 44
0.0000000001
 40
0.0
 40
0.0
 40
0.0
 40
0.0
 40
1.0
 40
1.0
 40
1.0
 40
1.0
 10
104.7305686116
 20
150.3763252846
 30
0.0
 10
104.759065499
 20
150.333468983
 30
0.0
 10
104.7893150354
 20
150.2917047461
 30
0.0
 10
104.8215110303
 20
150.2515531198
 30
0.0
  0
LINE
  5
4CF
100
AcDbEntity
  8
0
100
AcDbLine
 62
7
  6
CONTINUOUS
 10
100.0703531348
 20
154.9241046516
 11
100.2129197813
 21
154.8385928177
  0
LINE
  5
4D0
100
AcDbEntity
  8
0
100
AcDbLine
 62
7
  6
CONTINUOUS
 10
100.2129197813
 20
154.8385928177
 11
100.2535209712
 21
154.8142295204
  0
LINE
  5
4D1
100
AcDbEntity
  8
0
100
AcDbLine
 62
7
  6
CONTINUOUS
 10
100.2535209712
 20
154.8142295204
 11
100.4703669778
 21
154.6840946143
  0
LINE
  5
4D2
100
AcDbEntity
  8
0
100
AcDbLine
 62
7
  6
CONTINUOUS
 10
100.4703669778
 20
154.6840946143
 11
100.5143306006
 21
154.6577129776
  0
LINE
  5
4D3
100
AcDbEntity
  8
0
100
AcDbLine
 62
7
  6
CONTINUOUS
 10
100.5143306006
 20
154.6577129776
 11
100.5580934559
 21
154.6314604589
  0
SPLINE
  5
4D4
100
AcDbEntity
  8
0
100
AcDbSpline
 62
7
  6
CONTINUOUS
 70
0
 71
3
 72
9
 73
5
 74
0
 42
0.0000001
 43
0.0000001
 44
0.0000000001
 40
0.0
 40
0.0
 40
0.0
 40
0.0
 40
0.5704696938
 40
1.0
 40
1.0
 40
1.0
 40
1.0
 10
100.0703528909
 20
154.9241046516
 30
0.0
 10
100.0529686073
 20
154.8893359129
 30
0.0
 10
100.0290399942
 20
154.823155619
 30
0.0
 10
100.0496569413
 20
154.7497046474
 30
0.0
 10
100.0703531348
 20
154.7290085231
 30
0.0
  0
SPLINE
  5
4D5
100
AcDbEntity
  8
0
100
AcDbSpline
 62
7
  6
CONTINUOUS
 70
0
 71
3
 72
9
 73
5
 74
0
 42
0.0000001
 43
0.0000001
 44
0.0000000001
 40
0.0
 40
0.0
 40
0.0
 40
0.0
 40
0.4447927278
 40
1.0
 40
1.0
 40
1.0
 40
1.0
 10
99.8683244789
 20
155.2167488442
 30
0.0
 10
99.8683294117
 20
155.1622096026
 30
0.0
 10
99.9132376554
 20
155.0389474335
 30
0.0
 10
100.0119798662
 20
154.9591356493
 30
0.0
 10
100.0703531348
 20
154.9241046516
 30
0.0
  0
ELLIPSE
  5
4D6
100
AcDbEntity
  8
0
100
AcDbEllipse
 62
7
  6
CONTINUOUS
 10
134.6362736713
 20
169.381037179
 30
0.0
 11
0.0
 21
1.0
 31
0.0
 40
0.5773502692
 41
-0.0
 42
1.5707963268
  0
ELLIPSE
  5
4D7
100
AcDbEntity
  8
0
100
AcDbEllipse
 62
7
  6
CONTINUOUS
 10
130.594821787
 20
166.8959627483
 30
0.0
 11
2.0131567266
 21
5.5311026482
 31
0.0
 40
0.5096773721
 41
-1.5707963268
 42
-0.9506573207
  0
ELLIPSE
  5
4D8
100
AcDbEntity
  8
0
100
AcDbEllipse
 62
7
  6
CONTINUOUS
 10
134.0589234022
 20
170.381037179
 30
0.0
 11
0.0
 21
4.0
 31
0.0
 40
0.5773502692
 41
0.0
 42
1.5707963268
  0
ELLIPSE
  5
4D9
100
AcDbEntity
  8
0
100
AcDbEllipse
 62
7
  6
CONTINUOUS
 10
109.2509579873
 20
170.381037179
 30
0.0
 11
0.0
 21
4.0
 31
0.0
 40
1.0
 41
-1.5707963268
 42
0.0
  0
ELLIPSE
  5
4DA
100
AcDbEntity
  8
0
100
AcDbEllipse
 62
7
  6
CONTINUOUS
 10
128.2854207103
 20
160.5509354374
 30
0.0
 11
2.0131567266
 21
5.5311026482
 31
0.0
 40
0.5096773721
 41
-1.5707963268
 42
-0.9506573207
  0
ENDSEC
  0
SECTION
  2
OBJECTS
  0
DICTIONARY
  5
4DB
100
AcDbDictionary
  3
ACAD_GROUP
350
4DC
  3
ACAD_MLINESTYLE
350
4DD
  0
DICTIONARY
  5
4DC
102
{ACAD_REACTORS
330
4DB
102
}
100
AcDbDictionary
  0
DICTIONARY
  5
4DD
102
{ACAD_REACTORS
330
4DB
102
}
100
AcDbDictionary
  3
STANDARD
350
4DE
  0
MLINESTYLE
  5
4DE
102
{ACAD_REACTORS
330
4DD
102
}
100
AcDbMlineStyle
  2
STANDARD
 70
0
  3

 62
256
 51
90.0
 52
90.0
 71
2
 49
0.5
 62
256
  6
BYLAYER
 49
-0.5
 62
256
  6
BYLAYER
  0
ENDSEC
  0
EOF
