999
DXF file: C:\Users\64ciro\Desktop\FILE 3D-2D\ARMATEC\h36lll015_3082.dxf
999
Pro/ENGINEER 2017260 by Parametric Technology Corporation
  0
SECTION
  2
HEADER
  9
$ACADVER
  1
AC1014
  9
$DWGCODEPAGE
  3
ANSI_1252
  9
$EXTMAX
 10
297.0
 20
210.0
 30
0.0
  9
$EXTMIN
 10
0.0
 20
0.0
 30
0.0
  9
$LIMMIN
 10
0.0
 20
0.0
  9
$LIMMAX
 10
297.0
 20
210.0
  9
$VIEWCTR
 10
148.5
 20
105.0
  9
$VIEWSIZE
 40
210.0
  9
$CLAYER
  8
0
  9
$LTSCALE
 40
16.335
  9
$CELTYPE
  6
BYLAYER
  9
$DIMSCALE
 40
1.0
  9
$DIMASZ
 40
1.5
  9
$DIMEXO
 40
0.0625
  9
$DIMDLI
 40
11.286
  9
$DIMEXE
 40
0.125
  9
$DIMCEN
 40
2.673
  9
$DIMLFAC
 40
1.0
  9
$DIMBLK
  1
_CLOSED
  9
$DIMALT
 70
0
  9
$DIMALTF
 40
25.4
  9
$DIMTXT
 40
2.4
  9
$DIMTOL
 70
1
  9
$DIMLIM
 70
0
  9
$DIMTFAC
 40
1.0
  9
$DIMTP
 40
0.01
  9
$DIMTM
 40
0.01
  9
$DIMGAP
 40
0.625
  9
$AUNITS
 70
0
  9
$PDMODE
 70
3
  9
$PDSIZE
 40
0.3125
  9
$HANDSEED
  5
526
  9
$TILEMODE
 70
1
  9
$MEASUREMENT
 70
1
  0
ENDSEC
  0
SECTION
  2
CLASSES
  0
ENDSEC
  0
SECTION
  2
TABLES
  0
TABLE
  2
VPORT
  5
8
100
AcDbSymbolTable
 70
2
  0
VPORT
  5
1F4
100
AcDbSymbolTableRecord
100
AcDbViewportTableRecord
  2
*ACTIVE
 70
0
 10
0.0
 20
0.0
 11
1.0
 21
1.0
 12
148.5
 22
105.0
 13
0.0
 23
0.0
 14
1.0
 24
1.0
 15
0.0
 25
0.0
 16
0.0
 26
0.0
 36
1.0
 17
0.0
 27
0.0
 37
0.0
 40
210.0
 41
1.4142857143
 42
50.0
 43
0.0
 44
0.0
 50
0.0
 51
0.0
 71
0
 72
100
 73
1
 74
1
 75
0
 76
0
 77
0
 78
0
  0
ENDTAB
  0
TABLE
  2
LTYPE
  5
5
100
AcDbSymbolTable
 70
6
  0
LTYPE
  5
14
100
AcDbSymbolTableRecord
100
AcDbLinetypeTableRecord
  2
BYBLOCK
 70
0
  3

 72
65
 73
0
 40
0.0
  0
LTYPE
  5
15
100
AcDbSymbolTableRecord
100
AcDbLinetypeTableRecord
  2
BYLAYER
 70
0
  3

 72
65
 73
0
 40
0.0
  0
LTYPE
  5
16
100
AcDbSymbolTableRecord
100
AcDbLinetypeTableRecord
  2
CONTINUOUS
 70
64
  3
Solid line
 72
65
 73
0
 40
0.0
  0
LTYPE
  5
1F5
100
AcDbSymbolTableRecord
100
AcDbLinetypeTableRecord
  2
CENTER
 70
64
  3
____ _ ____ _ ____ _ ____ _ ____ _ ____ _ ____
 72
65
 73
4
 40
0.6
 49
0.375
 74
0
 49
-0.075
 74
0
 49
0.075
 74
0
 49
-0.075
 74
0
  0
LTYPE
  5
1F6
100
AcDbSymbolTableRecord
100
AcDbLinetypeTableRecord
  2
HIDDEN
 70
64
  3
- - - - - - - - - - - - - - - - - - - -
 72
65
 73
2
 40
0.2
 49
0.1
 74
0
 49
-0.1
 74
0
  0
LTYPE
  5
1F7
100
AcDbSymbolTableRecord
100
AcDbLinetypeTableRecord
  2
PHANTOM
 70
64
  3
_____ _ _ _____ _ _ _____ _ _ _____
 72
65
 73
6
 40
0.8
 49
0.45
 74
0
 49
-0.05
 74
0
 49
0.1
 74
0
 49
-0.05
 74
0
 49
0.1
 74
0
 49
-0.05
 74
0
  0
LTYPE
  5
1F8
100
AcDbSymbolTableRecord
100
AcDbLinetypeTableRecord
  2
DOT
 70
64
  3
. . . . . . . . . . . . . . . . . . . .
 72
65
 73
2
 40
0.2
 49
0.1
 74
0
 49
-0.1
 74
0
  0
LTYPE
  5
1F9
100
AcDbSymbolTableRecord
100
AcDbLinetypeTableRecord
  2
DASHED
 70
64
  3
- - - - - - - - - - - - - - - - - - - -
 72
65
 73
2
 40
0.2
 49
0.1
 74
0
 49
-0.1
 74
0
  0
ENDTAB
  0
TABLE
  2
LAYER
  5
2
100
AcDbSymbolTable
 70
36
  0
LAYER
  5
10
100
AcDbSymbolTableRecord
100
AcDbLayerTableRecord
  2
0
 70
0
 62
7
  6
CONTINUOUS
  0
LAYER
  5
1FA
100
AcDbSymbolTableRecord
100
AcDbLayerTableRecord
  2
DEFAULT_1
 70
0
 62
7
  6
CENTER
  0
LAYER
  5
1FB
100
AcDbSymbolTableRecord
100
AcDbLayerTableRecord
  2
DEFAULT_2
 70
0
 62
8
  6
HIDDEN
  0
LAYER
  5
1FC
100
AcDbSymbolTableRecord
100
AcDbLayerTableRecord
  2
DEFAULT_3
 70
0
 62
7
  6
PHANTOM
  0
LAYER
  5
1FD
100
AcDbSymbolTableRecord
100
AcDbLayerTableRecord
  2
ASSI
 70
0
 62
7
  6
CONTINUOUS
  0
LAYER
  5
1FE
100
AcDbSymbolTableRecord
100
AcDbLayerTableRecord
  2
COSMETICA
 70
0
 62
7
  6
CONTINUOUS
  0
LAYER
  5
1FF
100
AcDbSymbolTableRecord
100
AcDbLayerTableRecord
  2
CSYS
 70
0
 62
7
  6
CONTINUOUS
  0
LAYER
  5
200
100
AcDbSymbolTableRecord
100
AcDbLayerTableRecord
  2
CURVE
 70
0
 62
7
  6
CONTINUOUS
  0
LAYER
  5
201
100
AcDbSymbolTableRecord
100
AcDbLayerTableRecord
  2
DETTAGLI
 70
0
 62
7
  6
CONTINUOUS
  0
LAYER
  5
202
100
AcDbSymbolTableRecord
100
AcDbLayerTableRecord
  2
FILETTI
 70
0
 62
7
  6
CONTINUOUS
  0
LAYER
  5
203
100
AcDbSymbolTableRecord
100
AcDbLayerTableRecord
  2
GEOM
 70
0
 62
7
  6
CONTINUOUS
  0
LAYER
  5
204
100
AcDbSymbolTableRecord
100
AcDbLayerTableRecord
  2
GEOMETRIA_SOLIDA
 70
0
 62
7
  6
CONTINUOUS
  0
LAYER
  5
205
100
AcDbSymbolTableRecord
100
AcDbLayerTableRecord
  2
LAY0001
 70
0
 62
7
  6
CONTINUOUS
  0
LAYER
  5
206
100
AcDbSymbolTableRecord
100
AcDbLayerTableRecord
  2
LAY0002
 70
0
 62
7
  6
CONTINUOUS
  0
LAYER
  5
207
100
AcDbSymbolTableRecord
100
AcDbLayerTableRecord
  2
LAY0003
 70
0
 62
7
  6
CONTINUOUS
  0
LAYER
  5
208
100
AcDbSymbolTableRecord
100
AcDbLayerTableRecord
  2
NOGEOM
 70
0
 62
7
  6
CONTINUOUS
  0
LAYER
  5
209
100
AcDbSymbolTableRecord
100
AcDbLayerTableRecord
  2
PIANI
 70
0
 62
7
  6
CONTINUOUS
  0
LAYER
  5
20A
100
AcDbSymbolTableRecord
100
AcDbLayerTableRecord
  2
QUOTE
 70
0
 62
7
  6
CONTINUOUS
  0
LAYER
  5
20B
100
AcDbSymbolTableRecord
100
AcDbLayerTableRecord
  2
RACCORDI
 70
0
 62
7
  6
CONTINUOUS
  0
LAYER
  5
20C
100
AcDbSymbolTableRecord
100
AcDbLayerTableRecord
  2
RIF
 70
0
 62
7
  6
CONTINUOUS
  0
LAYER
  5
20D
100
AcDbSymbolTableRecord
100
AcDbLayerTableRecord
  2
SMUSSI
 70
0
 62
7
  6
CONTINUOUS
  0
LAYER
  5
20E
100
AcDbSymbolTableRecord
100
AcDbLayerTableRecord
  2
TABELLE
 70
0
 62
7
  6
CONTINUOUS
  0
ENDTAB
  0
TABLE
  2
STYLE
  5
3
100
AcDbSymbolTable
 70
1
  0
STYLE
  5
11
100
AcDbSymbolTableRecord
100
AcDbTextStyleTableRecord
  2
STANDARD
 70
0
 40
0.0
 41
0.8
 50
0.0
 71
0
 42
0.2
  3
txt
  4

  0
STYLE
  5
20F
100
AcDbSymbolTableRecord
100
AcDbTextStyleTableRecord
  2
TEXTSTYLE_1
 70
0
 40
0.0
 41
0.8
 50
0.0
 71
0
 42
0.2
  3
gdt
  4

  0
ENDTAB
  0
TABLE
  2
VIEW
  5
6
100
AcDbSymbolTable
 70
0
  0
ENDTAB
  0
TABLE
  2
UCS
  5
7
100
AcDbSymbolTable
 70
0
  0
ENDTAB
  0
TABLE
  2
APPID
  5
9
100
AcDbSymbolTable
 70
1
  0
APPID
  5
210
100
AcDbSymbolTableRecord
100
AcDbRegAppTableRecord
  2
ACAD
 70
0
  0
ENDTAB
  0
TABLE
  2
BLOCK_RECORD
  5
1
100
AcDbSymbolTable
 70
0
  0
BLOCK_RECORD
  5
1F
100
AcDbSymbolTableRecord
100
AcDbBlockTableRecord
  2
*MODEL_SPACE
  0
BLOCK_RECORD
  5
1B
100
AcDbSymbolTableRecord
100
AcDbBlockTableRecord
  2
*PAPER_SPACE
  0
ENDTAB
  0
TABLE
  2
DIMSTYLE
  5
A
100
AcDbSymbolTable
 70
1
  0
DIMSTYLE
105
211
100
AcDbSymbolTableRecord
100
AcDbDimStyleTableRecord
  2
STANDARD
 70
0
  3

  4

  5
_CLOSED
  6
_CLOSED
  7
_CLOSED
 40
1.0
 41
1.5
 42
0.0625
 43
0.38
 44
0.125
 45
0.0
 46
0.0
 47
0.01
 48
0.01
140
2.4
141
0.09
142
0.0
143
25.4
144
1.0
145
0.0
146
1.0
147
0.625
 71
1.0
 72
0.0
 73
0
 74
0
 75
0
 76
0
 77
1
 78
8
 79
2
170
0
171
1
172
0
173
0
174
0
175
0
176
0
177
0
178
0
270
2
179
2
271
2
272
2
273
2
274
2
275
0
280
0
281
0
282
0
283
1
284
8
285
0
286
0
287
3
288
0
340
11
  0
ENDTAB
  0
ENDSEC
  0
SECTION
  2
BLOCKS
  0
BLOCK
  5
20
100
AcDbEntity
  8
0
100
AcDbBlockBegin
  2
*MODEL_SPACE
 70
0
 10
0.0
 20
0.0
 30
0.0
  3
*MODEL_SPACE
  1

  0
ENDBLK
  5
21
100
AcDbEntity
  8
0
100
AcDbBlockEnd
  0
BLOCK
  5
1C
100
AcDbEntity
  8
0
100
AcDbBlockBegin
  2
*PAPER_SPACE
 70
0
 10
0.0
 20
0.0
 30
0.0
  3
*PAPER_SPACE
  1

  0
ENDBLK
  5
1D
100
AcDbEntity
  8
0
100
AcDbBlockEnd
  0
ENDSEC
  0
SECTION
  2
ENTITIES
  0
LINE
  5
212
100
AcDbEntity
  8
0
100
AcDbLine
 62
7
  6
CONTINUOUS
 10
0.0
 20
0.0
 11
0.0
 21
210.0
  0
LINE
  5
213
100
AcDbEntity
  8
0
100
AcDbLine
 62
7
  6
CONTINUOUS
 10
0.0
 20
0.0
 11
297.0
 21
0.0
  0
LINE
  5
214
100
AcDbEntity
  8
0
100
AcDbLine
 62
7
  6
CONTINUOUS
 10
0.0
 20
210.0
 11
297.0
 21
210.0
  0
LINE
  5
215
100
AcDbEntity
  8
0
100
AcDbLine
 62
7
  6
CONTINUOUS
 10
297.0
 20
0.0
 11
297.0
 21
210.0
  0
LINE
  5
216
100
AcDbEntity
  8
0
100
AcDbLine
 62
7
  6
CONTINUOUS
 10
88.5861142096
 20
71.7079883737
 11
89.6253446942
 21
69.9079883737
  0
LINE
  5
217
100
AcDbEntity
  8
0
100
AcDbLine
 62
7
  6
CONTINUOUS
 10
100.2570417577
 20
72.7951357883
 11
100.2723094948
 21
72.7804883737
  0
LINE
  5
218
100
AcDbEntity
  8
0
100
AcDbLine
 62
7
  6
CONTINUOUS
 10
102.0710417577
 20
72.7951357883
 11
102.0863094948
 21
72.7804883737
  0
LINE
  5
219
100
AcDbEntity
  8
0
100
AcDbLine
 62
7
  6
CONTINUOUS
 10
99.6502426046
 20
73.9589537491
 11
100.2570417577
 21
72.7951357883
  0
LINE
  5
21A
100
AcDbEntity
  8
GEOM
100
AcDbLine
 62
7
  6
CONTINUOUS
 10
85.4995116693
 20
93.9579883737
 11
85.4995116693
 21
72.5579883737
  0
LINE
  5
21B
100
AcDbEntity
  8
GEOM
100
AcDbLine
 62
7
  6
CONTINUOUS
 10
86.1995116693
 20
71.8579883737
 11
86.1995116693
 21
94.6579883737
  0
LINE
  5
21C
100
AcDbEntity
  8
0
100
AcDbLine
 62
7
  6
CONTINUOUS
 10
88.3263065885
 20
94.6579883737
 11
88.3263065885
 21
71.8579883737
  0
LINE
  5
21D
100
AcDbEntity
  8
0
100
AcDbLine
 62
7
  6
CONTINUOUS
 10
88.5861142096
 20
94.8079883737
 11
88.5861142096
 21
71.7079883737
  0
LINE
  5
21E
100
AcDbEntity
  8
0
100
AcDbLine
 62
7
  6
CONTINUOUS
 10
89.6253446942
 20
69.9079883737
 11
89.6253446942
 21
69.9198925934
  0
LINE
  5
21F
100
AcDbEntity
  8
0
100
AcDbLine
 62
7
  6
CONTINUOUS
 10
89.6253446942
 20
76.100805528
 11
89.6253446942
 21
77.0770752757
  0
LINE
  5
220
100
AcDbEntity
  8
0
100
AcDbLine
 62
7
  6
CONTINUOUS
 10
89.6253446942
 20
89.4389014718
 11
89.6253446942
 21
90.4151712097
  0
LINE
  5
221
100
AcDbEntity
  8
0
100
AcDbLine
 62
7
  6
CONTINUOUS
 10
89.6253446942
 20
96.5960841537
 11
89.6253446942
 21
96.6079883737
  0
LINE
  5
222
100
AcDbEntity
  8
0
100
AcDbLine
 62
7
  6
CONTINUOUS
 10
89.8851523153
 20
96.7579883737
 11
89.8851523153
 21
96.7426870187
  0
LINE
  5
223
100
AcDbEntity
  8
0
100
AcDbLine
 62
7
  6
CONTINUOUS
 10
89.8851523153
 20
69.7732897288
 11
89.8851523153
 21
69.7579883737
  0
LINE
  5
224
100
AcDbEntity
  8
0
100
AcDbLine
 62
7
  6
CONTINUOUS
 10
89.8851523153
 20
75.9591528974
 11
89.8851523153
 21
77.0721252181
  0
LINE
  5
225
100
AcDbEntity
  8
0
100
AcDbLine
 62
7
  6
CONTINUOUS
 10
89.8851523153
 20
89.4438515293
 11
89.8851523153
 21
90.5568238507
  0
LINE
  5
226
100
AcDbEntity
  8
0
100
AcDbLine
 62
7
  6
CONTINUOUS
 10
103.8850417577
 20
72.7951357883
 11
103.9003094948
 21
72.7804883737
  0
LINE
  5
227
100
AcDbEntity
  8
0
100
AcDbLine
 62
7
  6
CONTINUOUS
 10
101.4642426045
 20
73.9589537491
 11
102.0710417577
 21
72.7951357883
  0
LINE
  5
228
100
AcDbEntity
  8
0
100
AcDbLine
 62
7
  6
CONTINUOUS
 10
103.2782426045
 20
73.9589537491
 11
103.8850417577
 21
72.7951357883
  0
LINE
  5
229
100
AcDbEntity
  8
0
100
AcDbLine
 62
7
  6
CONTINUOUS
 10
115.7601851218
 20
70.6973149212
 11
117.8030650599
 21
68.6544349832
  0
LINE
  5
22A
100
AcDbEntity
  8
0
100
AcDbLine
 62
7
  6
CONTINUOUS
 10
98.4995116693
 20
95.2579883737
 11
97.6334862655
 21
96.7579883737
  0
LINE
  5
22B
100
AcDbEntity
  8
0
100
AcDbLine
 62
7
  6
CONTINUOUS
 10
98.5775785599
 20
92.5570229976
 11
98.4995116693
 21
92.7067275651
  0
LINE
  5
22C
100
AcDbEntity
  8
0
100
AcDbLine
 62
7
  6
CONTINUOUS
 10
100.3915785599
 20
92.5570229976
 11
99.7847794057
 21
93.7208409603
  0
LINE
  5
22D
100
AcDbEntity
  8
0
100
AcDbLine
 62
7
  6
CONTINUOUS
 10
102.2055785599
 20
92.5570229976
 11
101.5987794057
 21
93.7208409603
  0
LINE
  5
22E
100
AcDbEntity
  8
0
100
AcDbLine
 62
7
  6
CONTINUOUS
 10
97.6334862655
 20
90.5579639999
 11
97.6334862655
 21
89.4426468122
  0
LINE
  5
22F
100
AcDbEntity
  8
0
100
AcDbLine
 62
7
  6
CONTINUOUS
 10
97.6334862655
 20
77.0733299353
 11
97.6334862655
 21
75.9580127475
  0
LINE
  5
230
100
AcDbEntity
  8
0
100
AcDbLine
 62
7
  6
CONTINUOUS
 10
97.6334862655
 20
69.7579883737
 11
97.6334862655
 21
69.7733543091
  0
LINE
  5
231
100
AcDbEntity
  8
0
100
AcDbLine
 62
7
  6
CONTINUOUS
 10
97.6334862655
 20
96.7426224384
 11
97.6334862655
 21
96.7579883737
  0
LINE
  5
232
100
AcDbEntity
  8
0
100
AcDbLine
 62
7
  6
CONTINUOUS
 10
98.4995116693
 20
71.2579883737
 11
98.4995116693
 21
95.2579883737
  0
LINE
  5
233
100
AcDbEntity
  8
0
100
AcDbLine
 62
7
  6
CONTINUOUS
 10
133.6608365347
 20
67.0079883737
 11
137.0809654874
 21
67.0079883737
  0
LINE
  5
234
100
AcDbEntity
  8
0
100
AcDbLine
 62
7
  6
CONTINUOUS
 10
128.8566184505
 20
67.5079883737
 11
133.0834862655
 21
67.5079883737
  0
LINE
  5
235
100
AcDbEntity
  8
0
100
AcDbLine
 62
7
  6
CONTINUOUS
 10
118.1566184505
 20
68.5079883737
 11
127.4424048881
 21
68.5079883737
  0
LINE
  5
236
100
AcDbEntity
  8
0
100
AcDbLine
 62
7
  6
CONTINUOUS
 10
99.7847794057
 20
93.7208409603
 11
99.7695116693
 21
93.7354883737
  0
LINE
  5
237
100
AcDbEntity
  8
0
100
AcDbLine
 62
7
  6
CONTINUOUS
 10
101.5987794057
 20
93.7208409603
 11
101.5835116693
 21
93.7354883737
  0
LINE
  5
238
100
AcDbEntity
  8
0
100
AcDbLine
 62
7
  6
CONTINUOUS
 10
127.7959582787
 20
68.3615417643
 11
128.5030650599
 21
67.6544349832
  0
LINE
  5
239
100
AcDbEntity
  8
0
100
AcDbLine
 62
7
  6
CONTINUOUS
 10
104.6995116693
 20
70.7582916624
 11
104.6995116693
 21
95.7579883737
  0
LINE
  5
23A
100
AcDbEntity
  8
0
100
AcDbLine
 62
7
  6
CONTINUOUS
 10
111.9163936775
 20
146.1579883737
 11
110.6995116693
 21
144.8530421844
  0
LINE
  5
23B
100
AcDbEntity
  8
0
100
AcDbLine
 62
7
  6
CONTINUOUS
 10
112.5879339478
 20
146.1579883737
 11
110.6995116693
 21
144.1329034109
  0
LINE
  5
23C
100
AcDbEntity
  8
0
100
AcDbLine
 62
7
  6
CONTINUOUS
 10
120.1995116693
 20
151.5126889121
 11
118.4995116693
 21
150.5311934545
  0
LINE
  5
23D
100
AcDbEntity
  8
0
100
AcDbLine
 62
7
  6
CONTINUOUS
 10
158.5138710232
 20
69.7579883737
 11
150.7655370731
 21
69.7579883737
  0
LINE
  5
23E
100
AcDbEntity
  8
0
100
AcDbLine
 62
7
  6
CONTINUOUS
 10
89.8851523153
 20
69.7579883737
 11
97.6334862655
 21
69.7579883737
  0
LINE
  5
23F
100
AcDbEntity
  8
0
100
AcDbLine
 62
7
  6
CONTINUOUS
 10
158.4942139786
 20
69.7733543091
 11
150.7655370731
 21
69.7733543091
  0
LINE
  5
240
100
AcDbEntity
  8
0
100
AcDbLine
 62
7
  6
CONTINUOUS
 10
89.90480936
 20
69.7733543091
 11
97.6334862655
 21
69.7733543091
  0
LINE
  5
241
100
AcDbEntity
  8
0
100
AcDbLine
 62
7
  6
CONTINUOUS
 10
142.9778238328
 20
70.2579883737
 11
138.2170515401
 21
70.2579883737
  0
LINE
  5
242
100
AcDbEntity
  8
GEOM
100
AcDbLine
 62
7
  6
CONTINUOUS
 10
142.9778238328
 20
70.2579883737
 11
138.2170515401
 21
70.2579883737
  0
LINE
  5
243
100
AcDbEntity
  8
0
100
AcDbLine
 62
7
  6
CONTINUOUS
 10
142.9935853961
 20
70.2579883737
 11
143.4108365347
 21
70.2579883737
  0
LINE
  5
244
100
AcDbEntity
  8
0
100
AcDbLine
 62
7
  6
CONTINUOUS
 10
142.9778238328
 20
70.2862902605
 11
138.2014846335
 21
70.2862902605
  0
LINE
  5
245
100
AcDbEntity
  8
0
100
AcDbLine
 62
7
  6
CONTINUOUS
 10
104.6995116693
 20
70.7579883737
 11
116.4806105945
 21
70.7579883737
  0
LINE
  5
246
100
AcDbEntity
  8
0
100
AcDbLine
 62
7
  6
CONTINUOUS
 10
138.2014846335
 20
70.8608996593
 11
142.9778238328
 21
70.8608996593
  0
LINE
  5
247
100
AcDbEntity
  8
0
100
AcDbLine
 62
7
  6
CONTINUOUS
 10
138.2170517328
 20
70.9581507577
 11
142.9935853961
 21
70.9581494947
  0
LINE
  5
248
100
AcDbEntity
  8
0
100
AcDbLine
 62
7
  6
CONTINUOUS
 10
104.8725216571
 20
71.0508815926
 11
116.4806105945
 21
71.0508815926
  0
LINE
  5
249
100
AcDbEntity
  8
0
100
AcDbLine
 62
7
  6
CONTINUOUS
 10
162.1995116693
 20
71.8579883737
 11
160.07271675
 21
71.8579883737
  0
LINE
  5
24A
100
AcDbEntity
  8
0
100
AcDbLine
 62
7
  6
CONTINUOUS
 10
86.1995116693
 20
71.8579883737
 11
88.3263065885
 21
71.8579883737
  0
LINE
  5
24B
100
AcDbEntity
  8
0
100
AcDbLine
 62
7
  6
CONTINUOUS
 10
143.6995116693
 20
72.7779883737
 11
149.8995116693
 21
72.7779883737
  0
LINE
  5
24C
100
AcDbEntity
  8
0
100
AcDbLine
 62
7
  6
CONTINUOUS
 10
104.6995116693
 20
72.7804883737
 11
103.9003094948
 21
72.7804883737
  0
LINE
  5
24D
100
AcDbEntity
  8
0
100
AcDbLine
 62
7
  6
CONTINUOUS
 10
102.4905116693
 20
72.7804883737
 11
102.0863094948
 21
72.7804883737
  0
LINE
  5
24E
100
AcDbEntity
  8
0
100
AcDbLine
 62
7
  6
CONTINUOUS
 10
100.6765116693
 20
72.7804883737
 11
100.2723094948
 21
72.7804883737
  0
LINE
  5
24F
100
AcDbEntity
  8
0
100
AcDbLine
 62
7
  6
CONTINUOUS
 10
98.8625116693
 20
72.7804883737
 11
98.4995116693
 21
72.7804883737
  0
LINE
  5
250
100
AcDbEntity
  8
0
100
AcDbLine
 62
7
  6
CONTINUOUS
 10
99.467410582
 20
73.9424883737
 11
99.6502426046
 21
73.9424883737
  0
LINE
  5
251
100
AcDbEntity
  8
0
100
AcDbLine
 62
7
  6
CONTINUOUS
 10
101.281410582
 20
73.9424883737
 11
101.4642426045
 21
73.9424883737
  0
LINE
  5
252
100
AcDbEntity
  8
0
100
AcDbLine
 62
7
  6
CONTINUOUS
 10
103.095410582
 20
73.9424883737
 11
103.2782426045
 21
73.9424883737
  0
LINE
  5
253
100
AcDbEntity
  8
0
100
AcDbLine
 62
7
  6
CONTINUOUS
 10
104.8725216571
 20
88.021444341
 11
104.7311020528
 21
88.0725161769
  0
LINE
  5
254
100
AcDbEntity
  8
0
100
AcDbLine
 62
7
  6
CONTINUOUS
 10
110.1995116693
 20
135.7579883737
 11
110.1995116693
 21
133.2311934545
  0
LINE
  5
255
100
AcDbEntity
  8
0
100
AcDbLine
 62
7
  6
CONTINUOUS
 10
110.4995116693
 20
133.2311934545
 11
110.4995116693
 21
136.0579883737
  0
LINE
  5
256
100
AcDbEntity
  8
0
100
AcDbLine
 62
7
  6
CONTINUOUS
 10
110.6995116693
 20
132.1579883737
 11
110.6995116693
 21
132.7693132392
  0
LINE
  5
257
100
AcDbEntity
  8
0
100
AcDbLine
 62
7
  6
CONTINUOUS
 10
110.6995116693
 20
136.0579883737
 11
110.6995116693
 21
146.1579883737
  0
LINE
  5
258
100
AcDbEntity
  8
0
100
AcDbLine
 62
7
  6
CONTINUOUS
 10
110.4995116693
 20
133.2311934545
 11
110.3495116693
 21
132.9713858334
  0
LINE
  5
259
100
AcDbEntity
  8
0
100
AcDbLine
 62
7
  6
CONTINUOUS
 10
88.5861142096
 20
94.8079883737
 11
89.6253446942
 21
96.6079883737
  0
LINE
  5
25A
100
AcDbEntity
  8
0
100
AcDbLine
 62
7
  6
CONTINUOUS
 10
120.1857088678
 20
146.1441855723
 11
119.7995116693
 21
145.7579883737
  0
LINE
  5
25B
100
AcDbEntity
  8
0
100
AcDbLine
 62
7
  6
CONTINUOUS
 10
116.8995116693
 20
141.7579883737
 11
116.6158559187
 21
141.4743326232
  0
LINE
  5
25C
100
AcDbEntity
  8
0
100
AcDbLine
 62
7
  6
CONTINUOUS
 10
114.4995116693
 20
139.3079883737
 11
115.1995116693
 21
140.0079883737
  0
LINE
  5
25D
100
AcDbEntity
  8
0
100
AcDbLine
 62
7
  6
CONTINUOUS
 10
158.4942139786
 20
75.9580127475
 11
150.7655370731
 21
75.9580127475
  0
LINE
  5
25E
100
AcDbEntity
  8
0
100
AcDbLine
 62
7
  6
CONTINUOUS
 10
89.90480936
 20
75.9580127475
 11
97.6334862655
 21
75.9580127475
  0
LINE
  5
25F
100
AcDbEntity
  8
0
100
AcDbLine
 62
7
  6
CONTINUOUS
 10
158.4942139786
 20
77.0733299353
 11
150.7655370731
 21
77.0733299353
  0
LINE
  5
260
100
AcDbEntity
  8
0
100
AcDbLine
 62
7
  6
CONTINUOUS
 10
89.90480936
 20
77.0733299353
 11
97.6334862655
 21
77.0733299353
  0
LINE
  5
261
100
AcDbEntity
  8
0
100
AcDbLine
 62
7
  6
CONTINUOUS
 10
142.9935853961
 20
77.173050942
 11
138.2170515401
 21
77.173050942
  0
LINE
  5
262
100
AcDbEntity
  8
0
100
AcDbLine
 62
7
  6
CONTINUOUS
 10
142.9778238328
 20
77.3103256895
 11
138.2014846335
 21
77.3103256895
  0
LINE
  5
263
100
AcDbEntity
  8
0
100
AcDbLine
 62
7
  6
CONTINUOUS
 10
104.8725216571
 20
77.7874256253
 11
116.4806105945
 21
77.7874256253
  0
LINE
  5
264
100
AcDbEntity
  8
0
100
AcDbLine
 62
7
  6
CONTINUOUS
 10
104.8725216571
 20
78.4945324065
 11
116.4806105945
 21
78.4945324065
  0
LINE
  5
265
100
AcDbEntity
  8
0
100
AcDbLine
 62
7
  6
CONTINUOUS
 10
138.2014846335
 20
78.697555493
 11
142.9778238328
 21
78.697555493
  0
LINE
  5
266
100
AcDbEntity
  8
0
100
AcDbLine
 62
7
  6
CONTINUOUS
 10
138.2170515401
 20
78.8633894159
 11
142.9935853961
 21
78.8633894159
  0
LINE
  5
267
100
AcDbEntity
  8
GEOM
100
AcDbLine
 62
7
  6
CONTINUOUS
 10
137.9351437535
 20
78.8955808176
 11
138.2170515396
 21
78.8633894132
  0
LINE
  5
268
100
AcDbEntity
  8
0
100
AcDbLine
 62
7
  6
CONTINUOUS
 10
116.4806105945
 20
88.021444341
 11
116.6220334434
 21
87.9717787253
  0
LINE
  5
269
100
AcDbEntity
  8
0
100
AcDbLine
 62
7
  6
CONTINUOUS
 10
133.5164989674
 20
67.2579883737
 11
133.6608365347
 21
67.0079883737
  0
LINE
  5
26A
100
AcDbEntity
  8
0
100
AcDbLine
 62
7
  6
CONTINUOUS
 10
119.3494180554
 20
84.0004883737
 11
120.2999227361
 21
82.1350179019
  0
LINE
  5
26B
100
AcDbEntity
  8
0
100
AcDbLine
 62
7
  6
CONTINUOUS
 10
119.8544648623
 20
84.0004883737
 11
120.5524461396
 21
82.6306229864
  0
LINE
  5
26C
100
AcDbEntity
  8
0
100
AcDbLine
 62
7
  6
CONTINUOUS
 10
113.6995116693
 20
136.0579883737
 11
113.6995116693
 21
145.6579883737
  0
LINE
  5
26D
100
AcDbEntity
  8
0
100
AcDbLine
 62
7
  6
CONTINUOUS
 10
114.4995116693
 20
136.7579883737
 11
114.4995116693
 21
139.3079883737
  0
LINE
  5
26E
100
AcDbEntity
  8
0
100
AcDbLine
 62
7
  6
CONTINUOUS
 10
114.8080261638
 20
135.7579883737
 11
114.8080261638
 21
132.4650951549
  0
LINE
  5
26F
100
AcDbEntity
  8
0
100
AcDbLine
 62
7
  6
CONTINUOUS
 10
115.095520618
 20
135.7579883734
 11
115.095520618
 21
132.4650951549
  0
LINE
  5
270
100
AcDbEntity
  8
0
100
AcDbLine
 62
7
  6
CONTINUOUS
 10
115.4495116693
 20
129.8536943797
 11
115.4495116693
 21
95.9579883737
  0
LINE
  5
271
100
AcDbEntity
  8
0
100
AcDbLine
 62
7
  6
CONTINUOUS
 10
115.5935544302
 20
131.3008815926
 11
115.5935544302
 21
130.2901464952
  0
LINE
  5
272
100
AcDbEntity
  8
0
100
AcDbLine
 62
7
  6
CONTINUOUS
 10
115.8788347807
 20
131.3008815927
 11
115.8788347807
 21
130.2901464951
  0
LINE
  5
273
100
AcDbEntity
  8
0
100
AcDbLine
 62
7
  6
CONTINUOUS
 10
116.1995116693
 20
140.8409107922
 11
116.1995116693
 21
140.3550669989
  0
LINE
  5
274
100
AcDbEntity
  8
0
100
AcDbLine
 62
7
  6
CONTINUOUS
 10
117.6995116693
 20
141.7579883737
 11
117.6995116693
 21
144.7579883737
  0
LINE
  5
275
100
AcDbEntity
  8
0
100
AcDbLine
 62
7
  6
CONTINUOUS
 10
117.8030650599
 20
68.6544349832
 11
117.8030650599
 21
96.5477656616
  0
LINE
  5
276
100
AcDbEntity
  8
0
100
AcDbLine
 62
7
  6
CONTINUOUS
 10
118.1566184505
 20
68.5079883737
 11
118.1566184505
 21
96.4918440841
  0
LINE
  5
277
100
AcDbEntity
  8
0
100
AcDbLine
 62
7
  6
CONTINUOUS
 10
118.1684372366
 20
144.3249756719
 11
118.1684372366
 21
141.7579883737
  0
LINE
  5
278
100
AcDbEntity
  8
0
100
AcDbLine
 62
7
  6
CONTINUOUS
 10
118.1995116693
 20
150.0115782122
 11
118.1995116693
 21
149.3579883737
  0
LINE
  5
279
100
AcDbEntity
  8
0
100
AcDbLine
 62
7
  6
CONTINUOUS
 10
118.2694180554
 20
85.9804883737
 11
118.2694180554
 21
80.5804883737
  0
LINE
  5
27A
100
AcDbEntity
  8
0
100
AcDbLine
 62
7
  6
CONTINUOUS
 10
124.1995116693
 20
149.3579883737
 11
124.1480251098
 21
149.1579883737
  0
LINE
  5
27B
100
AcDbEntity
  8
0
100
AcDbLine
 62
7
  6
CONTINUOUS
 10
126.0536136355
 20
149.3579883737
 11
125.9736758863
 21
149.1579883737
  0
LINE
  5
27C
100
AcDbEntity
  8
0
100
AcDbLine
 62
7
  6
CONTINUOUS
 10
130.1995116693
 20
149.3579883737
 11
130.0992870154
 21
149.1579883737
  0
LINE
  5
27D
100
AcDbEntity
  8
0
100
AcDbLine
 62
7
  6
CONTINUOUS
 10
127.726223183
 20
149.3579883737
 11
127.625659108
 21
149.1579883737
  0
LINE
  5
27E
100
AcDbEntity
  8
0
100
AcDbLine
 62
7
  6
CONTINUOUS
 10
99.3500417577
 20
93.7208409592
 11
99.3348625712
 21
93.6917228903
  0
LINE
  5
27F
100
AcDbEntity
  8
0
100
AcDbLine
 62
7
  6
CONTINUOUS
 10
99.3348625712
 20
93.6917228903
 11
98.7536636134
 21
92.5770067442
  0
LINE
  5
280
100
AcDbEntity
  8
0
100
AcDbLine
 62
7
  6
CONTINUOUS
 10
101.1640417577
 20
93.7208409592
 11
101.1488625711
 21
93.6917228902
  0
LINE
  5
281
100
AcDbEntity
  8
0
100
AcDbLine
 62
7
  6
CONTINUOUS
 10
101.1488625711
 20
93.6917228902
 11
100.5676636134
 21
92.5770067442
  0
LINE
  5
282
100
AcDbEntity
  8
0
100
AcDbLine
 62
7
  6
CONTINUOUS
 10
129.905850767
 20
149.3579883737
 11
129.794621235
 21
149.1579883737
  0
LINE
  5
283
100
AcDbEntity
  8
0
100
AcDbLine
 62
7
  6
CONTINUOUS
 10
129.0536136355
 20
149.3579883737
 11
128.9422671469
 21
149.1579883737
  0
LINE
  5
284
100
AcDbEntity
  8
0
100
AcDbLine
 62
7
  6
CONTINUOUS
 10
115.5319742503
 20
131.4423029488
 11
115.7338322137
 21
131.654432306
  0
LINE
  5
285
100
AcDbEntity
  8
0
100
AcDbLine
 62
7
  6
CONTINUOUS
 10
115.0527998202
 20
131.89940973
 11
115.2556405419
 21
132.1115417581
  0
LINE
  5
286
100
AcDbEntity
  8
0
100
AcDbLine
 62
7
  6
CONTINUOUS
 10
116.8570041637
 20
141.1890864098
 11
116.2099188122
 21
140.8517577866
  0
LINE
  5
287
100
AcDbEntity
  8
0
100
AcDbLine
 62
7
  6
CONTINUOUS
 10
118.2694180554
 20
80.5804883737
 11
127.2694180554
 21
80.5804883737
  0
LINE
  5
288
100
AcDbEntity
  8
0
100
AcDbLine
 62
7
  6
CONTINUOUS
 10
118.7194180554
 20
81.0304883737
 11
126.8194180554
 21
81.0304883737
  0
LINE
  5
289
100
AcDbEntity
  8
0
100
AcDbLine
 62
7
  6
CONTINUOUS
 10
120.4851039557
 20
81.7054883737
 11
120.9901507627
 21
81.7054883737
  0
LINE
  5
28A
100
AcDbEntity
  8
0
100
AcDbLine
 62
7
  6
CONTINUOUS
 10
122.7895116693
 20
81.7054883737
 11
123.2395116693
 21
81.7054883737
  0
LINE
  5
28B
100
AcDbEntity
  8
0
100
AcDbLine
 62
7
  6
CONTINUOUS
 10
123.8695116693
 20
81.7054883737
 11
124.3195116693
 21
81.7054883737
  0
LINE
  5
28C
100
AcDbEntity
  8
0
100
AcDbLine
 62
7
  6
CONTINUOUS
 10
125.3095116693
 20
83.2579883737
 11
125.5795116693
 21
83.2579883737
  0
LINE
  5
28D
100
AcDbEntity
  8
0
100
AcDbLine
 62
7
  6
CONTINUOUS
 10
125.5795116693
 20
83.7304883737
 11
126.0295116693
 21
83.7304883737
  0
LINE
  5
28E
100
AcDbEntity
  8
0
100
AcDbLine
 62
7
  6
CONTINUOUS
 10
119.3494180554
 20
84.0004883737
 11
119.8544648623
 21
84.0004883737
  0
LINE
  5
28F
100
AcDbEntity
  8
0
100
AcDbLine
 62
7
  6
CONTINUOUS
 10
121.6544648623
 20
84.0004883737
 11
122.1595116693
 21
84.0004883737
  0
LINE
  5
290
100
AcDbEntity
  8
0
100
AcDbLine
 62
7
  6
CONTINUOUS
 10
122.7895116693
 20
84.0004883737
 11
123.2395116693
 21
84.0004883737
  0
LINE
  5
291
100
AcDbEntity
  8
0
100
AcDbLine
 62
7
  6
CONTINUOUS
 10
123.8695116693
 20
84.0004883737
 11
124.3195116693
 21
84.0004883737
  0
LINE
  5
292
100
AcDbEntity
  8
0
100
AcDbLine
 62
7
  6
CONTINUOUS
 10
122.7895116693
 20
84.4504883737
 11
123.2395116693
 21
84.4504883737
  0
LINE
  5
293
100
AcDbEntity
  8
0
100
AcDbLine
 62
7
  6
CONTINUOUS
 10
122.7895116693
 20
84.9004883737
 11
123.2395116693
 21
84.9004883737
  0
LINE
  5
294
100
AcDbEntity
  8
0
100
AcDbLine
 62
7
  6
CONTINUOUS
 10
118.7194180554
 20
85.5304883737
 11
126.8194180554
 21
85.5304883737
  0
LINE
  5
295
100
AcDbEntity
  8
0
100
AcDbLine
 62
7
  6
CONTINUOUS
 10
120.6728001555
 20
149.3579883737
 11
120.6900572274
 21
149.1579883737
  0
LINE
  5
296
100
AcDbEntity
  8
0
100
AcDbLine
 62
7
  6
CONTINUOUS
 10
118.7194180554
 20
85.5304883737
 11
118.7194180554
 21
81.0304883737
  0
LINE
  5
297
100
AcDbEntity
  8
0
100
AcDbLine
 62
7
  6
CONTINUOUS
 10
119.7995116693
 20
145.7579883737
 11
119.7995116693
 21
144.7579883737
  0
LINE
  5
298
100
AcDbEntity
  8
0
100
AcDbLine
 62
7
  6
CONTINUOUS
 10
120.1995116693
 20
151.1554233222
 11
120.1995116693
 21
154.3579883737
  0
LINE
  5
299
100
AcDbEntity
  8
0
100
AcDbLine
 62
7
  6
CONTINUOUS
 10
121.7188984145
 20
146.1579883737
 11
121.7188984145
 21
145.2070421838
  0
LINE
  5
29A
100
AcDbEntity
  8
0
100
AcDbLine
 62
7
  6
CONTINUOUS
 10
122.0495116693
 20
126.7746550404
 11
122.0495116693
 21
125.8413217071
  0
LINE
  5
29B
100
AcDbEntity
  8
0
100
AcDbLine
 62
7
  6
CONTINUOUS
 10
122.1448203114
 20
112.6723093606
 11
122.1448203114
 21
109.2111982498
  0
LINE
  5
29C
100
AcDbEntity
  8
0
100
AcDbLine
 62
7
  6
CONTINUOUS
 10
122.4578450026
 20
126.7746550404
 11
122.4578450026
 21
125.8413217071
  0
LINE
  5
29D
100
AcDbEntity
  8
0
100
AcDbLine
 62
7
  6
CONTINUOUS
 10
122.6832153731
 20
112.1339142989
 11
122.6832153731
 21
110.9911982497
  0
LINE
  5
29E
100
AcDbEntity
  8
0
100
AcDbLine
 62
7
  6
CONTINUOUS
 10
122.6832153731
 20
110.452803188
 11
122.6832153731
 21
109.2111982498
  0
LINE
  5
29F
100
AcDbEntity
  8
0
100
AcDbLine
 62
7
  6
CONTINUOUS
 10
122.7895116693
 20
84.9004883737
 11
122.7895116693
 21
84.4504883737
  0
LINE
  5
2A0
100
AcDbEntity
  8
0
100
AcDbLine
 62
7
  6
CONTINUOUS
 10
122.7895116693
 20
84.0004883737
 11
122.7895116693
 21
81.7054883737
  0
LINE
  5
2A1
100
AcDbEntity
  8
0
100
AcDbLine
 62
7
  6
CONTINUOUS
 10
122.8919808052
 20
106.6902803158
 11
122.8919808052
 21
104.0579883737
  0
LINE
  5
2A2
100
AcDbEntity
  8
0
100
AcDbLine
 62
7
  6
CONTINUOUS
 10
123.2395116693
 20
84.9004883737
 11
123.2395116693
 21
84.4504883737
  0
LINE
  5
2A3
100
AcDbEntity
  8
0
100
AcDbLine
 62
7
  6
CONTINUOUS
 10
123.2395116693
 20
84.0004883737
 11
123.2395116693
 21
81.7054883737
  0
LINE
  5
2A4
100
AcDbEntity
  8
0
100
AcDbLine
 62
7
  6
CONTINUOUS
 10
123.4303758669
 20
107.5190994845
 11
123.4303758669
 21
104.0579883737
  0
LINE
  5
2A5
100
AcDbEntity
  8
0
100
AcDbLine
 62
7
  6
CONTINUOUS
 10
123.4963017928
 20
111.8592229409
 11
123.4963017928
 21
111.2658896077
  0
LINE
  5
2A6
100
AcDbEntity
  8
0
100
AcDbLine
 62
7
  6
CONTINUOUS
 10
123.7305861019
 20
142.3417712546
 11
123.7305861019
 21
141.7579883737
  0
LINE
  5
2A7
100
AcDbEntity
  8
0
100
AcDbLine
 62
7
  6
CONTINUOUS
 10
122.345409703
 20
149.3579883737
 11
122.3274141965
 21
149.1579883737
  0
LINE
  5
2A8
100
AcDbEntity
  8
0
100
AcDbLine
 62
7
  6
CONTINUOUS
 10
102.9780417577
 20
93.7208409592
 11
102.9628625711
 21
93.6917228901
  0
LINE
  5
2A9
100
AcDbEntity
  8
0
100
AcDbLine
 62
7
  6
CONTINUOUS
 10
102.9628625711
 20
93.6917228901
 11
102.3816636134
 21
92.5770067442
  0
LINE
  5
2AA
100
AcDbEntity
  8
GEOM
100
AcDbLine
 62
7
  6
CONTINUOUS
 10
137.9351437538
 20
87.6203959275
 11
138.2170515401
 21
87.6525873316
  0
LINE
  5
2AB
100
AcDbEntity
  8
0
100
AcDbLine
 62
7
  6
CONTINUOUS
 10
118.2694180554
 20
85.9804883737
 11
127.2694180554
 21
85.9804883737
  0
LINE
  5
2AC
100
AcDbEntity
  8
0
100
AcDbLine
 62
7
  6
CONTINUOUS
 10
142.9935853961
 20
87.6525873316
 11
138.2170515401
 21
87.6525873316
  0
LINE
  5
2AD
100
AcDbEntity
  8
0
100
AcDbLine
 62
7
  6
CONTINUOUS
 10
142.9778238328
 20
87.8184212545
 11
138.2014846335
 21
87.8184212545
  0
LINE
  5
2AE
100
AcDbEntity
  8
0
100
AcDbLine
 62
7
  6
CONTINUOUS
 10
104.8725216571
 20
88.021444341
 11
116.4806105945
 21
88.021444341
  0
LINE
  5
2AF
100
AcDbEntity
  8
0
100
AcDbLine
 62
7
  6
CONTINUOUS
 10
104.8725216571
 20
88.7285511222
 11
116.4806105945
 21
88.7285511222
  0
LINE
  5
2B0
100
AcDbEntity
  8
0
100
AcDbLine
 62
7
  6
CONTINUOUS
 10
138.2014846335
 20
89.205651058
 11
142.9778238328
 21
89.205651058
  0
LINE
  5
2B1
100
AcDbEntity
  8
0
100
AcDbLine
 62
7
  6
CONTINUOUS
 10
138.2170517173
 20
89.3429270686
 11
142.9935853961
 21
89.3429258055
  0
LINE
  5
2B2
100
AcDbEntity
  8
0
100
AcDbLine
 62
7
  6
CONTINUOUS
 10
158.4942139786
 20
89.4426468122
 11
150.7655370731
 21
89.4426468122
  0
LINE
  5
2B3
100
AcDbEntity
  8
0
100
AcDbLine
 62
7
  6
CONTINUOUS
 10
89.90480936
 20
89.4426468122
 11
97.6334862655
 21
89.4426468122
  0
LINE
  5
2B4
100
AcDbEntity
  8
0
100
AcDbLine
 62
7
  6
CONTINUOUS
 10
158.4942139786
 20
90.5579639999
 11
150.7655370731
 21
90.5579639999
  0
LINE
  5
2B5
100
AcDbEntity
  8
0
100
AcDbLine
 62
7
  6
CONTINUOUS
 10
89.90480936
 20
90.5579639999
 11
97.6334862655
 21
90.5579639999
  0
LINE
  5
2B6
100
AcDbEntity
  8
0
100
AcDbLine
 62
7
  6
CONTINUOUS
 10
123.8695116693
 20
84.0004883737
 11
123.8695116693
 21
83.1355274983
  0
LINE
  5
2B7
100
AcDbEntity
  8
0
100
AcDbLine
 62
7
  6
CONTINUOUS
 10
123.8695116693
 20
81.8179883737
 11
123.8695116693
 21
81.7054883737
  0
LINE
  5
2B8
100
AcDbEntity
  8
0
100
AcDbLine
 62
7
  6
CONTINUOUS
 10
123.9911783359
 20
127.6496550404
 11
123.9911783359
 21
124.9663217071
  0
LINE
  5
2B9
100
AcDbEntity
  8
0
100
AcDbLine
 62
7
  6
CONTINUOUS
 10
124.0346968545
 20
111.8592229409
 11
124.0346968545
 21
111.2658896077
  0
LINE
  5
2BA
100
AcDbEntity
  8
0
100
AcDbLine
 62
7
  6
CONTINUOUS
 10
124.1995116693
 20
106.4423093612
 11
124.1995116693
 21
105.1347784971
  0
LINE
  5
2BB
100
AcDbEntity
  8
0
100
AcDbLine
 62
7
  6
CONTINUOUS
 10
124.1995116693
 20
151.1554233222
 11
124.1995116693
 21
154.0007227838
  0
LINE
  5
2BC
100
AcDbEntity
  8
0
100
AcDbLine
 62
7
  6
CONTINUOUS
 10
124.3195116693
 20
84.0004883737
 11
124.3195116693
 21
83.5504883737
  0
LINE
  5
2BD
100
AcDbEntity
  8
0
100
AcDbLine
 62
7
  6
CONTINUOUS
 10
124.3863017927
 20
112.6723093606
 11
124.3863017927
 21
109.2111982498
  0
LINE
  5
2BE
100
AcDbEntity
  8
0
100
AcDbLine
 62
7
  6
CONTINUOUS
 10
124.3995116693
 20
127.6496550404
 11
124.3995116693
 21
126.4829883737
  0
LINE
  5
2BF
100
AcDbEntity
  8
0
100
AcDbLine
 62
7
  6
CONTINUOUS
 10
124.3995116693
 20
126.0865567651
 11
124.3995116693
 21
124.5579883737
  0
LINE
  5
2C0
100
AcDbEntity
  8
0
100
AcDbLine
 62
7
  6
CONTINUOUS
 10
124.737906731
 20
106.4423093612
 11
124.737906731
 21
106.0673060985
  0
LINE
  5
2C1
100
AcDbEntity
  8
0
100
AcDbLine
 62
7
  6
CONTINUOUS
 10
124.9246968544
 20
111.1329449759
 11
124.9246968544
 21
109.2111982498
  0
LINE
  5
2C2
100
AcDbEntity
  8
0
100
AcDbLine
 62
7
  6
CONTINUOUS
 10
125.5795116693
 20
83.7304883737
 11
125.5795116693
 21
83.2579883737
  0
LINE
  5
2C3
100
AcDbEntity
  8
0
100
AcDbLine
 62
7
  6
CONTINUOUS
 10
125.7377832741
 20
112.6723093606
 11
125.7377832741
 21
110.7505626346
  0
LINE
  5
2C4
100
AcDbEntity
  8
0
100
AcDbLine
 62
7
  6
CONTINUOUS
 10
126.0295116693
 20
83.7304883737
 11
126.0295116693
 21
83.1334852225
  0
LINE
  5
2C5
100
AcDbEntity
  8
0
100
AcDbLine
 62
7
  6
CONTINUOUS
 10
126.2761783358
 20
112.6723093606
 11
126.2761783358
 21
109.2111982498
  0
LINE
  5
2C6
100
AcDbEntity
  8
0
100
AcDbLine
 62
7
  6
CONTINUOUS
 10
126.6995116693
 20
132.1579883737
 11
126.6995116693
 21
139.1579883737
  0
LINE
  5
2C7
100
AcDbEntity
  8
0
100
AcDbLine
 62
7
  6
CONTINUOUS
 10
126.8194180554
 20
85.5304883737
 11
126.8194180554
 21
81.0304883737
  0
LINE
  5
2C8
100
AcDbEntity
  8
0
100
AcDbLine
 62
7
  6
CONTINUOUS
 10
127.2694180554
 20
85.9804883737
 11
127.2694180554
 21
80.5804883737
  0
LINE
  5
2C9
100
AcDbEntity
  8
0
100
AcDbLine
 62
7
  6
CONTINUOUS
 10
127.4424048881
 20
95.4983208565
 11
127.4424048881
 21
68.5079883739
  0
LINE
  5
2CA
100
AcDbEntity
  8
0
100
AcDbLine
 62
7
  6
CONTINUOUS
 10
127.7959582787
 20
95.7084860729
 11
127.7959582787
 21
68.3615417645
  0
LINE
  5
2CB
100
AcDbEntity
  8
0
100
AcDbLine
 62
7
  6
CONTINUOUS
 10
128.1995116693
 20
151.1554233222
 11
128.1995116693
 21
154.3579883737
  0
LINE
  5
2CC
100
AcDbEntity
  8
0
100
AcDbLine
 62
7
  6
CONTINUOUS
 10
128.5030650599
 20
67.6544349832
 11
128.5030650599
 21
96.7418461827
  0
LINE
  5
2CD
100
AcDbEntity
  8
0
100
AcDbLine
 62
7
  6
CONTINUOUS
 10
128.8566184505
 20
67.5079883737
 11
128.8566184505
 21
97.0820392776
  0
LINE
  5
2CE
100
AcDbEntity
  8
0
100
AcDbLine
 62
7
  6
CONTINUOUS
 10
137.2832521485
 20
145.6198775283
 11
136.0882594766
 21
142.8159151395
  0
LINE
  5
2CF
100
AcDbEntity
  8
0
100
AcDbLine
 62
7
  6
CONTINUOUS
 10
137.0886462821
 20
144.8031962624
 11
131.6995116693
 21
132.1579883737
  0
LINE
  5
2D0
100
AcDbEntity
  8
0
100
AcDbLine
 62
7
  6
CONTINUOUS
 10
98.8777794057
 20
72.7951357871
 11
99.4741575737
 21
73.9389699997
  0
LINE
  5
2D1
100
AcDbEntity
  8
0
100
AcDbLine
 62
7
  6
CONTINUOUS
 10
100.6917794057
 20
72.7951357871
 11
101.2881575737
 21
73.9389699997
  0
LINE
  5
2D2
100
AcDbEntity
  8
0
100
AcDbLine
 62
7
  6
CONTINUOUS
 10
102.5057794057
 20
72.7951357871
 11
103.1021575736
 21
73.9389699997
  0
LINE
  5
2D3
100
AcDbEntity
  8
0
100
AcDbLine
 62
7
  6
CONTINUOUS
 10
98.4995116693
 20
71.2579883737
 11
97.6401399107
 21
69.7695128253
  0
LINE
  5
2D4
100
AcDbEntity
  8
0
100
AcDbLine
 62
7
  6
CONTINUOUS
 10
157.0706655488
 20
165.7291388125
 11
143.4655561124
 21
149.5152007641
  0
LINE
  5
2D5
100
AcDbEntity
  8
0
100
AcDbLine
 62
7
  6
CONTINUOUS
 10
145.7636894417
 20
147.586837935
 11
159.0690620932
 21
163.4435635931
  0
LINE
  5
2D6
100
AcDbEntity
  8
0
100
AcDbLine
 62
7
  6
CONTINUOUS
 10
133.8995116693
 20
136.7579883737
 11
133.8459582787
 21
136.7044349832
  0
LINE
  5
2D7
100
AcDbEntity
  8
0
100
AcDbLine
 62
7
  6
CONTINUOUS
 10
133.5530650599
 20
132.1115417643
 11
133.0959582787
 21
131.6544349832
  0
LINE
  5
2D8
100
AcDbEntity
  8
0
100
AcDbLine
 62
7
  6
CONTINUOUS
 10
102.388410582
 20
92.5734883737
 11
102.2055785599
 21
92.5734883737
  0
LINE
  5
2D9
100
AcDbEntity
  8
0
100
AcDbLine
 62
7
  6
CONTINUOUS
 10
100.574410582
 20
92.5734883737
 11
100.3915785599
 21
92.5734883737
  0
LINE
  5
2DA
100
AcDbEntity
  8
0
100
AcDbLine
 62
7
  6
CONTINUOUS
 10
98.760410582
 20
92.5734883737
 11
98.5775785599
 21
92.5734883737
  0
LINE
  5
2DB
100
AcDbEntity
  8
0
100
AcDbLine
 62
7
  6
CONTINUOUS
 10
104.6995116693
 20
93.7354883737
 11
102.9933094948
 21
93.7354883737
  0
LINE
  5
2DC
100
AcDbEntity
  8
0
100
AcDbLine
 62
7
  6
CONTINUOUS
 10
101.5835116693
 20
93.7354883737
 11
101.1793094948
 21
93.7354883737
  0
LINE
  5
2DD
100
AcDbEntity
  8
0
100
AcDbLine
 62
7
  6
CONTINUOUS
 10
99.7695116693
 20
93.7354883737
 11
99.3653094948
 21
93.7354883737
  0
LINE
  5
2DE
100
AcDbEntity
  8
0
100
AcDbLine
 62
7
  6
CONTINUOUS
 10
143.6995116693
 20
93.7379883737
 11
149.8995116693
 21
93.7379883737
  0
LINE
  5
2DF
100
AcDbEntity
  8
0
100
AcDbLine
 62
7
  6
CONTINUOUS
 10
162.1995116693
 20
94.6579883737
 11
160.07271675
 21
94.6579883737
  0
LINE
  5
2E0
100
AcDbEntity
  8
0
100
AcDbLine
 62
7
  6
CONTINUOUS
 10
86.1995116693
 20
94.6579883737
 11
88.3263065885
 21
94.6579883737
  0
LINE
  5
2E1
100
AcDbEntity
  8
0
100
AcDbLine
 62
7
  6
CONTINUOUS
 10
104.8725216571
 20
95.4650951549
 11
116.4806105945
 21
95.4650951549
  0
LINE
  5
2E2
100
AcDbEntity
  8
0
100
AcDbLine
 62
7
  6
CONTINUOUS
 10
142.9935853961
 20
95.5578272528
 11
138.2170515401
 21
95.5578272528
  0
LINE
  5
2E3
100
AcDbEntity
  8
0
100
AcDbLine
 62
7
  6
CONTINUOUS
 10
142.9778238328
 20
95.6550770882
 11
138.2014846335
 21
95.6550770882
  0
LINE
  5
2E4
100
AcDbEntity
  8
0
100
AcDbLine
 62
7
  6
CONTINUOUS
 10
104.6995116693
 20
95.7579883737
 11
116.4806105945
 21
95.7579883737
  0
LINE
  5
2E5
100
AcDbEntity
  8
0
100
AcDbLine
 62
7
  6
CONTINUOUS
 10
115.4495116693
 20
95.9579883737
 11
116.4659901145
 21
95.9579883737
  0
LINE
  5
2E6
100
AcDbEntity
  8
0
100
AcDbLine
 62
7
  6
CONTINUOUS
 10
138.2014846335
 20
96.229686487
 11
142.9778238328
 21
96.229686487
  0
LINE
  5
2E7
100
AcDbEntity
  8
0
100
AcDbLine
 62
7
  6
CONTINUOUS
 10
138.2170515401
 20
96.2579883737
 11
143.4108365347
 21
96.2579883737
  0
LINE
  5
2E8
100
AcDbEntity
  8
0
100
AcDbLine
 62
7
  6
CONTINUOUS
 10
122.4620099297
 20
106.0762182669
 11
122.0209825143
 21
106.3850289878
  0
LINE
  5
2E9
100
AcDbEntity
  8
0
100
AcDbLine
 62
7
  6
CONTINUOUS
 10
133.0058988667
 20
99.0761340224
 11
132.9845418434
 21
99.1022581819
  0
LINE
  5
2EA
100
AcDbEntity
  8
0
100
AcDbLine
 62
7
  6
CONTINUOUS
 10
149.8995116693
 20
71.2579883737
 11
150.7655370731
 21
69.7579883737
  0
LWPOLYLINE
  5
2EB
100
AcDbEntity
  8
0
100
AcDbPolyline
 62
7
  6
CONTINUOUS
 90
4
 70
0
 10
132.9845418434
 20
99.1022581819
 10
132.9678822037
 20
99.1315975785
 10
132.9563926508
 20
99.1633155877
 10
132.9503978998
 20
99.1965097952
  0
LINE
  5
2EC
100
AcDbEntity
  8
0
100
AcDbLine
 62
7
  6
CONTINUOUS
 10
125.9465077139
 20
109.2111982498
 11
124.9246968544
 21
111.1329449759
  0
LINE
  5
2ED
100
AcDbEntity
  8
0
100
AcDbLine
 62
7
  6
CONTINUOUS
 10
125.7377832741
 20
110.7505626346
 11
124.7159724146
 21
112.6723093606
  0
LINE
  5
2EE
100
AcDbEntity
  8
0
100
AcDbLine
 62
7
  6
CONTINUOUS
 10
119.345409703
 20
149.3579883737
 11
119.396230111
 21
149.1579883737
  0
LINE
  5
2EF
100
AcDbEntity
  8
0
100
AcDbLine
 62
7
  6
CONTINUOUS
 10
132.9503978998
 20
99.1965097952
 11
132.949510423
 21
99.2153444922
  0
LINE
  5
2F0
100
AcDbEntity
  8
0
100
AcDbLine
 62
7
  6
CONTINUOUS
 10
130.1995116693
 20
150.0115782122
 11
130.1995116693
 21
149.3579883737
  0
LINE
  5
2F1
100
AcDbEntity
  8
0
100
AcDbLine
 62
7
  6
CONTINUOUS
 10
132.9495116693
 20
131.3008815926
 11
132.9495116693
 21
99.2153441425
  0
LINE
  5
2F2
100
AcDbEntity
  8
0
100
AcDbLine
 62
7
  6
CONTINUOUS
 10
133.0834862655
 20
98.9714968665
 11
133.0834862655
 21
67.5079883737
  0
LINE
  5
2F3
100
AcDbEntity
  8
0
100
AcDbLine
 62
7
  6
CONTINUOUS
 10
133.5164989674
 20
99.2579883737
 11
133.5164989674
 21
67.2579883737
  0
LINE
  5
2F4
100
AcDbEntity
  8
0
100
AcDbLine
 62
7
  6
CONTINUOUS
 10
133.6608365347
 20
67.0079883737
 11
133.6608365347
 21
99.5079883737
  0
LINE
  5
2F5
100
AcDbEntity
  8
0
100
AcDbLine
 62
7
  6
CONTINUOUS
 10
133.6995116693
 20
136.3508815926
 11
133.6995116693
 21
132.4650951549
  0
LINE
  5
2F6
100
AcDbEntity
  8
0
100
AcDbLine
 62
7
  6
CONTINUOUS
 10
133.8995116693
 20
136.7579883737
 11
133.8995116693
 21
137.3201265191
  0
LINE
  5
2F7
100
AcDbEntity
  8
0
100
AcDbLine
 62
7
  6
CONTINUOUS
 10
122.815067225
 20
107.5190994845
 11
122.0209825143
 21
106.3850289878
  0
LINE
  5
2F8
100
AcDbEntity
  8
0
100
AcDbLine
 62
7
  6
CONTINUOUS
 10
122.8919808052
 20
106.6902803158
 11
122.4620099297
 21
106.0762182669
  0
LINE
  5
2F9
100
AcDbEntity
  8
0
100
AcDbLine
 62
7
  6
CONTINUOUS
 10
99.3500417577
 20
93.7208409592
 11
99.3653094948
 21
93.7354883737
  0
LINE
  5
2FA
100
AcDbEntity
  8
0
100
AcDbLine
 62
7
  6
CONTINUOUS
 10
101.1640417577
 20
93.7208409592
 11
101.1793094948
 21
93.7354883737
  0
LWPOLYLINE
  5
2FB
100
AcDbEntity
  8
0
100
AcDbPolyline
 62
7
  6
CONTINUOUS
 90
7
 70
0
 10
133.1935174102
 20
99.0202326586
 10
133.158121387
 20
99.0155165236
 10
133.1244557603
 20
99.0169065951
 10
133.0914815839
 20
99.0239344173
 10
133.0601416467
 20
99.0364085444
 10
133.0313402262
 20
99.0539746975
 10
133.0058988667
 20
99.0761340224
  0
LINE
  5
2FC
100
AcDbEntity
  8
0
100
AcDbLine
 62
7
  6
CONTINUOUS
 10
158.4942139786
 20
96.7426224384
 11
150.7655370731
 21
96.7426224384
  0
LINE
  5
2FD
100
AcDbEntity
  8
0
100
AcDbLine
 62
7
  6
CONTINUOUS
 10
89.90480936
 20
96.7426224384
 11
97.6334862655
 21
96.7426224384
  0
LINE
  5
2FE
100
AcDbEntity
  8
0
100
AcDbLine
 62
7
  6
CONTINUOUS
 10
158.5138710232
 20
96.7579883737
 11
150.7655370731
 21
96.7579883737
  0
LINE
  5
2FF
100
AcDbEntity
  8
0
100
AcDbLine
 62
7
  6
CONTINUOUS
 10
89.8851523153
 20
96.7579883737
 11
97.6334862655
 21
96.7579883737
  0
LINE
  5
300
100
AcDbEntity
  8
0
100
AcDbLine
 62
7
  6
CONTINUOUS
 10
133.6608365347
 20
99.5079883737
 11
137.0809654874
 21
99.5079883737
  0
LINE
  5
301
100
AcDbEntity
  8
0
100
AcDbLine
 62
7
  6
CONTINUOUS
 10
125.9596804879
 20
124.5579883737
 11
125.0045249478
 21
126.0865567651
  0
LINE
  5
302
100
AcDbEntity
  8
0
100
AcDbLine
 62
7
  6
CONTINUOUS
 10
126.4411783359
 20
124.5579883737
 11
125.4860227959
 21
126.0865567651
  0
LINE
  5
303
100
AcDbEntity
  8
0
100
AcDbLine
 62
7
  6
CONTINUOUS
 10
143.4108308727
 20
96.2579981805
 11
143.6995116693
 21
95.7579883737
  0
LINE
  5
304
100
AcDbEntity
  8
0
100
AcDbLine
 62
7
  6
CONTINUOUS
 10
118.4931725715
 20
149.3579883737
 11
118.5725816599
 21
149.1579883737
  0
LINE
  5
305
100
AcDbEntity
  8
0
100
AcDbLine
 62
7
  6
CONTINUOUS
 10
137.0809654874
 20
99.5079883737
 11
137.0910997354
 21
99.4816044882
  0
LINE
  5
306
100
AcDbEntity
  8
0
100
AcDbLine
 62
7
  6
CONTINUOUS
 10
137.0910997354
 20
99.4816044882
 11
138.19111708
 21
96.4593316731
  0
LINE
  5
307
100
AcDbEntity
  8
0
100
AcDbLine
 62
7
  6
CONTINUOUS
 10
135.6995116693
 20
99.5079883737
 11
135.6995116693
 21
67.0079883737
  0
LINE
  5
308
100
AcDbEntity
  8
0
100
AcDbLine
 62
7
  6
CONTINUOUS
 10
136.0882594766
 20
146.1579883737
 11
136.0882594766
 21
142.8159151395
  0
LINE
  5
309
100
AcDbEntity
  8
0
100
AcDbLine
 62
7
  6
CONTINUOUS
 10
137.0809654874
 20
99.5079883737
 11
137.0809654874
 21
67.0079883737
  0
LINE
  5
30A
100
AcDbEntity
  8
0
100
AcDbLine
 62
7
  6
CONTINUOUS
 10
137.0910997353
 20
67.0343722591
 11
137.0910997353
 21
99.4816044884
  0
LINE
  5
30B
100
AcDbEntity
  8
GEOM
100
AcDbLine
 62
7
  6
CONTINUOUS
 10
137.9195768473
 20
96.4159072011
 11
137.9195768473
 21
95.8330487534
  0
LINE
  5
30C
100
AcDbEntity
  8
GEOM
100
AcDbLine
 62
7
  6
CONTINUOUS
 10
137.9195768473
 20
89.2910352523
 11
137.9195768473
 21
87.883890483
  0
LINE
  5
30D
100
AcDbEntity
  8
GEOM
100
AcDbLine
 62
7
  6
CONTINUOUS
 10
137.9195768473
 20
78.6320862645
 11
137.9195768473
 21
77.2249414952
  0
LINE
  5
30E
100
AcDbEntity
  8
GEOM
100
AcDbLine
 62
7
  6
CONTINUOUS
 10
137.9195768473
 20
70.6829279941
 11
137.9195768473
 21
70.1000695464
  0
LINE
  5
30F
100
AcDbEntity
  8
0
100
AcDbLine
 62
7
  6
CONTINUOUS
 10
138.0763619353
 20
149.1579883737
 11
138.0763619353
 21
146.1579883737
  0
LINE
  5
310
100
AcDbEntity
  8
GEOM
100
AcDbLine
 62
7
  6
CONTINUOUS
 10
138.2014846335
 20
96.229686487
 11
138.2014846335
 21
95.6550770882
  0
LINE
  5
311
100
AcDbEntity
  8
GEOM
100
AcDbLine
 62
7
  6
CONTINUOUS
 10
138.2014846335
 20
89.205651058
 11
138.2014846335
 21
87.8184212545
  0
LINE
  5
312
100
AcDbEntity
  8
GEOM
100
AcDbLine
 62
7
  6
CONTINUOUS
 10
138.2014846335
 20
78.697555493
 11
138.2014846335
 21
77.3103256895
  0
LINE
  5
313
100
AcDbEntity
  8
GEOM
100
AcDbLine
 62
7
  6
CONTINUOUS
 10
138.2014846335
 20
70.8608996593
 11
138.2014846335
 21
70.2862902605
  0
LINE
  5
314
100
AcDbEntity
  8
0
100
AcDbLine
 62
7
  6
CONTINUOUS
 10
138.5431521486
 20
149.1579883737
 11
138.5431521486
 21
146.1579883737
  0
LINE
  5
315
100
AcDbEntity
  8
0
100
AcDbLine
 62
7
  6
CONTINUOUS
 10
120.5524461396
 20
82.6306229864
 11
120.2999227361
 21
82.1350179019
  0
LINE
  5
316
100
AcDbEntity
  8
0
100
AcDbLine
 62
7
  6
CONTINUOUS
 10
121.6544648623
 20
84.0004883737
 11
120.4851039557
 21
81.7054883737
  0
LINE
  5
317
100
AcDbEntity
  8
0
100
AcDbLine
 62
7
  6
CONTINUOUS
 10
102.9780417577
 20
93.7208409592
 11
102.9933094948
 21
93.7354883737
  0
LINE
  5
318
100
AcDbEntity
  8
0
100
AcDbLine
 62
7
  6
CONTINUOUS
 10
123.4303758669
 20
104.0579883737
 11
122.8919808052
 21
104.0579883737
  0
LINE
  5
319
100
AcDbEntity
  8
0
100
AcDbLine
 62
7
  6
CONTINUOUS
 10
126.353091916
 20
106.4423093612
 11
125.8146968543
 21
106.4423093612
  0
LINE
  5
31A
100
AcDbEntity
  8
0
100
AcDbLine
 62
7
  6
CONTINUOUS
 10
123.4303758669
 20
107.5190994845
 11
122.815067225
 21
107.5190994845
  0
LINE
  5
31B
100
AcDbEntity
  8
0
100
AcDbLine
 62
7
  6
CONTINUOUS
 10
114.4995116693
 20
136.7579883737
 11
114.5530650599
 21
136.7044349832
  0
LINE
  5
31C
100
AcDbEntity
  8
0
100
AcDbLine
 62
7
  6
CONTINUOUS
 10
118.1995116693
 20
149.3579883737
 11
118.2997363232
 21
149.1579883737
  0
LINE
  5
31D
100
AcDbEntity
  8
0
100
AcDbLine
 62
7
  6
CONTINUOUS
 10
142.9778238328
 20
96.229686487
 11
142.9778238328
 21
95.6550770882
  0
LINE
  5
31E
100
AcDbEntity
  8
0
100
AcDbLine
 62
7
  6
CONTINUOUS
 10
142.9778238328
 20
89.205651058
 11
142.9778238328
 21
87.8184212545
  0
LINE
  5
31F
100
AcDbEntity
  8
0
100
AcDbLine
 62
7
  6
CONTINUOUS
 10
142.9778238328
 20
78.697555493
 11
142.9778238328
 21
77.3103256895
  0
LINE
  5
320
100
AcDbEntity
  8
0
100
AcDbLine
 62
7
  6
CONTINUOUS
 10
142.9778238328
 20
70.8608996593
 11
142.9778238328
 21
70.2862902605
  0
LINE
  5
321
100
AcDbEntity
  8
0
100
AcDbLine
 62
7
  6
CONTINUOUS
 10
143.6995116693
 20
70.7579883737
 11
143.6995116693
 21
95.7579883737
  0
LINE
  5
322
100
AcDbEntity
  8
0
100
AcDbLine
 62
7
  6
CONTINUOUS
 10
122.1595116693
 20
84.0004883737
 11
120.9901507627
 21
81.7054883737
  0
LINE
  5
323
100
AcDbEntity
  8
0
100
AcDbLine
 62
7
  6
CONTINUOUS
 10
133.5164989674
 20
99.2579883737
 11
133.6608365347
 21
99.5079883737
  0
LINE
  5
324
100
AcDbEntity
  8
0
100
AcDbLine
 62
7
  6
CONTINUOUS
 10
126.2761783358
 20
109.2111982498
 11
125.9465077139
 21
109.2111982498
  0
LINE
  5
325
100
AcDbEntity
  8
0
100
AcDbLine
 62
7
  6
CONTINUOUS
 10
124.9246968544
 20
109.2111982498
 11
124.3863017927
 21
109.2111982498
  0
LINE
  5
326
100
AcDbEntity
  8
0
100
AcDbLine
 62
7
  6
CONTINUOUS
 10
122.6832153731
 20
109.2111982498
 11
122.1448203114
 21
109.2111982498
  0
LINE
  5
327
100
AcDbEntity
  8
0
100
AcDbLine
 62
7
  6
CONTINUOUS
 10
123.2216104348
 20
110.452803188
 11
122.6832153731
 21
110.452803188
  0
LINE
  5
328
100
AcDbEntity
  8
0
100
AcDbLine
 62
7
  6
CONTINUOUS
 10
123.2216104348
 20
110.9911982497
 11
122.6832153731
 21
110.9911982497
  0
LINE
  5
329
100
AcDbEntity
  8
0
100
AcDbLine
 62
7
  6
CONTINUOUS
 10
123.2216104348
 20
112.1339142989
 11
122.6832153731
 21
112.1339142989
  0
LINE
  5
32A
100
AcDbEntity
  8
0
100
AcDbLine
 62
7
  6
CONTINUOUS
 10
126.2761783358
 20
112.6723093606
 11
125.7377832741
 21
112.6723093606
  0
LINE
  5
32B
100
AcDbEntity
  8
0
100
AcDbLine
 62
7
  6
CONTINUOUS
 10
124.7159724146
 20
112.6723093606
 11
124.3863017927
 21
112.6723093606
  0
LINE
  5
32C
100
AcDbEntity
  8
0
100
AcDbLine
 62
7
  6
CONTINUOUS
 10
123.2216104348
 20
112.6723093606
 11
122.1448203114
 21
112.6723093606
  0
LINE
  5
32D
100
AcDbEntity
  8
0
100
AcDbLine
 62
7
  6
CONTINUOUS
 10
110.3495116693
 20
132.9713858334
 11
115.5712885077
 21
129.9565915701
  0
LINE
  5
32E
100
AcDbEntity
  8
0
100
AcDbLine
 62
7
  6
CONTINUOUS
 10
110.4995116693
 20
133.2311934545
 11
115.5935544302
 21
130.2901464952
  0
LWPOLYLINE
  5
32F
100
AcDbEntity
  8
0
100
AcDbPolyline
 62
7
  6
CONTINUOUS
 90
9
 70
0
 10
115.2995144921
 20
130.1134986284
 10
115.3323362473
 20
130.0915521347
 10
115.3621475848
 20
130.0653288097
 10
115.3882360975
 20
130.035396802
 10
115.4101443897
 20
130.0022795711
 10
115.4274877026
 20
129.966557156
 10
115.4399611523
 20
129.9288562676
 10
115.4473458829
 20
129.8898373792
 10
115.44953257
 20
129.8536944191
  0
LINE
  5
330
100
AcDbEntity
  8
0
100
AcDbLine
 62
7
  6
CONTINUOUS
 10
149.8995116693
 20
71.2579883737
 11
149.8995116693
 21
95.2579883737
  0
LINE
  5
331
100
AcDbEntity
  8
0
100
AcDbLine
 62
7
  6
CONTINUOUS
 10
150.7655370731
 20
96.7579883737
 11
150.7655370731
 21
96.7426224384
  0
LINE
  5
332
100
AcDbEntity
  8
0
100
AcDbLine
 62
7
  6
CONTINUOUS
 10
150.7655370731
 20
69.7733543091
 11
150.7655370731
 21
69.7579883737
  0
LINE
  5
333
100
AcDbEntity
  8
0
100
AcDbLine
 62
7
  6
CONTINUOUS
 10
150.7655370731
 20
75.9580127475
 11
150.7655370731
 21
77.0733299353
  0
LINE
  5
334
100
AcDbEntity
  8
0
100
AcDbLine
 62
7
  6
CONTINUOUS
 10
150.7655370731
 20
89.4426468122
 11
150.7655370731
 21
90.5579639999
  0
LINE
  5
335
100
AcDbEntity
  8
0
100
AcDbLine
 62
7
  6
CONTINUOUS
 10
98.8777794057
 20
72.7951357871
 11
98.8625116693
 21
72.7804883737
  0
LINE
  5
336
100
AcDbEntity
  8
0
100
AcDbLine
 62
7
  6
CONTINUOUS
 10
100.6917794057
 20
72.7951357871
 11
100.6765116693
 21
72.7804883737
  0
LINE
  5
337
100
AcDbEntity
  8
0
100
AcDbLine
 62
7
  6
CONTINUOUS
 10
102.5057794057
 20
72.7951357871
 11
102.4905116693
 21
72.7804883737
  0
LINE
  5
338
100
AcDbEntity
  8
0
100
AcDbLine
 62
7
  6
CONTINUOUS
 10
126.6995116693
 20
139.1579883737
 11
120.1719060663
 21
146.1579883737
  0
LINE
  5
339
100
AcDbEntity
  8
0
100
AcDbLine
 62
7
  6
CONTINUOUS
 10
121.7188984145
 20
145.2070421838
 11
120.8321267462
 21
146.1579883737
  0
LINE
  5
33A
100
AcDbEntity
  8
0
100
AcDbLine
 62
7
  6
CONTINUOUS
 10
159.8129091289
 20
94.8079883737
 11
158.7736786444
 21
96.6079883737
  0
LINE
  5
33B
100
AcDbEntity
  8
0
100
AcDbLine
 62
7
  6
CONTINUOUS
 10
137.0910997354
 20
67.0343722593
 11
138.19111708
 21
70.0566450744
  0
LINE
  5
33C
100
AcDbEntity
  8
0
100
AcDbLine
 62
7
  6
CONTINUOUS
 10
137.0809654874
 20
67.0079883737
 11
137.0910997354
 21
67.0343722593
  0
LINE
  5
33D
100
AcDbEntity
  8
0
100
AcDbLine
 62
7
  6
CONTINUOUS
 10
116.2099188332
 20
140.3442199828
 11
116.8570041894
 21
140.006891356
  0
LINE
  5
33E
100
AcDbEntity
  8
0
100
AcDbLine
 62
7
  6
CONTINUOUS
 10
116.6193042041
 20
141.4668156433
 11
116.8570041642
 21
141.3428921058
  0
LWPOLYLINE
  5
33F
100
AcDbEntity
  8
0
100
AcDbPolyline
 62
7
  6
CONTINUOUS
 90
17
 70
0
 10
116.8570907857
 20
141.342846815
 10
116.8573663951
 20
141.3427001091
 10
116.8599741333
 20
141.3411693691
 10
116.8639597865
 20
141.338419331
 10
116.8703183144
 20
141.3330731377
 10
116.8789358517
 20
141.3237018237
 10
116.887846525
 20
141.3102831553
 10
116.8950295032
 20
141.2936810078
 10
116.8991926703
 20
141.2733399878
 10
116.8981653161
 20
141.2508305079
 10
116.8923445143
 20
141.2310463272
 10
116.8840790019
 20
141.2154083881
 10
116.8746143892
 20
141.2032324735
 10
116.8660199753
 20
141.1951611868
 10
116.8603139325
 20
141.1910244723
 10
116.8574842224
 20
141.1893421345
 10
116.8570556899
 20
141.1891132435
  0
LINE
  5
340
100
AcDbEntity
  8
0
100
AcDbLine
 62
7
  6
CONTINUOUS
 10
158.5138710232
 20
90.5568238501
 11
158.5138710232
 21
89.4438515294
  0
LINE
  5
341
100
AcDbEntity
  8
0
100
AcDbLine
 62
7
  6
CONTINUOUS
 10
158.5138710232
 20
77.0721252182
 11
158.5138710232
 21
75.9591528968
  0
LINE
  5
342
100
AcDbEntity
  8
0
100
AcDbLine
 62
7
  6
CONTINUOUS
 10
158.5138710232
 20
69.7579883737
 11
158.5138710232
 21
69.7732897288
  0
LINE
  5
343
100
AcDbEntity
  8
0
100
AcDbLine
 62
7
  6
CONTINUOUS
 10
158.5138710232
 20
96.7426870187
 11
158.5138710232
 21
96.7579883737
  0
LINE
  5
344
100
AcDbEntity
  8
0
100
AcDbLine
 62
7
  6
CONTINUOUS
 10
158.6995116693
 20
164.4946634157
 11
158.6995116693
 21
166.8213133318
  0
LINE
  5
345
100
AcDbEntity
  8
0
100
AcDbLine
 62
7
  6
CONTINUOUS
 10
158.6995116693
 20
167.1579883737
 11
158.6995116693
 21
167.3579883737
  0
LINE
  5
346
100
AcDbEntity
  8
0
100
AcDbLine
 62
7
  6
CONTINUOUS
 10
158.7736786444
 20
96.6079883737
 11
158.7736786444
 21
96.5960841541
  0
LINE
  5
347
100
AcDbEntity
  8
0
100
AcDbLine
 62
7
  6
CONTINUOUS
 10
158.7736786444
 20
90.4151712195
 11
158.7736786444
 21
89.4389014718
  0
LINE
  5
348
100
AcDbEntity
  8
0
100
AcDbLine
 62
7
  6
CONTINUOUS
 10
158.7736786444
 20
77.0770752757
 11
158.7736786444
 21
76.1008055378
  0
LINE
  5
349
100
AcDbEntity
  8
0
100
AcDbLine
 62
7
  6
CONTINUOUS
 10
158.7736786444
 20
69.9198925938
 11
158.7736786444
 21
69.9079883737
  0
LINE
  5
34A
100
AcDbEntity
  8
0
100
AcDbLine
 62
7
  6
CONTINUOUS
 10
159.8129091289
 20
71.7079883737
 11
159.8129091289
 21
94.8079883737
  0
LINE
  5
34B
100
AcDbEntity
  8
0
100
AcDbLine
 62
7
  6
CONTINUOUS
 10
159.9995116693
 20
162.6579883737
 11
159.9995116693
 21
168.6579883737
  0
LINE
  5
34C
100
AcDbEntity
  8
0
100
AcDbLine
 62
7
  6
CONTINUOUS
 10
160.07271675
 20
71.8579883737
 11
160.07271675
 21
94.6579883737
  0
LINE
  5
34D
100
AcDbEntity
  8
GEOM
100
AcDbLine
 62
7
  6
CONTINUOUS
 10
161.2013697132
 20
168.6579883737
 11
161.2013697132
 21
168.7079883737
  0
LINE
  5
34E
100
AcDbEntity
  8
GEOM
100
AcDbLine
 62
7
  6
CONTINUOUS
 10
162.1995116693
 20
94.6579883737
 11
162.1995116693
 21
71.8579883737
  0
LINE
  5
34F
100
AcDbEntity
  8
GEOM
100
AcDbLine
 62
7
  6
CONTINUOUS
 10
162.2113697132
 20
168.6579883737
 11
162.2113697132
 21
168.7079883737
  0
LINE
  5
350
100
AcDbEntity
  8
0
100
AcDbLine
 62
7
  6
CONTINUOUS
 10
149.8995116693
 20
95.2579883737
 11
150.7588834279
 21
96.7464639222
  0
LINE
  5
351
100
AcDbEntity
  8
0
100
AcDbLine
 62
7
  6
CONTINUOUS
 10
126.4411783359
 20
124.5579883737
 11
125.9596804879
 21
124.5579883737
  0
LINE
  5
352
100
AcDbEntity
  8
0
100
AcDbLine
 62
7
  6
CONTINUOUS
 10
124.3995116693
 20
124.5579883737
 11
123.3328450026
 21
124.5579883737
  0
LINE
  5
353
100
AcDbEntity
  8
0
100
AcDbLine
 62
7
  6
CONTINUOUS
 10
123.9911783359
 20
124.9663217071
 11
123.3328450026
 21
124.9663217071
  0
LINE
  5
354
100
AcDbEntity
  8
0
100
AcDbLine
 62
7
  6
CONTINUOUS
 10
125.0045249478
 20
126.0865567651
 11
124.3995116693
 21
126.0865567651
  0
LINE
  5
355
100
AcDbEntity
  8
0
100
AcDbLine
 62
7
  6
CONTINUOUS
 10
125.3328450026
 20
126.4829883737
 11
124.3995116693
 21
126.4829883737
  0
LINE
  5
356
100
AcDbEntity
  8
0
100
AcDbLine
 62
7
  6
CONTINUOUS
 10
125.3328450026
 20
127.6496550404
 11
124.3995116693
 21
127.6496550404
  0
LINE
  5
357
100
AcDbEntity
  8
0
100
AcDbLine
 62
7
  6
CONTINUOUS
 10
123.9911783359
 20
127.6496550404
 11
123.3328450026
 21
127.6496550404
  0
LINE
  5
358
100
AcDbEntity
  8
0
100
AcDbLine
 62
7
  6
CONTINUOUS
 10
125.3328450026
 20
128.0579883737
 11
123.3328450026
 21
128.0579883737
  0
LINE
  5
359
100
AcDbEntity
  8
0
100
AcDbLine
 62
7
  6
CONTINUOUS
 10
118.1995116693
 20
149.3579883737
 11
118.5424752335
 21
149.1579883737
  0
LINE
  5
35A
100
AcDbEntity
  8
0
100
AcDbLine
 62
7
  6
CONTINUOUS
 10
129.905850767
 20
149.3579883737
 11
130.0974898866
 21
149.1579883737
  0
LINE
  5
35B
100
AcDbEntity
  8
GEOM
100
AcDbLine
 62
7
  6
CONTINUOUS
 10
162.8995116693
 20
93.9579883737
 11
162.8995116693
 21
72.5579883737
  0
LINE
  5
35C
100
AcDbEntity
  8
GEOM
100
AcDbLine
 62
7
  6
CONTINUOUS
 10
162.9704406912
 20
168.6579883737
 11
162.9704406912
 21
168.7079883737
  0
LINE
  5
35D
100
AcDbEntity
  8
GEOM
100
AcDbLine
 62
7
  6
CONTINUOUS
 10
165.7804406912
 20
168.6579883737
 11
165.7804406912
 21
168.7079883737
  0
LINE
  5
35E
100
AcDbEntity
  8
GEOM
100
AcDbLine
 62
7
  6
CONTINUOUS
 10
166.5395116693
 20
168.6579883737
 11
166.5395116693
 21
168.7079883737
  0
LINE
  5
35F
100
AcDbEntity
  8
GEOM
100
AcDbLine
 62
7
  6
CONTINUOUS
 10
167.5495116693
 20
168.6579883737
 11
167.5495116693
 21
168.7079883737
  0
LINE
  5
360
100
AcDbEntity
  8
GEOM
100
AcDbLine
 62
7
  6
CONTINUOUS
 10
167.8238097385
 20
168.6579883737
 11
167.8238097385
 21
168.7079883737
  0
LINE
  5
361
100
AcDbEntity
  8
0
100
AcDbLine
 62
7
  6
CONTINUOUS
 10
115.5935544302
 20
130.2901464952
 11
115.8788347807
 21
130.2901464951
  0
LINE
  5
362
100
AcDbEntity
  8
0
100
AcDbLine
 62
7
  6
CONTINUOUS
 10
115.5935544302
 20
131.3008815926
 11
132.9495116693
 21
131.3008815926
  0
LINE
  5
363
100
AcDbEntity
  8
0
100
AcDbLine
 62
7
  6
CONTINUOUS
 10
115.7338347619
 20
131.6544349832
 11
133.0959582787
 21
131.6544349832
  0
LINE
  5
364
100
AcDbEntity
  8
0
100
AcDbLine
 62
7
  6
CONTINUOUS
 10
133.5530650599
 20
132.1115417643
 11
115.2556405479
 21
132.1115417643
  0
LINE
  5
365
100
AcDbEntity
  8
0
100
AcDbLine
 62
7
  6
CONTINUOUS
 10
110.6995116693
 20
132.1579883737
 11
111.7583573961
 21
132.1579883737
  0
LINE
  5
366
100
AcDbEntity
  8
0
100
AcDbLine
 62
7
  6
CONTINUOUS
 10
126.6995116693
 20
132.1579883737
 11
131.6995116693
 21
132.1579883737
  0
LINE
  5
367
100
AcDbEntity
  8
0
100
AcDbLine
 62
7
  6
CONTINUOUS
 10
133.6995116693
 20
132.4650951549
 11
131.8303944352
 21
132.4650951549
  0
LINE
  5
368
100
AcDbEntity
  8
0
100
AcDbLine
 62
7
  6
CONTINUOUS
 10
114.8080261638
 20
132.4650951549
 11
126.6995116693
 21
132.4650951549
  0
LINE
  5
369
100
AcDbEntity
  8
0
100
AcDbLine
 62
7
  6
CONTINUOUS
 10
110.4995116693
 20
133.2311934545
 11
110.1995116693
 21
133.2311934545
  0
LINE
  5
36A
100
AcDbEntity
  8
GEOM
100
AcDbLine
 62
7
  6
CONTINUOUS
 10
168.2095116693
 20
168.6579883737
 11
168.2095116693
 21
168.7079883737
  0
LINE
  5
36B
100
AcDbEntity
  8
GEOM
100
AcDbLine
 62
7
  6
CONTINUOUS
 10
168.3291379917
 20
168.7079883737
 11
168.3291379917
 21
168.6579883737
  0
LINE
  5
36C
100
AcDbEntity
  8
GEOM
100
AcDbLine
 62
7
  6
CONTINUOUS
 10
169.0195116693
 20
168.6579883737
 11
169.0195116693
 21
168.7079883737
  0
LINE
  5
36D
100
AcDbEntity
  8
GEOM
100
AcDbLine
 62
7
  6
CONTINUOUS
 10
169.4295116693
 20
168.6579883737
 11
169.4295116693
 21
168.7079883737
  0
LINE
  5
36E
100
AcDbEntity
  8
GEOM
100
AcDbLine
 62
7
  6
CONTINUOUS
 10
169.9095116693
 20
168.6579883737
 11
169.9095116693
 21
168.7079883737
  0
LINE
  5
36F
100
AcDbEntity
  8
GEOM
100
AcDbLine
 62
7
  6
CONTINUOUS
 10
170.4495116693
 20
168.6579883737
 11
170.4495116693
 21
168.7079883737
  0
LINE
  5
370
100
AcDbEntity
  8
GEOM
100
AcDbLine
 62
7
  6
CONTINUOUS
 10
170.8495116693
 20
168.6579883737
 11
170.8495116693
 21
168.7079883737
  0
LINE
  5
371
100
AcDbEntity
  8
GEOM
100
AcDbLine
 62
7
  6
CONTINUOUS
 10
171.3895116693
 20
168.6579883737
 11
171.3895116693
 21
168.7079883737
  0
LINE
  5
372
100
AcDbEntity
  8
GEOM
100
AcDbLine
 62
7
  6
CONTINUOUS
 10
172.1195116693
 20
168.6579883737
 11
172.1195116693
 21
168.7079883737
  0
LINE
  5
373
100
AcDbEntity
  8
GEOM
100
AcDbLine
 62
7
  6
CONTINUOUS
 10
172.1595116693
 20
168.6579883737
 11
172.1595116693
 21
168.7079883737
  0
LINE
  5
374
100
AcDbEntity
  8
GEOM
100
AcDbLine
 62
7
  6
CONTINUOUS
 10
172.2339405819
 20
168.6579883737
 11
172.2339405819
 21
168.7079883737
  0
LINE
  5
375
100
AcDbEntity
  8
GEOM
100
AcDbLine
 62
7
  6
CONTINUOUS
 10
172.7695116693
 20
168.6579883737
 11
172.7695116693
 21
168.7079883737
  0
LINE
  5
376
100
AcDbEntity
  8
0
100
AcDbLine
 62
7
  6
CONTINUOUS
 10
143.4108308727
 20
70.257978567
 11
143.6995116693
 21
70.7579883737
  0
LINE
  5
377
100
AcDbEntity
  8
0
100
AcDbLine
 62
7
  6
CONTINUOUS
 10
104.8725216594
 20
78.4945324001
 11
104.7311007817
 21
78.4434601116
  0
LINE
  5
378
100
AcDbEntity
  8
0
100
AcDbLine
 62
7
  6
CONTINUOUS
 10
110.1995116693
 20
135.7579883737
 11
115.095520618
 21
135.7579883734
  0
LINE
  5
379
100
AcDbEntity
  8
0
100
AcDbLine
 62
7
  6
CONTINUOUS
 10
114.6497530874
 20
136.0579883737
 11
110.4995116693
 21
136.0579883737
  0
LINE
  5
37A
100
AcDbEntity
  8
0
100
AcDbLine
 62
7
  6
CONTINUOUS
 10
133.6995116693
 20
136.3508815926
 11
133.486438873
 21
136.3508815926
  0
LINE
  5
37B
100
AcDbEntity
  8
0
100
AcDbLine
 62
7
  6
CONTINUOUS
 10
126.6995116693
 20
136.3508815926
 11
114.9630007255
 21
136.3508815926
  0
LINE
  5
37C
100
AcDbEntity
  8
0
100
AcDbLine
 62
7
  6
CONTINUOUS
 10
126.6995116693
 20
136.7044346641
 11
114.5530650599
 21
136.7044349832
  0
LINE
  5
37D
100
AcDbEntity
  8
0
100
AcDbLine
 62
7
  6
CONTINUOUS
 10
133.8459582787
 20
136.7044349832
 11
133.6371157206
 21
136.7044337301
  0
LINE
  5
37E
100
AcDbEntity
  8
0
100
AcDbLine
 62
7
  6
CONTINUOUS
 10
114.4995116693
 20
136.7579883737
 11
126.6995116693
 21
136.7579883737
  0
LINE
  5
37F
100
AcDbEntity
  8
0
100
AcDbLine
 62
7
  6
CONTINUOUS
 10
133.6599396383
 20
136.7579883737
 11
133.8995116693
 21
136.7579883737
  0
LINE
  5
380
100
AcDbEntity
  8
0
100
AcDbLine
 62
7
  6
CONTINUOUS
 10
110.6995116693
 20
139.1579883737
 11
113.6995116693
 21
139.1579883737
  0
LINE
  5
381
100
AcDbEntity
  8
0
100
AcDbLine
 62
7
  6
CONTINUOUS
 10
126.5596344064
 20
139.3079883737
 11
114.4995116693
 21
139.3079883737
  0
LINE
  5
382
100
AcDbEntity
  8
0
100
AcDbLine
 62
7
  6
CONTINUOUS
 10
125.9068738461
 20
140.0079883737
 11
115.1995116693
 21
140.0079883737
  0
LINE
  5
383
100
AcDbEntity
  8
0
100
AcDbLine
 62
7
  6
CONTINUOUS
 10
128.1995116693
 20
151.5126889121
 11
129.8995116693
 21
150.5311934545
  0
LINE
  5
384
100
AcDbEntity
  8
GEOM
100
AcDbLine
 62
7
  6
CONTINUOUS
 10
175.9995116693
 20
168.6579883737
 11
175.9995116693
 21
168.7079883737
  0
LINE
  5
385
100
AcDbEntity
  8
GEOM
100
AcDbLine
 62
7
  6
CONTINUOUS
 10
176.0995116693
 20
168.6579883737
 11
176.0995116693
 21
168.7079883737
  0
LINE
  5
386
100
AcDbEntity
  8
GEOM
100
AcDbLine
 62
7
  6
CONTINUOUS
 10
176.1995116693
 20
168.6579883737
 11
176.1995116693
 21
168.7079883737
  0
LINE
  5
387
100
AcDbEntity
  8
GEOM
100
AcDbLine
 62
7
  6
CONTINUOUS
 10
177.0695116693
 20
168.6579883737
 11
177.0695116693
 21
168.7079883737
  0
LINE
  5
388
100
AcDbEntity
  8
GEOM
100
AcDbLine
 62
7
  6
CONTINUOUS
 10
177.1095116693
 20
168.6579883737
 11
177.1095116693
 21
168.7079883737
  0
LINE
  5
389
100
AcDbEntity
  8
GEOM
100
AcDbLine
 62
7
  6
CONTINUOUS
 10
177.1295116693
 20
168.6579883737
 11
177.1295116693
 21
168.7079883737
  0
LINE
  5
38A
100
AcDbEntity
  8
GEOM
100
AcDbLine
 62
7
  6
CONTINUOUS
 10
177.3795116693
 20
168.6579883737
 11
177.3795116693
 21
168.7079883737
  0
LINE
  5
38B
100
AcDbEntity
  8
GEOM
100
AcDbLine
 62
7
  6
CONTINUOUS
 10
177.5302553524
 20
168.6579883737
 11
177.5302553524
 21
168.7079883737
  0
LINE
  5
38C
100
AcDbEntity
  8
GEOM
100
AcDbLine
 62
7
  6
CONTINUOUS
 10
178.1302553524
 20
168.6579883737
 11
178.1302553524
 21
168.7079883737
  0
LINE
  5
38D
100
AcDbEntity
  8
GEOM
100
AcDbLine
 62
7
  6
CONTINUOUS
 10
178.2790788213
 20
168.6579883737
 11
178.2790788213
 21
168.7079883737
  0
LINE
  5
38E
100
AcDbEntity
  8
GEOM
100
AcDbLine
 62
7
  6
CONTINUOUS
 10
178.5490788213
 20
168.6579883737
 11
178.5490788213
 21
168.7079883737
  0
LINE
  5
38F
100
AcDbEntity
  8
GEOM
100
AcDbLine
 62
7
  6
CONTINUOUS
 10
178.7001093188
 20
168.7079883737
 11
178.7001093188
 21
168.6579883737
  0
LINE
  5
390
100
AcDbEntity
  8
0
100
AcDbLine
 62
7
  6
CONTINUOUS
 10
116.4806105945
 20
78.4945324065
 11
116.6220354479
 21
78.544198726
  0
LINE
  5
391
100
AcDbEntity
  8
0
100
AcDbLine
 62
7
  6
CONTINUOUS
 10
120.0188054708
 20
141.0579883737
 11
124.9277330056
 21
141.0579883737
  0
LINE
  5
392
100
AcDbEntity
  8
0
100
AcDbLine
 62
7
  6
CONTINUOUS
 10
116.8995759435
 20
141.7579883737
 11
124.2749724453
 21
141.7579883737
  0
LINE
  5
393
100
AcDbEntity
  8
0
100
AcDbLine
 62
7
  6
CONTINUOUS
 10
118.1684372366
 20
144.3249756719
 11
117.6995116693
 21
144.3249756719
  0
LINE
  5
394
100
AcDbEntity
  8
0
100
AcDbLine
 62
7
  6
CONTINUOUS
 10
121.4774271869
 20
144.7579883737
 11
117.6995116693
 21
144.7579883737
  0
LINE
  5
395
100
AcDbEntity
  8
0
100
AcDbLine
 62
7
  6
CONTINUOUS
 10
119.7995116693
 20
145.7579883737
 11
120.5449121008
 21
145.7579883737
  0
LINE
  5
396
100
AcDbEntity
  8
0
100
AcDbLine
 62
7
  6
CONTINUOUS
 10
122.345409703
 20
149.3579883737
 11
124.0450676743
 21
149.1579883737
  0
LINE
  5
397
100
AcDbEntity
  8
0
100
AcDbLine
 62
7
  6
CONTINUOUS
 10
124.1995116693
 20
149.3579883737
 11
125.875202203
 21
149.1579883737
  0
LINE
  5
398
100
AcDbEntity
  8
0
100
AcDbLine
 62
7
  6
CONTINUOUS
 10
120.6728001555
 20
149.3579883737
 11
122.2300511998
 21
149.1579883737
  0
LINE
  5
399
100
AcDbEntity
  8
0
100
AcDbLine
 62
7
  6
CONTINUOUS
 10
126.0536136355
 20
149.3579883737
 11
127.5413084671
 21
149.1579883737
  0
LINE
  5
39A
100
AcDbEntity
  8
0
100
AcDbLine
 62
7
  6
CONTINUOUS
 10
119.345409703
 20
149.3579883737
 11
120.6078192381
 21
149.1579883737
  0
LINE
  5
39B
100
AcDbEntity
  8
0
100
AcDbLine
 62
7
  6
CONTINUOUS
 10
127.726223183
 20
149.3579883737
 11
128.880296377
 21
149.1579883737
  0
LINE
  5
39C
100
AcDbEntity
  8
0
100
AcDbLine
 62
7
  6
CONTINUOUS
 10
118.4931725715
 20
149.3579883737
 11
119.3371671564
 21
149.1579883737
  0
LINE
  5
39D
100
AcDbEntity
  8
0
100
AcDbLine
 62
7
  6
CONTINUOUS
 10
129.0536136355
 20
149.3579883737
 11
129.7610964667
 21
149.1579883737
  0
LINE
  5
39E
100
AcDbEntity
  8
GEOM
100
AcDbLine
 62
7
  6
CONTINUOUS
 10
179.4495116693
 20
168.6579883737
 11
179.4495116693
 21
168.7079883737
  0
LINE
  5
39F
100
AcDbEntity
  8
GEOM
100
AcDbLine
 62
7
  6
CONTINUOUS
 10
179.9595116693
 20
168.6579883737
 11
179.9595116693
 21
168.7079883737
  0
LINE
  5
3A0
100
AcDbEntity
  8
GEOM
100
AcDbLine
 62
7
  6
CONTINUOUS
 10
179.967467148
 20
168.7079883737
 11
179.967467148
 21
168.6579883737
  0
LINE
  5
3A1
100
AcDbEntity
  8
GEOM
100
AcDbLine
 62
7
  6
CONTINUOUS
 10
180.3795116693
 20
168.6579883737
 11
180.3795116693
 21
168.7079883737
  0
LINE
  5
3A2
100
AcDbEntity
  8
GEOM
100
AcDbLine
 62
7
  6
CONTINUOUS
 10
180.9095116693
 20
168.6579883737
 11
180.9095116693
 21
168.7079883737
  0
LINE
  5
3A3
100
AcDbEntity
  8
GEOM
100
AcDbLine
 62
7
  6
CONTINUOUS
 10
181.1795116693
 20
168.6579883737
 11
181.1795116693
 21
168.7079883737
  0
LINE
  5
3A4
100
AcDbEntity
  8
GEOM
100
AcDbLine
 62
7
  6
CONTINUOUS
 10
181.5258248604
 20
168.6579883737
 11
181.5258248604
 21
168.7079883737
  0
LINE
  5
3A5
100
AcDbEntity
  8
GEOM
100
AcDbLine
 62
7
  6
CONTINUOUS
 10
181.8795116693
 20
168.6579883737
 11
181.8795116693
 21
168.7079883737
  0
LINE
  5
3A6
100
AcDbEntity
  8
GEOM
100
AcDbLine
 62
7
  6
CONTINUOUS
 10
182.7495116693
 20
168.6579883737
 11
182.7495116693
 21
168.7079883737
  0
LINE
  5
3A7
100
AcDbEntity
  8
GEOM
100
AcDbLine
 62
7
  6
CONTINUOUS
 10
182.7895116693
 20
168.6579883737
 11
182.7895116693
 21
168.7079883737
  0
LINE
  5
3A8
100
AcDbEntity
  8
GEOM
100
AcDbLine
 62
7
  6
CONTINUOUS
 10
183.0995116693
 20
168.6579883737
 11
183.0995116693
 21
168.7079883737
  0
LINE
  5
3A9
100
AcDbEntity
  8
GEOM
100
AcDbLine
 62
7
  6
CONTINUOUS
 10
183.3495116693
 20
168.6579883737
 11
183.3495116693
 21
168.7079883737
  0
LINE
  5
3AA
100
AcDbEntity
  8
GEOM
100
AcDbLine
 62
7
  6
CONTINUOUS
 10
183.8995116693
 20
168.6579883737
 11
183.8995116693
 21
168.7079883737
  0
LINE
  5
3AB
100
AcDbEntity
  8
0
100
AcDbLine
 62
7
  6
CONTINUOUS
 10
159.8129091289
 20
71.7079883737
 11
158.7736786444
 21
69.9079883737
  0
LINE
  5
3AC
100
AcDbEntity
  8
0
100
AcDbLine
 62
7
  6
CONTINUOUS
 10
111.9163936775
 20
146.1579883737
 11
120.8321267462
 21
146.1579883737
  0
LINE
  5
3AD
100
AcDbEntity
  8
0
100
AcDbLine
 62
7
  6
CONTINUOUS
 10
121.7188984145
 20
146.1579883737
 11
136.0882594766
 21
146.1579883737
  0
LINE
  5
3AE
100
AcDbEntity
  8
0
100
AcDbLine
 62
7
  6
CONTINUOUS
 10
137.6237156167
 20
146.1579883737
 11
142.6995116693
 21
146.1579883737
  0
LINE
  5
3AF
100
AcDbEntity
  8
0
100
AcDbLine
 62
7
  6
CONTINUOUS
 10
113.6995116693
 20
149.1579883737
 11
142.6995116693
 21
149.1579883737
  0
LINE
  5
3B0
100
AcDbEntity
  8
0
100
AcDbLine
 62
7
  6
CONTINUOUS
 10
130.1995116693
 20
149.3579883737
 11
118.1995116693
 21
149.3579883737
  0
LINE
  5
3B1
100
AcDbEntity
  8
0
100
AcDbLine
 62
7
  6
CONTINUOUS
 10
130.1995116693
 20
150.0115782122
 11
118.1995116693
 21
150.0115782122
  0
LINE
  5
3B2
100
AcDbEntity
  8
0
100
AcDbLine
 62
7
  6
CONTINUOUS
 10
129.8995116693
 20
150.5311934545
 11
118.4995116693
 21
150.5311934545
  0
LINE
  5
3B3
100
AcDbEntity
  8
0
100
AcDbLine
 62
7
  6
CONTINUOUS
 10
120.1995116693
 20
154.3579883737
 11
128.1995116693
 21
154.3579883737
  0
LINE
  5
3B4
100
AcDbEntity
  8
GEOM
100
AcDbLine
 62
7
  6
CONTINUOUS
 10
197.1810951719
 20
168.6579883737
 11
197.1810951719
 21
168.7079883737
  0
LINE
  5
3B5
100
AcDbEntity
  8
GEOM
100
AcDbLine
 62
7
  6
CONTINUOUS
 10
197.3375321285
 20
168.6579883737
 11
197.3375321285
 21
168.7079883737
  0
LINE
  5
3B6
100
AcDbEntity
  8
GEOM
100
AcDbLine
 62
7
  6
CONTINUOUS
 10
197.7513638427
 20
168.6579883737
 11
197.7513638427
 21
168.7079883737
  0
LINE
  5
3B7
100
AcDbEntity
  8
GEOM
100
AcDbLine
 62
7
  6
CONTINUOUS
 10
198.1625447129
 20
168.6579883737
 11
198.1625447129
 21
168.7079883737
  0
LINE
  5
3B8
100
AcDbEntity
  8
GEOM
100
AcDbLine
 62
7
  6
CONTINUOUS
 10
198.3159216356
 20
168.6579883737
 11
198.3159216356
 21
168.7079883737
  0
LINE
  5
3B9
100
AcDbEntity
  8
GEOM
100
AcDbLine
 62
7
  6
CONTINUOUS
 10
198.5109062948
 20
168.6579883737
 11
198.5109062948
 21
168.7079883737
  0
LINE
  5
3BA
100
AcDbEntity
  8
GEOM
100
AcDbLine
 62
7
  6
CONTINUOUS
 10
198.5206963201
 20
168.6579883737
 11
198.5206963201
 21
168.7079883737
  0
LINE
  5
3BB
100
AcDbEntity
  8
GEOM
100
AcDbLine
 62
7
  6
CONTINUOUS
 10
198.76544681
 20
168.6579883737
 11
198.76544681
 21
168.7079883737
  0
LINE
  5
3BC
100
AcDbEntity
  8
GEOM
100
AcDbLine
 62
7
  6
CONTINUOUS
 10
199.2900287975
 20
168.6579883737
 11
199.2900287975
 21
168.7079883737
  0
LINE
  5
3BD
100
AcDbEntity
  8
GEOM
100
AcDbLine
 62
7
  6
CONTINUOUS
 10
199.3650856106
 20
168.6579883737
 11
199.3650856106
 21
168.7079883737
  0
LINE
  5
3BE
100
AcDbEntity
  8
GEOM
100
AcDbLine
 62
7
  6
CONTINUOUS
 10
199.4784866776
 20
168.6579883737
 11
199.4784866776
 21
168.7079883737
  0
LINE
  5
3BF
100
AcDbEntity
  8
GEOM
100
AcDbLine
 62
7
  6
CONTINUOUS
 10
199.5372266863
 20
168.6579883737
 11
199.5372266863
 21
168.7079883737
  0
LINE
  5
3C0
100
AcDbEntity
  8
GEOM
100
AcDbLine
 62
7
  6
CONTINUOUS
 10
199.7819771762
 20
168.6579883737
 11
199.7819771762
 21
168.7079883737
  0
LINE
  5
3C1
100
AcDbEntity
  8
GEOM
100
AcDbLine
 62
7
  6
CONTINUOUS
 10
200.3065591637
 20
168.6579883737
 11
200.3065591637
 21
168.7079883737
  0
LINE
  5
3C2
100
AcDbEntity
  8
GEOM
100
AcDbLine
 62
7
  6
CONTINUOUS
 10
200.3816159768
 20
168.6579883737
 11
200.3816159768
 21
168.7079883737
  0
LINE
  5
3C3
100
AcDbEntity
  8
0
100
AcDbLine
 62
7
  6
CONTINUOUS
 10
159.9995116693
 20
162.6579883737
 11
213.1995116693
 21
162.6579883737
  0
LINE
  5
3C4
100
AcDbEntity
  8
0
100
AcDbLine
 62
7
  6
CONTINUOUS
 10
158.6995116693
 20
165.1579883737
 11
215.6995116693
 21
165.1579883737
  0
LINE
  5
3C5
100
AcDbEntity
  8
0
100
AcDbLine
 62
7
  6
CONTINUOUS
 10
158.6995116693
 20
166.1579883737
 11
215.6995116693
 21
166.1579883737
  0
LINE
  5
3C6
100
AcDbEntity
  8
0
100
AcDbLine
 62
7
  6
CONTINUOUS
 10
158.6995116693
 20
167.1579883737
 11
158.7172821463
 21
167.1579883737
  0
LINE
  5
3C7
100
AcDbEntity
  8
GEOM
100
AcDbLine
 62
7
  6
CONTINUOUS
 10
201.4712791693
 20
168.6579883737
 11
201.4712791693
 21
168.7079883737
  0
LINE
  5
3C8
100
AcDbEntity
  8
GEOM
100
AcDbLine
 62
7
  6
CONTINUOUS
 10
202.8160666693
 20
168.6579883737
 11
202.8160666693
 21
168.7079883737
  0
LINE
  5
3C9
100
AcDbEntity
  8
GEOM
100
AcDbLine
 62
7
  6
CONTINUOUS
 10
204.6341366693
 20
168.6579883737
 11
204.6341366693
 21
168.7079883737
  0
LINE
  5
3CA
100
AcDbEntity
  8
0
100
AcDbLine
 62
7
  6
CONTINUOUS
 10
206.1995116693
 20
162.6579883737
 11
206.1995116693
 21
168.6579883737
  0
LINE
  5
3CB
100
AcDbEntity
  8
0
100
AcDbLine
 62
7
  6
CONTINUOUS
 10
159.9995116693
 20
168.6579883737
 11
213.1995116693
 21
168.6579883737
  0
LINE
  5
3CC
100
AcDbEntity
  8
GEOM
100
AcDbLine
 62
7
  6
CONTINUOUS
 10
161.2013697132
 20
168.7079883737
 11
167.8235628622
 21
168.7079883737
  0
LINE
  5
3CD
100
AcDbEntity
  8
GEOM
100
AcDbLine
 62
7
  6
CONTINUOUS
 10
168.2095116693
 20
168.7079883737
 11
172.2336949266
 21
168.7079883737
  0
LINE
  5
3CE
100
AcDbEntity
  8
GEOM
100
AcDbLine
 62
7
  6
CONTINUOUS
 10
172.7695116693
 20
168.7079883737
 11
177.1095116693
 21
168.7079883737
  0
LINE
  5
3CF
100
AcDbEntity
  8
GEOM
100
AcDbLine
 62
7
  6
CONTINUOUS
 10
177.1295116693
 20
168.7079883737
 11
179.9595116693
 21
168.7079883737
  0
LINE
  5
3D0
100
AcDbEntity
  8
GEOM
100
AcDbLine
 62
7
  6
CONTINUOUS
 10
179.9675462753
 20
168.7079883737
 11
183.8995116693
 21
168.7079883737
  0
LINE
  5
3D1
100
AcDbEntity
  8
GEOM
100
AcDbLine
 62
7
  6
CONTINUOUS
 10
197.1810951719
 20
168.7079883737
 11
198.3159216356
 21
168.7079883737
  0
LINE
  5
3D2
100
AcDbEntity
  8
GEOM
100
AcDbLine
 62
7
  6
CONTINUOUS
 10
198.5109062948
 20
168.7079883737
 11
199.4784866776
 21
168.7079883737
  0
LINE
  5
3D3
100
AcDbEntity
  8
GEOM
100
AcDbLine
 62
7
  6
CONTINUOUS
 10
199.5372266863
 20
168.7079883737
 11
200.3816159768
 21
168.7079883737
  0
LINE
  5
3D4
100
AcDbEntity
  8
GEOM
100
AcDbLine
 62
7
  6
CONTINUOUS
 10
201.4712791693
 20
168.7079883737
 11
204.6341366693
 21
168.7079883737
  0
LINE
  5
3D5
100
AcDbEntity
  8
0
100
AcDbLine
 62
7
  6
CONTINUOUS
 10
215.6995116693
 20
165.1579883737
 11
215.6995116693
 21
166.1579883737
  0
ARC
  5
3D6
100
AcDbEntity
  8
0
100
AcDbCircle
 62
7
  6
CONTINUOUS
 10
114.3967381609
 20
72.9981460292
 40
10.8247944582
100
AcDbArc
 50
153.2420555725
 51
153.6158595184
  0
ARC
  5
3D7
100
AcDbEntity
  8
0
100
AcDbCircle
 62
7
  6
CONTINUOUS
 10
114.2366900964
 20
75.8901872388
 40
10.6610774681
100
AcDbArc
 50
206.545565833
 51
206.9229493655
  0
ARC
  5
3D8
100
AcDbEntity
  8
0
100
AcDbCircle
 62
7
  6
CONTINUOUS
 10
114.2677977382
 20
75.8497531505
 40
10.5498995668
100
AcDbArc
 50
206.2781307268
 51
207.0568063754
  0
ARC
  5
3D9
100
AcDbEntity
  8
0
100
AcDbCircle
 62
7
  6
CONTINUOUS
 10
113.9843389981
 20
73.130425526
 40
10.2329304297
100
AcDbArc
 50
152.9286725313
 51
155.1413777656
  0
ARC
  5
3DA
100
AcDbEntity
  8
0
100
AcDbCircle
 62
7
  6
CONTINUOUS
 10
113.822282703
 20
75.6307596281
 40
10.0534713287
100
AcDbArc
 50
204.8481062485
 51
206.2831497794
  0
ARC
  5
3DB
100
AcDbEntity
  8
0
100
AcDbCircle
 62
7
  6
CONTINUOUS
 10
93.3267822593
 20
72.865706037
 40
5.17272941
100
AcDbArc
 50
359.2028727493
 51
359.9997506847
  0
ARC
  5
3DC
100
AcDbEntity
  8
0
100
AcDbCircle
 62
7
  6
CONTINUOUS
 10
158.4943754899
 20
66.8308665786
 40
2.942487735
100
AcDbArc
 50
89.6203824623
 51
90.0031460653
  0
ARC
  5
3DD
100
AcDbEntity
  8
0
100
AcDbCircle
 62
7
  6
CONTINUOUS
 10
89.9046478435
 20
66.8308667973
 40
2.9424875162
100
AcDbArc
 50
89.9968538826
 51
90.3796174673
  0
ARC
  5
3DE
100
AcDbEntity
  8
GEOM
100
AcDbCircle
 62
7
  6
CONTINUOUS
 10
162.1995116693
 20
72.5579883737
 40
0.7
100
AcDbArc
 50
270.0
 51
360.0
  0
ARC
  5
3DF
100
AcDbEntity
  8
GEOM
100
AcDbCircle
 62
7
  6
CONTINUOUS
 10
86.1995116693
 20
72.5579883737
 40
0.7
100
AcDbArc
 50
180.0
 51
270.0
  0
ARC
  5
3E0
100
AcDbEntity
  8
0
100
AcDbCircle
 62
7
  6
CONTINUOUS
 10
118.1566184505
 20
69.0079883737
 40
0.5
100
AcDbArc
 50
225.0
 51
270.0
  0
ARC
  5
3E1
100
AcDbEntity
  8
0
100
AcDbCircle
 62
7
  6
CONTINUOUS
 10
128.8566184505
 20
68.0079883737
 40
0.5
100
AcDbArc
 50
225.0
 51
270.0
  0
ARC
  5
3E2
100
AcDbEntity
  8
0
100
AcDbCircle
 62
7
  6
CONTINUOUS
 10
127.4424048881
 20
68.0079883737
 40
0.5
100
AcDbArc
 50
45.0
 51
90.0
  0
ARC
  5
3E3
100
AcDbEntity
  8
0
100
AcDbCircle
 62
7
  6
CONTINUOUS
 10
133.0834862655
 20
67.0079883737
 40
0.5
100
AcDbArc
 50
29.999999993
 51
90.0
  0
ARC
  5
3E4
100
AcDbEntity
  8
0
100
AcDbCircle
 62
7
  6
CONTINUOUS
 10
158.5138710232
 20
70.0579883737
 40
0.3
100
AcDbArc
 50
270.0
 51
330.0
  0
ARC
  5
3E5
100
AcDbEntity
  8
0
100
AcDbCircle
 62
7
  6
CONTINUOUS
 10
160.07271675
 20
71.5579883737
 40
0.3
100
AcDbArc
 50
90.0
 51
150.0000000002
  0
ARC
  5
3E6
100
AcDbEntity
  8
0
100
AcDbCircle
 62
7
  6
CONTINUOUS
 10
89.8851523153
 20
70.0579883737
 40
0.3
100
AcDbArc
 50
210.0
 51
270.0
  0
ARC
  5
3E7
100
AcDbEntity
  8
0
100
AcDbCircle
 62
7
  6
CONTINUOUS
 10
88.3263065885
 20
71.5579883737
 40
0.3
100
AcDbArc
 50
29.9999999998
 51
90.0
  0
ARC
  5
3E8
100
AcDbEntity
  8
GEOM
100
AcDbCircle
 62
7
  6
CONTINUOUS
 10
138.4744619777
 20
69.9579883737
 40
0.2999999934
100
AcDbArc
 50
90.0000013242
 51
159.9999999996
  0
ARC
  5
3E9
100
AcDbEntity
  8
0
100
AcDbCircle
 62
7
  6
CONTINUOUS
 10
115.616669886
 20
70.5579883737
 40
0.1999999865
100
AcDbArc
 50
45.0000001379
 51
89.9920142194
  0
ARC
  5
3EA
100
AcDbEntity
  8
0
100
AcDbCircle
 62
7
  6
CONTINUOUS
 10
104.8811212969
 20
70.949874346
 40
0.1944809691
100
AcDbArc
 50
219.52165844
 51
224.9344147056
  0
ARC
  5
3EB
100
AcDbEntity
  8
0
100
AcDbCircle
 62
7
  6
CONTINUOUS
 10
89.9046791642
 20
76.1257892844
 40
0.1677765875
100
AcDbArc
 50
263.3164251332
 51
270.0444830187
  0
ARC
  5
3EC
100
AcDbEntity
  8
0
100
AcDbCircle
 62
7
  6
CONTINUOUS
 10
158.4943441805
 20
76.1257892687
 40
0.1677765717
100
AcDbArc
 50
269.9555158574
 51
276.6835733848
  0
ARC
  5
3ED
100
AcDbEntity
  8
0
100
AcDbCircle
 62
7
  6
CONTINUOUS
 10
89.9046844647
 20
76.914396128
 40
0.1589338564
100
AcDbArc
 50
89.9549736137
 51
97.0592011119
  0
ARC
  5
3EE
100
AcDbEntity
  8
0
100
AcDbCircle
 62
7
  6
CONTINUOUS
 10
158.4943388749
 20
76.9143961305
 40
0.1589338539
100
AcDbArc
 50
82.9407991605
 51
90.0450265658
  0
ARC
  5
3EF
100
AcDbEntity
  8
0
100
AcDbCircle
 62
7
  6
CONTINUOUS
 10
114.3963593144
 20
93.5176207147
 40
10.8243616316
100
AcDbArc
 50
206.384036109
 51
206.7578547047
  0
ARC
  5
3F0
100
AcDbEntity
  8
0
100
AcDbCircle
 62
7
  6
CONTINUOUS
 10
114.2367697764
 20
90.6257480607
 40
10.6611672794
100
AcDbArc
 50
153.0770459198
 51
153.4544262704
  0
ARC
  5
3F1
100
AcDbEntity
  8
0
100
AcDbCircle
 62
7
  6
CONTINUOUS
 10
114.20819301
 20
90.6962686998
 40
10.4831514999
100
AcDbArc
 50
152.9412491279
 51
154.0087055415
  0
ARC
  5
3F2
100
AcDbEntity
  8
0
100
AcDbCircle
 62
7
  6
CONTINUOUS
 10
113.9839623845
 20
93.3853813577
 40
10.2325177728
100
AcDbArc
 50
204.858651408
 51
207.0714402575
  0
ARC
  5
3F3
100
AcDbEntity
  8
0
100
AcDbCircle
 62
7
  6
CONTINUOUS
 10
113.765542875
 20
90.9120069635
 40
9.9907267484
100
AcDbArc
 50
154.0083272616
 51
155.1545711513
  0
ARC
  5
3F4
100
AcDbEntity
  8
0
100
AcDbCircle
 62
7
  6
CONTINUOUS
 10
89.9046478486
 20
99.6851101689
 40
2.942487735
100
AcDbArc
 50
269.6203824623
 51
270.0031460653
  0
ARC
  5
3F5
100
AcDbEntity
  8
0
100
AcDbCircle
 62
7
  6
CONTINUOUS
 10
103.7361139415
 20
88.4290204223
 40
1.0569260528
100
AcDbArc
 50
340.2873980282
 51
344.3861959813
  0
ARC
  5
3F6
100
AcDbEntity
  8
0
100
AcDbCircle
 62
7
  6
CONTINUOUS
 10
103.7369412674
 20
78.0871717192
 40
1.0560745611
100
AcDbArc
 50
15.611750494
 51
19.7167408577
  0
ARC
  5
3F7
100
AcDbEntity
  8
GEOM
100
AcDbCircle
 62
7
  6
CONTINUOUS
 10
86.1995116693
 20
93.9579883737
 40
0.7
100
AcDbArc
 50
90.0
 51
180.0
  0
ARC
  5
3F8
100
AcDbEntity
  8
0
100
AcDbCircle
 62
7
  6
CONTINUOUS
 10
89.8851523153
 20
96.4579883737
 40
0.3
100
AcDbArc
 50
90.0
 51
150.0
  0
ARC
  5
3F9
100
AcDbEntity
  8
0
100
AcDbCircle
 62
7
  6
CONTINUOUS
 10
88.3263065885
 20
94.9579883737
 40
0.3
100
AcDbArc
 50
270.0
 51
330.0000000002
  0
ARC
  5
3FA
100
AcDbEntity
  8
0
100
AcDbCircle
 62
7
  6
CONTINUOUS
 10
98.3259669739
 20
92.4460204871
 40
0.2754520945
100
AcDbArc
 50
18.113162855
 51
19.1624800534
  0
ARC
  5
3FB
100
AcDbEntity
  8
0
100
AcDbCircle
 62
7
  6
CONTINUOUS
 10
104.9158346551
 20
88.4779661447
 40
0.2485611253
100
AcDbArc
 50
133.911258878
 51
138.0058426537
  0
ARC
  5
3FC
100
AcDbEntity
  8
0
100
AcDbCircle
 62
7
  6
CONTINUOUS
 10
104.9157769806
 20
78.0378901199
 40
0.2484373361
100
AcDbArc
 50
221.9824322975
 51
226.079030672
  0
ARC
  5
3FD
100
AcDbEntity
  8
0
100
AcDbCircle
 62
7
  6
CONTINUOUS
 10
115.2495116693
 20
95.9579883737
 40
0.2
100
AcDbArc
 50
270.0
 51
360.0
  0
ARC
  5
3FE
100
AcDbEntity
  8
0
100
AcDbCircle
 62
7
  6
CONTINUOUS
 10
104.8811348775
 20
95.5660358499
 40
0.1945351535
100
AcDbArc
 50
135.054601317
 51
140.4657427218
  0
ARC
  5
3FF
100
AcDbEntity
  8
0
100
AcDbCircle
 62
7
  6
CONTINUOUS
 10
89.904679158
 20
90.3901874788
 40
0.1677765717
100
AcDbArc
 50
89.9555158573
 51
96.6835733849
  0
ARC
  5
400
100
AcDbEntity
  8
0
100
AcDbCircle
 62
7
  6
CONTINUOUS
 10
89.9046844637
 20
89.601580617
 40
0.1589338539
100
AcDbArc
 50
262.9407991605
 51
270.0450265658
  0
ARC
  5
401
100
AcDbEntity
  8
0
100
AcDbCircle
 62
7
  6
CONTINUOUS
 10
68.9333404992
 20
155.2853260493
 40
55.5831180101
100
AcDbArc
 50
353.6709999501
 51
353.8783855052
  0
ARC
  5
402
100
AcDbEntity
  8
0
100
AcDbCircle
 62
7
  6
CONTINUOUS
 10
113.6995116693
 20
146.1579883737
 40
3.0
100
AcDbArc
 50
90.0
 51
180.0
  0
ARC
  5
403
100
AcDbEntity
  8
0
100
AcDbCircle
 62
7
  6
CONTINUOUS
 10
115.3763867282
 20
131.3013271425
 40
0.50244825
100
AcDbArc
 50
359.9491925125
 51
44.6500322361
  0
ARC
  5
404
100
AcDbEntity
  8
0
100
AcDbCircle
 62
7
  6
CONTINUOUS
 10
114.1995116693
 20
136.3508815926
 40
0.5
100
AcDbArc
 50
0.8143223009
 51
45.0000000005
  0
ARC
  5
405
100
AcDbEntity
  8
0
100
AcDbCircle
 62
7
  6
CONTINUOUS
 10
114.1995116693
 20
145.6579883737
 40
0.5
100
AcDbArc
 50
90.0
 51
180.0
  0
ARC
  5
406
100
AcDbEntity
  8
0
100
AcDbCircle
 62
7
  6
CONTINUOUS
 10
114.3995116693
 20
136.3579883737
 40
0.3
100
AcDbArc
 50
277.6971490133
 51
360.0
  0
ARC
  5
407
100
AcDbEntity
  8
0
100
AcDbCircle
 62
7
  6
CONTINUOUS
 10
110.4995116693
 20
135.7579883737
 40
0.3
100
AcDbArc
 50
90.0
 51
180.0
  0
ARC
  5
408
100
AcDbEntity
  8
0
100
AcDbCircle
 62
7
  6
CONTINUOUS
 10
110.4995116693
 20
133.2311934545
 40
0.3
100
AcDbArc
 50
180.0
 51
240.0
  0
ARC
  5
409
100
AcDbEntity
  8
0
100
AcDbCircle
 62
7
  6
CONTINUOUS
 10
121.9920561162
 20
81.8963793416
 40
18.3326285536
100
AcDbArc
 50
160.3122977756
 51
160.6074937739
  0
ARC
  5
40A
100
AcDbEntity
  8
0
100
AcDbCircle
 62
7
  6
CONTINUOUS
 10
121.9920584338
 20
84.619537673
 40
18.3326106121
100
AcDbArc
 50
199.3923265114
 51
199.6875240113
  0
ARC
  5
40B
100
AcDbEntity
  8
0
100
AcDbCircle
 62
7
  6
CONTINUOUS
 10
121.4264228816
 20
82.0403527602
 40
17.6012812673
100
AcDbArc
 50
160.1347006605
 51
161.8645815559
  0
ARC
  5
40C
100
AcDbEntity
  8
0
100
AcDbCircle
 62
7
  6
CONTINUOUS
 10
121.4260538873
 20
84.4755362375
 40
17.6009044121
100
AcDbArc
 50
198.1355320199
 51
199.8654388598
  0
ARC
  5
40D
100
AcDbEntity
  8
0
100
AcDbCircle
 62
7
  6
CONTINUOUS
 10
116.7375210863
 20
84.5520772004
 40
11.2740890457
100
AcDbArc
 50
90.5869348513
 51
90.7596507524
  0
ARC
  5
40E
100
AcDbEntity
  8
0
100
AcDbCircle
 62
7
  6
CONTINUOUS
 10
158.494375495
 20
99.6851099502
 40
2.9424875163
100
AcDbArc
 50
269.9968538826
 51
270.3796174673
  0
ARC
  5
40F
100
AcDbEntity
  8
0
100
AcDbCircle
 62
7
  6
CONTINUOUS
 10
125.7707616693
 20
81.7054883737
 40
1.45125
100
AcDbArc
 50
79.7295607216
 51
180.0
  0
ARC
  5
410
100
AcDbEntity
  8
0
100
AcDbCircle
 62
7
  6
CONTINUOUS
 10
125.3095116693
 20
81.8179883737
 40
1.44
100
AcDbArc
 50
90.0
 51
180.0
  0
ARC
  5
411
100
AcDbEntity
  8
0
100
AcDbCircle
 62
7
  6
CONTINUOUS
 10
125.2763017926
 20
106.4423093612
 40
1.0767901234
100
AcDbArc
 50
0.0
 51
180.0
  0
ARC
  5
412
100
AcDbEntity
  8
0
100
AcDbCircle
 62
7
  6
CONTINUOUS
 10
125.2763017926
 20
105.1347784971
 40
1.0767901234
100
AcDbArc
 50
180.0
 51
120.0
  0
ARC
  5
413
100
AcDbEntity
  8
0
100
AcDbCircle
 62
7
  6
CONTINUOUS
 10
124.7006037813
 20
82.685737657
 40
0.945
100
AcDbArc
 50
113.7828917797
 51
151.5775992543
  0
ARC
  5
414
100
AcDbEntity
  8
0
100
AcDbCircle
 62
7
  6
CONTINUOUS
 10
123.2216104348
 20
111.8592229409
 40
0.8130864197
100
AcDbArc
 50
0.0
 51
90.0
  0
ARC
  5
415
100
AcDbEntity
  8
0
100
AcDbCircle
 62
7
  6
CONTINUOUS
 10
123.2216104348
 20
111.2658896077
 40
0.8130864197
100
AcDbArc
 50
270.0
 51
360.0
  0
ARC
  5
416
100
AcDbEntity
  8
GEOM
100
AcDbCircle
 62
7
  6
CONTINUOUS
 10
162.1995116693
 20
93.9579883737
 40
0.7
100
AcDbArc
 50
0.0
 51
90.0
  0
CIRCLE
  5
417
100
AcDbEntity
  8
0
100
AcDbCircle
 62
7
  6
CONTINUOUS
 10
125.2763017926
 20
105.1347784971
 40
0.5383950617
  0
ARC
  5
418
100
AcDbEntity
  8
0
100
AcDbCircle
 62
7
  6
CONTINUOUS
 10
125.2763017926
 20
106.4423093612
 40
0.5383950617
100
AcDbArc
 50
0.0
 51
180.0
  0
ARC
  5
419
100
AcDbEntity
  8
0
100
AcDbCircle
 62
7
  6
CONTINUOUS
 10
133.0834862655
 20
99.5079883737
 40
0.5
100
AcDbArc
 50
282.7140066634
 51
330.0000000068
  0
ARC
  5
41A
100
AcDbEntity
  8
0
100
AcDbCircle
 62
7
  6
CONTINUOUS
 10
158.5138710232
 20
96.4579883737
 40
0.3
100
AcDbArc
 50
30.0
 51
90.0
  0
ARC
  5
41B
100
AcDbEntity
  8
0
100
AcDbCircle
 62
7
  6
CONTINUOUS
 10
160.07271675
 20
94.9579883737
 40
0.3
100
AcDbArc
 50
209.9999999998
 51
270.0
  0
ARC
  5
41C
100
AcDbEntity
  8
GEOM
100
AcDbCircle
 62
7
  6
CONTINUOUS
 10
138.4744619777
 20
96.5579883737
 40
0.2999999934
100
AcDbArc
 50
200.0000000004
 51
269.9999986758
  0
ARC
  5
41D
100
AcDbEntity
  8
0
100
AcDbCircle
 62
7
  6
CONTINUOUS
 10
123.2216104348
 20
111.2658896077
 40
0.274691358
100
AcDbArc
 50
270.0
 51
360.0
  0
ARC
  5
41E
100
AcDbEntity
  8
0
100
AcDbCircle
 62
7
  6
CONTINUOUS
 10
123.2216104348
 20
111.8592229409
 40
0.274691358
100
AcDbArc
 50
0.0
 51
90.0
  0
ARC
  5
41F
100
AcDbEntity
  8
0
100
AcDbCircle
 62
7
  6
CONTINUOUS
 10
116.2855463135
 20
95.9483389404
 40
0.1909247074
100
AcDbArc
 50
315.3346137634
 51
319.2355776706
  0
ARC
  5
420
100
AcDbEntity
  8
0
100
AcDbCircle
 62
7
  6
CONTINUOUS
 10
158.4943441744
 20
90.3901874631
 40
0.1677765875
100
AcDbArc
 50
83.3164251332
 51
90.0444830187
  0
ARC
  5
421
100
AcDbEntity
  8
0
100
AcDbCircle
 62
7
  6
CONTINUOUS
 10
158.4943388738
 20
89.6015806195
 40
0.1589338564
100
AcDbArc
 50
269.9549736137
 51
277.0592011119
  0
ARC
  5
422
100
AcDbEntity
  8
0
100
AcDbCircle
 62
7
  6
CONTINUOUS
 10
120.9482420886
 20
136.2488591357
 40
8.5091293327
100
AcDbArc
 50
86.3188719329
 51
89.9914513456
  0
ARC
  5
423
100
AcDbEntity
  8
0
100
AcDbCircle
 62
7
  6
CONTINUOUS
 10
160.1348433212
 20
163.1579883737
 40
4.0
100
AcDbArc
 50
111.0331393818
 51
140.0
  0
ARC
  5
424
100
AcDbEntity
  8
0
100
AcDbCircle
 62
7
  6
CONTINUOUS
 10
142.6995116693
 20
150.1579883737
 40
4.0
100
AcDbArc
 50
270.0
 51
320.0
  0
ARC
  5
425
100
AcDbEntity
  8
0
100
AcDbCircle
 62
7
  6
CONTINUOUS
 10
162.554863114
 20
166.8223019503
 40
3.8553515715
100
AcDbArc
 50
179.0238597861
 51
180.0146922186
  0
ARC
  5
426
100
AcDbEntity
  8
0
100
AcDbCircle
 62
7
  6
CONTINUOUS
 10
159.9995116693
 20
163.9579883737
 40
1.3
100
AcDbArc
 50
212.8904173777
 51
270.0
  0
ARC
  5
427
100
AcDbEntity
  8
0
100
AcDbCircle
 62
7
  6
CONTINUOUS
 10
159.9995116693
 20
167.3579883737
 40
1.3
100
AcDbArc
 50
90.0
 51
180.0
  0
ARC
  5
428
100
AcDbEntity
  8
0
100
AcDbCircle
 62
7
  6
CONTINUOUS
 10
123.3328450026
 20
126.7746550404
 40
1.2833333333
100
AcDbArc
 50
90.0
 51
180.0
  0
ARC
  5
429
100
AcDbEntity
  8
0
100
AcDbCircle
 62
7
  6
CONTINUOUS
 10
123.3328450026
 20
125.8413217071
 40
1.2833333333
100
AcDbArc
 50
180.0
 51
270.0
  0
ARC
  5
42A
100
AcDbEntity
  8
0
100
AcDbCircle
 62
7
  6
CONTINUOUS
 10
142.6995116693
 20
150.1579883737
 40
1.0
100
AcDbArc
 50
270.0
 51
320.0
  0
ARC
  5
42B
100
AcDbEntity
  8
0
100
AcDbCircle
 62
7
  6
CONTINUOUS
 10
125.3328450026
 20
127.0663217071
 40
0.9916666667
100
AcDbArc
 50
278.8857694273
 51
90.0
  0
ARC
  5
42C
100
AcDbEntity
  8
0
100
AcDbCircle
 62
7
  6
CONTINUOUS
 10
123.3328450026
 20
125.8413217071
 40
0.875
100
AcDbArc
 50
180.0
 51
270.0
  0
ARC
  5
42D
100
AcDbEntity
  8
0
100
AcDbCircle
 62
7
  6
CONTINUOUS
 10
123.3328450026
 20
126.7746550404
 40
0.875
100
AcDbArc
 50
90.0
 51
180.0
  0
ARC
  5
42E
100
AcDbEntity
  8
0
100
AcDbCircle
 62
7
  6
CONTINUOUS
 10
129.5995116693
 20
150.0115782122
 40
0.6
100
AcDbArc
 50
0.0
 51
60.0
  0
ARC
  5
42F
100
AcDbEntity
  8
0
100
AcDbCircle
 62
7
  6
CONTINUOUS
 10
118.7995116693
 20
150.0115782122
 40
0.6
100
AcDbArc
 50
120.0
 51
180.0
  0
ARC
  5
430
100
AcDbEntity
  8
0
100
AcDbCircle
 62
7
  6
CONTINUOUS
 10
125.3328450026
 20
127.0663217071
 40
0.5833333333
100
AcDbArc
 50
270.0
 51
90.0
  0
ARC
  5
431
100
AcDbEntity
  8
0
100
AcDbCircle
 62
7
  6
CONTINUOUS
 10
133.1995116693
 20
132.4650951549
 40
0.5
100
AcDbArc
 50
315.0
 51
360.0
  0
ARC
  5
432
100
AcDbEntity
  8
0
100
AcDbCircle
 62
7
  6
CONTINUOUS
 10
133.4495116693
 20
131.3008815926
 40
0.5
100
AcDbArc
 50
135.0
 51
180.0
  0
ARC
  5
433
100
AcDbEntity
  8
0
100
AcDbCircle
 62
7
  6
CONTINUOUS
 10
134.1995116693
 20
136.3508815926
 40
0.5
100
AcDbArc
 50
134.9999999995
 51
180.0
  0
ARC
  5
434
100
AcDbEntity
  8
0
100
AcDbCircle
 62
7
  6
CONTINUOUS
 10
213.1995116693
 20
166.1579883737
 40
2.5
100
AcDbArc
 50
0.0
 51
90.0
  0
ARC
  5
435
100
AcDbEntity
  8
0
100
AcDbCircle
 62
7
  6
CONTINUOUS
 10
213.1995116693
 20
165.1579883737
 40
2.5
100
AcDbArc
 50
270.0
 51
360.0
  0
ARC
  5
436
100
AcDbEntity
  8
0
100
AcDbCircle
 62
7
  6
CONTINUOUS
 10
304.2333814936
 20
329.7333158254
 40
273.7289661019
100
AcDbArc
 50
226.2808729041
 51
226.4194890718
  0
ARC
  5
437
100
AcDbEntity
  8
0
100
AcDbCircle
 62
7
  6
CONTINUOUS
 10
544.613159198
 20
-188.7522260535
 40
504.6330109353
100
AcDbArc
 50
145.5458939129
 51
145.6880603252
  0
ARC
  5
438
100
AcDbEntity
  8
0
100
AcDbCircle
 62
7
  6
CONTINUOUS
 10
521.229030328
 20
-165.7547486724
 40
472.6378197598
100
AcDbArc
 50
146.2448530913
 51
146.3959742173
  0
ARC
  5
439
100
AcDbEntity
  8
0
100
AcDbCircle
 62
7
  6
CONTINUOUS
 10
316.9441692603
 20
342.6257657259
 40
291.5381640614
100
AcDbArc
 50
226.2265755972
 51
226.3565847906
  0
SPLINE
  5
43A
100
AcDbEntity
  8
0
100
AcDbSpline
 62
7
  6
CONTINUOUS
 70
0
 71
3
 72
9
 73
5
 74
0
 42
0.0000001
 43
0.0000001
 44
0.0000000001
 40
0.0
 40
0.0
 40
0.0
 40
0.0
 40
0.6125308691
 40
1.0
 40
1.0
 40
1.0
 40
1.0
 10
116.2099297179
 20
140.8517577789
 30
0.0
 10
116.2071182074
 20
140.8502929048
 30
0.0
 10
116.2025957346
 20
140.8477819843
 30
0.0
 10
116.1995116693
 20
140.842916196
 30
0.0
 10
116.1995116693
 20
140.8409107922
 30
0.0
  0
SPLINE
  5
43B
100
AcDbEntity
  8
0
100
AcDbSpline
 62
7
  6
CONTINUOUS
 70
0
 71
3
 72
9
 73
5
 74
0
 42
0.0000001
 43
0.0000001
 44
0.0000000001
 40
0.0
 40
0.0
 40
0.0
 40
0.0
 40
0.6125594554
 40
1.0
 40
1.0
 40
1.0
 40
1.0
 10
116.2099322868
 20
140.3442199913
 30
0.0
 10
116.2071202139
 20
140.3456849047
 30
0.0
 10
116.202597114
 20
140.3481955506
 30
0.0
 10
116.1995116693
 20
140.3530615097
 30
0.0
 10
116.1995116693
 20
140.3550669989
 30
0.0
  0
SPLINE
  5
43C
100
AcDbEntity
  8
0
100
AcDbSpline
 62
7
  6
CONTINUOUS
 70
0
 71
3
 72
11
 73
7
 74
0
 42
0.0000001
 43
0.0000001
 44
0.0000000001
 40
0.0
 40
0.0
 40
0.0
 40
0.0
 40
0.2223587434
 40
0.4107524459
 40
0.653632425
 40
1.0
 40
1.0
 40
1.0
 40
1.0
 10
116.6158608913
 20
141.4743313289
 30
0.0
 10
116.6153357478
 20
141.4738063914
 30
0.0
 10
116.6144231956
 20
141.4726410322
 30
0.0
 10
116.614696329
 20
141.4702818127
 30
0.0
 10
116.6166000403
 20
141.4683639814
 30
0.0
 10
116.6182787214
 20
141.4673502197
 30
0.0
 10
116.6193043903
 20
141.4668156414
 30
0.0
  0
SPLINE
  5
43D
100
AcDbEntity
  8
0
100
AcDbSpline
 62
7
  6
CONTINUOUS
 70
0
 71
3
 72
22
 73
18
 74
0
 42
0.0000001
 43
0.0000001
 44
0.0000000001
 40
0.0
 40
0.0
 40
0.0
 40
0.0
 40
0.2081488317
 40
0.3971846255
 40
0.56432789
 40
0.6389147871
 40
0.7071402348
 40
0.7687551802
 40
0.8235383289
 40
0.8712914475
 40
0.9118454221
 40
0.9450623461
 40
0.970837704
 40
0.9809187144
 40
0.9891262643
 40
0.9954730655
 40
1.0
 40
1.0
 40
1.0
 40
1.0
 10
120.0188054708
 20
141.0579883737
 30
0.0
 10
119.7540667938
 20
141.0497352937
 30
0.0
 10
119.2489154327
 20
141.0334376946
 30
0.0
 10
118.5312636087
 20
141.0079898899
 30
0.0
 10
117.983551668
 20
140.9861132498
 30
0.0
 10
117.5895362703
 20
140.9683354058
 30
0.0
 10
117.3297191884
 20
140.9555265715
 30
0.0
 10
117.0951348111
 20
140.9427357142
 30
0.0
 10
116.8866421326
 20
140.9299714363
 30
0.0
 10
116.7050045492
 20
140.9172409688
 30
0.0
 10
116.5508782185
 20
140.9045788468
 30
0.0
 10
116.4248307719
 20
140.8919895722
 30
0.0
 10
116.3376004021
 20
140.8809663162
 30
0.0
 10
116.2822899059
 20
140.8717427579
 30
0.0
 10
116.2515585918
 20
140.8654535226
 30
0.0
 10
116.2280948237
 20
140.8592253263
 30
0.0
 10
116.2150383612
 20
140.854419522
 30
0.0
 10
116.2099297179
 20
140.8517577789
 30
0.0
  0
SPLINE
  5
43E
100
AcDbEntity
  8
0
100
AcDbSpline
 62
7
  6
CONTINUOUS
 70
0
 71
3
 72
9
 73
5
 74
0
 42
0.0000001
 43
0.0000001
 44
0.0000000001
 40
0.0
 40
0.0
 40
0.0
 40
0.0
 40
0.5147469562
 40
1.0
 40
1.0
 40
1.0
 40
1.0
 10
124.6749231024
 20
141.3291624898
 30
0.0
 10
123.8759899291
 20
141.2830671148
 30
0.0
 10
122.3237692935
 20
141.1958680267
 30
0.0
 10
120.7717266603
 20
141.1053370604
 30
0.0
 10
120.0188054708
 20
141.0579883737
 30
0.0
  0
SPLINE
  5
43F
100
AcDbEntity
  8
0
100
AcDbSpline
 62
7
  6
CONTINUOUS
 70
0
 71
3
 72
26
 73
22
 74
0
 42
0.0000001
 43
0.0000001
 44
0.0000000001
 40
0.0
 40
0.0
 40
0.0
 40
0.0
 40
0.0017200696
 40
0.0039722485
 40
0.0101119863
 40
0.0184546656
 40
0.0290006349
 40
0.0417318959
 40
0.0566220706
 40
0.0736414703
 40
0.092750004
 40
0.1370546612
 40
0.1891254873
 40
0.2484766709
 40
0.3145487707
 40
0.3867197478
 40
0.4643109278
 40
0.5465896226
 40
0.6327794655
 40
0.8136126436
 40
1.0
 40
1.0
 40
1.0
 40
1.0
 10
116.8570569178
 20
141.1891132368
 30
0.0
 10
116.8609483509
 20
141.1911381835
 30
0.0
 10
116.870371074
 20
141.1949550577
 30
0.0
 10
116.8950501366
 20
141.2024712048
 30
0.0
 10
116.9368784672
 20
141.2112698824
 30
0.0
 10
116.9999131014
 20
141.2213083451
 30
0.0
 10
117.0799350051
 20
141.2314103752
 30
0.0
 10
117.1767425538
 20
141.2415964906
 30
0.0
 10
117.2901360413
 20
141.2518173237
 30
0.0
 10
117.4198469677
 20
141.262065539
 30
0.0
 10
117.6244726618
 20
141.2764739549
 30
0.0
 10
117.918474057
 20
141.2941149022
 30
0.0
 10
118.3151093979
 20
141.3144912603
 30
0.0
 10
118.767320259
 20
141.3349258493
 30
0.0
 10
119.2708372441
 20
141.3554082631
 30
0.0
 10
119.8209061408
 20
141.375920409
 30
0.0
 10
120.4123330004
 20
141.3964536117
 30
0.0
 10
121.0395323207
 20
141.4170027945
 30
0.0
 10
121.9299344325
 20
141.4448619476
 30
0.0
 10
123.0857761563
 20
141.4791587733
 30
0.0
 10
124.0219238877
 20
141.5061443081
 30
0.0
 10
124.4970758244
 20
141.5198942772
 30
0.0
  0
SPLINE
  5
440
100
AcDbEntity
  8
0
100
AcDbSpline
 62
7
  6
CONTINUOUS
 70
0
 71
3
 72
23
 73
19
 74
0
 42
0.0000001
 43
0.0000001
 44
0.0000000001
 40
0.0
 40
0.0
 40
0.0
 40
0.0
 40
0.1781527441
 40
0.3537988669
 40
0.5198531178
 40
0.5971672121
 40
0.6696171475
 40
0.736471687
 40
0.7970554346
 40
0.8507566199
 40
0.897035928
 40
0.9354302032
 40
0.9515472771
 40
0.9655586698
 40
0.9774294171
 40
0.9871347449
 40
0.9946593493
 40
1.0
 40
1.0
 40
1.0
 40
1.0
 10
125.2458183949
 20
140.7169568994
 30
0.0
 10
124.710270123
 20
140.7025992674
 30
0.0
 10
123.6466987735
 20
140.6744604692
 30
0.0
 10
122.0839593539
 20
140.6325388293
 30
0.0
 10
120.8244024836
 20
140.5968981704
 30
0.0
 10
119.8751175719
 20
140.5678645175
 30
0.0
 10
119.2240481762
 20
140.546628327
 30
0.0
 10
118.6233177844
 20
140.5254215478
 30
0.0
 10
118.0790055034
 20
140.5042531348
 30
0.0
 10
117.5966152361
 20
140.4831501321
 30
0.0
 10
117.1810232325
 20
140.4621266703
 30
0.0
 10
116.878466573
 20
140.4438533633
 30
0.0
 10
116.6729511743
 20
140.4288293877
 30
0.0
 10
116.5470893158
 20
140.4182637199
 30
0.0
 10
116.4405880176
 20
140.4077402943
 30
0.0
 10
116.3536794339
 20
140.3973184938
 30
0.0
 10
116.2866022247
 20
140.386991496
 30
0.0
 10
116.2486585759
 20
140.3790650289
 30
0.0
 10
116.2332334288
 20
140.3745927572
 30
0.0
  0
SPLINE
  5
441
100
AcDbEntity
  8
0
100
AcDbSpline
 62
7
  6
CONTINUOUS
 70
0
 71
3
 72
11
 73
7
 74
0
 42
0.0000001
 43
0.0000001
 44
0.0000000001
 40
0.0
 40
0.0
 40
0.0
 40
0.0
 40
0.3839111952
 40
0.6710274143
 40
0.8685845236
 40
1.0
 40
1.0
 40
1.0
 40
1.0
 10
116.2332334288
 20
140.3745927572
 30
0.0
 10
116.2282612308
 20
140.3731511489
 30
0.0
 10
116.21962142
 20
140.3704172926
 30
0.0
 10
116.2088928325
 20
140.3656395721
 30
0.0
 10
116.2018784665
 20
140.3610929217
 30
0.0
 10
116.1995116693
 20
140.3568391107
 30
0.0
 10
116.1995116693
 20
140.3550669989
 30
0.0
  0
SPLINE
  5
442
100
AcDbEntity
  8
0
100
AcDbSpline
 62
7
  6
CONTINUOUS
 70
0
 71
3
 72
11
 73
7
 74
0
 42
0.0000001
 43
0.0000001
 44
0.0000000001
 40
0.0
 40
0.0
 40
0.0
 40
0.0
 40
0.2138855878
 40
0.462194801
 40
0.7297025891
 40
1.0
 40
1.0
 40
1.0
 40
1.0
 10
118.9922690782
 20
140.007988563
 30
0.0
 10
119.4710385183
 20
140.0275938591
 30
0.0
 10
120.5058505243
 20
140.0645665816
 30
0.0
 10
122.1398180812
 20
140.1155392087
 30
0.0
 10
123.9002176602
 20
140.1667162819
 30
0.0
 10
125.1045706262
 20
140.2013888107
 30
0.0
 10
125.7098573508
 20
140.2192714485
 30
0.0
  0
SPLINE
  5
443
100
AcDbEntity
  8
0
100
AcDbSpline
 62
7
  6
CONTINUOUS
 70
0
 71
3
 72
36
 73
32
 74
0
 42
0.0000001
 43
0.0000001
 44
0.0000000001
 40
0.0
 40
0.0
 40
0.0
 40
0.0
 40
0.0006181478
 40
0.0011060552
 40
0.0014933238
 40
0.0018369006
 40
0.0026750035
 40
0.0040144658
 40
0.0059581361
 40
0.008536535
 40
0.0117613832
 40
0.015637113
 40
0.0201636763
 40
0.025339382
 40
0.0376276514
 40
0.0524734054
 40
0.0698308398
 40
0.0896493262
 40
0.1118670576
 40
0.1364134255
 40
0.1632135291
 40
0.1921803209
 40
0.2232237329
 40
0.2911387277
 40
0.3660977265
 40
0.4471486075
 40
0.5332615319
 40
0.6233424336
 40
0.7162466877
 40
0.8107933373
 40
1.0
 40
1.0
 40
1.0
 40
1.0
 10
116.855004283
 20
140.0079883673
 30
0.0
 10
116.8534436743
 20
140.0088850685
 30
0.0
 10
116.8507250027
 20
140.0106371173
 30
0.0
 10
116.8475280453
 20
140.0136273247
 30
0.0
 10
116.8456992233
 20
140.0167787212
 30
0.0
 10
116.8455545969
 20
140.0215650536
 30
0.0
 10
116.8509617367
 20
140.0274960638
 30
0.0
 10
116.8615031779
 20
140.032965224
 30
0.0
 10
116.8776486295
 20
140.0388302635
 30
0.0
 10
116.8994327811
 20
140.0446251287
 30
0.0
 10
116.9270089721
 20
140.0505280232
 30
0.0
 10
116.9603452455
 20
140.0564392421
 30
0.0
 10
116.9994360863
 20
140.0623796402
 30
0.0
 10
117.0629123611
 20
140.0708044083
 30
0.0
 10
117.1564367877
 20
140.0810846372
 30
0.0
 10
117.2854475931
 20
140.0929009961
 30
0.0
 10
117.436459293
 20
140.1047609147
 30
0.0
 10
117.6089902309
 20
140.1166526439
 30
0.0
 10
117.8024960092
 20
140.1285649595
 30
0.0
 10
118.0163638311
 20
140.1404937923
 30
0.0
 10
118.2499103673
 20
140.1524319147
 30
0.0
 10
118.5023967352
 20
140.1643803986
 30
0.0
 10
118.874518489
 20
140.1808153486
 30
0.0
 10
119.3805138277
 20
140.2011300218
 30
0.0
 10
120.0320912314
 20
140.2248867281
 30
0.0
 10
120.7366873711
 20
140.2486752478
 30
0.0
 10
121.485336972
 20
140.2724877122
 30
0.0
 10
122.2685164928
 20
140.2963156148
 30
0.0
 10
123.076263399
 20
140.3201531944
 30
0.0
 10
124.1725285777
 20
140.3519512671
 30
0.0
 10
124.9984000733
 20
140.3757366014
 30
0.0
 10
125.5490811796
 20
140.3919343191
 30
0.0
  0
SPLINE
  5
444
100
AcDbEntity
  8
0
100
AcDbSpline
 62
7
  6
CONTINUOUS
 70
0
 71
3
 72
30
 73
26
 74
0
 42
0.0000001
 43
0.0000001
 44
0.0000000001
 40
0.0
 40
0.0
 40
0.0
 40
0.0
 40
0.1915540731
 40
0.2854330492
 40
0.3767998049
 40
0.4647376569
 40
0.5483771816
 40
0.626896536
 40
0.6995281814
 40
0.7655657747
 40
0.8243741116
 40
0.8753930167
 40
0.8978265029
 40
0.9181397402
 40
0.9362835011
 40
0.95221722
 40
0.9659069911
 40
0.9773208491
 40
0.9864379384
 40
0.9901311328
 40
0.993245903
 40
0.9957823817
 40
0.997744011
 40
0.9991402322
 40
1.0
 40
1.0
 40
1.0
 40
1.0
 10
124.3323412969
 20
141.6965107887
 30
0.0
 10
123.839343093
 20
141.6871412092
 30
0.0
 10
123.1047292509
 20
141.6732597219
 30
0.0
 10
122.1349742353
 20
141.6545271592
 30
0.0
 10
121.4318989706
 20
141.6406016554
 30
0.0
 10
120.7551861797
 20
141.6267077958
 30
0.0
 10
120.1115509531
 20
141.6128477637
 30
0.0
 10
119.5073248361
 20
141.5990250643
 30
0.0
 10
118.9484202421
 20
141.5852439833
 30
0.0
 10
118.4402698862
 20
141.5715126435
 30
0.0
 10
117.9877747286
 20
141.5578372234
 30
0.0
 10
117.6475186796
 20
141.5460617787
 30
0.0
 10
117.4063418664
 20
141.5364947283
 30
0.0
 10
117.249750364
 20
141.5296457085
 30
0.0
 10
117.109906882
 20
141.5228144922
 30
0.0
 10
116.987135073
 20
141.5160039957
 30
0.0
 10
116.8817141205
 20
141.5092289271
 30
0.0
 10
116.7938820631
 20
141.5024898886
 30
0.0
 10
116.731794582
 20
141.4966072496
 30
0.0
 10
116.6910915205
 20
141.4917413432
 30
0.0
 10
116.6672664282
 20
141.4883703625
 30
0.0
 10
116.6479696243
 20
141.4850237819
 30
0.0
 10
116.6331081671
 20
141.4817288746
 30
0.0
 10
116.6228156878
 20
141.4784988021
 30
0.0
 10
116.6174261415
 20
141.4758959649
 30
0.0
 10
116.6158608913
 20
141.4743313289
 30
0.0
  0
SPLINE
  5
445
100
AcDbEntity
  8
0
100
AcDbSpline
 62
7
  6
CONTINUOUS
 70
0
 71
3
 72
36
 73
32
 74
0
 42
0.0000001
 43
0.0000001
 44
0.0000000001
 40
0.0
 40
0.0
 40
0.0
 40
0.0
 40
0.0012902161
 40
0.0021297202
 40
0.0024941983
 40
0.0029052343
 40
0.0034122086
 40
0.0040423113
 40
0.005720812
 40
0.0079972344
 40
0.010890164
 40
0.0144065396
 40
0.018548935
 40
0.0233178677
 40
0.0347317538
 40
0.0486287429
 40
0.0649753764
 40
0.0837345238
 40
0.1048573792
 40
0.1282887659
 40
0.1539704981
 40
0.1818332306
 40
0.2118044954
 40
0.2777550304
 40
0.3511283053
 40
0.4311513945
 40
0.5169818122
 40
0.6077152339
 40
0.7023963236
 40
0.8000204463
 40
1.0
 40
1.0
 40
1.0
 40
1.0
 10
116.8569418106
 20
141.3429246601
 30
0.0
 10
116.8540742903
 20
141.3444238203
 30
0.0
 10
116.8494677611
 20
141.3470791117
 30
0.0
 10
116.8454308601
 20
141.3525749694
 30
0.0
 10
116.8458192251
 20
141.3567717784
 30
0.0
 10
116.8474611244
 20
141.3596123337
 30
0.0
 10
116.8502575131
 20
141.362345528
 30
0.0
 10
116.8561130326
 20
141.3663333148
 30
0.0
 10
116.8666756488
 20
141.371037261
 30
0.0
 10
116.8830120531
 20
141.3763480584
 30
0.0
 10
116.9041446281
 20
141.3816951864
 30
0.0
 10
116.9300574657
 20
141.3870791015
 30
0.0
 10
116.96075744
 20
141.392483083
 30
0.0
 10
117.0111506962
 20
141.4001753954
 30
0.0
 10
117.0860167065
 20
141.4095414821
 30
0.0
 10
117.1899392614
 20
141.4202971169
 30
0.0
 10
117.3123630789
 20
141.431094107
 30
0.0
 10
117.4529657839
 20
141.4419220044
 30
0.0
 10
117.6113813553
 20
141.4527702505
 30
0.0
 10
117.7871933806
 20
141.4636343492
 30
0.0
 10
117.9799371376
 20
141.4745073839
 30
0.0
 10
118.1891057324
 20
141.4853900165
 30
0.0
 10
118.4991856325
 20
141.5003906181
 30
0.0
 10
118.9233618339
 20
141.5189281893
 30
0.0
 10
119.4730418533
 20
141.5405738894
 30
0.0
 10
120.0726131183
 20
141.5622503615
 30
0.0
 10
120.7157476284
 20
141.5839505589
 30
0.0
 10
121.3956623751
 20
141.6056665753
 30
0.0
 10
122.105168789
 20
141.6273940218
 30
0.0
 10
123.0885547228
 20
141.6566078596
 30
0.0
 10
123.8346110859
 20
141.678137147
 30
0.0
 10
124.335934662
 20
141.6926350573
 30
0.0
  0
SPLINE
  5
446
100
AcDbEntity
  8
0
100
AcDbSpline
 62
7
  6
CONTINUOUS
 70
0
 71
3
 72
10
 73
6
 74
0
 42
0.0000001
 43
0.0000001
 44
0.0000000001
 40
0.0
 40
0.0
 40
0.0
 40
0.0
 40
0.2491739154
 40
0.4987551285
 40
1.0
 40
1.0
 40
1.0
 40
1.0
 10
120.9495116691
 20
144.7579883737
 30
0.0
 10
120.7150257873
 20
144.7579883738
 30
0.0
 10
120.2454227484
 20
144.7382906517
 30
0.0
 10
119.3107137326
 20
144.6228077161
 30
0.0
 10
118.6208238931
 20
144.4585621504
 30
0.0
 10
118.1684372366
 20
144.3249756719
 30
0.0
  0
SPLINE
  5
447
100
AcDbEntity
  8
0
100
AcDbSpline
 62
7
  6
CONTINUOUS
 70
0
 71
3
 72
15
 73
11
 74
0
 42
0.0000001
 43
0.0000001
 44
0.0000000001
 40
0.0
 40
0.0
 40
0.0
 40
0.0
 40
0.1257074555
 40
0.2508731029
 40
0.375574375
 40
0.5000000233
 40
0.6244256674
 40
0.7491269306
 40
0.874292556
 40
1.0
 40
1.0
 40
1.0
 40
1.0
 10
128.1995116693
 20
151.1554233222
 30
0.0
 10
128.0373135036
 20
151.2094893775
 30
0.0
 10
127.7105591718
 20
151.3085891619
 30
0.0
 10
127.2122798922
 20
151.423166048
 30
0.0
 10
126.7077622966
 20
151.4959739153
 30
0.0
 10
126.1995115805
 20
151.5210264012
 30
0.0
 10
125.6912608786
 20
151.4959738829
 30
0.0
 10
125.1867433322
 20
151.4231660138
 30
0.0
 10
124.6884641077
 20
151.3085891459
 30
0.0
 10
124.3617098202
 20
151.2094893725
 30
0.0
 10
124.1995116693
 20
151.1554233222
 30
0.0
  0
LINE
  5
448
100
AcDbEntity
  8
0
100
AcDbLine
 62
7
  6
CONTINUOUS
 10
123.4062500283
 20
149.1579883737
 11
123.4140171047
 21
149.2322445493
  0
SPLINE
  5
449
100
AcDbEntity
  8
0
100
AcDbSpline
 62
7
  6
CONTINUOUS
 70
0
 71
3
 72
9
 73
5
 74
0
 42
0.0000001
 43
0.0000001
 44
0.0000000001
 40
0.0
 40
0.0
 40
0.0
 40
0.0
 40
0.253023751
 40
1.0
 40
1.0
 40
1.0
 40
1.0
 10
124.1995116693
 20
149.3579883737
 30
0.0
 10
124.2593221056
 20
149.3408557297
 30
0.0
 10
124.4959636224
 20
149.2740524326
 30
0.0
 10
124.7330916014
 20
149.2089630398
 30
0.0
 10
124.909550031
 20
149.1579883737
 30
0.0
  0
SPLINE
  5
44A
100
AcDbEntity
  8
0
100
AcDbSpline
 62
7
  6
CONTINUOUS
 70
0
 71
3
 72
11
 73
7
 74
0
 42
0.0000001
 43
0.0000001
 44
0.0000000001
 40
0.0
 40
0.0
 40
0.0
 40
0.0
 40
0.2514178059
 40
0.5017501979
 40
0.7511495642
 40
1.0
 40
1.0
 40
1.0
 40
1.0
 10
120.1995116693
 20
154.0007227838
 30
0.0
 10
120.3617117529
 20
154.0547894784
 30
0.0
 10
120.6884664932
 20
154.1538901917
 30
0.0
 10
121.1867571314
 20
154.2684654343
 30
0.0
 10
121.6912347201
 20
154.341276353
 30
0.0
 10
122.0302836813
 20
154.3579883738
 30
0.0
 10
122.19951167
 20
154.3579883737
 30
0.0
  0
SPLINE
  5
44B
100
AcDbEntity
  8
0
100
AcDbSpline
 62
7
  6
CONTINUOUS
 70
0
 71
3
 72
11
 73
7
 74
0
 42
0.0000001
 43
0.0000001
 44
0.0000000001
 40
0.0
 40
0.0
 40
0.0
 40
0.0
 40
0.2488504827
 40
0.4982499007
 40
0.7485823605
 40
1.0
 40
1.0
 40
1.0
 40
1.0
 10
122.19951167
 20
154.3579883737
 30
0.0
 10
122.3687396903
 20
154.3579883737
 30
0.0
 10
122.7077887205
 20
154.3412763646
 30
0.0
 10
123.2122664115
 20
154.268465367
 30
0.0
 10
123.7105570223
 20
154.1538901538
 30
0.0
 10
124.0373116932
 20
154.0547894425
 30
0.0
 10
124.1995116693
 20
154.0007227838
 30
0.0
  0
SPLINE
  5
44C
100
AcDbEntity
  8
0
100
AcDbSpline
 62
7
  6
CONTINUOUS
 70
0
 71
3
 72
15
 73
11
 74
0
 42
0.0000001
 43
0.0000001
 44
0.0000000001
 40
0.0
 40
0.0
 40
0.0
 40
0.0
 40
0.1257074555
 40
0.2508731029
 40
0.375574375
 40
0.5000000233
 40
0.6244256674
 40
0.7491269306
 40
0.874292556
 40
1.0
 40
1.0
 40
1.0
 40
1.0
 10
124.1995116693
 20
151.1554233222
 30
0.0
 10
124.0373135036
 20
151.2094893775
 30
0.0
 10
123.7105591718
 20
151.3085891619
 30
0.0
 10
123.2122798922
 20
151.423166048
 30
0.0
 10
122.7077622966
 20
151.4959739153
 30
0.0
 10
122.1995115805
 20
151.5210264012
 30
0.0
 10
121.6912608786
 20
151.4959738829
 30
0.0
 10
121.1867433322
 20
151.4231660138
 30
0.0
 10
120.6884641077
 20
151.3085891459
 30
0.0
 10
120.3617098202
 20
151.2094893725
 30
0.0
 10
120.1995116693
 20
151.1554233222
 30
0.0
  0
SPLINE
  5
44D
100
AcDbEntity
  8
0
100
AcDbSpline
 62
7
  6
CONTINUOUS
 70
0
 71
3
 72
11
 73
7
 74
0
 42
0.0000001
 43
0.0000001
 44
0.0000000001
 40
0.0
 40
0.0
 40
0.0
 40
0.0
 40
0.2514175677
 40
0.5017500004
 40
0.7511494403
 40
1.0
 40
1.0
 40
1.0
 40
1.0
 10
124.1995116693
 20
154.0007227838
 30
0.0
 10
124.3617115991
 20
154.0547894271
 30
0.0
 10
124.6884662038
 20
154.1538901257
 30
0.0
 10
125.1867567622
 20
154.2684653307
 30
0.0
 10
125.6912344968
 20
154.3412763732
 30
0.0
 10
126.0302835957
 20
154.3579883737
 30
0.0
 10
126.1995116685
 20
154.3579883737
 30
0.0
  0
SPLINE
  5
44E
100
AcDbEntity
  8
0
100
AcDbSpline
 62
7
  6
CONTINUOUS
 70
0
 71
3
 72
11
 73
7
 74
0
 42
0.0000001
 43
0.0000001
 44
0.0000000001
 40
0.0
 40
0.0
 40
0.0
 40
0.0
 40
0.2488505601
 40
0.4982499613
 40
0.7485822917
 40
1.0
 40
1.0
 40
1.0
 40
1.0
 10
126.1995116685
 20
154.3579883737
 30
0.0
 10
126.3687397418
 20
154.3579883738
 30
0.0
 10
126.7077888142
 20
154.3412763705
 30
0.0
 10
127.2122664599
 20
154.268465374
 30
0.0
 10
127.7105570151
 20
154.1538901521
 30
0.0
 10
128.0373116485
 20
154.0547894574
 30
0.0
 10
128.1995116693
 20
154.0007227838
 30
0.0
  0
SPLINE
  5
44F
100
AcDbEntity
  8
0
100
AcDbSpline
 62
7
  6
CONTINUOUS
 70
0
 71
3
 72
8
 73
4
 74
0
 42
0.0000001
 43
0.0000001
 44
0.0000000001
 40
0.0
 40
0.0
 40
0.0
 40
0.0
 40
1.0
 40
1.0
 40
1.0
 40
1.0
 10
158.6995116693
 20
164.4946634157
 30
0.0
 10
158.6995116693
 20
164.3822821827
 30
0.0
 10
158.704098042
 20
164.2695935749
 30
0.0
 10
158.7172821463
 20
164.1579883737
 30
0.0
  0
SPLINE
  5
450
100
AcDbEntity
  8
0
100
AcDbSpline
 62
7
  6
CONTINUOUS
 70
0
 71
3
 72
8
 73
4
 74
0
 42
0.0000001
 43
0.0000001
 44
0.0000000001
 40
0.0
 40
0.0
 40
0.0
 40
0.0
 40
1.0
 40
1.0
 40
1.0
 40
1.0
 10
158.7172821463
 20
167.1579883737
 30
0.0
 10
158.7067020322
 20
167.0684262973
 30
0.0
 10
158.7016305896
 20
166.9781532095
 30
0.0
 10
158.7000710458
 20
166.8879818605
 30
0.0
  0
SPLINE
  5
451
100
AcDbEntity
  8
0
100
AcDbSpline
 62
7
  6
CONTINUOUS
 70
0
 71
3
 72
11
 73
7
 74
0
 42
0.0000001
 43
0.0000001
 44
0.0000000001
 40
0.0
 40
0.0
 40
0.0
 40
0.0
 40
0.2600399494
 40
0.5123196221
 40
0.7580668898
 40
1.0
 40
1.0
 40
1.0
 40
1.0
 10
150.7655370731
 20
75.9580127475
 30
0.0
 10
150.6341328094
 20
75.7096090035
 30
0.0
 10
150.3942040491
 20
75.2097090651
 30
0.0
 10
150.1157262861
 20
74.4374265872
 30
0.0
 10
149.9398454484
 20
73.6549542547
 30
0.0
 10
149.8995116661
 20
73.1271345392
 30
0.0
 10
149.8995116693
 20
72.8656834649
 30
0.0
  0
SPLINE
  5
452
100
AcDbEntity
  8
0
100
AcDbSpline
 62
7
  6
CONTINUOUS
 70
0
 71
3
 72
11
 73
7
 74
0
 42
0.0000001
 43
0.0000001
 44
0.0000000001
 40
0.0
 40
0.0
 40
0.0
 40
0.0
 40
0.241929863
 40
0.4876744327
 40
0.7399544333
 40
1.0
 40
1.0
 40
1.0
 40
1.0
 10
149.8995116693
 20
72.8656834649
 30
0.0
 10
149.8995116725
 20
72.6042360167
 30
0.0
 10
149.9398494456
 20
72.0764232457
 30
0.0
 10
150.1157275238
 20
71.29395741
 30
0.0
 10
150.3941999551
 20
70.5216696434
 30
0.0
 10
150.6341300297
 20
70.0217633079
 30
0.0
 10
150.7655370731
 20
69.7733543091
 30
0.0
  0
SPLINE
  5
453
100
AcDbEntity
  8
0
100
AcDbSpline
 62
7
  6
CONTINUOUS
 70
0
 71
3
 72
10
 73
6
 74
0
 42
0.0000001
 43
0.0000001
 44
0.0000000001
 40
0.0
 40
0.0
 40
0.0
 40
0.0
 40
0.4999016865
 40
0.7499508996
 40
1.0
 40
1.0
 40
1.0
 40
1.0
 10
150.7655370731
 20
89.4426468122
 30
0.0
 10
150.4987861379
 20
88.4341265531
 30
0.0
 10
150.1705218284
 20
86.8991838268
 30
0.0
 10
149.9390919477
 20
84.8238564705
 30
0.0
 10
149.8995116659
 20
83.7797939862
 30
0.0
 10
149.8995116693
 20
83.2579882387
 30
0.0
  0
SPLINE
  5
454
100
AcDbEntity
  8
0
100
AcDbSpline
 62
7
  6
CONTINUOUS
 70
0
 71
3
 72
10
 73
6
 74
0
 42
0.0000001
 43
0.0000001
 44
0.0000000001
 40
0.0
 40
0.0
 40
0.0
 40
0.0
 40
0.250045619
 40
0.5000920648
 40
1.0
 40
1.0
 40
1.0
 40
1.0
 10
149.8995116693
 20
83.2579882387
 30
0.0
 10
149.8995116727
 20
82.7361898466
 30
0.0
 10
149.9390959687
 20
81.6921407204
 30
0.0
 10
150.1705239767
 20
79.6168138913
 30
0.0
 10
150.4987828498
 20
78.081862626
 30
0.0
 10
150.7655370731
 20
77.0733299353
 30
0.0
  0
SPLINE
  5
455
100
AcDbEntity
  8
0
100
AcDbSpline
 62
7
  6
CONTINUOUS
 70
0
 71
3
 72
11
 73
7
 74
0
 42
0.0000001
 43
0.0000001
 44
0.0000000001
 40
0.0
 40
0.0
 40
0.0
 40
0.0
 40
0.2600399493
 40
0.5123196221
 40
0.7580668898
 40
1.0
 40
1.0
 40
1.0
 40
1.0
 10
150.7655370731
 20
96.7426224384
 30
0.0
 10
150.634132812
 20
96.4942186993
 30
0.0
 10
150.394204056
 20
95.9943187709
 30
0.0
 10
150.115726296
 20
95.2220363089
 30
0.0
 10
149.9398454564
 20
94.4395639929
 30
0.0
 10
149.8995116693
 20
93.9117442882
 30
0.0
 10
149.8995116693
 20
93.650293219
 30
0.0
  0
SPLINE
  5
456
100
AcDbEntity
  8
0
100
AcDbSpline
 62
7
  6
CONTINUOUS
 70
0
 71
3
 72
11
 73
7
 74
0
 42
0.0000001
 43
0.0000001
 44
0.0000000001
 40
0.0
 40
0.0
 40
0.0
 40
0.0
 40
0.241929863
 40
0.4876744326
 40
0.7399544332
 40
1.0
 40
1.0
 40
1.0
 40
1.0
 10
149.8995116693
 20
93.650293219
 30
0.0
 10
149.8995116693
 20
93.3888457657
 30
0.0
 10
149.9398494376
 20
92.8610329839
 30
0.0
 10
150.1157275139
 20
92.0785671317
 30
0.0
 10
150.3941999482
 20
91.3062793491
 30
0.0
 10
150.6341300271
 20
90.8063730037
 30
0.0
 10
150.7655370731
 20
90.5579639999
 30
0.0
  0
SPLINE
  5
457
100
AcDbEntity
  8
0
100
AcDbSpline
 62
7
  6
CONTINUOUS
 70
0
 71
3
 72
15
 73
11
 74
0
 42
0.0000001
 43
0.0000001
 44
0.0000000001
 40
0.0
 40
0.0
 40
0.0
 40
0.0
 40
0.1301937742
 40
0.2563929906
 40
0.3791957593
 40
0.4999997705
 40
0.6208040193
 40
0.7436066792
 40
0.8698059971
 40
1.0
 40
1.0
 40
1.0
 40
1.0
 10
158.4942139786
 20
69.7733543091
 30
0.0
 10
158.6281117594
 20
70.0214885324
 30
0.0
 10
158.8729092151
 20
70.5208323742
 30
0.0
 10
159.1579329435
 20
71.2928499978
 30
0.0
 10
159.3384269906
 20
72.0757688313
 30
0.0
 10
159.4004609042
 20
72.8656825467
 30
0.0
 10
159.3384274058
 20
73.6555960878
 30
0.0
 10
159.1579333562
 20
74.4385154177
 30
0.0
 10
158.8729099491
 20
75.2105336808
 30
0.0
 10
158.6281120113
 20
75.7098780974
 30
0.0
 10
158.4942139786
 20
75.9580127475
 30
0.0
  0
SPLINE
  5
458
100
AcDbEntity
  8
0
100
AcDbSpline
 62
7
  6
CONTINUOUS
 70
0
 71
3
 72
9
 73
5
 74
0
 42
0.0000001
 43
0.0000001
 44
0.0000000001
 40
0.0
 40
0.0
 40
0.0
 40
0.0
 40
0.5248634575
 40
1.0
 40
1.0
 40
1.0
 40
1.0
 10
158.5138710232
 20
75.9591528968
 30
0.0
 10
158.5663439761
 20
75.9653485175
 30
0.0
 10
158.6648535225
 20
75.9959066365
 30
0.0
 10
158.745860044
 20
76.0618956727
 30
0.0
 10
158.7736786444
 20
76.1008055378
 30
0.0
  0
SPLINE
  5
459
100
AcDbEntity
  8
0
100
AcDbSpline
 62
7
  6
CONTINUOUS
 70
0
 71
3
 72
15
 73
11
 74
0
 42
0.0000001
 43
0.0000001
 44
0.0000000001
 40
0.0
 40
0.0
 40
0.0
 40
0.0
 40
0.1292352354
 40
0.2546843846
 40
0.3770742072
 40
0.4978620524
 40
0.618993623
 40
0.7423369025
 40
0.8691647118
 40
1.0
 40
1.0
 40
1.0
 40
1.0
 10
158.7736786444
 20
69.9198925938
 30
0.0
 10
158.9052130104
 20
70.1661381582
 30
0.0
 10
159.1453846483
 20
70.6620851337
 30
0.0
 10
159.4239048154
 20
71.429386824
 30
0.0
 10
159.5995873415
 20
72.2086446398
 30
0.0
 10
159.6596837473
 20
72.9963373883
 30
0.0
 10
159.5992715157
 20
73.7860416196
 30
0.0
 10
159.4235215755
 20
74.5711433643
 30
0.0
 10
159.1451548749
 20
75.3474746099
 30
0.0
 10
158.9051871272
 20
75.8506345407
 30
0.0
 10
158.7736786444
 20
76.1008055378
 30
0.0
  0
SPLINE
  5
45A
100
AcDbEntity
  8
0
100
AcDbSpline
 62
7
  6
CONTINUOUS
 70
0
 71
3
 72
9
 73
5
 74
0
 42
0.0000001
 43
0.0000001
 44
0.0000000001
 40
0.0
 40
0.0
 40
0.0
 40
0.0
 40
0.5053821252
 40
1.0
 40
1.0
 40
1.0
 40
1.0
 10
158.5138710232
 20
69.7732897288
 30
0.0
 10
158.565900143
 20
69.7729421419
 30
0.0
 10
158.6709833056
 20
69.7996432363
 30
0.0
 10
158.7479388342
 20
69.8759549109
 30
0.0
 10
158.7736786444
 20
69.9198925938
 30
0.0
  0
SPLINE
  5
45B
100
AcDbEntity
  8
0
100
AcDbSpline
 62
7
  6
CONTINUOUS
 70
0
 71
3
 72
13
 73
9
 74
0
 42
0.0000001
 43
0.0000001
 44
0.0000000001
 40
0.0
 40
0.0
 40
0.0
 40
0.0
 40
0.249943978
 40
0.3749709074
 40
0.5
 40
0.6250290926
 40
0.750056022
 40
1.0
 40
1.0
 40
1.0
 40
1.0
 10
158.4942139786
 20
77.0733299353
 30
0.0
 10
158.7661045314
 20
78.0810319783
 30
0.0
 10
159.101834919
 20
79.61530427
 30
0.0
 10
159.3392413304
 20
81.6912657943
 30
0.0
 10
159.4002241515
 20
83.2579883739
 30
0.0
 10
159.3392413291
 20
84.8247109528
 30
0.0
 10
159.1018349263
 20
86.9006724795
 30
0.0
 10
158.7661044964
 20
88.4349447598
 30
0.0
 10
158.4942139786
 20
89.4426468122
 30
0.0
  0
SPLINE
  5
45C
100
AcDbEntity
  8
0
100
AcDbSpline
 62
7
  6
CONTINUOUS
 70
0
 71
3
 72
10
 73
6
 74
0
 42
0.0000001
 43
0.0000001
 44
0.0000000001
 40
0.0
 40
0.0
 40
0.0
 40
0.0
 40
0.5794088509
 40
0.8160028538
 40
1.0
 40
1.0
 40
1.0
 40
1.0
 10
158.5138710232
 20
89.4438515294
 30
0.0
 10
158.5639200603
 20
89.4500952875
 30
0.0
 10
158.6351481938
 20
89.4550834888
 30
0.0
 10
158.722092783
 20
89.4500004491
 30
0.0
 10
158.758372733
 20
89.443620197
 30
0.0
 10
158.7736786444
 20
89.4389014808
 30
0.0
  0
SPLINE
  5
45D
100
AcDbEntity
  8
0
100
AcDbSpline
 62
7
  6
CONTINUOUS
 70
0
 71
3
 72
13
 73
9
 74
0
 42
0.0000001
 43
0.0000001
 44
0.0000000001
 40
0.0
 40
0.0
 40
0.0
 40
0.0
 40
0.2499442268
 40
0.3749709369
 40
0.5
 40
0.6250290631
 40
0.7500557732
 40
1.0
 40
1.0
 40
1.0
 40
1.0
 10
158.7736786444
 20
77.0770752757
 30
0.0
 10
159.0406850402
 20
78.0848659313
 30
0.0
 10
159.368970475
 20
79.6188386211
 30
0.0
 10
159.6001778103
 20
81.693051941
 30
0.0
 10
159.6594673531
 20
83.2579883738
 30
0.0
 10
159.6001778099
 20
84.8229248063
 30
0.0
 10
159.3689704777
 20
86.8971381272
 30
0.0
 10
159.0406850273
 20
88.4311108128
 30
0.0
 10
158.7736786444
 20
89.4389014718
 30
0.0
  0
SPLINE
  5
45E
100
AcDbEntity
  8
0
100
AcDbSpline
 62
7
  6
CONTINUOUS
 70
0
 71
3
 72
10
 73
6
 74
0
 42
0.0000001
 43
0.0000001
 44
0.0000000001
 40
0.0
 40
0.0
 40
0.0
 40
0.0
 40
0.5794088592
 40
0.8160028632
 40
1.0
 40
1.0
 40
1.0
 40
1.0
 10
158.5138710232
 20
77.0721252182
 30
0.0
 10
158.5639200607
 20
77.0658814603
 30
0.0
 10
158.6351481955
 20
77.0608932625
 30
0.0
 10
158.7220927827
 20
77.0659763072
 30
0.0
 10
158.7583727338
 20
77.0723565489
 30
0.0
 10
158.7736786444
 20
77.0770752647
 30
0.0
  0
SPLINE
  5
45F
100
AcDbEntity
  8
0
100
AcDbSpline
 62
7
  6
CONTINUOUS
 70
0
 71
3
 72
15
 73
11
 74
0
 42
0.0000001
 43
0.0000001
 44
0.0000000001
 40
0.0
 40
0.0
 40
0.0
 40
0.0
 40
0.1301940027
 40
0.2563933208
 40
0.3791959806
 40
0.5000002295
 40
0.6208042407
 40
0.7436070094
 40
0.8698062257
 40
1.0
 40
1.0
 40
1.0
 40
1.0
 10
158.4942139786
 20
90.5579639999
 30
0.0
 10
158.6281119477
 20
90.806098684
 30
0.0
 10
158.8729099716
 20
91.3054430536
 30
0.0
 10
159.1579333521
 20
92.0774613324
 30
0.0
 10
159.3384274065
 20
92.860380659
 30
0.0
 10
159.4004609043
 20
93.6502942011
 30
0.0
 10
159.3384269899
 20
94.4402079155
 30
0.0
 10
159.1579329475
 20
95.2231267522
 30
0.0
 10
158.8729091947
 20
95.9951443615
 30
0.0
 10
158.6281118148
 20
96.4944882447
 30
0.0
 10
158.4942139786
 20
96.7426224384
 30
0.0
  0
SPLINE
  5
460
100
AcDbEntity
  8
0
100
AcDbSpline
 62
7
  6
CONTINUOUS
 70
0
 71
3
 72
9
 73
5
 74
0
 42
0.0000001
 43
0.0000001
 44
0.0000000001
 40
0.0
 40
0.0
 40
0.0
 40
0.0
 40
0.5053821506
 40
1.0
 40
1.0
 40
1.0
 40
1.0
 10
158.5138710232
 20
96.7426870187
 30
0.0
 10
158.5659001454
 20
96.7430346056
 30
0.0
 10
158.6709833069
 20
96.7163335067
 30
0.0
 10
158.747938835
 20
96.6400218343
 30
0.0
 10
158.7736786444
 20
96.5960841541
 30
0.0
  0
SPLINE
  5
461
100
AcDbEntity
  8
0
100
AcDbSpline
 62
7
  6
CONTINUOUS
 70
0
 71
3
 72
15
 73
11
 74
0
 42
0.0000001
 43
0.0000001
 44
0.0000000001
 40
0.0
 40
0.0
 40
0.0
 40
0.0
 40
0.1308352878
 40
0.2576630972
 40
0.3810063769
 40
0.5021379476
 40
0.6229257929
 40
0.7453156157
 40
0.8707647651
 40
1.0
 40
1.0
 40
1.0
 40
1.0
 10
158.7736786444
 20
90.4151712195
 30
0.0
 10
158.9051870898
 20
90.6653422349
 30
0.0
 10
159.1451548927
 20
91.168502135
 30
0.0
 10
159.4235215739
 20
91.9448333899
 30
0.0
 10
159.599271517
 20
92.7299351321
 30
0.0
 10
159.6596837473
 20
93.5196393641
 30
0.0
 10
159.5995873405
 20
94.307332112
 30
0.0
 10
159.4239048158
 20
95.086589929
 30
0.0
 10
159.1453846381
 20
95.8538916117
 30
0.0
 10
158.9052130334
 20
96.3498386035
 30
0.0
 10
158.7736786444
 20
96.5960841541
 30
0.0
  0
SPLINE
  5
462
100
AcDbEntity
  8
0
100
AcDbSpline
 62
7
  6
CONTINUOUS
 70
0
 71
3
 72
9
 73
5
 74
0
 42
0.0000001
 43
0.0000001
 44
0.0000000001
 40
0.0
 40
0.0
 40
0.0
 40
0.0
 40
0.5248634817
 40
1.0
 40
1.0
 40
1.0
 40
1.0
 10
158.5138710232
 20
90.5568238501
 30
0.0
 10
158.5663439758
 20
90.5506282282
 30
0.0
 10
158.6648534981
 20
90.5200700716
 30
0.0
 10
158.7458600468
 20
90.4540810807
 30
0.0
 10
158.7736786444
 20
90.4151712195
 30
0.0
  0
SPLINE
  5
463
100
AcDbEntity
  8
0
100
AcDbSpline
 62
7
  6
CONTINUOUS
 70
0
 71
3
 72
10
 73
6
 74
0
 42
0.0000001
 43
0.0000001
 44
0.0000000001
 40
0.0
 40
0.0
 40
0.0
 40
0.0
 40
0.4999016865
 40
0.7499508996
 40
1.0
 40
1.0
 40
1.0
 40
1.0
 10
97.6334862655
 20
77.0733299353
 30
0.0
 10
97.9002371948
 20
78.0818501723
 30
0.0
 10
98.2285014987
 20
79.6167928645
 30
0.0
 10
98.4599313823
 20
81.6921201745
 30
0.0
 10
98.4995116692
 20
82.7361826357
 30
0.0
 10
98.4995116693
 20
83.2579883718
 30
0.0
  0
SPLINE
  5
464
100
AcDbEntity
  8
0
100
AcDbSpline
 62
7
  6
CONTINUOUS
 70
0
 71
3
 72
10
 73
6
 74
0
 42
0.0000001
 43
0.0000001
 44
0.0000000001
 40
0.0
 40
0.0
 40
0.0
 40
0.0
 40
0.250045619
 40
0.5000920648
 40
1.0
 40
1.0
 40
1.0
 40
1.0
 10
98.4995116693
 20
83.2579883718
 30
0.0
 10
98.4995116693
 20
83.7797867753
 30
0.0
 10
98.4599273784
 20
84.8238359246
 30
0.0
 10
98.2284993732
 20
86.8991628001
 30
0.0
 10
97.9002404946
 20
88.4341140994
 30
0.0
 10
97.6334862655
 20
89.4426468122
 30
0.0
  0
SPLINE
  5
465
100
AcDbEntity
  8
0
100
AcDbSpline
 62
7
  6
CONTINUOUS
 70
0
 71
3
 72
11
 73
7
 74
0
 42
0.0000001
 43
0.0000001
 44
0.0000000001
 40
0.0
 40
0.0
 40
0.0
 40
0.0
 40
0.2598865946
 40
0.5122180332
 40
0.7580944176
 40
1.0
 40
1.0
 40
1.0
 40
1.0
 10
97.6334862655
 20
69.7733543091
 30
0.0
 10
97.7613290411
 20
70.0150254941
 30
0.0
 10
97.9953351923
 20
70.5012782749
 30
0.0
 10
98.2697311262
 20
71.251775436
 30
0.0
 10
98.4479094293
 20
72.0118815574
 30
0.0
 10
98.4945542989
 20
72.5250402717
 30
0.0
 10
98.4987932378
 20
72.7794909924
 30
0.0
  0
LINE
  5
466
100
AcDbEntity
  8
0
100
AcDbLine
 62
7
  6
CONTINUOUS
 10
98.4987932378
 20
72.7794909924
 11
98.4990110671
 21
72.7937427861
  0
SPLINE
  5
467
100
AcDbEntity
  8
0
100
AcDbSpline
 62
7
  6
CONTINUOUS
 70
0
 71
3
 72
11
 73
7
 74
0
 42
0.0000001
 43
0.0000001
 44
0.0000000001
 40
0.0
 40
0.0
 40
0.0
 40
0.0
 40
0.241929863
 40
0.4876744326
 40
0.7399544332
 40
1.0
 40
1.0
 40
1.0
 40
1.0
 10
98.4995116693
 20
72.8656835285
 30
0.0
 10
98.4995116693
 20
73.1271309818
 30
0.0
 10
98.4591739009
 20
73.6549437636
 30
0.0
 10
98.2832958246
 20
74.4374096157
 30
0.0
 10
98.0048233904
 20
75.2096973983
 30
0.0
 10
97.7648933115
 20
75.7096037438
 30
0.0
 10
97.6334862655
 20
75.9580127475
 30
0.0
  0
SPLINE
  5
468
100
AcDbEntity
  8
0
100
AcDbSpline
 62
7
  6
CONTINUOUS
 70
0
 71
3
 72
11
 73
7
 74
0
 42
0.0000001
 43
0.0000001
 44
0.0000000001
 40
0.0
 40
0.0
 40
0.0
 40
0.0
 40
0.2600399493
 40
0.5123196221
 40
0.7580668898
 40
1.0
 40
1.0
 40
1.0
 40
1.0
 10
97.6334862655
 20
90.5579639999
 30
0.0
 10
97.7648905265
 20
90.806367739
 30
0.0
 10
98.0048192825
 20
91.3062676674
 30
0.0
 10
98.2832970425
 20
92.0785501294
 30
0.0
 10
98.4591778821
 20
92.8610224454
 30
0.0
 10
98.4995116693
 20
93.3888421501
 30
0.0
 10
98.4995116693
 20
93.6502932193
 30
0.0
  0
SPLINE
  5
469
100
AcDbEntity
  8
0
100
AcDbSpline
 62
7
  6
CONTINUOUS
 70
0
 71
3
 72
11
 73
7
 74
0
 42
0.0000001
 43
0.0000001
 44
0.0000000001
 40
0.0
 40
0.0
 40
0.0
 40
0.0
 40
0.241929863
 40
0.4876744326
 40
0.7399544332
 40
1.0
 40
1.0
 40
1.0
 40
1.0
 10
98.4995116693
 20
93.6502932193
 30
0.0
 10
98.4995116693
 20
93.9117406727
 30
0.0
 10
98.4591739009
 20
94.4395534544
 30
0.0
 10
98.2832958246
 20
95.2220193066
 30
0.0
 10
98.0048233904
 20
95.9943070892
 30
0.0
 10
97.7648933115
 20
96.4942134347
 30
0.0
 10
97.6334862655
 20
96.7426224384
 30
0.0
  0
SPLINE
  5
46A
100
AcDbEntity
  8
0
100
AcDbSpline
 62
7
  6
CONTINUOUS
 70
0
 71
3
 72
15
 73
11
 74
0
 42
0.0000001
 43
0.0000001
 44
0.0000000001
 40
0.0
 40
0.0
 40
0.0
 40
0.0
 40
0.1301937742
 40
0.2563929906
 40
0.3791957593
 40
0.4999997705
 40
0.6208040193
 40
0.7436066792
 40
0.8698059971
 40
1.0
 40
1.0
 40
1.0
 40
1.0
 10
89.90480936
 20
96.7426224384
 30
0.0
 10
89.7709115791
 20
96.4944882151
 30
0.0
 10
89.5261141235
 20
95.9951443733
 30
0.0
 10
89.2410903951
 20
95.2231267497
 30
0.0
 10
89.0605963479
 20
94.4402079162
 30
0.0
 10
88.9985624343
 20
93.6502942007
 30
0.0
 10
89.0605959327
 20
92.8603806597
 30
0.0
 10
89.2410899824
 20
92.0774613298
 30
0.0
 10
89.5261133894
 20
91.3054430667
 30
0.0
 10
89.7709113272
 20
90.8060986501
 30
0.0
 10
89.90480936
 20
90.5579639999
 30
0.0
  0
SPLINE
  5
46B
100
AcDbEntity
  8
0
100
AcDbSpline
 62
7
  6
CONTINUOUS
 70
0
 71
3
 72
9
 73
5
 74
0
 42
0.0000001
 43
0.0000001
 44
0.0000000001
 40
0.0
 40
0.0
 40
0.0
 40
0.0
 40
0.5248634575
 40
1.0
 40
1.0
 40
1.0
 40
1.0
 10
89.8851523153
 20
90.5568238507
 30
0.0
 10
89.8326793624
 20
90.5506282299
 30
0.0
 10
89.734169816
 20
90.520070111
 30
0.0
 10
89.6531632945
 20
90.4540810748
 30
0.0
 10
89.6253446942
 20
90.4151712097
 30
0.0
  0
SPLINE
  5
46C
100
AcDbEntity
  8
0
100
AcDbSpline
 62
7
  6
CONTINUOUS
 70
0
 71
3
 72
15
 73
11
 74
0
 42
0.0000001
 43
0.0000001
 44
0.0000000001
 40
0.0
 40
0.0
 40
0.0
 40
0.0
 40
0.1292352354
 40
0.2546843846
 40
0.3770742072
 40
0.4978620524
 40
0.618993623
 40
0.7423369025
 40
0.8691647118
 40
1.0
 40
1.0
 40
1.0
 40
1.0
 10
89.6253446942
 20
96.5960841537
 30
0.0
 10
89.4938103281
 20
96.3498385893
 30
0.0
 10
89.2536386903
 20
95.8538916138
 30
0.0
 10
88.9751185232
 20
95.0865899234
 30
0.0
 10
88.799435997
 20
94.3073321077
 30
0.0
 10
88.7393395912
 20
93.5196393592
 30
0.0
 10
88.7997518228
 20
92.7299351279
 30
0.0
 10
88.9755017631
 20
91.9448333832
 30
0.0
 10
89.2538684637
 20
91.1685021376
 30
0.0
 10
89.4938362113
 20
90.6653422068
 30
0.0
 10
89.6253446942
 20
90.4151712097
 30
0.0
  0
SPLINE
  5
46D
100
AcDbEntity
  8
0
100
AcDbSpline
 62
7
  6
CONTINUOUS
 70
0
 71
3
 72
9
 73
5
 74
0
 42
0.0000001
 43
0.0000001
 44
0.0000000001
 40
0.0
 40
0.0
 40
0.0
 40
0.0
 40
0.5053821252
 40
1.0
 40
1.0
 40
1.0
 40
1.0
 10
89.8851523153
 20
96.7426870187
 30
0.0
 10
89.8331231956
 20
96.7430346056
 30
0.0
 10
89.7280400329
 20
96.7163335112
 30
0.0
 10
89.6510845043
 20
96.6400218366
 30
0.0
 10
89.6253446942
 20
96.5960841537
 30
0.0
  0
SPLINE
  5
46E
100
AcDbEntity
  8
0
100
AcDbSpline
 62
7
  6
CONTINUOUS
 70
0
 71
3
 72
13
 73
9
 74
0
 42
0.0000001
 43
0.0000001
 44
0.0000000001
 40
0.0
 40
0.0
 40
0.0
 40
0.0
 40
0.249943978
 40
0.3749709074
 40
0.5
 40
0.6250290926
 40
0.750056022
 40
1.0
 40
1.0
 40
1.0
 40
1.0
 10
89.90480936
 20
89.4426468122
 30
0.0
 10
89.6329188071
 20
88.4349447692
 30
0.0
 10
89.2971884195
 20
86.9006724775
 30
0.0
 10
89.0597820082
 20
84.8247109532
 30
0.0
 10
88.9987991871
 20
83.2579883736
 30
0.0
 10
89.0597820094
 20
81.6912657947
 30
0.0
 10
89.2971884122
 20
79.6153042679
 30
0.0
 10
89.6329188422
 20
78.0810319877
 30
0.0
 10
89.90480936
 20
77.0733299353
 30
0.0
  0
SPLINE
  5
46F
100
AcDbEntity
  8
0
100
AcDbSpline
 62
7
  6
CONTINUOUS
 70
0
 71
3
 72
10
 73
6
 74
0
 42
0.0000001
 43
0.0000001
 44
0.0000000001
 40
0.0
 40
0.0
 40
0.0
 40
0.0
 40
0.5794088509
 40
0.8160028538
 40
1.0
 40
1.0
 40
1.0
 40
1.0
 10
89.8851523153
 20
77.0721252181
 30
0.0
 10
89.8351032783
 20
77.06588146
 30
0.0
 10
89.7638751447
 20
77.0608932587
 30
0.0
 10
89.6769305556
 20
77.0659762984
 30
0.0
 10
89.6406506056
 20
77.0723565505
 30
0.0
 10
89.6253446942
 20
77.0770752667
 30
0.0
  0
SPLINE
  5
470
100
AcDbEntity
  8
0
100
AcDbSpline
 62
7
  6
CONTINUOUS
 70
0
 71
3
 72
13
 73
9
 74
0
 42
0.0000001
 43
0.0000001
 44
0.0000000001
 40
0.0
 40
0.0
 40
0.0
 40
0.0
 40
0.2499442268
 40
0.3749709369
 40
0.5
 40
0.6250290631
 40
0.7500557732
 40
1.0
 40
1.0
 40
1.0
 40
1.0
 10
89.6253446942
 20
89.4389014718
 30
0.0
 10
89.3583382984
 20
88.4311108162
 30
0.0
 10
89.0300528635
 20
86.8971381264
 30
0.0
 10
88.7988455282
 20
84.8229248065
 30
0.0
 10
88.7395559854
 20
83.2579883737
 30
0.0
 10
88.7988455287
 20
81.6930519412
 30
0.0
 10
89.0300528608
 20
79.6188386203
 30
0.0
 10
89.3583383113
 20
78.0848659347
 30
0.0
 10
89.6253446942
 20
77.0770752757
 30
0.0
  0
SPLINE
  5
471
100
AcDbEntity
  8
0
100
AcDbSpline
 62
7
  6
CONTINUOUS
 70
0
 71
3
 72
10
 73
6
 74
0
 42
0.0000001
 43
0.0000001
 44
0.0000000001
 40
0.0
 40
0.0
 40
0.0
 40
0.0
 40
0.5794088592
 40
0.8160028632
 40
1.0
 40
1.0
 40
1.0
 40
1.0
 10
89.8851523153
 20
89.4438515293
 30
0.0
 10
89.8351032779
 20
89.4500952872
 30
0.0
 10
89.763875143
 20
89.455083485
 30
0.0
 10
89.6769305558
 20
89.4500004403
 30
0.0
 10
89.6406506047
 20
89.4436201986
 30
0.0
 10
89.6253446942
 20
89.4389014828
 30
0.0
  0
SPLINE
  5
472
100
AcDbEntity
  8
0
100
AcDbSpline
 62
7
  6
CONTINUOUS
 70
0
 71
3
 72
15
 73
11
 74
0
 42
0.0000001
 43
0.0000001
 44
0.0000000001
 40
0.0
 40
0.0
 40
0.0
 40
0.0
 40
0.1301940027
 40
0.2563933208
 40
0.3791959806
 40
0.5000002295
 40
0.6208042407
 40
0.7436070094
 40
0.8698062257
 40
1.0
 40
1.0
 40
1.0
 40
1.0
 10
89.90480936
 20
75.9580127475
 30
0.0
 10
89.7709113909
 20
75.7098780635
 30
0.0
 10
89.526113367
 20
75.2105336939
 30
0.0
 10
89.2410899864
 20
74.4385154151
 30
0.0
 10
89.0605959321
 20
73.6555960885
 30
0.0
 10
88.9985624343
 20
72.8656825464
 30
0.0
 10
89.0605963487
 20
72.075768832
 30
0.0
 10
89.2410903911
 20
71.2928499953
 30
0.0
 10
89.5261141439
 20
70.520832386
 30
0.0
 10
89.7709115238
 20
70.0214885027
 30
0.0
 10
89.90480936
 20
69.7733543091
 30
0.0
  0
SPLINE
  5
473
100
AcDbEntity
  8
0
100
AcDbSpline
 62
7
  6
CONTINUOUS
 70
0
 71
3
 72
9
 73
5
 74
0
 42
0.0000001
 43
0.0000001
 44
0.0000000001
 40
0.0
 40
0.0
 40
0.0
 40
0.0
 40
0.5053821506
 40
1.0
 40
1.0
 40
1.0
 40
1.0
 10
89.8851523153
 20
69.7732897288
 30
0.0
 10
89.8331231931
 20
69.7729421419
 30
0.0
 10
89.7280400317
 20
69.7996432408
 30
0.0
 10
89.6510845035
 20
69.8759549132
 30
0.0
 10
89.6253446942
 20
69.9198925934
 30
0.0
  0
SPLINE
  5
474
100
AcDbEntity
  8
0
100
AcDbSpline
 62
7
  6
CONTINUOUS
 70
0
 71
3
 72
15
 73
11
 74
0
 42
0.0000001
 43
0.0000001
 44
0.0000000001
 40
0.0
 40
0.0
 40
0.0
 40
0.0
 40
0.1308352878
 40
0.2576630972
 40
0.3810063769
 40
0.5021379476
 40
0.6229257929
 40
0.7453156157
 40
0.8707647651
 40
1.0
 40
1.0
 40
1.0
 40
1.0
 10
89.6253446942
 20
76.100805528
 30
0.0
 10
89.4938362487
 20
75.8506345126
 30
0.0
 10
89.2538684459
 20
75.3474746125
 30
0.0
 10
88.9755017646
 20
74.5711433576
 30
0.0
 10
88.7997518215
 20
73.7860416154
 30
0.0
 10
88.7393395913
 20
72.9963373834
 30
0.0
 10
88.799435998
 20
72.2086446355
 30
0.0
 10
88.9751185228
 20
71.4293868185
 30
0.0
 10
89.2536387005
 20
70.6620851358
 30
0.0
 10
89.4938103051
 20
70.166138144
 30
0.0
 10
89.6253446942
 20
69.9198925934
 30
0.0
  0
SPLINE
  5
475
100
AcDbEntity
  8
0
100
AcDbSpline
 62
7
  6
CONTINUOUS
 70
0
 71
3
 72
9
 73
5
 74
0
 42
0.0000001
 43
0.0000001
 44
0.0000000001
 40
0.0
 40
0.0
 40
0.0
 40
0.0
 40
0.5248634817
 40
1.0
 40
1.0
 40
1.0
 40
1.0
 10
89.8851523153
 20
75.9591528974
 30
0.0
 10
89.8326793628
 20
75.9653485193
 30
0.0
 10
89.7341698405
 20
75.9959066759
 30
0.0
 10
89.6531632917
 20
76.0618956668
 30
0.0
 10
89.6253446942
 20
76.100805528
 30
0.0
  0
SPLINE
  5
476
100
AcDbEntity
  8
GEOM
100
AcDbSpline
 62
7
  6
CONTINUOUS
 70
0
 71
3
 72
11
 73
7
 74
0
 42
0.0000001
 43
0.0000001
 44
0.0000000001
 40
0.0
 40
0.0
 40
0.0
 40
0.0
 40
0.2504220785
 40
0.5000047767
 40
0.7495838932
 40
1.0
 40
1.0
 40
1.0
 40
1.0
 10
138.2170515401
 20
95.5578272528
 30
0.0
 10
138.3001085501
 20
95.0435078495
 30
0.0
 10
138.4296684704
 20
94.0101983117
 30
0.0
 10
138.4968200744
 20
92.450354686
 30
0.0
 10
138.4296729171
 20
90.8905229046
 30
0.0
 10
138.3001073774
 20
89.8572341053
 30
0.0
 10
138.2170517173
 20
89.3429270686
 30
0.0
  0
SPLINE
  5
477
100
AcDbEntity
  8
GEOM
100
AcDbSpline
 62
7
  6
CONTINUOUS
 70
0
 71
3
 72
9
 73
5
 74
0
 42
0.0000001
 43
0.0000001
 44
0.0000000001
 40
0.0
 40
0.0
 40
0.0
 40
0.0
 40
0.4999965603
 40
1.0
 40
1.0
 40
1.0
 40
1.0
 10
138.192554523
 20
83.2579883737
 30
0.0
 10
138.1925545461
 20
82.5293587447
 30
0.0
 10
138.147898983
 20
81.0717585802
 30
0.0
 10
138.0183532312
 20
79.6194536877
 30
0.0
 10
137.9351437538
 20
78.89558082
 30
0.0
  0
SPLINE
  5
478
100
AcDbEntity
  8
GEOM
100
AcDbSpline
 62
7
  6
CONTINUOUS
 70
0
 71
3
 72
9
 73
5
 74
0
 42
0.0000001
 43
0.0000001
 44
0.0000000001
 40
0.0
 40
0.0
 40
0.0
 40
0.0
 40
0.2545711647
 40
1.0
 40
1.0
 40
1.0
 40
1.0
 10
137.9351437538
 20
78.89558082
 30
0.0
 10
137.9325851915
 20
78.8733223611
 30
0.0
 10
137.9237322927
 20
78.78575683
 30
0.0
 10
137.9195770689
 20
78.6976920969
 30
0.0
 10
137.9195768473
 20
78.6320862645
 30
0.0
  0
SPLINE
  5
479
100
AcDbEntity
  8
GEOM
100
AcDbSpline
 62
7
  6
CONTINUOUS
 70
0
 71
3
 72
9
 73
5
 74
0
 42
0.0000001
 43
0.0000001
 44
0.0000000001
 40
0.0
 40
0.0
 40
0.0
 40
0.0
 40
0.271562692
 40
1.0
 40
1.0
 40
1.0
 40
1.0
 10
137.9195768473
 20
77.2249414952
 30
0.0
 10
137.9195768766
 20
77.2051561167
 30
0.0
 10
137.9207554714
 20
77.1323217577
 30
0.0
 10
137.9266096474
 20
77.0594278022
 30
0.0
 10
137.9351437538
 20
77.0070463267
 30
0.0
  0
SPLINE
  5
47A
100
AcDbEntity
  8
GEOM
100
AcDbSpline
 62
7
  6
CONTINUOUS
 70
0
 71
3
 72
11
 73
7
 74
0
 42
0.0000001
 43
0.0000001
 44
0.0000000001
 40
0.0
 40
0.0
 40
0.0
 40
0.0
 40
0.2499981789
 40
0.4994184721
 40
0.7491496549
 40
1.0
 40
1.0
 40
1.0
 40
1.0
 10
137.9351437538
 20
77.0070463267
 30
0.0
 10
138.0181693456
 20
76.4974426696
 30
0.0
 10
138.1477931219
 20
75.472966949
 30
0.0
 10
138.2149353082
 20
73.9253383836
 30
0.0
 10
138.1476349896
 20
72.3759624468
 30
0.0
 10
138.0180967303
 20
71.3490689492
 30
0.0
 10
137.9351437538
 20
70.8376703996
 30
0.0
  0
SPLINE
  5
47B
100
AcDbEntity
  8
GEOM
100
AcDbSpline
 62
7
  6
CONTINUOUS
 70
0
 71
3
 72
9
 73
5
 74
0
 42
0.0000001
 43
0.0000001
 44
0.0000000001
 40
0.0
 40
0.0
 40
0.0
 40
0.0
 40
0.5610429589
 40
1.0
 40
1.0
 40
1.0
 40
1.0
 10
137.9351437538
 20
70.8376703996
 30
0.0
 10
137.930483534
 20
70.8089400184
 30
0.0
 10
137.9232870244
 20
70.7575509775
 30
0.0
 10
137.9195770151
 20
70.7057002832
 30
0.0
 10
137.9195768473
 20
70.6829279941
 30
0.0
  0
SPLINE
  5
47C
100
AcDbEntity
  8
GEOM
100
AcDbSpline
 62
7
  6
CONTINUOUS
 70
0
 71
3
 72
11
 73
7
 74
0
 42
0.0000001
 43
0.0000001
 44
0.0000000001
 40
0.0
 40
0.0
 40
0.0
 40
0.0
 40
0.3852757002
 40
0.666755754
 40
0.8570459872
 40
1.0
 40
1.0
 40
1.0
 40
1.0
 10
137.9195768473
 20
70.1000695464
 30
0.0
 10
137.9195768736
 20
70.0935337714
 30
0.0
 10
137.9199623919
 20
70.08216023
 30
0.0
 10
137.922534474
 20
70.0679152726
 30
0.0
 10
137.926936802
 20
70.057948232
 30
0.0
 10
137.9327191402
 20
70.055367468
 30
0.0
 10
137.9351437538
 20
70.0554137994
 30
0.0
  0
LINE
  5
47D
100
AcDbEntity
  8
GEOM
100
AcDbLine
 62
7
  6
CONTINUOUS
 10
137.9351437538
 20
70.0554137994
 11
138.1925541856
 21
70.0605943983
  0
SPLINE
  5
47E
100
AcDbEntity
  8
GEOM
100
AcDbSpline
 62
7
  6
CONTINUOUS
 70
0
 71
3
 72
11
 73
7
 74
0
 42
0.0000001
 43
0.0000001
 44
0.0000000001
 40
0.0
 40
0.0
 40
0.0
 40
0.0
 40
0.1429770447
 40
0.3332979936
 40
0.6147813755
 40
1.0
 40
1.0
 40
1.0
 40
1.0
 10
137.9351437538
 20
96.4605629481
 30
0.0
 10
137.9327187567
 20
96.4606091897
 30
0.0
 10
137.9269357678
 20
96.458027276
 30
0.0
 10
137.9225337539
 20
96.4480591911
 30
0.0
 10
137.9199623643
 20
96.4338145221
 30
0.0
 10
137.9195769101
 20
96.4224419834
 30
0.0
 10
137.9195768473
 20
96.4159072011
 30
0.0
  0
SPLINE
  5
47F
100
AcDbEntity
  8
GEOM
100
AcDbSpline
 62
7
  6
CONTINUOUS
 70
0
 71
3
 72
9
 73
5
 74
0
 42
0.0000001
 43
0.0000001
 44
0.0000000001
 40
0.0
 40
0.0
 40
0.0
 40
0.0
 40
0.4390189253
 40
1.0
 40
1.0
 40
1.0
 40
1.0
 10
137.9195768473
 20
95.8330487534
 30
0.0
 10
137.9195769176
 20
95.8102732545
 30
0.0
 10
137.9232875841
 20
95.7584225762
 30
0.0
 10
137.9304839708
 20
95.7070335467
 30
0.0
 10
137.9351437538
 20
95.6783063479
 30
0.0
  0
SPLINE
  5
480
100
AcDbEntity
  8
GEOM
100
AcDbSpline
 62
7
  6
CONTINUOUS
 70
0
 71
3
 72
11
 73
7
 74
0
 42
0.0000001
 43
0.0000001
 44
0.0000000001
 40
0.0
 40
0.0
 40
0.0
 40
0.0
 40
0.2508585683
 40
0.5005926099
 40
0.7500088419
 40
1.0
 40
1.0
 40
1.0
 40
1.0
 10
137.9351437538
 20
95.6783063479
 30
0.0
 10
138.0180990278
 20
95.1668909845
 30
0.0
 10
138.1476301319
 20
94.1399736246
 30
0.0
 10
138.2149378477
 20
92.5905837728
 30
0.0
 10
138.1477910346
 20
91.0429721272
 30
0.0
 10
138.018167104
 20
90.0185197329
 30
0.0
 10
137.9351437538
 20
89.5089304208
 30
0.0
  0
SPLINE
  5
481
100
AcDbEntity
  8
GEOM
100
AcDbSpline
 62
7
  6
CONTINUOUS
 70
0
 71
3
 72
9
 73
5
 74
0
 42
0.0000001
 43
0.0000001
 44
0.0000000001
 40
0.0
 40
0.0
 40
0.0
 40
0.0
 40
0.22714301
 40
1.0
 40
1.0
 40
1.0
 40
1.0
 10
137.9351437538
 20
89.5089304208
 30
0.0
 10
137.9324825164
 20
89.4925955861
 30
0.0
 10
137.9227005603
 20
89.4203671125
 30
0.0
 10
137.9195770464
 20
89.3473475076
 30
0.0
 10
137.9195768473
 20
89.2910352523
 30
0.0
  0
LINE
  5
482
100
AcDbEntity
  8
GEOM
100
AcDbLine
 62
7
  6
CONTINUOUS
 10
138.1925541856
 20
96.4553823492
 11
137.9351437538
 21
96.4605629481
  0
SPLINE
  5
483
100
AcDbEntity
  8
GEOM
100
AcDbSpline
 62
7
  6
CONTINUOUS
 70
0
 71
3
 72
9
 73
5
 74
0
 42
0.0000001
 43
0.0000001
 44
0.0000000001
 40
0.0
 40
0.0
 40
0.0
 40
0.0
 40
0.2437389093
 40
1.0
 40
1.0
 40
1.0
 40
1.0
 10
137.9195768473
 20
87.883890483
 30
0.0
 10
137.9195768777
 20
87.8624385958
 30
0.0
 10
137.9209648485
 20
87.7744303348
 30
0.0
 10
137.9275427278
 20
87.6865203506
 30
0.0
 10
137.9351437538
 20
87.6203959275
 30
0.0
  0
SPLINE
  5
484
100
AcDbEntity
  8
GEOM
100
AcDbSpline
 62
7
  6
CONTINUOUS
 70
0
 71
3
 72
9
 73
5
 74
0
 42
0.0000001
 43
0.0000001
 44
0.0000000001
 40
0.0
 40
0.0
 40
0.0
 40
0.0
 40
0.5000036558
 40
1.0
 40
1.0
 40
1.0
 40
1.0
 10
137.9351437538
 20
87.6203959275
 30
0.0
 10
138.0183531399
 20
86.8965227326
 30
0.0
 10
138.1478989952
 20
85.4442178568
 30
0.0
 10
138.1925546034
 20
83.9866176878
 30
0.0
 10
138.192554523
 20
83.2579883737
 30
0.0
  0
SPLINE
  5
485
100
AcDbEntity
  8
0
100
AcDbSpline
 62
7
  6
CONTINUOUS
 70
0
 71
3
 72
11
 73
7
 74
0
 42
0.0000001
 43
0.0000001
 44
0.0000000001
 40
0.0
 40
0.0
 40
0.0
 40
0.0
 40
0.1952500898
 40
0.3963619538
 40
0.6558338718
 40
1.0
 40
1.0
 40
1.0
 40
1.0
 10
142.9935853961
 20
70.2579883737
 30
0.0
 10
142.9912382578
 20
70.2579883737
 30
0.0
 10
142.9862744963
 20
70.2591078259
 30
0.0
 10
142.9809203702
 20
70.2654332968
 30
0.0
 10
142.9782593761
 20
70.2748777335
 30
0.0
 10
142.9778238328
 20
70.2821529745
 30
0.0
 10
142.9778238328
 20
70.2862902605
 30
0.0
  0
SPLINE
  5
486
100
AcDbEntity
  8
0
100
AcDbSpline
 62
7
  6
CONTINUOUS
 70
0
 71
3
 72
11
 73
7
 74
0
 42
0.0000001
 43
0.0000001
 44
0.0000000001
 40
0.0
 40
0.0
 40
0.0
 40
0.0
 40
0.2510768456
 40
0.5000000057
 40
0.748923164
 40
1.0
 40
1.0
 40
1.0
 40
1.0
 10
142.9935853961
 20
77.173050942
 30
0.0
 10
143.1266236874
 20
76.6642562005
 30
0.0
 10
143.3369429741
 20
75.6353076233
 30
0.0
 10
143.44762417
 20
74.065600186
 30
0.0
 10
143.3369429812
 20
72.4958927669
 30
0.0
 10
143.1266236823
 20
71.4669442168
 30
0.0
 10
142.9935853961
 20
70.9581494947
 30
0.0
  0
SPLINE
  5
487
100
AcDbEntity
  8
GEOM
100
AcDbSpline
 62
7
  6
CONTINUOUS
 70
0
 71
3
 72
11
 73
7
 74
0
 42
0.0000001
 43
0.0000001
 44
0.0000000001
 40
0.0
 40
0.0
 40
0.0
 40
0.0
 40
0.2504230391
 40
0.5000061631
 40
0.7495860777
 40
1.0
 40
1.0
 40
1.0
 40
1.0
 10
138.2170515401
 20
77.173050942
 30
0.0
 10
138.3001093361
 20
76.6587296231
 30
0.0
 10
138.4296749234
 20
75.6254176722
 30
0.0
 10
138.4968176518
 20
74.0655689661
 30
0.0
 10
138.4296730377
 20
72.5057392368
 30
0.0
 10
138.3001068429
 20
71.4724532979
 30
0.0
 10
138.2170517328
 20
70.9581507577
 30
0.0
  0
SPLINE
  5
488
100
AcDbEntity
  8
GEOM
100
AcDbSpline
 62
7
  6
CONTINUOUS
 70
0
 71
3
 72
11
 73
7
 74
0
 42
0.0000001
 43
0.0000001
 44
0.0000000001
 40
0.0
 40
0.0
 40
0.0
 40
0.0
 40
0.3454475308
 40
0.6055072456
 40
0.806203011
 40
1.0
 40
1.0
 40
1.0
 40
1.0
 10
138.2014846335
 20
70.2862902605
 30
0.0
 10
138.2014846629
 20
70.2821530087
 30
0.0
 10
138.2019138559
 20
70.2748818629
 30
0.0
 10
138.2045349687
 20
70.2654527567
 30
0.0
 10
138.2098067004
 20
70.2591183856
 30
0.0
 10
138.2147305307
 20
70.2579883774
 30
0.0
 10
138.2170515401
 20
70.2579883737
 30
0.0
  0
SPLINE
  5
489
100
AcDbEntity
  8
GEOM
100
AcDbSpline
 62
7
  6
CONTINUOUS
 70
0
 71
3
 72
9
 73
5
 74
0
 42
0.0000001
 43
0.0000001
 44
0.0000000001
 40
0.0
 40
0.0
 40
0.0
 40
0.0
 40
0.5622338875
 40
1.0
 40
1.0
 40
1.0
 40
1.0
 10
138.2170518207
 20
70.9581507577
 30
0.0
 10
138.2124277343
 20
70.9402478099
 30
0.0
 10
138.2052429978
 20
70.9081377945
 30
0.0
 10
138.2014847647
 20
70.8752966996
 30
0.0
 10
138.2014846335
 20
70.8608996593
 30
0.0
  0
SPLINE
  5
48A
100
AcDbEntity
  8
GEOM
100
AcDbSpline
 62
7
  6
CONTINUOUS
 70
0
 71
3
 72
9
 73
5
 74
0
 42
0.0000001
 43
0.0000001
 44
0.0000000001
 40
0.0
 40
0.0
 40
0.0
 40
0.0
 40
0.2709955071
 40
1.0
 40
1.0
 40
1.0
 40
1.0
 10
138.2014846335
 20
77.3103256895
 30
0.0
 10
138.2014846662
 20
77.2978285777
 30
0.0
 10
138.2026618889
 20
77.2517455597
 30
0.0
 10
138.2086420659
 20
77.2056006174
 30
0.0
 10
138.2170515401
 20
77.173050942
 30
0.0
  0
SPLINE
  5
48B
100
AcDbEntity
  8
GEOM
100
AcDbSpline
 62
7
  6
CONTINUOUS
 70
0
 71
3
 72
9
 73
5
 74
0
 42
0.0000001
 43
0.0000001
 44
0.0000000001
 40
0.0
 40
0.0
 40
0.0
 40
0.0
 40
0.2546531625
 40
1.0
 40
1.0
 40
1.0
 40
1.0
 10
138.2170515401
 20
78.8633894159
 30
0.0
 10
138.2145094703
 20
78.849470588
 30
0.0
 10
138.205680801
 20
78.7946135791
 30
0.0
 10
138.2014848065
 20
78.7389685144
 30
0.0
 10
138.2014846335
 20
78.697555493
 30
0.0
  0
SPLINE
  5
48C
100
AcDbEntity
  8
GEOM
100
AcDbSpline
 62
7
  6
CONTINUOUS
 70
0
 71
3
 72
9
 73
5
 74
0
 42
0.0000001
 43
0.0000001
 44
0.0000000001
 40
0.0
 40
0.0
 40
0.0
 40
0.0
 40
0.2438165237
 40
1.0
 40
1.0
 40
1.0
 40
1.0
 10
138.2014846335
 20
87.8184212545
 30
0.0
 10
138.2014846673
 20
87.8048738645
 30
0.0
 10
138.202879262
 20
87.7493147589
 30
0.0
 10
138.2095006505
 20
87.6939197496
 30
0.0
 10
138.2170515401
 20
87.6525873316
 30
0.0
  0
SPLINE
  5
48D
100
AcDbEntity
  8
GEOM
100
AcDbSpline
 62
7
  6
CONTINUOUS
 70
0
 71
3
 72
9
 73
5
 74
0
 42
0.0000001
 43
0.0000001
 44
0.0000000001
 40
0.0
 40
0.0
 40
0.0
 40
0.0
 40
0.2284136366
 40
1.0
 40
1.0
 40
1.0
 40
1.0
 10
138.2170518207
 20
89.3429270686
 30
0.0
 10
138.2144172254
 20
89.3327267419
 30
0.0
 10
138.2046892676
 20
89.287603669
 30
0.0
 10
138.201484789
 20
89.2412387686
 30
0.0
 10
138.2014846335
 20
89.205651058
 30
0.0
  0
SPLINE
  5
48E
100
AcDbEntity
  8
GEOM
100
AcDbSpline
 62
7
  6
CONTINUOUS
 70
0
 71
3
 72
9
 73
5
 74
0
 42
0.0000001
 43
0.0000001
 44
0.0000000001
 40
0.0
 40
0.0
 40
0.0
 40
0.0
 40
0.4378359994
 40
1.0
 40
1.0
 40
1.0
 40
1.0
 10
138.2014846335
 20
95.6550770882
 30
0.0
 10
138.2014847119
 20
95.6406779402
 30
0.0
 10
138.2052440338
 20
95.6078374287
 30
0.0
 10
138.2124268816
 20
95.5757274261
 30
0.0
 10
138.2170515401
 20
95.5578272528
 30
0.0
  0
SPLINE
  5
48F
100
AcDbEntity
  8
GEOM
100
AcDbSpline
 62
7
  6
CONTINUOUS
 70
0
 71
3
 72
11
 73
7
 74
0
 42
0.0000001
 43
0.0000001
 44
0.0000000001
 40
0.0
 40
0.0
 40
0.0
 40
0.0
 40
0.1938275161
 40
0.3945529148
 40
0.6546117075
 40
1.0
 40
1.0
 40
1.0
 40
1.0
 10
138.2170515401
 20
96.2579883737
 30
0.0
 10
138.214730171
 20
96.2579883282
 30
0.0
 10
138.2098056526
 20
96.2568576902
 30
0.0
 10
138.2045339986
 20
96.2505223078
 30
0.0
 10
138.2019138476
 20
96.2410933776
 30
0.0
 10
138.2014846827
 20
96.2338230188
 30
0.0
 10
138.2014846335
 20
96.229686487
 30
0.0
  0
SPLINE
  5
490
100
AcDbEntity
  8
0
100
AcDbSpline
 62
7
  6
CONTINUOUS
 70
0
 71
3
 72
9
 73
5
 74
0
 42
0.0000001
 43
0.0000001
 44
0.0000000001
 40
0.0
 40
0.0
 40
0.0
 40
0.0
 40
0.5000117935
 40
1.0
 40
1.0
 40
1.0
 40
1.0
 10
142.9935853961
 20
87.6525873316
 30
0.0
 10
143.1274936407
 20
86.9283377205
 30
0.0
 10
143.3377242063
 20
85.4683561451
 30
0.0
 10
143.4108365347
 20
83.9944785221
 30
0.0
 10
143.4108365347
 20
83.2579883737
 30
0.0
  0
SPLINE
  5
491
100
AcDbEntity
  8
0
100
AcDbSpline
 62
7
  6
CONTINUOUS
 70
0
 71
3
 72
9
 73
5
 74
0
 42
0.0000001
 43
0.0000001
 44
0.0000000001
 40
0.0
 40
0.0
 40
0.0
 40
0.0
 40
0.499988395
 40
1.0
 40
1.0
 40
1.0
 40
1.0
 10
143.4108365347
 20
83.2579883737
 30
0.0
 10
143.4108365347
 20
82.5214979477
 30
0.0
 10
143.3377241894
 20
81.0476203227
 30
0.0
 10
143.1274935903
 20
79.587638754
 30
0.0
 10
142.9935853961
 20
78.8633894159
 30
0.0
  0
SPLINE
  5
492
100
AcDbEntity
  8
GEOM
100
AcDbSpline
 62
7
  6
CONTINUOUS
 70
0
 71
3
 72
9
 73
5
 74
0
 42
0.0000001
 43
0.0000001
 44
0.0000000001
 40
0.0
 40
0.0
 40
0.0
 40
0.0
 40
0.499996442
 40
1.0
 40
1.0
 40
1.0
 40
1.0
 10
138.4744623092
 20
83.2579883737
 30
0.0
 10
138.4744623535
 20
82.5240047991
 30
0.0
 10
138.4298558417
 20
81.0556988343
 30
0.0
 10
138.3003260533
 20
79.592644226
 30
0.0
 10
138.2170515401
 20
78.8633894159
 30
0.0
  0
SPLINE
  5
493
100
AcDbEntity
  8
GEOM
100
AcDbSpline
 62
7
  6
CONTINUOUS
 70
0
 71
3
 72
9
 73
5
 74
0
 42
0.0000001
 43
0.0000001
 44
0.0000000001
 40
0.0
 40
0.0
 40
0.0
 40
0.0
 40
0.5008918466
 40
1.0
 40
1.0
 40
1.0
 40
1.0
 10
137.9351437535
 20
96.4605629481
 30
0.0
 10
137.9547988011
 20
96.402947949
 30
0.0
 10
138.0317453316
 20
96.2974190831
 30
0.0
 10
138.1563929624
 20
96.2579883738
 30
0.0
 10
138.2170515396
 20
96.2579883737
 30
0.0
  0
SPLINE
  5
494
100
AcDbEntity
  8
GEOM
100
AcDbSpline
 62
7
  6
CONTINUOUS
 70
0
 71
3
 72
11
 73
7
 74
0
 42
0.0000001
 43
0.0000001
 44
0.0000000001
 40
0.0
 40
0.0
 40
0.0
 40
0.0
 40
0.244045761
 40
0.4926228204
 40
0.7452631795
 40
1.0
 40
1.0
 40
1.0
 40
1.0
 10
137.9195768473
 20
96.4159072012
 30
0.0
 10
137.9300477692
 20
96.388766992
 30
0.0
 10
137.9603081381
 20
96.337116258
 30
0.0
 10
138.02732005
 20
96.2767896765
 30
0.0
 10
138.1102999944
 20
96.2385199531
 30
0.0
 10
138.1711202155
 20
96.2296864869
 30
0.0
 10
138.2014846335
 20
96.2296864869
 30
0.0
  0
SPLINE
  5
495
100
AcDbEntity
  8
GEOM
100
AcDbSpline
 62
7
  6
CONTINUOUS
 70
0
 71
3
 72
10
 73
6
 74
0
 42
0.0000001
 43
0.0000001
 44
0.0000000001
 40
0.0
 40
0.0
 40
0.0
 40
0.0
 40
0.2408399832
 40
0.4895038233
 40
1.0
 40
1.0
 40
1.0
 40
1.0
 10
137.9195768472
 20
95.8330487537
 30
0.0
 10
137.9301081534
 20
95.8069611962
 30
0.0
 10
137.9607789753
 20
95.7572681591
 30
0.0
 10
138.0503187997
 20
95.6802362855
 30
0.0
 10
138.1418524271
 20
95.6550770841
 30
0.0
 10
138.2014846335
 20
95.6550770883
 30
0.0
  0
SPLINE
  5
496
100
AcDbEntity
  8
GEOM
100
AcDbSpline
 62
7
  6
CONTINUOUS
 70
0
 71
3
 72
11
 73
7
 74
0
 42
0.0000001
 43
0.0000001
 44
0.0000000001
 40
0.0
 40
0.0
 40
0.0
 40
0.0
 40
0.2146870754
 40
0.453960677
 40
0.7184807669
 40
1.0
 40
1.0
 40
1.0
 40
1.0
 10
137.9351437538
 20
95.6783063479
 30
0.0
 10
137.9455108506
 20
95.6576550813
 30
0.0
 10
137.9774389701
 20
95.6187526919
 30
0.0
 10
138.0449497072
 20
95.5787296821
 30
0.0
 10
138.1275367471
 20
95.5569659611
 30
0.0
 10
138.1868491078
 20
95.555388548
 30
0.0
 10
138.2170515401
 20
95.5578272528
 30
0.0
  0
SPLINE
  5
497
100
AcDbEntity
  8
GEOM
100
AcDbSpline
 62
7
  6
CONTINUOUS
 70
0
 71
3
 72
10
 73
6
 74
0
 42
0.0000001
 43
0.0000001
 44
0.0000000001
 40
0.0
 40
0.0
 40
0.0
 40
0.0
 40
0.4617590788
 40
0.7269599282
 40
1.0
 40
1.0
 40
1.0
 40
1.0
 10
137.9351437535
 20
89.5089304192
 30
0.0
 10
137.9571106968
 20
89.4616246729
 30
0.0
 10
138.0220070518
 20
89.4013370585
 30
0.0
 10
138.125926331
 20
89.3571013663
 30
0.0
 10
138.1863107781
 20
89.3454079475
 30
0.0
 10
138.2170515396
 20
89.3429258036
 30
0.0
  0
SPLINE
  5
498
100
AcDbEntity
  8
GEOM
100
AcDbSpline
 62
7
  6
CONTINUOUS
 70
0
 71
3
 72
11
 73
7
 74
0
 42
0.0000001
 43
0.0000001
 44
0.0000000001
 40
0.0
 40
0.0
 40
0.0
 40
0.0
 40
0.1854297133
 40
0.422248231
 40
0.7002267578
 40
1.0
 40
1.0
 40
1.0
 40
1.0
 10
137.9195768473
 20
89.2910352523
 30
0.0
 10
137.9315702272
 20
89.2767818234
 30
0.0
 10
137.9669559874
 20
89.2514779793
 30
0.0
 10
138.0327297634
 20
89.2258027618
 30
0.0
 10
138.1132701507
 20
89.2094026602
 30
0.0
 10
138.1713698914
 20
89.205651058
 30
0.0
 10
138.2014846335
 20
89.205651058
 30
0.0
  0
SPLINE
  5
499
100
AcDbEntity
  8
GEOM
100
AcDbSpline
 62
7
  6
CONTINUOUS
 70
0
 71
3
 72
11
 73
7
 74
0
 42
0.0000001
 43
0.0000001
 44
0.0000000001
 40
0.0
 40
0.0
 40
0.0
 40
0.0
 40
0.1745870619
 40
0.410093008
 40
0.6927267026
 40
1.0
 40
1.0
 40
1.0
 40
1.0
 10
137.9195768473
 20
87.883890483
 30
0.0
 10
137.9322125414
 20
87.8723762021
 30
0.0
 10
137.9684446681
 20
87.853093845
 30
0.0
 10
138.0334860126
 20
87.8337087776
 30
0.0
 10
138.1136139725
 20
87.8212787434
 30
0.0
 10
138.171397406
 20
87.8184212498
 30
0.0
 10
138.2014846335
 20
87.8184212544
 30
0.0
  0
SPLINE
  5
49A
100
AcDbEntity
  8
GEOM
100
AcDbSpline
 62
7
  6
CONTINUOUS
 70
0
 71
3
 72
11
 73
7
 74
0
 42
0.0000001
 43
0.0000001
 44
0.0000000001
 40
0.0
 40
0.0
 40
0.0
 40
0.0
 40
0.1745870436
 40
0.4100929872
 40
0.692726692
 40
1.0
 40
1.0
 40
1.0
 40
1.0
 10
137.9195768473
 20
78.6320862645
 30
0.0
 10
137.9322125427
 20
78.6436005409
 30
0.0
 10
137.9684446693
 20
78.6628828904
 30
0.0
 10
138.0334860121
 20
78.6822679546
 30
0.0
 10
138.1136139715
 20
78.6946979924
 30
0.0
 10
138.1713974055
 20
78.697555493
 30
0.0
 10
138.2014846335
 20
78.697555493
 30
0.0
  0
SPLINE
  5
49B
100
AcDbEntity
  8
GEOM
100
AcDbSpline
 62
7
  6
CONTINUOUS
 70
0
 71
3
 72
11
 73
7
 74
0
 42
0.0000001
 43
0.0000001
 44
0.0000000001
 40
0.0
 40
0.0
 40
0.0
 40
0.0
 40
0.1854296997
 40
0.4222482217
 40
0.7002267529
 40
1.0
 40
1.0
 40
1.0
 40
1.0
 10
137.9195768473
 20
77.2249414952
 30
0.0
 10
137.9315702286
 20
77.2391949206
 30
0.0
 10
137.9669559911
 20
77.2644987575
 30
0.0
 10
138.0327297656
 20
77.2901739718
 30
0.0
 10
138.1132701517
 20
77.3065740766
 30
0.0
 10
138.1713698915
 20
77.310325685
 30
0.0
 10
138.2014846335
 20
77.3103256894
 30
0.0
  0
SPLINE
  5
49C
100
AcDbEntity
  8
GEOM
100
AcDbSpline
 62
7
  6
CONTINUOUS
 70
0
 71
3
 72
10
 73
6
 74
0
 42
0.0000001
 43
0.0000001
 44
0.0000000001
 40
0.0
 40
0.0
 40
0.0
 40
0.0
 40
0.46175883
 40
0.7269598146
 40
1.0
 40
1.0
 40
1.0
 40
1.0
 10
137.9351437538
 20
77.0070463267
 30
0.0
 10
137.9571107123
 20
77.0543520291
 30
0.0
 10
138.0220070535
 20
77.1146396024
 30
0.0
 10
138.1259263121
 20
77.1588753084
 30
0.0
 10
138.1863107705
 20
77.1705687775
 30
0.0
 10
138.2170515401
 20
77.173050942
 30
0.0
  0
SPLINE
  5
49D
100
AcDbEntity
  8
GEOM
100
AcDbSpline
 62
7
  6
CONTINUOUS
 70
0
 71
3
 72
11
 73
7
 74
0
 42
0.0000001
 43
0.0000001
 44
0.0000000001
 40
0.0
 40
0.0
 40
0.0
 40
0.0
 40
0.2146869994
 40
0.4539606758
 40
0.718480753
 40
1.0
 40
1.0
 40
1.0
 40
1.0
 10
137.9351437535
 20
70.8376703979
 30
0.0
 10
137.9455108546
 20
70.8583216488
 30
0.0
 10
137.9774390073
 20
70.8972239994
 30
0.0
 10
138.0449497339
 20
70.9372469847
 30
0.0
 10
138.1275367619
 20
70.9590107193
 30
0.0
 10
138.1868491087
 20
70.9605881694
 30
0.0
 10
138.2170515396
 20
70.9581494927
 30
0.0
  0
SPLINE
  5
49E
100
AcDbEntity
  8
GEOM
100
AcDbSpline
 62
7
  6
CONTINUOUS
 70
0
 71
3
 72
10
 73
6
 74
0
 42
0.0000001
 43
0.0000001
 44
0.0000000001
 40
0.0
 40
0.0
 40
0.0
 40
0.0
 40
0.2408400061
 40
0.4895038732
 40
1.0
 40
1.0
 40
1.0
 40
1.0
 10
137.9195768472
 20
70.6829279938
 30
0.0
 10
137.930108155
 20
70.7090155532
 30
0.0
 10
137.9607789881
 20
70.7587085897
 30
0.0
 10
138.0503188096
 20
70.8357404637
 30
0.0
 10
138.1418524336
 20
70.8608996593
 30
0.0
 10
138.2014846335
 20
70.8608996593
 30
0.0
  0
SPLINE
  5
49F
100
AcDbEntity
  8
GEOM
100
AcDbSpline
 62
7
  6
CONTINUOUS
 70
0
 71
3
 72
11
 73
7
 74
0
 42
0.0000001
 43
0.0000001
 44
0.0000000001
 40
0.0
 40
0.0
 40
0.0
 40
0.0
 40
0.2440457349
 40
0.492622778
 40
0.7452631616
 40
1.0
 40
1.0
 40
1.0
 40
1.0
 10
137.9195768473
 20
70.1000695463
 30
0.0
 10
137.9300477686
 20
70.1272097522
 30
0.0
 10
137.960308132
 20
70.1788604829
 30
0.0
 10
138.027320044
 20
70.2391870603
 30
0.0
 10
138.1102999886
 20
70.2774567872
 30
0.0
 10
138.1711202136
 20
70.286290259
 30
0.0
 10
138.2014846335
 20
70.2862902606
 30
0.0
  0
SPLINE
  5
4A0
100
AcDbEntity
  8
GEOM
100
AcDbSpline
 62
7
  6
CONTINUOUS
 70
0
 71
3
 72
9
 73
5
 74
0
 42
0.0000001
 43
0.0000001
 44
0.0000000001
 40
0.0
 40
0.0
 40
0.0
 40
0.0
 40
0.5008916645
 40
1.0
 40
1.0
 40
1.0
 40
1.0
 10
137.9351437538
 20
70.0554137994
 30
0.0
 10
137.9547988001
 20
70.113028775
 30
0.0
 10
138.0317453103
 20
70.2185576382
 30
0.0
 10
138.1563929413
 20
70.2579883737
 30
0.0
 10
138.2170515401
 20
70.2579883737
 30
0.0
  0
SPLINE
  5
4A1
100
AcDbEntity
  8
0
100
AcDbSpline
 62
7
  6
CONTINUOUS
 70
0
 71
3
 72
9
 73
5
 74
0
 42
0.0000001
 43
0.0000001
 44
0.0000000001
 40
0.0
 40
0.0
 40
0.0
 40
0.0
 40
0.5622525642
 40
1.0
 40
1.0
 40
1.0
 40
1.0
 10
142.9935853961
 20
70.9581494947
 30
0.0
 10
142.9889060646
 20
70.9402537505
 30
0.0
 10
142.9816347225
 20
70.9081516844
 30
0.0
 10
142.9778238328
 20
70.8753009975
 30
0.0
 10
142.9778238328
 20
70.8608996593
 30
0.0
  0
SPLINE
  5
4A2
100
AcDbEntity
  8
GEOM
100
AcDbSpline
 62
7
  6
CONTINUOUS
 70
0
 71
3
 72
9
 73
5
 74
0
 42
0.0000001
 43
0.0000001
 44
0.0000000001
 40
0.0
 40
0.0
 40
0.0
 40
0.0
 40
0.5000037928
 40
1.0
 40
1.0
 40
1.0
 40
1.0
 10
138.2170515401
 20
87.6525873316
 30
0.0
 10
138.3003258624
 20
86.923332153
 30
0.0
 10
138.4298558783
 20
85.4602775787
 30
0.0
 10
138.4744624648
 20
83.9919716036
 30
0.0
 10
138.4744623092
 20
83.2579883737
 30
0.0
  0
SPLINE
  5
4A3
100
AcDbEntity
  8
0
100
AcDbSpline
 62
7
  6
CONTINUOUS
 70
0
 71
3
 72
9
 73
5
 74
0
 42
0.0000001
 43
0.0000001
 44
0.0000000001
 40
0.0
 40
0.0
 40
0.0
 40
0.0
 40
0.2546175689
 40
1.0
 40
1.0
 40
1.0
 40
1.0
 10
142.9935853961
 20
78.8633894159
 30
0.0
 10
142.9910129767
 20
78.8494763536
 30
0.0
 10
142.9820800378
 20
78.7946291771
 30
0.0
 10
142.9778238328
 20
78.7389757389
 30
0.0
 10
142.9778238328
 20
78.697555493
 30
0.0
  0
SPLINE
  5
4A4
100
AcDbEntity
  8
0
100
AcDbSpline
 62
7
  6
CONTINUOUS
 70
0
 71
3
 72
9
 73
5
 74
0
 42
0.0000001
 43
0.0000001
 44
0.0000000001
 40
0.0
 40
0.0
 40
0.0
 40
0.0
 40
0.2284227121
 40
1.0
 40
1.0
 40
1.0
 40
1.0
 10
142.9935853961
 20
77.173050942
 30
0.0
 10
142.9909197143
 20
77.1832456373
 30
0.0
 10
142.981077754
 20
77.2283534585
 30
0.0
 10
142.9778238328
 20
77.2747318102
 30
0.0
 10
142.9778238328
 20
77.3103256895
 30
0.0
  0
SPLINE
  5
4A5
100
AcDbEntity
  8
0
100
AcDbSpline
 62
7
  6
CONTINUOUS
 70
0
 71
3
 72
11
 73
7
 74
0
 42
0.0000001
 43
0.0000001
 44
0.0000000001
 40
0.0
 40
0.0
 40
0.0
 40
0.0
 40
0.1952500898
 40
0.3963619538
 40
0.6558338718
 40
1.0
 40
1.0
 40
1.0
 40
1.0
 10
142.9935853961
 20
96.2579883737
 30
0.0
 10
142.9912382578
 20
96.2579883737
 30
0.0
 10
142.9862744963
 20
96.2568689216
 30
0.0
 10
142.9809203702
 20
96.2505434507
 30
0.0
 10
142.9782593761
 20
96.241099014
 30
0.0
 10
142.9778238328
 20
96.233823773
 30
0.0
 10
142.9778238328
 20
96.229686487
 30
0.0
  0
SPLINE
  5
4A6
100
AcDbEntity
  8
0
100
AcDbSpline
 62
7
  6
CONTINUOUS
 70
0
 71
3
 72
9
 73
5
 74
0
 42
0.0000001
 43
0.0000001
 44
0.0000000001
 40
0.0
 40
0.0
 40
0.0
 40
0.0
 40
0.5622525641
 40
1.0
 40
1.0
 40
1.0
 40
1.0
 10
142.9935853961
 20
95.5578272528
 30
0.0
 10
142.9889060646
 20
95.575722997
 30
0.0
 10
142.9816347225
 20
95.6078250631
 30
0.0
 10
142.9778238328
 20
95.64067575
 30
0.0
 10
142.9778238328
 20
95.6550770882
 30
0.0
  0
SPLINE
  5
4A7
100
AcDbEntity
  8
0
100
AcDbSpline
 62
7
  6
CONTINUOUS
 70
0
 71
3
 72
9
 73
5
 74
0
 42
0.0000001
 43
0.0000001
 44
0.0000000001
 40
0.0
 40
0.0
 40
0.0
 40
0.0
 40
0.2284227121
 40
1.0
 40
1.0
 40
1.0
 40
1.0
 10
142.9935853961
 20
89.3429258055
 30
0.0
 10
142.9909197143
 20
89.3327311102
 30
0.0
 10
142.981077754
 20
89.287623289
 30
0.0
 10
142.9778238328
 20
89.2412449373
 30
0.0
 10
142.9778238328
 20
89.205651058
 30
0.0
  0
SPLINE
  5
4A8
100
AcDbEntity
  8
0
100
AcDbSpline
 62
7
  6
CONTINUOUS
 70
0
 71
3
 72
9
 73
5
 74
0
 42
0.0000001
 43
0.0000001
 44
0.0000000001
 40
0.0
 40
0.0
 40
0.0
 40
0.0
 40
0.2546175689
 40
1.0
 40
1.0
 40
1.0
 40
1.0
 10
142.9935853961
 20
87.6525873316
 30
0.0
 10
142.9910129767
 20
87.6665003939
 30
0.0
 10
142.9820800378
 20
87.7213475704
 30
0.0
 10
142.9778238328
 20
87.7770010085
 30
0.0
 10
142.9778238328
 20
87.8184212545
 30
0.0
  0
SPLINE
  5
4A9
100
AcDbEntity
  8
0
100
AcDbSpline
 62
7
  6
CONTINUOUS
 70
0
 71
3
 72
11
 73
7
 74
0
 42
0.0000001
 43
0.0000001
 44
0.0000000001
 40
0.0
 40
0.0
 40
0.0
 40
0.0
 40
0.2510768456
 40
0.5000000057
 40
0.748923164
 40
1.0
 40
1.0
 40
1.0
 40
1.0
 10
142.9935853961
 20
95.5578272528
 30
0.0
 10
143.1266236874
 20
95.0490325113
 30
0.0
 10
143.3369429741
 20
94.0200839341
 30
0.0
 10
143.44762417
 20
92.4503764969
 30
0.0
 10
143.3369429812
 20
90.8806690777
 30
0.0
 10
143.1266236823
 20
89.8517205277
 30
0.0
 10
142.9935853961
 20
89.3429258055
 30
0.0
  0
SPLINE
  5
4AA
100
AcDbEntity
  8
0
100
AcDbSpline
 62
7
  6
CONTINUOUS
 70
0
 71
3
 72
37
 73
33
 74
0
 42
0.0000001
 43
0.0000001
 44
0.0000000001
 40
0.0
 40
0.0
 40
0.0
 40
0.0
 40
0.0009330369
 40
0.0027944288
 40
0.0057297936
 40
0.0097640729
 40
0.0149014728
 40
0.0211380551
 40
0.0368512783
 40
0.0567724534
 40
0.0807298397
 40
0.1085036547
 40
0.1398492216
 40
0.1744761888
 40
0.2120767215
 40
0.252303658
 40
0.2947960395
 40
0.3850068517
 40
0.479435408
 40
0.5746540933
 40
0.6672064117
 40
0.7537329544
 40
0.8310940085
 40
0.8654434144
 40
0.8964850076
 40
0.9239315793
 40
0.9475409611
 40
0.9670974401
 40
0.9824320523
 40
0.9934180527
 40
0.9972574857
 40
1.0
 40
1.0
 40
1.0
 40
1.0
 10
102.3884105084
 20
92.5734770222
 30
0.0
 10
102.3942054939
 20
92.5734892903
 30
0.0
 10
102.4075171833
 20
92.5575569714
 30
0.0
 10
102.418166078
 20
92.5253781542
 30
0.0
 10
102.4321206928
 20
92.4713672778
 30
0.0
 10
102.4450244363
 20
92.3976204385
 30
0.0
 10
102.4586580537
 20
92.3027521325
 30
0.0
 10
102.4782056482
 20
92.1357047656
 30
0.0
 10
102.5017895779
 20
91.8766479128
 30
0.0
 10
102.5286910699
 20
91.5075175434
 30
0.0
 10
102.5557620803
 20
91.0633014299
 30
0.0
 10
102.5829674533
 20
90.5480363255
 30
0.0
 10
102.6102355785
 20
89.9664227769
 30
0.0
 10
102.637563917
 20
89.3237203912
 30
0.0
 10
102.6649187101
 20
88.6258120519
 30
0.0
 10
102.6923056933
 20
87.8790190102
 30
0.0
 10
102.7295843664
 20
86.8056140068
 30
0.0
 10
102.7754627593
 20
85.3956665153
 30
0.0
 10
102.8295730266
 20
83.6583387609
 30
0.0
 10
102.8836964356
 20
81.9064616254
 30
0.0
 10
102.937760047
 20
80.2036845049
 30
0.0
 10
102.9916998145
 20
78.6118742695
 30
0.0
 10
103.0380425607
 20
77.3815101717
 30
0.0
 10
103.0759912805
 20
76.495701509
 30
0.0
 10
103.1032598904
 20
75.9197402167
 30
0.0
 10
103.1304460521
 20
75.4105589015
 30
0.0
 10
103.1575338711
 20
74.9728305467
 30
0.0
 10
103.1843280528
 20
74.6104439359
 30
0.0
 10
103.2109747641
 20
74.3267822308
 30
0.0
 10
103.2341163884
 20
74.1407388228
 30
0.0
 10
103.2543400693
 20
74.0335229162
 30
0.0
 10
103.2645662127
 20
73.9938273676
 30
0.0
 10
103.2702835238
 20
73.9777820628
 30
0.0
  0
SPLINE
  5
4AB
100
AcDbEntity
  8
0
100
AcDbSpline
 62
7
  6
CONTINUOUS
 70
0
 71
3
 72
9
 73
5
 74
0
 42
0.0000001
 43
0.0000001
 44
0.0000000001
 40
0.0
 40
0.0
 40
0.0
 40
0.0
 40
0.2799938124
 40
1.0
 40
1.0
 40
1.0
 40
1.0
 10
103.2702835238
 20
73.9777820628
 30
0.0
 10
103.2709236192
 20
73.9759856721
 30
0.0
 10
103.2732884294
 20
73.9696000123
 30
0.0
 10
103.2759770946
 20
73.9633210818
 30
0.0
 10
103.2782425194
 20
73.9589717885
 30
0.0
  0
SPLINE
  5
4AC
100
AcDbEntity
  8
0
100
AcDbSpline
 62
7
  6
CONTINUOUS
 70
0
 71
3
 72
35
 73
31
 74
0
 42
0.0000001
 43
0.0000001
 44
0.0000000001
 40
0.0
 40
0.0
 40
0.0
 40
0.0
 40
0.0009263471
 40
0.0027657596
 40
0.0056679716
 40
0.0096601716
 40
0.0147423085
 40
0.0209074571
 40
0.0364463424
 40
0.0561517139
 40
0.0798493194
 40
0.1073341492
 40
0.1383553499
 40
0.1726418466
 40
0.2098800666
 40
0.2497416609
 40
0.2918642666
 40
0.3813703677
 40
0.4751897156
 40
0.5699584069
 40
0.6622784659
 40
0.7488401386
 40
0.8265411424
 40
0.8925989143
 40
0.9205057305
 40
0.9446531982
 40
0.9648292912
 40
0.9808582278
 40
0.992605093
 40
1.0
 40
1.0
 40
1.0
 40
1.0
 10
100.5744106415
 20
92.5734493628
 30
0.0
 10
100.5801586014
 20
92.573441386
 30
0.0
 10
100.5933632842
 20
92.5577879171
 30
0.0
 10
100.604002311
 20
92.525973351
 30
0.0
 10
100.6178514489
 20
92.4726471847
 30
0.0
 10
100.6306748351
 20
92.3997669228
 30
0.0
 10
100.6442197334
 20
92.3060415626
 30
0.0
 10
100.6636603926
 20
92.1410213181
 30
0.0
 10
100.6870933638
 20
91.8850768846
 30
0.0
 10
100.7138267691
 20
91.5203308849
 30
0.0
 10
100.7407394499
 20
91.0812831818
 30
0.0
 10
100.7677685341
 20
90.5719264553
 30
0.0
 10
100.794878898
 20
89.9967860226
 30
0.0
 10
100.8220310342
 20
89.3610689592
 30
0.0
 10
100.8492252987
 20
88.6704532907
 30
0.0
 10
100.8764390574
 20
87.9311806866
 30
0.0
 10
100.9135045158
 20
86.867732023
 30
0.0
 10
100.9591160045
 20
85.4695737861
 30
0.0
 10
101.0129042506
 20
83.7448437521
 30
0.0
 10
101.0667048539
 20
82.0026450151
 30
0.0
 10
101.1204614944
 20
80.3055006912
 30
0.0
 10
101.1740693289
 20
78.7143095545
 30
0.0
 10
101.2274653982
 20
77.2861724172
 30
0.0
 10
101.2737149538
 20
76.221975373
 30
0.0
 10
101.3119641897
 20
75.490092521
 30
0.0
 10
101.3388698549
 20
75.0426911892
 30
0.0
 10
101.3657059515
 20
74.6691988981
 30
0.0
 10
101.3918784359
 20
74.37268053
 30
0.0
 10
101.4181490648
 20
74.1562197897
 30
0.0
 10
101.4379309351
 20
74.0386499505
 30
0.0
 10
101.450853864
 20
73.9946220717
 30
0.0
  0
SPLINE
  5
4AD
100
AcDbEntity
  8
0
100
AcDbSpline
 62
7
  6
CONTINUOUS
 70
0
 71
3
 72
9
 73
5
 74
0
 42
0.0000001
 43
0.0000001
 44
0.0000000001
 40
0.0
 40
0.0
 40
0.0
 40
0.0
 40
0.2963168384
 40
1.0
 40
1.0
 40
1.0
 40
1.0
 10
101.450853864
 20
73.9946220717
 30
0.0
 10
101.451913551
 20
73.9910117625
 30
0.0
 10
101.4556735479
 20
73.9788937644
 30
0.0
 10
101.4601079637
 20
73.9669089315
 30
0.0
 10
101.4642426809
 20
73.9589878061
 30
0.0
  0
SPLINE
  5
4AE
100
AcDbEntity
  8
0
100
AcDbSpline
 62
7
  6
CONTINUOUS
 70
0
 71
3
 72
9
 73
5
 74
0
 42
0.0000001
 43
0.0000001
 44
0.0000000001
 40
0.0
 40
0.0
 40
0.0
 40
0.0
 40
0.4859483541
 40
1.0
 40
1.0
 40
1.0
 40
1.0
 10
116.2887315416
 20
95.7579883737
 30
0.0
 10
116.3195184673
 20
95.7579883735
 30
0.0
 10
116.3839730882
 20
95.7780790286
 30
0.0
 10
116.4270783785
 20
95.8289509969
 30
0.0
 10
116.4418250959
 20
95.8579883737
 30
0.0
  0
SPLINE
  5
4AF
100
AcDbEntity
  8
0
100
AcDbSpline
 62
7
  6
CONTINUOUS
 70
0
 71
3
 72
8
 73
4
 74
0
 42
0.0000001
 43
0.0000001
 44
0.0000000001
 40
0.0
 40
0.0
 40
0.0
 40
0.0
 40
1.0
 40
1.0
 40
1.0
 40
1.0
 10
116.4418250959
 20
95.8579883737
 30
0.0
 10
116.4573361719
 20
95.8885308291
 30
0.0
 10
116.4655087685
 20
95.9237329354
 30
0.0
 10
116.4655087511
 20
95.9579883737
 30
0.0
  0
SPLINE
  5
4B0
100
AcDbEntity
  8
0
100
AcDbSpline
 62
7
  6
CONTINUOUS
 70
0
 71
3
 72
13
 73
9
 74
0
 42
0.0000001
 43
0.0000001
 44
0.0000000001
 40
0.0
 40
0.0
 40
0.0
 40
0.0
 40
0.1776683501
 40
0.2577277587
 40
0.3524132893
 40
0.4728817134
 40
0.6222590629
 40
1.0
 40
1.0
 40
1.0
 40
1.0
 10
116.4806105945
 20
95.7579883737
 30
0.0
 10
116.5020404695
 20
95.7579917419
 30
0.0
 10
116.5370587758
 20
95.7519127686
 30
0.0
 10
116.5616040745
 20
95.7147568148
 30
0.0
 10
116.565902943
 20
95.6786059097
 30
0.0
 10
116.5590674808
 20
95.63489088
 30
0.0
 10
116.5342792212
 20
95.5605797751
 30
0.0
 10
116.5039440895
 20
95.5042289248
 30
0.0
 10
116.4806105945
 20
95.4650951549
 30
0.0
  0
SPLINE
  5
4B1
100
AcDbEntity
  8
0
100
AcDbSpline
 62
7
  6
CONTINUOUS
 70
0
 71
3
 72
13
 73
9
 74
0
 42
0.0000001
 43
0.0000001
 44
0.0000000001
 40
0.0
 40
0.0
 40
0.0
 40
0.0
 40
0.0749065868
 40
0.1437584841
 40
0.222687585
 40
0.3238036088
 40
0.6084439158
 40
1.0
 40
1.0
 40
1.0
 40
1.0
 10
104.8725216571
 20
95.7579883737
 30
0.0
 10
104.8808305271
 20
95.7579949299
 30
0.0
 10
104.8972176309
 20
95.7555846134
 30
0.0
 10
104.9174611254
 20
95.7394964184
 30
0.0
 10
104.928168048
 20
95.7131367072
 30
0.0
 10
104.9320412182
 20
95.6613667917
 30
0.0
 10
104.9143214849
 20
95.5758181707
 30
0.0
 10
104.8889717875
 20
95.5052919957
 30
0.0
 10
104.8725216571
 20
95.4650951549
 30
0.0
  0
SPLINE
  5
4B2
100
AcDbEntity
  8
0
100
AcDbSpline
 62
7
  6
CONTINUOUS
 70
0
 71
3
 72
9
 73
5
 74
0
 42
0.0000001
 43
0.0000001
 44
0.0000000001
 40
0.0
 40
0.0
 40
0.0
 40
0.0
 40
0.1887674753
 40
1.0
 40
1.0
 40
1.0
 40
1.0
 10
100.3915784865
 20
92.556987835
 30
0.0
 10
100.3934356621
 20
92.5534297808
 30
0.0
 10
100.4020401627
 20
92.5339460761
 30
0.0
 10
100.4075032868
 20
92.5132683889
 30
0.0
 10
100.4115534392
 20
92.4965021775
 30
0.0
  0
SPLINE
  5
4B3
100
AcDbEntity
  8
0
100
AcDbSpline
 62
7
  6
CONTINUOUS
 70
0
 71
3
 72
34
 73
30
 74
0
 42
0.0000001
 43
0.0000001
 44
0.0000000001
 40
0.0
 40
0.0
 40
0.0
 40
0.0
 40
0.0083766789
 40
0.0210346385
 40
0.0378930853
 40
0.0588057742
 40
0.0835964985
 40
0.1120464357
 40
0.1788941294
 40
0.2569951608
 40
0.3435940832
 40
0.435633504
 40
0.5298629831
 40
0.6229543608
 40
0.7116197275
 40
0.7533041342
 40
0.792728086
 40
0.829538841
 40
0.8634166778
 40
0.8940561764
 40
0.9211940644
 40
0.9445859244
 40
0.964032967
 40
0.97936565
 40
0.9904619461
 40
0.9944011109
 40
0.997265372
 40
0.9990819391
 40
1.0
 40
1.0
 40
1.0
 40
1.0
 10
100.4115534392
 20
92.4965021775
 30
0.0
 10
100.4237414715
 20
92.4460479955
 30
0.0
 10
100.443650165
 20
92.316970336
 30
0.0
 10
100.4697279633
 20
92.0837011416
 30
0.0
 10
100.4959074549
 20
91.7722475602
 30
0.0
 10
100.5225635587
 20
91.3855161557
 30
0.0
 10
100.5493102302
 20
90.9267971195
 30
0.0
 10
100.5871973737
 20
90.1836428325
 30
0.0
 10
100.6330947584
 20
89.1101565196
 30
0.0
 10
100.6861342116
 20
87.6763688691
 30
0.0
 10
100.7393716475
 20
86.086392345
 30
0.0
 10
100.792744772
 20
84.3964312483
 30
0.0
 10
100.8461563411
 20
82.6662218108
 30
0.0
 10
100.8995518974
 20
80.9569290739
 30
0.0
 10
100.9448427316
 20
79.5731334443
 30
0.0
 10
100.981643815
 20
78.5217875562
 30
0.0
 10
101.0086541635
 20
77.7916099317
 30
0.0
 10
101.0356448843
 20
77.1098396966
 30
0.0
 10
101.0625937193
 20
76.4825445996
 30
0.0
 10
101.0895012209
 20
75.9152481008
 30
0.0
 10
101.1163281188
 20
75.4129937536
 30
0.0
 10
101.1430381135
 20
74.98022739
 30
0.0
 10
101.1695755509
 20
74.6206733824
 30
0.0
 10
101.1956758609
 20
74.3377509967
 30
0.0
 10
101.2190142812
 20
74.1506185683
 30
0.0
 10
101.2383001144
 20
74.0418059598
 30
0.0
 10
101.2520387284
 20
73.9892942619
 30
0.0
 10
101.2626200267
 20
73.9579016956
 30
0.0
 10
101.2757218409
 20
73.9425355211
 30
0.0
 10
101.2814105267
 20
73.9425282121
 30
0.0
  0
SPLINE
  5
4B4
100
AcDbEntity
  8
0
100
AcDbSpline
 62
7
  6
CONTINUOUS
 70
0
 71
3
 72
11
 73
7
 74
0
 42
0.0000001
 43
0.0000001
 44
0.0000000001
 40
0.0
 40
0.0
 40
0.0
 40
0.0
 40
0.0687056015
 40
0.2558578855
 40
0.5666210112
 40
1.0
 40
1.0
 40
1.0
 40
1.0
 10
114.6995116693
 20
136.3579883737
 30
0.0
 10
114.7042911363
 20
136.3611654648
 30
0.0
 10
114.7231146152
 20
136.3702622219
 30
0.0
 10
114.7707159603
 20
136.3728345618
 30
0.0
 10
114.8457669701
 20
136.3642396596
 30
0.0
 10
114.9065797871
 20
136.3579883738
 30
0.0
 10
114.9419854921
 20
136.3579883737
 30
0.0
  0
SPLINE
  5
4B5
100
AcDbEntity
  8
0
100
AcDbSpline
 62
7
  6
CONTINUOUS
 70
0
 71
3
 72
37
 73
33
 74
0
 42
0.0000001
 43
0.0000001
 44
0.0000000001
 40
0.0
 40
0.0
 40
0.0
 40
0.0
 40
0.000929571
 40
0.0027804311
 40
0.005697924
 40
0.0097075769
 40
0.01481419
 40
0.0210131493
 40
0.036630951
 40
0.0564338141
 40
0.0802502251
 40
0.1078648257
 40
0.1390347981
 40
0.173474095
 40
0.2108783248
 40
0.2509043505
 40
0.2931958256
 40
0.383021496
 40
0.4771173276
 40
0.5720905778
 40
0.6645166549
 40
0.7510630815
 40
0.8286102917
 40
0.8631191427
 40
0.8943655157
 40
0.9220620224
 40
0.9459660346
 40
0.9658601527
 40
0.9815733591
 40
0.9929749482
 40
0.9970337132
 40
1.0
 40
1.0
 40
1.0
 40
1.0
 10
98.7604105275
 20
92.5734827265
 30
0.0
 10
98.7661811307
 20
92.5734925549
 30
0.0
 10
98.7794383969
 20
92.5576796126
 30
0.0
 10
98.7900694566
 20
92.5256978394
 30
0.0
 10
98.8039722881
 20
92.4720540521
 30
0.0
 10
98.8168366596
 20
92.398794917
 30
0.0
 10
98.8304221053
 20
92.3045529553
 30
0.0
 10
98.8499049375
 20
92.1386050642
 30
0.0
 10
98.8734122537
 20
91.8812379718
 30
0.0
 10
98.9002217346
 20
91.5144923051
 30
0.0
 10
98.9272042735
 20
91.0730945699
 30
0.0
 10
98.9543176801
 20
90.5610382427
 30
0.0
 10
98.9814955889
 20
89.9829562583
 30
0.0
 10
99.0087324885
 20
89.3440457812
 30
0.0
 10
99.0359961245
 20
88.6501137844
 30
0.0
 10
99.0632920026
 20
87.9074033731
 30
0.0
 10
99.1004522229
 20
86.8394149012
 30
0.0
 10
99.1461872645
 20
85.435868542
 30
0.0
 10
99.2001217215
 20
83.7053797065
 30
0.0
 10
99.2540709313
 20
81.958740775
 30
0.0
 10
99.3079635568
 20
80.2589876336
 30
0.0
 10
99.3617367541
 20
78.6674656554
 30
0.0
 10
99.4079166636
 20
77.4354356007
 30
0.0
 10
99.4457156487
 20
76.5466405956
 30
0.0
 10
99.4728994061
 20
75.9671443266
 30
0.0
 10
99.5000069103
 20
75.4535543977
 30
0.0
 10
99.5270164283
 20
75.010550335
 30
0.0
 10
99.5537628363
 20
74.6420551505
 30
0.0
 10
99.5803479781
 20
74.3514619532
 30
0.0
 10
99.6034971683
 20
74.1592040196
 30
0.0
 10
99.6235687283
 20
74.0465859696
 30
0.0
 10
99.6337351961
 20
74.0040909105
 30
0.0
 10
99.6393311429
 20
73.9865476075
 30
0.0
  0
SPLINE
  5
4B6
100
AcDbEntity
  8
0
100
AcDbSpline
 62
7
  6
CONTINUOUS
 70
0
 71
3
 72
9
 73
5
 74
0
 42
0.0000001
 43
0.0000001
 44
0.0000000001
 40
0.0
 40
0.0
 40
0.0
 40
0.0
 40
0.2892003623
 40
1.0
 40
1.0
 40
1.0
 40
1.0
 10
99.6393311429
 20
73.9865476075
 30
0.0
 10
99.6402006092
 20
73.983821829
 30
0.0
 10
99.6433388616
 20
73.9744447494
 30
0.0
 10
99.6469937897
 20
73.9652018173
 30
0.0
 10
99.6502425305
 20
73.9589652344
 30
0.0
  0
SPLINE
  5
4B7
100
AcDbEntity
  8
0
100
AcDbSpline
 62
7
  6
CONTINUOUS
 70
0
 71
3
 72
9
 73
5
 74
0
 42
0.0000001
 43
0.0000001
 44
0.0000000001
 40
0.0
 40
0.0
 40
0.0
 40
0.0
 40
0.218457859
 40
1.0
 40
1.0
 40
1.0
 40
1.0
 10
98.5775786434
 20
92.5570063665
 30
0.0
 10
98.5783287376
 20
92.5555663044
 30
0.0
 10
98.5815849721
 20
92.5488818917
 30
0.0
 10
98.5842485653
 20
92.5419236667
 30
0.0
 10
98.5861566878
 20
92.5364371288
 30
0.0
  0
SPLINE
  5
4B8
100
AcDbEntity
  8
0
100
AcDbSpline
 62
7
  6
CONTINUOUS
 70
0
 71
3
 72
37
 73
33
 74
0
 42
0.0000001
 43
0.0000001
 44
0.0000000001
 40
0.0
 40
0.0
 40
0.0
 40
0.0
 40
0.0029114293
 40
0.0069165969
 40
0.018217301
 40
0.0338379539
 40
0.0536502142
 40
0.0774822333
 40
0.1051181601
 40
0.1363145705
 40
0.1707847331
 40
0.2482866688
 40
0.3348283678
 40
0.4272853224
 40
0.5223184544
 40
0.6164953731
 40
0.70641483
 40
0.7487551017
 40
0.7888301154
 40
0.8262821255
 40
0.8607670362
 40
0.8919798935
 40
0.9196330145
 40
0.9434840112
 40
0.9633153207
 40
0.9789566908
 40
0.9851646818
 40
0.9902785337
 40
0.9942942983
 40
0.9972163493
 40
0.9990697832
 40
1.0
 40
1.0
 40
1.0
 40
1.0
 10
98.5877688561
 20
92.5316571077
 30
0.0
 10
98.5933928432
 20
92.514478369
 30
0.0
 10
98.6035746914
 20
92.472668027
 30
0.0
 10
98.6236828552
 20
92.3613642156
 30
0.0
 10
98.6468299135
 20
92.1706200807
 30
0.0
 10
98.6734321877
 20
91.8817104279
 30
0.0
 10
98.700188868
 20
91.5147019641
 30
0.0
 10
98.7272188471
 20
91.0729775179
 30
0.0
 10
98.7543447343
 20
90.5604586023
 30
0.0
 10
98.7815497924
 20
89.9818180301
 30
0.0
 10
98.81938494
 20
89.0937450477
 30
0.0
 10
98.8656049007
 20
87.8621126757
 30
0.0
 10
98.9194187223
 20
86.2705109522
 30
0.0
 10
98.9733531511
 20
84.5700112514
 30
0.0
 10
99.0273449011
 20
82.8220868518
 30
0.0
 10
99.0813223398
 20
81.0899238257
 30
0.0
 10
99.1270922972
 20
79.684812914
 30
0.0
 10
99.1642816385
 20
78.6155011939
 30
0.0
 10
99.1915996606
 20
77.871793925
 30
0.0
 10
99.2188855268
 20
77.1768909291
 30
0.0
 10
99.2461450132
 20
76.5370542432
 30
0.0
 10
99.2733444311
 20
75.9581110973
 30
0.0
 10
99.3004811602
 20
75.4452704427
 30
0.0
 10
99.3274840911
 20
75.0031866776
 30
0.0
 10
99.3543175621
 20
74.6358574377
 30
0.0
 10
99.3778424257
 20
74.3780787575
 30
0.0
 10
99.397341018
 20
74.2118626431
 30
0.0
 10
99.410939461
 20
74.1174698743
 30
0.0
 10
99.4238123852
 20
74.0440905599
 30
0.0
 10
99.4377292202
 20
73.9903564735
 30
0.0
 10
99.4483602171
 20
73.9583230217
 30
0.0
 10
99.4616353193
 20
73.9424865844
 30
0.0
 10
99.4674106523
 20
73.9424984344
 30
0.0
  0
SPLINE
  5
4B9
100
AcDbEntity
  8
0
100
AcDbSpline
 62
7
  6
CONTINUOUS
 70
0
 71
3
 72
10
 73
6
 74
0
 42
0.0000001
 43
0.0000001
 44
0.0000000001
 40
0.0
 40
0.0
 40
0.0
 40
0.0
 40
0.1099964492
 40
0.3029368983
 40
1.0
 40
1.0
 40
1.0
 40
1.0
 10
98.8625116693
 20
72.7804883737
 30
0.0
 10
98.8588700383
 20
72.7804883737
 30
0.0
 10
98.850081179
 20
72.7878642216
 30
0.0
 10
98.8367903257
 20
72.8176509997
 30
0.0
 10
98.8296837218
 20
72.8468101869
 30
0.0
 10
98.8248932803
 20
72.8693850437
 30
0.0
  0
SPLINE
  5
4BA
100
AcDbEntity
  8
0
100
AcDbSpline
 62
7
  6
CONTINUOUS
 70
0
 71
3
 72
17
 73
13
 74
0
 42
0.0000001
 43
0.0000001
 44
0.0000000001
 40
0.0
 40
0.0
 40
0.0
 40
0.0
 40
0.0171969946
 40
0.04143867
 40
0.0726214009
 40
0.1106101749
 40
0.2062575825
 40
0.3265113117
 40
0.4690058035
 40
0.6309389838
 40
0.8091162025
 40
1.0
 40
1.0
 40
1.0
 40
1.0
 10
98.8248932803
 20
72.8693850437
 30
0.0
 10
98.8163648133
 20
72.9095752684
 30
0.0
 10
98.8013284236
 20
73.007533504
 30
0.0
 10
98.781717326
 20
73.1799098193
 30
0.0
 10
98.7619181125
 20
73.4022297427
 30
0.0
 10
98.7329991586
 20
73.794936367
 30
0.0
 10
98.6984345524
 20
74.4005517909
 30
0.0
 10
98.6588209311
 20
75.2558763634
 30
0.0
 10
98.6189854709
 20
76.2697033554
 30
0.0
 10
98.5789432366
 20
77.4219953029
 30
0.0
 10
98.5388040436
 20
78.6899538508
 30
0.0
 10
98.5127170181
 20
79.5712876534
 30
0.0
 10
98.4995129037
 20
80.0271347453
 30
0.0
  0
SPLINE
  5
4BB
100
AcDbEntity
  8
0
100
AcDbSpline
 62
7
  6
CONTINUOUS
 70
0
 71
3
 72
10
 73
6
 74
0
 42
0.0000001
 43
0.0000001
 44
0.0000000001
 40
0.0
 40
0.0
 40
0.0
 40
0.0
 40
0.1099951217
 40
0.3029342312
 40
1.0
 40
1.0
 40
1.0
 40
1.0
 10
100.6765116693
 20
72.7804883737
 30
0.0
 10
100.6728699881
 20
72.7804883737
 30
0.0
 10
100.6640809811
 20
72.7878643569
 30
0.0
 10
100.6507899205
 20
72.8176519772
 30
0.0
 10
100.6436832477
 20
72.846811986
 30
0.0
 10
100.6388927444
 20
72.8693875299
 30
0.0
  0
SPLINE
  5
4BC
100
AcDbEntity
  8
0
100
AcDbSpline
 62
7
  6
CONTINUOUS
 70
0
 71
3
 72
33
 73
29
 74
0
 42
0.0000001
 43
0.0000001
 44
0.0000000001
 40
0.0
 40
0.0
 40
0.0
 40
0.0
 40
0.0082456492
 40
0.0206410979
 40
0.0370925877
 40
0.0574735375
 40
0.0816057697
 40
0.1092916253
 40
0.1743414822
 40
0.2504173781
 40
0.3349344618
 40
0.4250098844
 40
0.5175723383
 40
0.6094728128
 40
0.697582584
 40
0.7788970517
 40
0.8161291258
 40
0.8506512077
 40
0.8821645435
 40
0.9104065038
 40
0.9351312955
 40
0.9561353773
 40
0.9732363826
 40
0.9862989155
 40
0.991283748
 40
0.9952249782
 40
0.9981247371
 40
1.0
 40
1.0
 40
1.0
 40
1.0
 10
100.6388927444
 20
72.8693875299
 30
0.0
 10
100.6269820392
 20
72.9255174669
 30
0.0
 10
100.6073997622
 20
73.0680353936
 30
0.0
 10
100.5818093731
 20
73.3248205511
 30
0.0
 10
100.5560641673
 20
73.6664776411
 30
0.0
 10
100.5298990558
 20
74.08990257
 30
0.0
 10
100.5036176896
 20
74.5916433176
 30
0.0
 10
100.4664181798
 20
75.404053257
 30
0.0
 10
100.421324609
 20
76.5779260551
 30
0.0
 10
100.3692261362
 20
78.1472645134
 30
0.0
 10
100.3169294774
 20
79.8908315125
 30
0.0
 10
100.2644984613
 20
81.7491674766
 30
0.0
 10
100.2120228779
 20
83.6589014057
 30
0.0
 10
100.1595619941
 20
85.5549521272
 30
0.0
 10
100.1071689746
 20
87.3727015255
 30
0.0
 10
100.0624429389
 20
88.8100866125
 30
0.0
 10
100.0260110107
 20
89.8746367037
 30
0.0
 10
99.9995274218
 20
90.5927665015
 30
0.0
 10
99.9730765856
 20
91.24829093
 30
0.0
 10
99.9466947122
 20
91.8355814971
 30
0.0
 10
99.9203768335
 20
92.3496575244
 30
0.0
 10
99.8942445684
 20
92.7861113658
 30
0.0
 10
99.8682620962
 20
93.1412212665
 30
0.0
 10
99.8455473006
 20
93.3848246669
 30
0.0
 10
99.8263387944
 20
93.5366109161
 30
0.0
 10
99.8134643449
 20
93.6179763069
 30
0.0
 10
99.8006938083
 20
93.6771705406
 30
0.0
 10
99.7908006163
 20
93.7092120529
 30
0.0
 10
99.7847793758
 20
93.7207894315
 30
0.0
  0
SPLINE
  5
4BD
100
AcDbEntity
  8
0
100
AcDbSpline
 62
7
  6
CONTINUOUS
 70
0
 71
3
 72
10
 73
6
 74
0
 42
0.0000001
 43
0.0000001
 44
0.0000000001
 40
0.0
 40
0.0
 40
0.0
 40
0.0
 40
0.1100697956
 40
0.3030226857
 40
1.0
 40
1.0
 40
1.0
 40
1.0
 10
102.4905116693
 20
72.7804883737
 30
0.0
 10
102.4868755513
 20
72.7804883737
 30
0.0
 10
102.4780990956
 20
72.7878418967
 30
0.0
 10
102.4648202428
 20
72.8175601519
 30
0.0
 10
102.4577232168
 20
72.846650448
 30
0.0
 10
102.4529383684
 20
72.8691721827
 30
0.0
  0
SPLINE
  5
4BE
100
AcDbEntity
  8
0
100
AcDbSpline
 62
7
  6
CONTINUOUS
 70
0
 71
3
 72
33
 73
29
 74
0
 42
0.0000001
 43
0.0000001
 44
0.0000000001
 40
0.0
 40
0.0
 40
0.0
 40
0.0
 40
0.0082389397
 40
0.0206281147
 40
0.0370739232
 40
0.0574497636
 40
0.0815774509
 40
0.109259304
 40
0.1743039874
 40
0.250374802
 40
0.3348847155
 40
0.4249564088
 40
0.5175209534
 40
0.6094285518
 40
0.6975502081
 40
0.7788781451
 40
0.8161145719
 40
0.8506397293
 40
0.882155555
 40
0.9103996427
 40
0.9351263696
 40
0.9561320853
 40
0.9732344685
 40
0.9862979801
 40
0.9912831866
 40
0.9952247033
 40
0.9981246472
 40
1.0
 40
1.0
 40
1.0
 40
1.0
 10
102.4529383684
 20
72.8691721827
 30
0.0
 10
102.4410234967
 20
72.9252541224
 30
0.0
 10
102.4214414037
 20
73.0676831469
 30
0.0
 10
102.3958500177
 20
73.3243400352
 30
0.0
 10
102.3701047366
 20
73.6658818762
 30
0.0
 10
102.3439384659
 20
74.0892042231
 30
0.0
 10
102.3176561365
 20
74.5908550915
 30
0.0
 10
102.2804540246
 20
75.4031779053
 30
0.0
 10
102.2353588416
 20
76.5769637672
 30
0.0
 10
102.1832593772
 20
78.1461974305
 30
0.0
 10
102.1309631429
 20
79.8896715879
 30
0.0
 10
102.0785317341
 20
81.7479658269
 30
0.0
 10
102.0260542276
 20
83.6577580414
 30
0.0
 10
101.9735894281
 20
85.5539755481
 30
0.0
 10
101.9211908175
 20
87.371970073
 30
0.0
 10
101.876459605
 20
88.8095769967
 30
0.0
 10
101.8400235804
 20
89.8742836936
 30
0.0
 10
101.813538097
 20
90.5924900698
 30
0.0
 10
101.7870858254
 20
91.2480749403
 30
0.0
 10
101.7607025868
 20
91.835417294
 30
0.0
 10
101.7343835311
 20
92.3495383887
 30
0.0
 10
101.708249853
 20
92.7860312518
 30
0.0
 10
101.6822662284
 20
93.1411726753
 30
0.0
 10
101.6595502307
 20
93.384797644
 30
0.0
 10
101.6403408383
 20
93.536596897
 30
0.0
 10
101.6274658387
 20
93.617969051
 30
0.0
 10
101.6146946826
 20
93.677167776
 30
0.0
 10
101.604801012
 20
93.7092115599
 30
0.0
 10
101.5987793759
 20
93.7207895931
 30
0.0
  0
SPLINE
  5
4BF
100
AcDbEntity
  8
0
100
AcDbSpline
 62
7
  6
CONTINUOUS
 70
0
 71
3
 72
10
 73
6
 74
0
 42
0.0000001
 43
0.0000001
 44
0.0000000001
 40
0.0
 40
0.0
 40
0.0
 40
0.0
 40
0.1100799669
 40
0.3030347264
 40
1.0
 40
1.0
 40
1.0
 40
1.0
 10
102.9933094948
 20
93.7354883737
 30
0.0
 10
102.9969448557
 20
93.7354883737
 30
0.0
 10
103.0057196029
 20
93.7281379057
 30
0.0
 10
103.0189967941
 20
93.6984290862
 30
0.0
 10
103.0260925071
 20
93.6693482708
 30
0.0
 10
103.0308765859
 20
93.6468338542
 30
0.0
  0
SPLINE
  5
4C0
100
AcDbEntity
  8
0
100
AcDbSpline
 62
7
  6
CONTINUOUS
 70
0
 71
3
 72
33
 73
29
 74
0
 42
0.0000001
 43
0.0000001
 44
0.0000000001
 40
0.0
 40
0.0
 40
0.0
 40
0.0
 40
0.0082380282
 40
0.0206263549
 40
0.0370714005
 40
0.0574465681
 40
0.0815736652
 40
0.1092550147
 40
0.1742992593
 40
0.2503740707
 40
0.334892791
 40
0.4249713927
 40
0.5175378743
 40
0.6094426705
 40
0.6975567916
 40
0.7788775195
 40
0.8161128653
 40
0.850638056
 40
0.8821541835
 40
0.9103985965
 40
0.9351256136
 40
0.956131573
 40
0.9732341564
 40
0.9862978292
 40
0.9912830946
 40
0.9952246556
 40
0.9981246304
 40
1.0
 40
1.0
 40
1.0
 40
1.0
 10
103.0308765859
 20
93.6468338542
 30
0.0
 10
103.0427920273
 20
93.5907584367
 30
0.0
 10
103.0623741007
 20
93.4483414619
 30
0.0
 10
103.0879656292
 20
93.1917019105
 30
0.0
 10
103.1137109409
 20
92.8501754885
 30
0.0
 10
103.1398773825
 20
92.4268666781
 30
0.0
 10
103.1661598732
 20
91.925227403
 30
0.0
 10
103.203362402
 20
91.1129141204
 30
0.0
 10
103.2484592112
 20
89.9391053639
 30
0.0
 10
103.300561644
 20
88.3697834573
 30
0.0
 10
103.3528621444
 20
86.6261696939
 30
0.0
 10
103.4052966942
 20
84.7677499928
 30
0.0
 10
103.4577753092
 20
82.857913003
 30
0.0
 10
103.5102387076
 20
80.9617512199
 30
0.0
 10
103.5626342457
 20
79.1438761552
 30
0.0
 10
103.6073623813
 20
77.7063772554
 30
0.0
 10
103.6437964277
 20
76.6417264564
 30
0.0
 10
103.6702816204
 20
75.9235242347
 30
0.0
 10
103.6967339661
 20
75.2679338271
 30
0.0
 10
103.7231173851
 20
74.6805842486
 30
0.0
 10
103.7494366273
 20
74.1664564384
 30
0.0
 10
103.7755704811
 20
73.7299578414
 30
0.0
 10
103.8015543008
 20
73.3748116993
 30
0.0
 10
103.8242704511
 20
73.131183454
 30
0.0
 10
103.8434799983
 20
72.9793821454
 30
0.0
 10
103.8563551001
 20
72.898008942
 30
0.0
 10
103.8691263542
 20
72.8388094982
 30
0.0
 10
103.8790200948
 20
72.8067653332
 30
0.0
 10
103.8850417875
 20
72.7951871768
 30
0.0
  0
SPLINE
  5
4C1
100
AcDbEntity
  8
0
100
AcDbSpline
 62
7
  6
CONTINUOUS
 70
0
 71
3
 72
10
 73
6
 74
0
 42
0.0000001
 43
0.0000001
 44
0.0000000001
 40
0.0
 40
0.0
 40
0.0
 40
0.0
 40
0.1100052691
 40
0.3029462836
 40
1.0
 40
1.0
 40
1.0
 40
1.0
 10
101.1793094948
 20
93.7354883737
 30
0.0
 10
101.1829504191
 20
93.7354883737
 30
0.0
 10
101.1917377178
 20
93.7281154426
 30
0.0
 10
101.205027113
 20
93.6983372608
 30
0.0
 10
101.2121324746
 20
93.6691867388
 30
0.0
 10
101.216922209
 20
93.6466185187
 30
0.0
  0
SPLINE
  5
4C2
100
AcDbEntity
  8
0
100
AcDbSpline
 62
7
  6
CONTINUOUS
 70
0
 71
3
 72
33
 73
29
 74
0
 42
0.0000001
 43
0.0000001
 44
0.0000000001
 40
0.0
 40
0.0
 40
0.0
 40
0.0
 40
0.0082447343
 40
0.0206393294
 40
0.0370900658
 40
0.0574703656
 40
0.0816019858
 40
0.1092872507
 40
0.174336808
 40
0.2504100363
 40
0.3349213567
 40
0.4249934503
 40
0.5175555584
 40
0.6094585764
 40
0.6975738244
 40
0.778894434
 40
0.8161273995
 40
0.8506495117
 40
0.8821630784
 40
0.9104054483
 40
0.9351305656
 40
0.956134871
 40
0.9732360629
 40
0.9862987612
 40
0.9912836557
 40
0.9952249314
 40
0.998124721
 40
1.0
 40
1.0
 40
1.0
 40
1.0
 10
101.216922209
 20
93.6466185187
 30
0.0
 10
101.2288334784
 20
93.5904951256
 30
0.0
 10
101.2484157411
 20
93.4479893109
 30
0.0
 10
101.2740062818
 20
93.1912214839
 30
0.0
 10
101.2997515163
 20
92.8495796242
 30
0.0
 10
101.3259167788
 20
92.426168157
 30
0.0
 10
101.3521982918
 20
91.9244396022
 30
0.0
 10
101.3893983265
 20
91.1120389865
 30
0.0
 10
101.4344914597
 20
89.9381892616
 30
0.0
 10
101.4865889836
 20
88.3689093083
 30
0.0
 10
101.538883528
 20
86.6254216163
 30
0.0
 10
101.5913133113
 20
84.7671486568
 30
0.0
 10
101.6437888399
 20
82.8574198628
 30
0.0
 10
101.6962510851
 20
80.9613130344
 30
0.0
 10
101.7486465862
 20
79.143462508
 30
0.0
 10
101.793375005
 20
77.7059883362
 30
0.0
 10
101.8298083746
 20
76.6413875837
 30
0.0
 10
101.8562922645
 20
75.9232487404
 30
0.0
 10
101.8827432221
 20
75.2677187041
 30
0.0
 10
101.909125237
 20
74.6804205703
 30
0.0
 10
101.9354433083
 20
74.1663371336
 30
0.0
 10
101.9615757704
 20
73.7298775462
 30
0.0
 10
101.9875584436
 20
73.3747631326
 30
0.0
 10
102.0102733829
 20
73.1311564989
 30
0.0
 10
102.0294820405
 20
72.9793681349
 30
0.0
 10
102.0423565924
 20
72.8980016658
 30
0.0
 10
102.0551272272
 20
72.8388067107
 30
0.0
 10
102.0650204901
 20
72.8067648233
 30
0.0
 10
102.0710417879
 20
72.7951873272
 30
0.0
  0
SPLINE
  5
4C3
100
AcDbEntity
  8
0
100
AcDbSpline
 62
7
  6
CONTINUOUS
 70
0
 71
3
 72
10
 73
6
 74
0
 42
0.0000001
 43
0.0000001
 44
0.0000000001
 40
0.0
 40
0.0
 40
0.0
 40
0.0
 40
0.1106775491
 40
0.3037437334
 40
1.0
 40
1.0
 40
1.0
 40
1.0
 10
99.3653094948
 20
93.7354883737
 30
0.0
 10
99.3689009358
 20
93.7354883737
 30
0.0
 10
99.3775761853
 20
93.7283143324
 30
0.0
 10
99.3907564429
 20
93.6991526154
 30
0.0
 10
99.3977759188
 20
93.6706205627
 30
0.0
 10
99.4025152195
 20
93.6485299977
 30
0.0
  0
SPLINE
  5
4C4
100
AcDbEntity
  8
0
100
AcDbSpline
 62
7
  6
CONTINUOUS
 70
0
 71
3
 72
33
 73
29
 74
0
 42
0.0000001
 43
0.0000001
 44
0.0000000001
 40
0.0
 40
0.0
 40
0.0
 40
0.0
 40
0.0081848349
 40
0.0205233511
 40
0.0369232741
 40
0.0572579166
 40
0.0813498499
 40
0.1090015876
 40
0.1740030493
 40
0.2500546893
 40
0.3345652639
 40
0.4246511787
 40
0.5172445067
 40
0.6091925702
 40
0.6973610487
 40
0.7787379752
 40
0.815998424
 40
0.8505461751
 40
0.8820820518
 40
0.9103433776
 40
0.9350856013
 40
0.9561043355
 40
0.9732178178
 40
0.9862898021
 40
0.9912781891
 40
0.9952221478
 40
0.9981237639
 40
1.0
 40
1.0
 40
1.0
 40
1.0
 10
99.4025152195
 20
93.6485299977
 30
0.0
 10
99.4144639246
 20
93.5928353579
 30
0.0
 10
99.4340441721
 20
93.4511237408
 30
0.0
 10
99.4596435784
 20
93.1955025426
 30
0.0
 10
99.4853892665
 20
92.8548912603
 30
0.0
 10
99.5115655142
 20
92.4323907546
 30
0.0
 10
99.5378564843
 20
91.9314437527
 30
0.0
 10
99.5750789192
 20
91.1198132365
 30
0.0
 10
99.6201951528
 20
89.9465731073
 30
0.0
 10
99.6723161584
 20
88.3776374355
 30
0.0
 10
99.7246346657
 20
86.6340464919
 30
0.0
 10
99.7770879857
 20
84.7752918582
 30
0.0
 10
99.8295875907
 20
82.8647577799
 30
0.0
 10
99.8820749873
 20
80.9675726025
 30
0.0
 10
99.9344967086
 20
79.1484763382
 30
0.0
 10
99.979247233
 20
77.7099141581
 30
0.0
 10
100.0156995977
 20
76.6444522833
 30
0.0
 10
100.0421968499
 20
75.9257213512
 30
0.0
 10
100.0686598969
 20
75.2696643891
 30
0.0
 10
100.0950540945
 20
74.6819051153
 30
0.0
 10
100.1213823937
 20
74.167422143
 30
0.0
 10
100.147526726
 20
73.7306167442
 30
0.0
 10
100.1735200606
 20
73.3752184946
 30
0.0
 10
100.1962450096
 20
73.1314145424
 30
0.0
 10
100.2154623956
 20
72.9795044521
 30
0.0
 10
100.2283426284
 20
72.8980745852
 30
0.0
 10
100.2411192009
 20
72.8388364096
 30
0.0
 10
100.2510168737
 20
72.8067719503
 30
0.0
 10
100.2570417868
 20
72.7951874504
 30
0.0
  0
SPLINE
  5
4C5
100
AcDbEntity
  8
0
100
AcDbSpline
 62
7
  6
CONTINUOUS
 70
0
 71
3
 72
9
 73
5
 74
0
 42
0.0000001
 43
0.0000001
 44
0.0000000001
 40
0.0
 40
0.0
 40
0.0
 40
0.0
 40
0.4958728873
 40
1.0
 40
1.0
 40
1.0
 40
1.0
 10
104.8725216571
 20
70.7579883738
 30
0.0
 10
104.8489024494
 20
70.757988722
 30
0.0
 10
104.8007865539
 20
70.7677784918
 30
0.0
 10
104.7604053032
 20
70.7955145852
 30
0.0
 10
104.74344516
 20
70.8125130389
 30
0.0
  0
LINE
  5
4C6
100
AcDbEntity
  8
0
100
AcDbLine
 62
7
  6
CONTINUOUS
 10
104.7311003009
 20
70.8261111469
 11
104.699509529
 21
70.825795159
  0
SPLINE
  5
4C7
100
AcDbEntity
  8
0
100
AcDbSpline
 62
7
  6
CONTINUOUS
 70
0
 71
3
 72
9
 73
5
 74
0
 42
0.0000001
 43
0.0000001
 44
0.0000000001
 40
0.0
 40
0.0
 40
0.0
 40
0.0
 40
0.2802589563
 40
1.0
 40
1.0
 40
1.0
 40
1.0
 10
104.8725216594
 20
71.0508925044
 30
0.0
 10
104.8595073631
 20
71.0475682611
 30
0.0
 10
104.8126229745
 20
71.0390520732
 30
0.0
 10
104.7606604683
 20
71.0451574549
 30
0.0
 10
104.7311007817
 20
71.0629384186
 30
0.0
  0
SPLINE
  5
4C8
100
AcDbEntity
  8
0
100
AcDbSpline
 62
7
  6
CONTINUOUS
 70
0
 71
3
 72
9
 73
5
 74
0
 42
0.0000001
 43
0.0000001
 44
0.0000000001
 40
0.0
 40
0.0
 40
0.0
 40
0.0
 40
0.2591252677
 40
1.0
 40
1.0
 40
1.0
 40
1.0
 10
104.7311003009
 20
71.0629379786
 30
0.0
 10
104.7332000475
 20
71.058805771
 30
0.0
 10
104.7411978301
 20
71.0428059624
 30
0.0
 10
104.7487636346
 20
71.0265879002
 30
0.0
 10
104.7540544106
 20
71.0144374747
 30
0.0
  0
SPLINE
  5
4C9
100
AcDbEntity
  8
0
100
AcDbSpline
 62
7
  6
CONTINUOUS
 70
0
 71
3
 72
9
 73
5
 74
0
 42
0.0000001
 43
0.0000001
 44
0.0000000001
 40
0.0
 40
0.0
 40
0.0
 40
0.0
 40
0.2755698197
 40
1.0
 40
1.0
 40
1.0
 40
1.0
 10
104.7540544106
 20
71.0144374747
 30
0.0
 10
104.75717504
 20
71.007270856
 30
0.0
 10
104.768080745
 20
70.9810966297
 30
0.0
 10
104.7773626321
 20
70.9541548367
 30
0.0
 10
104.782160515
 20
70.9341742719
 30
0.0
  0
SPLINE
  5
4CA
100
AcDbEntity
  8
0
100
AcDbSpline
 62
7
  6
CONTINUOUS
 70
0
 71
3
 72
9
 73
5
 74
0
 42
0.0000001
 43
0.0000001
 44
0.0000000001
 40
0.0
 40
0.0
 40
0.0
 40
0.0
 40
0.3326987614
 40
1.0
 40
1.0
 40
1.0
 40
1.0
 10
104.782160515
 20
70.9341742719
 30
0.0
 10
104.7846880821
 20
70.923648334
 30
0.0
 10
104.7907984137
 20
70.8927195848
 30
0.0
 10
104.7871621895
 20
70.853678103
 30
0.0
 10
104.7709710986
 20
70.8392119219
 30
0.0
  0
SPLINE
  5
4CB
100
AcDbEntity
  8
0
100
AcDbSpline
 62
7
  6
CONTINUOUS
 70
0
 71
3
 72
8
 73
4
 74
0
 42
0.0000001
 43
0.0000001
 44
0.0000000001
 40
0.0
 40
0.0
 40
0.0
 40
0.0
 40
1.0
 40
1.0
 40
1.0
 40
1.0
 10
104.7709710986
 20
70.8392119219
 30
0.0
 10
104.7661309891
 20
70.834887451
 30
0.0
 10
104.760193996
 20
70.8316542761
 30
0.0
 10
104.7540370441
 20
70.8296000972
 30
0.0
  0
SPLINE
  5
4CC
100
AcDbEntity
  8
0
100
AcDbSpline
 62
7
  6
CONTINUOUS
 70
0
 71
3
 72
9
 73
5
 74
0
 42
0.0000001
 43
0.0000001
 44
0.0000000001
 40
0.0
 40
0.0
 40
0.0
 40
0.0
 40
0.2345934527
 40
1.0
 40
1.0
 40
1.0
 40
1.0
 10
104.7540370441
 20
70.8296000972
 30
0.0
 10
104.7523119268
 20
70.8290245365
 30
0.0
 10
104.7448407408
 20
70.8269222896
 30
0.0
 10
104.7370335848
 20
70.8261650579
 30
0.0
 10
104.7311003009
 20
70.8261111469
 30
0.0
  0
SPLINE
  5
4CD
100
AcDbEntity
  8
0
100
AcDbSpline
 62
7
  6
CONTINUOUS
 70
0
 71
3
 72
13
 73
9
 74
0
 42
0.0000001
 43
0.0000001
 44
0.0000000001
 40
0.0
 40
0.0
 40
0.0
 40
0.0
 40
0.3915730717
 40
0.6762123864
 40
0.7773350887
 40
0.856265336
 40
0.9251006715
 40
1.0
 40
1.0
 40
1.0
 40
1.0
 10
104.8725216571
 20
71.0508815926
 30
0.0
 10
104.8889702876
 20
71.0106830319
 30
0.0
 10
104.9143354992
 20
70.9401635884
 30
0.0
 10
104.9320513517
 20
70.8546084443
 30
0.0
 10
104.9281554466
 20
70.8028410705
 30
0.0
 10
104.9174509547
 20
70.7764839554
 30
0.0
 10
104.8972143516
 20
70.7603918688
 30
0.0
 10
104.8808295578
 20
70.7579823851
 30
0.0
 10
104.8725216571
 20
70.7579883737
 30
0.0
  0
SPLINE
  5
4CE
100
AcDbEntity
  8
0
100
AcDbSpline
 62
7
  6
CONTINUOUS
 70
0
 71
3
 72
9
 73
5
 74
0
 42
0.0000001
 43
0.0000001
 44
0.0000000001
 40
0.0
 40
0.0
 40
0.0
 40
0.0
 40
0.7533026348
 40
1.0
 40
1.0
 40
1.0
 40
1.0
 10
104.8725216571
 20
77.7874256253
 30
0.0
 10
104.8364001809
 20
77.7966498957
 30
0.0
 10
104.7902210461
 20
77.8186479093
 30
0.0
 10
104.7522341152
 20
77.8504677332
 30
0.0
 10
104.7434445737
 20
77.85894138
 30
0.0
  0
SPLINE
  5
4CF
100
AcDbEntity
  8
0
100
AcDbSpline
 62
7
  6
CONTINUOUS
 70
0
 71
3
 72
9
 73
5
 74
0
 42
0.0000001
 43
0.0000001
 44
0.0000000001
 40
0.0
 40
0.0
 40
0.0
 40
0.0
 40
0.507227414
 40
1.0
 40
1.0
 40
1.0
 40
1.0
 10
114.9631835189
 20
136.3508815926
 30
0.0
 10
114.9597038715
 20
136.3521705923
 30
0.0
 10
114.9525112879
 20
136.3534424044
 30
0.0
 10
114.9455603129
 20
136.3564366781
 30
0.0
 10
114.9419553369
 20
136.3564368139
 30
0.0
  0
SPLINE
  5
4D0
100
AcDbEntity
  8
0
100
AcDbSpline
 62
7
  6
CONTINUOUS
 70
0
 71
3
 72
9
 73
5
 74
0
 42
0.0000001
 43
0.0000001
 44
0.0000000001
 40
0.0
 40
0.0
 40
0.0
 40
0.0
 40
0.2666877375
 40
1.0
 40
1.0
 40
1.0
 40
1.0
 10
104.7540544871
 20
78.3713797011
 30
0.0
 10
104.7634347208
 20
78.3377832722
 30
0.0
 10
104.7923039414
 20
78.2103965284
 30
0.0
 10
104.7935813808
 20
78.0747838126
 30
0.0
 10
104.7709709788
 20
77.9815735794
 30
0.0
  0
SPLINE
  5
4D1
100
AcDbEntity
  8
0
100
AcDbSpline
 62
7
  6
CONTINUOUS
 70
0
 71
3
 72
9
 73
5
 74
0
 42
0.0000001
 43
0.0000001
 44
0.0000000001
 40
0.0
 40
0.0
 40
0.0
 40
0.0
 40
0.2604055895
 40
1.0
 40
1.0
 40
1.0
 40
1.0
 10
104.7709709788
 20
77.9815735794
 30
0.0
 10
104.7685765213
 20
77.97170255
 30
0.0
 10
104.7583737084
 20
77.934053597
 30
0.0
 10
104.7440999506
 20
77.8974627968
 30
0.0
 10
104.7311003009
 20
77.871709389
 30
0.0
  0
SPLINE
  5
4D2
100
AcDbEntity
  8
0
100
AcDbSpline
 62
7
  6
CONTINUOUS
 70
0
 71
3
 72
9
 73
5
 74
0
 42
0.0000001
 43
0.0000001
 44
0.0000000001
 40
0.0
 40
0.0
 40
0.0
 40
0.0
 40
0.5401269693
 40
1.0
 40
1.0
 40
1.0
 40
1.0
 10
104.8725216571
 20
78.4945324065
 30
0.0
 10
104.9083757107
 20
78.3706428085
 30
0.0
 10
104.9478958131
 20
78.1325379504
 30
0.0
 10
104.9141271643
 20
77.8890486646
 30
0.0
 10
104.8725216571
 20
77.7874256253
 30
0.0
  0
SPLINE
  5
4D3
100
AcDbEntity
  8
0
100
AcDbSpline
 62
7
  6
CONTINUOUS
 70
0
 71
3
 72
9
 73
5
 74
0
 42
0.0000001
 43
0.0000001
 44
0.0000000001
 40
0.0
 40
0.0
 40
0.0
 40
0.0
 40
0.2096498296
 40
1.0
 40
1.0
 40
1.0
 40
1.0
 10
102.2055786305
 20
92.5570128057
 30
0.0
 10
102.206603374
 20
92.5550456795
 30
0.0
 10
102.211146646
 20
92.545483336
 30
0.0
 10
102.2146177208
 20
92.5354501224
 30
0.0
 10
102.2171090688
 20
92.5274682104
 30
0.0
  0
SPLINE
  5
4D4
100
AcDbEntity
  8
0
100
AcDbSpline
 62
7
  6
CONTINUOUS
 70
0
 71
3
 72
36
 73
32
 74
0
 42
0.0000001
 43
0.0000001
 44
0.0000000001
 40
0.0
 40
0.0
 40
0.0
 40
0.0
 40
0.0030131837
 40
0.0071178059
 40
0.018606186
 40
0.034398404
 40
0.0543629525
 40
0.0783283959
 40
0.1060769914
 40
0.1719078983
 40
0.2494937909
 40
0.3360442279
 40
0.4284438671
 40
0.52336586
 40
0.6173922729
 40
0.7071376327
 40
0.7493872203
 40
0.7893713762
 40
0.826734685
 40
0.8611348853
 40
0.8922682596
 40
0.9198496982
 40
0.9436367317
 40
0.9634149531
 40
0.979012876
 40
0.9852039806
 40
0.9903041949
 40
0.9943087292
 40
0.9972224975
 40
0.9990711496
 40
1.0
 40
1.0
 40
1.0
 40
1.0
 10
102.2171090688
 20
92.5274682104
 30
0.0
 10
102.2226816661
 20
92.5096144291
 30
0.0
 10
102.2328351075
 20
92.4665342616
 30
0.0
 10
102.2528759637
 20
92.3527904362
 30
0.0
 10
102.2760244793
 20
92.1592358307
 30
0.0
 10
102.3025971536
 20
91.8671996024
 30
0.0
 10
102.3293320542
 20
91.4974332639
 30
0.0
 10
102.3563294722
 20
91.0533332877
 30
0.0
 10
102.3946660398
 20
90.3247155421
 30
0.0
 10
102.4410230948
 20
89.2632652681
 30
0.0
 10
102.4945155031
 20
87.8368262879
 30
0.0
 10
102.5482285498
 20
86.2453759517
 30
0.0
 10
102.6020927763
 20
84.5462677364
 30
0.0
 10
102.6560033449
 20
82.8007340846
 30
0.0
 10
102.7099014902
 20
81.0716835148
 30
0.0
 10
102.7556063205
 20
79.6694812835
 30
0.0
 10
102.7927417234
 20
78.6026289937
 30
0.0
 10
102.820018478
 20
77.8607743938
 30
0.0
 10
102.847263024
 20
77.167675523
 30
0.0
 10
102.8744807222
 20
76.5295593888
 30
0.0
 10
102.9016397435
 20
75.9522169078
 30
0.0
 10
102.9287338398
 20
75.440832456
 30
0.0
 10
102.9556978428
 20
75.0000246684
 30
0.0
 10
102.9824880453
 20
74.6337781605
 30
0.0
 10
103.005979217
 20
74.3767648013
 30
0.0
 10
103.025448581
 20
74.21104704
 30
0.0
 10
103.0390238691
 20
74.1169361179
 30
0.0
 10
103.0518799932
 20
74.0437788508
 30
0.0
 10
103.0657718758
 20
73.9902120149
 30
0.0
 10
103.0763993637
 20
73.9582713906
 30
0.0
 10
103.0896451368
 20
73.9424838827
 30
0.0
 10
103.0954106316
 20
73.9424930035
 30
0.0
  0
SPLINE
  5
4D5
100
AcDbEntity
  8
0
100
AcDbSpline
 62
7
  6
CONTINUOUS
 70
0
 71
3
 72
9
 73
5
 74
0
 42
0.0000001
 43
0.0000001
 44
0.0000000001
 40
0.0
 40
0.0
 40
0.0
 40
0.0
 40
0.7532997095
 40
1.0
 40
1.0
 40
1.0
 40
1.0
 10
104.8725216594
 20
88.7285402013
 30
0.0
 10
104.8364025613
 20
88.7193143328
 30
0.0
 10
104.7902267358
 20
88.6973182444
 30
0.0
 10
104.7522373951
 20
88.6655051211
 30
0.0
 10
104.7434467255
 20
88.6570332683
 30
0.0
  0
SPLINE
  5
4D6
100
AcDbEntity
  8
0
100
AcDbSpline
 62
7
  6
CONTINUOUS
 70
0
 71
3
 72
9
 73
5
 74
0
 42
0.0000001
 43
0.0000001
 44
0.0000000001
 40
0.0
 40
0.0
 40
0.0
 40
0.0
 40
0.2399415552
 40
1.0
 40
1.0
 40
1.0
 40
1.0
 10
104.7311003009
 20
88.6442673585
 30
0.0
 10
104.7353216258
 20
88.6359072776
 30
0.0
 10
104.7518220948
 20
88.6005183395
 30
0.0
 10
104.7640032684
 20
88.5631629593
 30
0.0
 10
104.7709924373
 20
88.5343314284
 30
0.0
  0
SPLINE
  5
4D7
100
AcDbEntity
  8
0
100
AcDbSpline
 62
7
  6
CONTINUOUS
 70
0
 71
3
 72
9
 73
5
 74
0
 42
0.0000001
 43
0.0000001
 44
0.0000000001
 40
0.0
 40
0.0
 40
0.0
 40
0.0
 40
0.2317131783
 40
1.0
 40
1.0
 40
1.0
 40
1.0
 10
104.7709924373
 20
88.5343314284
 30
0.0
 10
104.7781368388
 20
88.5048595364
 30
0.0
 10
104.7987006676
 20
88.375168876
 30
0.0
 10
104.7810799521
 20
88.2413915485
 30
0.0
 10
104.7540370441
 20
88.1445468058
 30
0.0
  0
SPLINE
  5
4D8
100
AcDbEntity
  8
0
100
AcDbSpline
 62
7
  6
CONTINUOUS
 70
0
 71
3
 72
9
 73
5
 74
0
 42
0.0000001
 43
0.0000001
 44
0.0000000001
 40
0.0
 40
0.0
 40
0.0
 40
0.0
 40
0.4598698073
 40
1.0
 40
1.0
 40
1.0
 40
1.0
 10
104.8725216571
 20
88.7285511222
 30
0.0
 10
104.9141235049
 20
88.6269274148
 30
0.0
 10
104.9478962643
 20
88.3834409225
 30
0.0
 10
104.908379705
 20
88.1453335861
 30
0.0
 10
104.8725216571
 20
88.021444341
 30
0.0
  0
SPLINE
  5
4D9
100
AcDbEntity
  8
0
100
AcDbSpline
 62
7
  6
CONTINUOUS
 70
0
 71
3
 72
9
 73
5
 74
0
 42
0.0000001
 43
0.0000001
 44
0.0000000001
 40
0.0
 40
0.0
 40
0.0
 40
0.0
 40
0.2802736005
 40
1.0
 40
1.0
 40
1.0
 40
1.0
 10
104.8725216571
 20
95.4650951549
 30
0.0
 10
104.8595063137
 20
95.4684187757
 30
0.0
 10
104.8126214061
 20
95.476932493
 30
0.0
 10
104.7606560678
 20
95.4708257333
 30
0.0
 10
104.7311003772
 20
95.4530386991
 30
0.0
  0
SPLINE
  5
4DA
100
AcDbEntity
  8
0
100
AcDbSpline
 62
7
  6
CONTINUOUS
 70
0
 71
3
 72
9
 73
5
 74
0
 42
0.0000001
 43
0.0000001
 44
0.0000000001
 40
0.0
 40
0.0
 40
0.0
 40
0.0
 40
0.495868255
 40
1.0
 40
1.0
 40
1.0
 40
1.0
 10
104.8725216594
 20
95.7579729353
 30
0.0
 10
104.848904024
 20
95.7579729525
 30
0.0
 10
104.8007910892
 20
95.7481850126
 30
0.0
 10
104.7604093139
 20
95.7204562095
 30
0.0
 10
104.7434467256
 20
95.7034618255
 30
0.0
  0
SPLINE
  5
4DB
100
AcDbEntity
  8
0
100
AcDbSpline
 62
7
  6
CONTINUOUS
 70
0
 71
3
 72
9
 73
5
 74
0
 42
0.0000001
 43
0.0000001
 44
0.0000000001
 40
0.0
 40
0.0
 40
0.0
 40
0.0
 40
0.5273253573
 40
1.0
 40
1.0
 40
1.0
 40
1.0
 10
104.7311003009
 20
95.6898656006
 30
0.0
 10
104.7418664125
 20
95.6897705571
 30
0.0
 10
104.7631892082
 20
95.6864950752
 30
0.0
 10
104.7781635452
 20
95.6701233332
 30
0.0
 10
104.7821605929
 20
95.6613392629
 30
0.0
  0
SPLINE
  5
4DC
100
AcDbEntity
  8
0
100
AcDbSpline
 62
7
  6
CONTINUOUS
 70
0
 71
3
 72
9
 73
5
 74
0
 42
0.0000001
 43
0.0000001
 44
0.0000000001
 40
0.0
 40
0.0
 40
0.0
 40
0.0
 40
0.4252802695
 40
1.0
 40
1.0
 40
1.0
 40
1.0
 10
104.7821605929
 20
95.6613392629
 30
0.0
 10
104.7868915424
 20
95.650942341
 30
0.0
 10
104.7902955427
 20
95.623312157
 30
0.0
 10
104.7857520438
 20
95.5967517426
 30
0.0
 10
104.7821443341
 20
95.5817427296
 30
0.0
  0
SPLINE
  5
4DD
100
AcDbEntity
  8
0
100
AcDbSpline
 62
7
  6
CONTINUOUS
 70
0
 71
3
 72
9
 73
5
 74
0
 42
0.0000001
 43
0.0000001
 44
0.0000000001
 40
0.0
 40
0.0
 40
0.0
 40
0.0
 40
0.2237323889
 40
1.0
 40
1.0
 40
1.0
 40
1.0
 10
104.7821443341
 20
95.5817427296
 30
0.0
 10
104.7806613747
 20
95.5755732318
 30
0.0
 10
104.7731475344
 20
95.5482106825
 30
0.0
 10
104.7628268925
 20
95.5216890707
 30
0.0
 10
104.7540369488
 20
95.5015043873
 30
0.0
  0
SPLINE
  5
4DE
100
AcDbEntity
  8
0
100
AcDbSpline
 62
7
  6
CONTINUOUS
 70
0
 71
3
 72
9
 73
5
 74
0
 42
0.0000001
 43
0.0000001
 44
0.0000000001
 40
0.0
 40
0.0
 40
0.0
 40
0.0
 40
0.2406345645
 40
1.0
 40
1.0
 40
1.0
 40
1.0
 10
104.7540369488
 20
95.5015043873
 30
0.0
 10
104.7523196362
 20
95.497560857
 30
0.0
 10
104.7450439617
 20
95.4812334814
 30
0.0
 10
104.7372484611
 20
95.4651397927
 30
0.0
 10
104.7311003009
 20
95.4530387689
 30
0.0
  0
SPLINE
  5
4DF
100
AcDbEntity
  8
0
100
AcDbSpline
 62
7
  6
CONTINUOUS
 70
0
 71
3
 72
16
 73
12
 74
0
 42
0.0000001
 43
0.0000001
 44
0.0000000001
 40
0.0
 40
0.0
 40
0.0
 40
0.0
 40
0.3372799658
 40
0.4989910752
 40
0.6471103917
 40
0.7701718952
 40
0.8185097903
 40
0.8585206445
 40
0.8926456268
 40
0.9251401158
 40
1.0
 40
1.0
 40
1.0
 40
1.0
 10
115.5935544302
 20
130.2901464952
 30
0.0
 10
115.6089709886
 20
130.2479067567
 30
0.0
 10
115.627088134
 20
130.1836435227
 30
0.0
 10
115.642706954
 20
130.0986865722
 30
0.0
 10
115.6469387821
 20
130.0410828354
 30
0.0
 10
115.6435698776
 20
129.9980900141
 30
0.0
 10
115.6339944759
 20
129.9713670006
 30
0.0
 10
115.6247393032
 20
129.9576454398
 30
0.0
 10
115.6128760948
 20
129.9490600241
 30
0.0
 10
115.5937038095
 20
129.9458849147
 30
0.0
 10
115.5796297539
 20
129.9517757493
 30
0.0
 10
115.5709867362
 20
129.9567657979
 30
0.0
  0
SPLINE
  5
4E0
100
AcDbEntity
  8
0
100
AcDbSpline
 62
7
  6
CONTINUOUS
 70
0
 71
3
 72
12
 73
8
 74
0
 42
0.0000001
 43
0.0000001
 44
0.0000000001
 40
0.0
 40
0.0
 40
0.0
 40
0.0
 40
0.3346286313
 40
0.6213616366
 40
0.7400921152
 40
0.8411943163
 40
1.0
 40
1.0
 40
1.0
 40
1.0
 10
114.8080261638
 20
135.7579883737
 30
0.0
 10
114.8080331151
 20
135.7985599087
 30
0.0
 10
114.7989451965
 20
135.8741718468
 30
0.0
 10
114.7667971635
 20
135.9592143672
 30
0.0
 10
114.7317201226
 20
136.0101090509
 30
0.0
 10
114.6999646821
 20
136.0430319724
 30
0.0
 10
114.6688967119
 20
136.0579883737
 30
0.0
 10
114.6496425602
 20
136.0579883737
 30
0.0
  0
SPLINE
  5
4E1
100
AcDbEntity
  8
0
100
AcDbSpline
 62
7
  6
CONTINUOUS
 70
0
 71
3
 72
9
 73
5
 74
0
 42
0.0000001
 43
0.0000001
 44
0.0000000001
 40
0.0
 40
0.0
 40
0.0
 40
0.0
 40
0.5001792292
 40
1.0
 40
1.0
 40
1.0
 40
1.0
 10
115.5319742503
 20
131.4423029488
 30
0.0
 10
115.5509923649
 20
131.424200243
 30
0.0
 10
115.5823772891
 20
131.3801843751
 30
0.0
 10
115.5935550093
 20
131.3271191395
 30
0.0
 10
115.5935544302
 20
131.3008815926
 30
0.0
  0
SPLINE
  5
4E2
100
AcDbEntity
  8
0
100
AcDbSpline
 62
7
  6
CONTINUOUS
 70
0
 71
3
 72
9
 73
5
 74
0
 42
0.0000001
 43
0.0000001
 44
0.0000000001
 40
0.0
 40
0.0
 40
0.0
 40
0.0
 40
0.5000389282
 40
1.0
 40
1.0
 40
1.0
 40
1.0
 10
114.8080261638
 20
132.4650951549
 30
0.0
 10
114.8080330237
 20
132.3602180004
 30
0.0
 10
114.8522354525
 20
132.1482143008
 30
0.0
 10
114.9770115533
 20
131.9718799396
 30
0.0
 10
115.0527998202
 20
131.89940973
 30
0.0
  0
SPLINE
  5
4E3
100
AcDbEntity
  8
0
100
AcDbSpline
 62
7
  6
CONTINUOUS
 70
0
 71
3
 72
9
 73
5
 74
0
 42
0.0000001
 43
0.0000001
 44
0.0000000001
 40
0.0
 40
0.0
 40
0.0
 40
0.0
 40
0.5007320863
 40
1.0
 40
1.0
 40
1.0
 40
1.0
 10
115.095520618
 20
132.4650951549
 30
0.0
 10
115.0955226876
 20
132.3988766975
 30
0.0
 10
115.1251767254
 20
132.2650853882
 30
0.0
 10
115.2068596652
 20
132.1560356259
 30
0.0
 10
115.2556405479
 20
132.1115417643
 30
0.0
  0
LINE
  5
4E4
100
AcDbEntity
  8
0
100
AcDbLine
 62
7
  6
CONTINUOUS
 10
104.6995094708
 20
95.6901817504
 11
104.7257935252
 21
95.6899191884
  0
LINE
  5
4E5
100
AcDbEntity
  8
0
100
AcDbLine
 62
7
  6
CONTINUOUS
 10
104.7257935252
 20
95.6899191884
 11
104.7311003009
 21
95.6898656006
  0
LINE
  5
4E6
100
AcDbEntity
  8
0
100
AcDbLine
 62
7
  6
CONTINUOUS
 10
115.7115861166
 20
129.6970319755
 11
115.4567019243
 21
129.8493958397
  0
LINE
  5
4E7
100
AcDbEntity
  8
0
100
AcDbLine
 62
7
  6
CONTINUOUS
 10
115.4567019243
 20
129.8493958397
 11
115.4495116413
 21
129.8536944441
  0
SPLINE
  5
4E8
100
AcDbEntity
  8
0
100
AcDbSpline
 62
7
  6
CONTINUOUS
 70
0
 71
3
 72
9
 73
5
 74
0
 42
0.0000001
 43
0.0000001
 44
0.0000000001
 40
0.0
 40
0.0
 40
0.0
 40
0.0
 40
0.4955216861
 40
1.0
 40
1.0
 40
1.0
 40
1.0
 10
115.5710131359
 20
129.9567456647
 30
0.0
 10
115.6149005176
 20
129.9314080432
 30
0.0
 10
115.6904136493
 20
129.8537875631
 30
0.0
 10
115.713792873
 20
129.7485020456
 30
0.0
 10
115.7120152274
 20
129.696940298
 30
0.0
  0
SPLINE
  5
4E9
100
AcDbEntity
  8
0
100
AcDbSpline
 62
7
  6
CONTINUOUS
 70
0
 71
3
 72
8
 73
4
 74
0
 42
0.0000001
 43
0.0000001
 44
0.0000000001
 40
0.0
 40
0.0
 40
0.0
 40
0.0
 40
1.0
 40
1.0
 40
1.0
 40
1.0
 10
116.4301528109
 20
95.8236745718
 30
0.0
 10
116.439340231
 20
95.8358039832
 30
0.0
 10
116.4468428718
 20
95.8493501964
 30
0.0
 10
116.4525203371
 20
95.86346748
 30
0.0
  0
SPLINE
  5
4EA
100
AcDbEntity
  8
0
100
AcDbSpline
 62
7
  6
CONTINUOUS
 70
0
 71
3
 72
9
 73
5
 74
0
 42
0.0000001
 43
0.0000001
 44
0.0000000001
 40
0.0
 40
0.0
 40
0.0
 40
0.0
 40
0.2448504304
 40
1.0
 40
1.0
 40
1.0
 40
1.0
 10
116.4525203371
 20
95.86346748
 30
0.0
 10
116.4554416461
 20
95.8707314518
 30
0.0
 10
116.4655325587
 20
95.9011397202
 30
0.0
 10
116.4676064299
 20
95.9339330679
 30
0.0
 10
116.4655087511
 20
95.9579886027
 30
0.0
  0
LINE
  5
4EB
100
AcDbEntity
  8
0
100
AcDbLine
 62
7
  6
CONTINUOUS
 10
116.4323960657
 20
95.8248504901
 11
116.4475853487
 21
95.8314809628
  0
SPLINE
  5
4EC
100
AcDbEntity
  8
0
100
AcDbSpline
 62
7
  6
CONTINUOUS
 70
0
 71
3
 72
9
 73
5
 74
0
 42
0.0000001
 43
0.0000001
 44
0.0000000001
 40
0.0
 40
0.0
 40
0.0
 40
0.0
 40
0.2141398202
 40
1.0
 40
1.0
 40
1.0
 40
1.0
 10
116.4475853487
 20
95.8314809628
 30
0.0
 10
116.5478837126
 20
95.8753685567
 30
0.0
 10
117.0126713265
 20
96.0884929022
 30
0.0
 10
117.4607839035
 20
96.3373690727
 30
0.0
 10
117.8030650599
 20
96.5477656616
 30
0.0
  0
SPLINE
  5
4ED
100
AcDbEntity
  8
0
100
AcDbSpline
 62
7
  6
CONTINUOUS
 70
0
 71
3
 72
9
 73
5
 74
0
 42
0.0000001
 43
0.0000001
 44
0.0000000001
 40
0.0
 40
0.0
 40
0.0
 40
0.0
 40
0.2131151385
 40
1.0
 40
1.0
 40
1.0
 40
1.0
 10
116.4659901145
 20
95.9579883737
 30
0.0
 10
116.5650043542
 20
96.0015451862
 30
0.0
 10
117.0256170577
 20
96.2149441957
 30
0.0
 10
117.4691852807
 20
96.464566696
 30
0.0
 10
117.8077413118
 20
96.676464361
 30
0.0
  0
SPLINE
  5
4EE
100
AcDbEntity
  8
0
100
AcDbSpline
 62
7
  6
CONTINUOUS
 70
0
 71
3
 72
11
 73
7
 74
0
 42
0.0000001
 43
0.0000001
 44
0.0000000001
 40
0.0
 40
0.0
 40
0.0
 40
0.0
 40
0.2475841369
 40
0.4910499051
 40
0.7403280295
 40
1.0
 40
1.0
 40
1.0
 40
1.0
 10
117.8077413118
 20
96.676464361
 30
0.0
 10
117.8429357825
 20
96.6984851084
 30
0.0
 10
117.9209702979
 20
96.7300335986
 30
0.0
 10
118.0461511376
 20
96.7397514465
 30
0.0
 10
118.1715983559
 20
96.7192737237
 30
0.0
 10
118.2521095378
 20
96.6895102202
 30
0.0
 10
118.2916551704
 20
96.6712861955
 30
0.0
  0
SPLINE
  5
4EF
100
AcDbEntity
  8
0
100
AcDbSpline
 62
7
  6
CONTINUOUS
 70
0
 71
3
 72
9
 73
5
 74
0
 42
0.0000001
 43
0.0000001
 44
0.0000000001
 40
0.0
 40
0.0
 40
0.0
 40
0.0
 40
0.2252038255
 40
1.0
 40
1.0
 40
1.0
 40
1.0
 10
117.8030650465
 20
96.5477656738
 30
0.0
 10
117.8073389868
 20
96.5565772082
 30
0.0
 10
117.8214051883
 20
96.5981100311
 30
0.0
 10
117.8169838143
 20
96.6440635606
 30
0.0
 10
117.8077413236
 20
96.676464361
 30
0.0
  0
SPLINE
  5
4F0
100
AcDbEntity
  8
0
100
AcDbSpline
 62
7
  6
CONTINUOUS
 70
0
 71
3
 72
11
 73
7
 74
0
 42
0.0000001
 43
0.0000001
 44
0.0000000001
 40
0.0
 40
0.0
 40
0.0
 40
0.0
 40
0.2446158937
 40
0.4858293335
 40
0.7361962151
 40
1.0
 40
1.0
 40
1.0
 40
1.0
 10
117.8030650599
 20
96.5477656616
 30
0.0
 10
117.8302595802
 20
96.5612622634
 30
0.0
 10
117.8904793854
 20
96.5764252291
 30
0.0
 10
117.9825277839
 20
96.5684975618
 30
0.0
 10
118.072233854
 20
96.5392613599
 30
0.0
 10
118.1288208467
 20
96.5091432924
 30
0.0
 10
118.1566184505
 20
96.4918440841
 30
0.0
  0
SPLINE
  5
4F1
100
AcDbEntity
  8
0
100
AcDbSpline
 62
7
  6
CONTINUOUS
 70
0
 71
3
 72
13
 73
9
 74
0
 42
0.0000001
 43
0.0000001
 44
0.0000000001
 40
0.0
 40
0.0
 40
0.0
 40
0.0
 40
0.2236143191
 40
0.4755383438
 40
0.6077696937
 40
0.7409584378
 40
0.8724997298
 40
1.0
 40
1.0
 40
1.0
 40
1.0
 10
118.2916551704
 20
96.6712861955
 30
0.0
 10
118.9233722865
 20
96.3801495075
 30
0.0
 10
120.2978265684
 20
95.8250676258
 30
0.0
 10
122.1437087859
 20
95.3697912798
 30
0.0
 10
123.7487490872
 20
95.2194898277
 30
0.0
 10
124.9859335593
 20
95.2378397641
 30
0.0
 10
126.1990359465
 20
95.3864937025
 30
0.0
 10
126.9867849777
 20
95.5618799077
 30
0.0
 10
127.3699380005
 20
95.6642914665
 30
0.0
  0
SPLINE
  5
4F2
100
AcDbEntity
  8
0
100
AcDbSpline
 62
7
  6
CONTINUOUS
 70
0
 71
3
 72
9
 73
5
 74
0
 42
0.0000001
 43
0.0000001
 44
0.0000000001
 40
0.0
 40
0.0
 40
0.0
 40
0.0
 40
0.4698473428
 40
1.0
 40
1.0
 40
1.0
 40
1.0
 10
118.1566184501
 20
96.4918370286
 30
0.0
 10
118.1896685017
 20
96.5061424645
 30
0.0
 10
118.2488994521
 20
96.5607189644
 30
0.0
 10
118.2819854595
 20
96.6318190215
 30
0.0
 10
118.2916596083
 20
96.6712861957
 30
0.0
  0
SPLINE
  5
4F3
100
AcDbEntity
  8
0
100
AcDbSpline
 62
7
  6
CONTINUOUS
 70
0
 71
3
 72
13
 73
9
 74
0
 42
0.0000001
 43
0.0000001
 44
0.0000000001
 40
0.0
 40
0.0
 40
0.0
 40
0.0
 40
0.2239737083
 40
0.4759844764
 40
0.6080937069
 40
0.741117629
 40
0.8725336133
 40
1.0
 40
1.0
 40
1.0
 40
1.0
 10
118.1566184505
 20
96.4918440841
 30
0.0
 10
118.806597735
 20
96.2029176681
 30
0.0
 10
120.2181934937
 20
95.6536252878
 30
0.0
 10
122.1073362509
 20
95.2060550482
 30
0.0
 10
123.7457884276
 20
95.0593256745
 30
0.0
 10
125.0074088981
 20
95.0779359458
 30
0.0
 10
126.2453897726
 20
95.2244021103
 30
0.0
 10
127.05041186
 20
95.3972564735
 30
0.0
 10
127.4424048881
 20
95.4983208565
 30
0.0
  0
SPLINE
  5
4F4
100
AcDbEntity
  8
0
100
AcDbSpline
 62
7
  6
CONTINUOUS
 70
0
 71
3
 72
9
 73
5
 74
0
 42
0.0000001
 43
0.0000001
 44
0.0000000001
 40
0.0
 40
0.0
 40
0.0
 40
0.0
 40
0.7435980831
 40
1.0
 40
1.0
 40
1.0
 40
1.0
 10
127.3699380005
 20
95.6642914665
 30
0.0
 10
127.4336917066
 20
95.6813366886
 30
0.0
 10
127.511045432
 20
95.7374494037
 30
0.0
 10
127.5647377397
 20
95.8077327832
 30
0.0
 10
127.5773296542
 20
95.8266864946
 30
0.0
  0
SPLINE
  5
4F5
100
AcDbEntity
  8
0
100
AcDbSpline
 62
7
  6
CONTINUOUS
 70
0
 71
3
 72
9
 73
5
 74
0
 42
0.0000001
 43
0.0000001
 44
0.0000000001
 40
0.0
 40
0.0
 40
0.0
 40
0.0
 40
0.4505878992
 40
1.0
 40
1.0
 40
1.0
 40
1.0
 10
127.4424048881
 20
95.4983208729
 30
0.0
 10
127.4248125486
 20
95.5192751919
 30
0.0
 10
127.3958712834
 20
95.573782136
 30
0.0
 10
127.3773252937
 20
95.6317588873
 30
0.0
 10
127.3699380005
 20
95.6642914665
 30
0.0
  0
SPLINE
  5
4F6
100
AcDbEntity
  8
0
100
AcDbSpline
 62
7
  6
CONTINUOUS
 70
0
 71
3
 72
9
 73
5
 74
0
 42
0.0000001
 43
0.0000001
 44
0.0000000001
 40
0.0
 40
0.0
 40
0.0
 40
0.0
 40
0.4963583202
 40
1.0
 40
1.0
 40
1.0
 40
1.0
 10
127.4424048881
 20
95.4983208565
 30
0.0
 10
127.5107650629
 20
95.5088980297
 30
0.0
 10
127.6447405408
 20
95.5601949396
 30
0.0
 10
127.7513233078
 20
95.6543181329
 30
0.0
 10
127.7959582787
 20
95.7084860729
 30
0.0
  0
SPLINE
  5
4F7
100
AcDbEntity
  8
0
100
AcDbSpline
 62
7
  6
CONTINUOUS
 70
0
 71
3
 72
10
 73
6
 74
0
 42
0.0000001
 43
0.0000001
 44
0.0000000001
 40
0.0
 40
0.0
 40
0.0
 40
0.0
 40
0.1747199345
 40
0.4206487692
 40
1.0
 40
1.0
 40
1.0
 40
1.0
 10
127.7959582576
 20
95.7084860906
 30
0.0
 10
127.7814715433
 20
95.7101199422
 30
0.0
 10
127.7477387988
 20
95.721467539
 30
0.0
 10
127.6727508747
 20
95.7577652983
 30
0.0
 10
127.6151019806
 20
95.7965188318
 30
0.0
 10
127.5773296702
 20
95.8266864946
 30
0.0
  0
SPLINE
  5
4F8
100
AcDbEntity
  8
0
100
AcDbSpline
 62
7
  6
CONTINUOUS
 70
0
 71
3
 72
9
 73
5
 74
0
 42
0.0000001
 43
0.0000001
 44
0.0000000001
 40
0.0
 40
0.0
 40
0.0
 40
0.0
 40
0.2613111468
 40
1.0
 40
1.0
 40
1.0
 40
1.0
 10
128.2686351665
 20
96.864055875
 30
0.0
 10
128.2990912646
 20
96.9096517059
 30
0.0
 10
128.4270189575
 20
97.0755736779
 30
0.0
 10
128.605779974
 20
97.2077374898
 30
0.0
 10
128.7525490252
 20
97.2575827811
 30
0.0
  0
SPLINE
  5
4F9
100
AcDbEntity
  8
0
100
AcDbSpline
 62
7
  6
CONTINUOUS
 70
0
 71
3
 72
10
 73
6
 74
0
 42
0.0000001
 43
0.0000001
 44
0.0000000001
 40
0.0
 40
0.0
 40
0.0
 40
0.0
 40
0.1753019412
 40
0.4231726188
 40
1.0
 40
1.0
 40
1.0
 40
1.0
 10
128.5030741291
 20
96.741838348
 30
0.0
 10
128.4874390796
 20
96.741548353
 30
0.0
 10
128.4500697228
 20
96.7514019329
 30
0.0
 10
128.3689571722
 20
96.7879400448
 30
0.0
 10
128.3074115481
 20
96.8302347757
 30
0.0
 10
128.2686324637
 20
96.864055876
 30
0.0
  0
SPLINE
  5
4FA
100
AcDbEntity
  8
0
100
AcDbSpline
 62
7
  6
CONTINUOUS
 70
0
 71
3
 72
9
 73
5
 74
0
 42
0.0000001
 43
0.0000001
 44
0.0000000001
 40
0.0
 40
0.0
 40
0.0
 40
0.0
 40
0.2638401803
 40
1.0
 40
1.0
 40
1.0
 40
1.0
 10
128.5030650599
 20
96.7418461827
 30
0.0
 10
128.5251563305
 20
96.7793034014
 30
0.0
 10
128.6172781972
 20
96.9155658871
 30
0.0
 10
128.7463668275
 20
97.0313769993
 30
0.0
 10
128.8566184505
 20
97.0820392776
 30
0.0
  0
SPLINE
  5
4FB
100
AcDbEntity
  8
0
100
AcDbSpline
 62
7
  6
CONTINUOUS
 70
0
 71
3
 72
9
 73
5
 74
0
 42
0.0000001
 43
0.0000001
 44
0.0000000001
 40
0.0
 40
0.0
 40
0.0
 40
0.0
 40
0.3613701407
 40
1.0
 40
1.0
 40
1.0
 40
1.0
 10
128.7525490252
 20
97.2575827811
 30
0.0
 10
129.2724308761
 20
97.434479802
 30
0.0
 10
130.6886283667
 20
97.9908809758
 30
0.0
 10
132.0419816015
 20
98.6901652336
 30
0.0
 10
132.8849616935
 20
99.1710334823
 30
0.0
  0
SPLINE
  5
4FC
100
AcDbEntity
  8
0
100
AcDbSpline
 62
7
  6
CONTINUOUS
 70
0
 71
3
 72
11
 73
7
 74
0
 42
0.0000001
 43
0.0000001
 44
0.0000000001
 40
0.0
 40
0.0
 40
0.0
 40
0.0
 40
0.2470070881
 40
0.4957778993
 40
0.7470218564
 40
1.0
 40
1.0
 40
1.0
 40
1.0
 10
114.6496425602
 20
136.0579883737
 30
0.0
 10
114.6877031253
 20
136.0579883737
 30
0.0
 10
114.7649607768
 20
136.0737444831
 30
0.0
 10
114.8621362361
 20
136.140802587
 30
0.0
 10
114.9269056314
 20
136.2404933609
 30
0.0
 10
114.9419854924
 20
136.319007747
 30
0.0
 10
114.9419854921
 20
136.3579883737
 30
0.0
  0
SPLINE
  5
4FD
100
AcDbEntity
  8
0
100
AcDbSpline
 62
7
  6
CONTINUOUS
 70
0
 71
3
 72
9
 73
5
 74
0
 42
0.0000001
 43
0.0000001
 44
0.0000000001
 40
0.0
 40
0.0
 40
0.0
 40
0.0
 40
0.4553501993
 40
1.0
 40
1.0
 40
1.0
 40
1.0
 10
128.8566184505
 20
97.0820392362
 30
0.0
 10
128.8307665453
 20
97.0998829748
 30
0.0
 10
128.7868972702
 20
97.1563398085
 30
0.0
 10
128.761406696
 20
97.2210694284
 30
0.0
 10
128.7525489694
 20
97.2575827811
 30
0.0
  0
SPLINE
  5
4FE
100
AcDbEntity
  8
0
100
AcDbSpline
 62
7
  6
CONTINUOUS
 70
0
 71
3
 72
12
 73
8
 74
0
 42
0.0000001
 43
0.0000001
 44
0.0000000001
 40
0.0
 40
0.0
 40
0.0
 40
0.0
 40
0.0573398126
 40
0.1376275251
 40
0.364642693
 40
0.662889383
 40
1.0
 40
1.0
 40
1.0
 40
1.0
 10
114.9630007255
 20
136.3508815926
 30
0.0
 10
114.9728687791
 20
136.3443677983
 30
0.0
 10
114.9917655077
 20
136.3221503793
 30
0.0
 10
115.0267217689
 20
136.2555585713
 30
0.0
 10
115.0615889741
 20
136.1344639298
 30
0.0
 10
115.0891153119
 20
135.9587245283
 30
0.0
 10
115.0955158622
 20
135.827503956
 30
0.0
 10
115.095520618
 20
135.7579883731
 30
0.0
  0
SPLINE
  5
4FF
100
AcDbEntity
  8
0
100
AcDbSpline
 62
7
  6
CONTINUOUS
 70
0
 71
3
 72
9
 73
5
 74
0
 42
0.0000001
 43
0.0000001
 44
0.0000000001
 40
0.0
 40
0.0
 40
0.0
 40
0.0
 40
0.6609856143
 40
1.0
 40
1.0
 40
1.0
 40
1.0
 10
128.8566184505
 20
97.0820392776
 30
0.0
 10
129.8266503966
 20
97.4006840742
 30
0.0
 10
131.2556656275
 20
98.0035389982
 30
0.0
 10
132.6249216651
 20
98.7186016206
 30
0.0
 10
133.0834862655
 20
98.9714968665
 30
0.0
  0
SPLINE
  5
500
100
AcDbEntity
  8
0
100
AcDbSpline
 62
7
  6
CONTINUOUS
 70
0
 71
3
 72
17
 73
13
 74
0
 42
0.0000001
 43
0.0000001
 44
0.0000000001
 40
0.0
 40
0.0
 40
0.0
 40
0.0
 40
0.1827080048
 40
0.3608466515
 40
0.5283324599
 40
0.6777971161
 40
0.8012233308
 40
0.8924689625
 40
0.9259261397
 40
0.9527881792
 40
0.9760791419
 40
1.0
 40
1.0
 40
1.0
 40
1.0
 10
115.8788347807
 20
130.2901464952
 30
0.0
 10
115.8788318519
 20
130.2499315149
 30
0.0
 10
115.8769621574
 20
130.1704930509
 30
0.0
 10
115.8681339357
 20
130.0544736469
 30
0.0
 10
115.8532072847
 20
129.9464677632
 30
0.0
 10
115.8326476215
 20
129.851549103
 30
0.0
 10
115.8074777239
 20
129.7754250059
 30
0.0
 10
115.7820938439
 20
129.7262324503
 30
0.0
 10
115.7590822725
 20
129.7017473805
 30
0.0
 10
115.7429151305
 20
129.6921449544
 30
0.0
 10
115.7261179022
 20
129.6903823615
 30
0.0
 10
115.7161063333
 20
129.6943321657
 30
0.0
 10
115.7115861166
 20
129.6970319755
 30
0.0
  0
SPLINE
  5
501
100
AcDbEntity
  8
0
100
AcDbSpline
 62
7
  6
CONTINUOUS
 70
0
 71
3
 72
14
 73
10
 74
0
 42
0.0000001
 43
0.0000001
 44
0.0000000001
 40
0.0
 40
0.0
 40
0.0
 40
0.0
 40
0.4244091152
 40
0.596362065
 40
0.7394879581
 40
0.8524785091
 40
0.934030269
 40
0.9833887425
 40
1.0
 40
1.0
 40
1.0
 40
1.0
 10
133.0834862655
 20
98.9714968665
 30
0.0
 10
133.0996732833
 20
98.9768528156
 30
0.0
 10
133.1221122867
 20
98.985371774
 30
0.0
 10
133.1492127092
 20
98.9975240288
 30
0.0
 10
133.1647499495
 20
99.0049456099
 30
0.0
 10
133.1767035361
 20
99.0112655243
 30
0.0
 10
133.1856202833
 20
99.0155792478
 30
0.0
 10
133.1903503083
 20
99.018930596
 30
0.0
 10
133.1931524304
 20
99.0196967806
 30
0.0
 10
133.1935286051
 20
99.0202479884
 30
0.0
  0
SPLINE
  5
502
100
AcDbEntity
  8
0
100
AcDbSpline
 62
7
  6
CONTINUOUS
 70
0
 71
3
 72
14
 73
10
 74
0
 42
0.0000001
 43
0.0000001
 44
0.0000000001
 40
0.0
 40
0.0
 40
0.0
 40
0.0
 40
0.4234723726
 40
0.5955319558
 40
0.7388905316
 40
0.8521230935
 40
0.9338556426
 40
0.9833288625
 40
1.0
 40
1.0
 40
1.0
 40
1.0
 10
132.8849616935
 20
99.1710334823
 30
0.0
 10
132.8945674447
 20
99.1765204406
 30
0.0
 10
132.907802713
 20
99.1847471812
 30
0.0
 10
132.9236483056
 20
99.1957405248
 30
0.0
 10
132.9327749328
 20
99.2022915825
 30
0.0
 10
132.9396357985
 20
99.207723601
 30
0.0
 10
132.9450897497
 20
99.2114385403
 30
0.0
 10
132.9473853077
 20
99.2142007013
 30
0.0
 10
132.9494928276
 20
99.2149090481
 30
0.0
 10
132.9495116693
 20
99.2153441425
 30
0.0
  0
SPLINE
  5
503
100
AcDbEntity
  8
0
100
AcDbSpline
 62
7
  6
CONTINUOUS
 70
0
 71
3
 72
9
 73
5
 74
0
 42
0.0000001
 43
0.0000001
 44
0.0000000001
 40
0.0
 40
0.0
 40
0.0
 40
0.0
 40
0.4991097947
 40
1.0
 40
1.0
 40
1.0
 40
1.0
 10
133.0834862655
 20
98.9714967059
 30
0.0
 10
133.0329012686
 20
98.9719160921
 30
0.0
 10
132.927929221
 20
99.0151724966
 30
0.0
 10
132.8853782971
 20
99.1202680045
 30
0.0
 10
132.8849617185
 20
99.1710334823
 30
0.0
  0
SPLINE
  5
504
100
AcDbEntity
  8
0
100
AcDbSpline
 62
7
  6
CONTINUOUS
 70
0
 71
3
 72
9
 73
5
 74
0
 42
0.0000001
 43
0.0000001
 44
0.0000000001
 40
0.0
 40
0.0
 40
0.0
 40
0.0
 40
0.4967833248
 40
1.0
 40
1.0
 40
1.0
 40
1.0
 10
116.2887315395
 20
95.7579883737
 30
0.0
 10
116.3130535683
 20
95.7579883734
 30
0.0
 10
116.3625106996
 20
95.7680434969
 30
0.0
 10
116.4040190688
 20
95.796601687
 30
0.0
 10
116.4213366014
 20
95.8141255223
 30
0.0
  0
SPLINE
  5
505
100
AcDbEntity
  8
0
100
AcDbSpline
 62
7
  6
CONTINUOUS
 70
0
 71
3
 72
9
 73
5
 74
0
 42
0.0000001
 43
0.0000001
 44
0.0000000001
 40
0.0
 40
0.0
 40
0.0
 40
0.0
 40
0.4871090425
 40
1.0
 40
1.0
 40
1.0
 40
1.0
 10
116.4323960657
 20
95.8248504901
 30
0.0
 10
116.4576685003
 20
95.8251003095
 30
0.0
 10
116.5095547872
 20
95.8242892746
 30
0.0
 10
116.5614398105
 20
95.824835627
 30
0.0
 10
116.5880490068
 20
95.8251753508
 30
0.0
  0
SPLINE
  5
506
100
AcDbEntity
  8
0
100
AcDbSpline
 62
7
  6
CONTINUOUS
 70
0
 71
3
 72
13
 73
9
 74
0
 42
0.0000001
 43
0.0000001
 44
0.0000000001
 40
0.0
 40
0.0
 40
0.0
 40
0.0
 40
0.0871145361
 40
0.1625984735
 40
0.3363128625
 40
0.4609010643
 40
0.6142300013
 40
1.0
 40
1.0
 40
1.0
 40
1.0
 10
116.6220319508
 20
95.8255747087
 30
0.0
 10
116.633980071
 20
95.8256940657
 30
0.0
 10
116.6566350333
 20
95.8234592979
 30
0.0
 10
116.6981588659
 20
95.7985691412
 30
0.0
 10
116.7089061873
 20
95.7415238604
 30
0.0
 10
116.7005123052
 20
95.681067678
 30
0.0
 10
116.6762204099
 20
95.5926701429
 30
0.0
 10
116.6456831854
 20
95.5250998499
 30
0.0
 10
116.6220319508
 20
95.4777673877
 30
0.0
  0
SPLINE
  5
507
100
AcDbEntity
  8
0
100
AcDbSpline
 62
7
  6
CONTINUOUS
 70
0
 71
3
 72
9
 73
5
 74
0
 42
0.0000001
 43
0.0000001
 44
0.0000000001
 40
0.0
 40
0.0
 40
0.0
 40
0.0
 40
0.4953639032
 40
1.0
 40
1.0
 40
1.0
 40
1.0
 10
116.4806105945
 20
95.7579888
 30
0.0
 10
116.507129564
 20
95.7579888377
 30
0.0
 10
116.5613309511
 20
95.7703541727
 30
0.0
 10
116.6047375158
 20
95.804820273
 30
0.0
 10
116.6220354479
 20
95.825571434
 30
0.0
  0
SPLINE
  5
508
100
AcDbEntity
  8
0
100
AcDbSpline
 62
7
  6
CONTINUOUS
 70
0
 71
3
 72
13
 73
9
 74
0
 42
0.0000001
 43
0.0000001
 44
0.0000000001
 40
0.0
 40
0.0
 40
0.0
 40
0.0
 40
0.2540517634
 40
0.3780581906
 40
0.5008708124
 40
0.623552361
 40
0.7471863747
 40
1.0
 40
1.0
 40
1.0
 40
1.0
 10
116.6220319508
 20
95.4777673877
 30
0.0
 10
116.3593463349
 20
94.9518543923
 30
0.0
 10
116.0306981431
 20
94.1323456224
 30
0.0
 10
115.7977707654
 20
92.994228061
 30
0.0
 10
115.7383625739
 20
92.1385372991
 30
0.0
 10
115.7976663466
 20
91.2836933159
 30
0.0
 10
116.0303448248
 20
90.149615419
 30
0.0
 10
116.3591777859
 20
89.3340841796
 30
0.0
 10
116.6220319508
 20
88.811460401
 30
0.0
  0
SPLINE
  5
509
100
AcDbEntity
  8
0
100
AcDbSpline
 62
7
  6
CONTINUOUS
 70
0
 71
3
 72
9
 73
5
 74
0
 42
0.0000001
 43
0.0000001
 44
0.0000000001
 40
0.0
 40
0.0
 40
0.0
 40
0.0
 40
0.2796524074
 40
1.0
 40
1.0
 40
1.0
 40
1.0
 10
116.4806105945
 20
95.4650951878
 30
0.0
 10
116.4936207556
 20
95.4618642646
 30
0.0
 10
116.5405792454
 20
95.4536516232
 30
0.0
 10
116.592424248
 20
95.4599999157
 30
0.0
 10
116.6220337464
 20
95.477765753
 30
0.0
  0
SPLINE
  5
50A
100
AcDbEntity
  8
0
100
AcDbSpline
 62
7
  6
CONTINUOUS
 70
0
 71
3
 72
13
 73
9
 74
0
 42
0.0000001
 43
0.0000001
 44
0.0000000001
 40
0.0
 40
0.0
 40
0.0
 40
0.0
 40
0.2533742225
 40
0.3772132152
 40
0.5000018792
 40
0.6227906008
 40
0.7466281521
 40
1.0
 40
1.0
 40
1.0
 40
1.0
 10
116.4806105945
 20
95.4650951549
 30
0.0
 10
116.2172890814
 20
94.9348697278
 30
0.0
 10
115.8885350979
 20
94.108293529
 30
0.0
 10
115.6561833138
 20
92.9606337937
 30
0.0
 10
115.5969927077
 20
92.0968095085
 30
0.0
 10
115.6561965118
 20
91.2329906257
 30
0.0
 10
115.8885288189
 20
90.0853361157
 30
0.0
 10
116.2172898215
 20
89.2587707223
 30
0.0
 10
116.4806105945
 20
88.7285511222
 30
0.0
  0
SPLINE
  5
50B
100
AcDbEntity
  8
0
100
AcDbSpline
 62
7
  6
CONTINUOUS
 70
0
 71
3
 72
9
 73
5
 74
0
 42
0.0000001
 43
0.0000001
 44
0.0000000001
 40
0.0
 40
0.0
 40
0.0
 40
0.0
 40
0.4600268669
 40
1.0
 40
1.0
 40
1.0
 40
1.0
 10
116.6220319508
 20
88.811460401
 30
0.0
 10
116.6810396736
 20
88.6941701383
 30
0.0
 10
116.7335292405
 20
88.4012735573
 30
0.0
 10
116.6735412399
 20
88.1170311713
 30
0.0
 10
116.6220319508
 20
87.9717792495
 30
0.0
  0
SPLINE
  5
50C
100
AcDbEntity
  8
0
100
AcDbSpline
 62
7
  6
CONTINUOUS
 70
0
 71
3
 72
9
 73
5
 74
0
 42
0.0000001
 43
0.0000001
 44
0.0000000001
 40
0.0
 40
0.0
 40
0.0
 40
0.0
 40
0.2526449447
 40
1.0
 40
1.0
 40
1.0
 40
1.0
 10
116.4806105945
 20
88.7285514053
 30
0.0
 10
116.4941125359
 20
88.7319042682
 30
0.0
 10
116.5464367683
 20
88.7491703478
 30
0.0
 10
116.5943057272
 20
88.7810505724
 30
0.0
 10
116.6220354516
 20
88.8114589523
 30
0.0
  0
SPLINE
  5
50D
100
AcDbEntity
  8
0
100
AcDbSpline
 62
7
  6
CONTINUOUS
 70
0
 71
3
 72
11
 73
7
 74
0
 42
0.0000001
 43
0.0000001
 44
0.0000000001
 40
0.0
 40
0.0
 40
0.0
 40
0.0
 40
0.2191422752
 40
0.4620473376
 40
0.7257711831
 40
1.0
 40
1.0
 40
1.0
 40
1.0
 10
116.4806105945
 20
88.7285511222
 30
0.0
 10
116.5079809964
 20
88.6826415239
 30
0.0
 10
116.5512901885
 20
88.5766795465
 30
0.0
 10
116.5714680671
 20
88.3989128961
 30
0.0
 10
116.5479202492
 20
88.2084437285
 30
0.0
 10
116.5065974352
 20
88.0830746548
 30
0.0
 10
116.4806105945
 20
88.021444341
 30
0.0
  0
SPLINE
  5
50E
100
AcDbEntity
  8
0
100
AcDbSpline
 62
7
  6
CONTINUOUS
 70
0
 71
3
 72
13
 73
9
 74
0
 42
0.0000001
 43
0.0000001
 44
0.0000000001
 40
0.0
 40
0.0
 40
0.0
 40
0.0
 40
0.2499038055
 40
0.3749421199
 40
0.4999947245
 40
0.6250528273
 40
0.7501026492
 40
1.0
 40
1.0
 40
1.0
 40
1.0
 10
116.6220319508
 20
87.9717792495
 30
0.0
 10
116.3541834758
 20
87.2160228931
 30
0.0
 10
116.0266332678
 20
86.0518464084
 30
0.0
 10
115.797329875
 20
84.4621938815
 30
0.0
 10
115.7384672116
 20
83.2580228819
 30
0.0
 10
115.7973412939
 20
82.05381554
 30
0.0
 10
116.0266479843
 20
80.4641299672
 30
0.0
 10
116.3541845301
 20
79.2999322558
 30
0.0
 10
116.6220319508
 20
78.544197498
 30
0.0
  0
SPLINE
  5
50F
100
AcDbEntity
  8
0
100
AcDbSpline
 62
7
  6
CONTINUOUS
 70
0
 71
3
 72
11
 73
7
 74
0
 42
0.0000001
 43
0.0000001
 44
0.0000000001
 40
0.0
 40
0.0
 40
0.0
 40
0.0
 40
0.2500399571
 40
0.499994875
 40
0.7499665535
 40
1.0
 40
1.0
 40
1.0
 40
1.0
 10
116.4806105945
 20
88.021444341
 30
0.0
 10
116.2122535416
 20
87.2572583813
 30
0.0
 10
115.7754168946
 20
85.6901400672
 30
0.0
 10
115.5372999027
 20
83.2579844884
 30
0.0
 10
115.7754452232
 20
80.8258566624
 30
0.0
 10
116.212252189
 20
79.2586955396
 30
0.0
 10
116.4806105945
 20
78.4945324065
 30
0.0
  0
SPLINE
  5
510
100
AcDbEntity
  8
0
100
AcDbSpline
 62
7
  6
CONTINUOUS
 70
0
 71
3
 72
9
 73
5
 74
0
 42
0.0000001
 43
0.0000001
 44
0.0000000001
 40
0.0
 40
0.0
 40
0.0
 40
0.0
 40
0.539965661
 40
1.0
 40
1.0
 40
1.0
 40
1.0
 10
116.6220319508
 20
78.544197498
 30
0.0
 10
116.6735222166
 20
78.3989410999
 30
0.0
 10
116.7335225731
 20
78.1147155954
 30
0.0
 10
116.6810649012
 20
77.8217962964
 30
0.0
 10
116.6220319508
 20
77.7045163465
 30
0.0
  0
SPLINE
  5
511
100
AcDbEntity
  8
0
100
AcDbSpline
 62
7
  6
CONTINUOUS
 70
0
 71
3
 72
11
 73
7
 74
0
 42
0.0000001
 43
0.0000001
 44
0.0000000001
 40
0.0
 40
0.0
 40
0.0
 40
0.0
 40
0.2742253725
 40
0.5379485721
 40
0.7808555624
 40
1.0
 40
1.0
 40
1.0
 40
1.0
 10
116.4806105945
 20
78.4945324065
 30
0.0
 10
116.5065906779
 20
78.4329001991
 30
0.0
 10
116.5479325345
 20
78.307539678
 30
0.0
 10
116.571469062
 20
78.1170657006
 30
0.0
 10
116.5512771356
 20
77.9393047802
 30
0.0
 10
116.5079879661
 20
77.8333316445
 30
0.0
 10
116.4806105945
 20
77.7874256253
 30
0.0
  0
SPLINE
  5
512
100
AcDbEntity
  8
0
100
AcDbSpline
 62
7
  6
CONTINUOUS
 70
0
 71
3
 72
13
 73
9
 74
0
 42
0.0000001
 43
0.0000001
 44
0.0000000001
 40
0.0
 40
0.0
 40
0.0
 40
0.0
 40
0.2528115826
 40
0.3764544075
 40
0.4991392467
 40
0.6219572646
 40
0.7459683303
 40
1.0
 40
1.0
 40
1.0
 40
1.0
 10
116.6220319508
 20
77.7045163465
 30
0.0
 10
116.3591718958
 20
77.1818994415
 30
0.0
 10
116.0303182653
 20
76.3663596512
 30
0.0
 10
115.7976210309
 20
75.2322537391
 30
0.0
 10
115.7384020637
 20
74.3773636571
 30
0.0
 10
115.7977484499
 20
73.5216386876
 30
0.0
 10
116.0306949133
 20
72.3835409362
 30
0.0
 10
116.3593584631
 20
71.5640778241
 30
0.0
 10
116.6220319508
 20
71.0382093598
 30
0.0
  0
SPLINE
  5
513
100
AcDbEntity
  8
0
100
AcDbSpline
 62
7
  6
CONTINUOUS
 70
0
 71
3
 72
9
 73
5
 74
0
 42
0.0000001
 43
0.0000001
 44
0.0000000001
 40
0.0
 40
0.0
 40
0.0
 40
0.0
 40
0.2526460818
 40
1.0
 40
1.0
 40
1.0
 40
1.0
 10
116.4806105945
 20
77.7874256341
 30
0.0
 10
116.4941124527
 20
77.7840728056
 30
0.0
 10
116.5464360395
 20
77.7668066071
 30
0.0
 10
116.5943038784
 20
77.7349253947
 30
0.0
 10
116.6220322446
 20
77.704516468
 30
0.0
  0
SPLINE
  5
514
100
AcDbEntity
  8
0
100
AcDbSpline
 62
7
  6
CONTINUOUS
 70
0
 71
3
 72
13
 73
9
 74
0
 42
0.0000001
 43
0.0000001
 44
0.0000000001
 40
0.0
 40
0.0
 40
0.0
 40
0.0
 40
0.2533697916
 40
0.3772160612
 40
0.500008004
 40
0.6228021932
 40
0.7466460226
 40
1.0
 40
1.0
 40
1.0
 40
1.0
 10
116.4806105945
 20
77.7874256253
 30
0.0
 10
116.2172823877
 20
77.2572136893
 30
0.0
 10
115.8885001256
 20
76.4306395303
 30
0.0
 10
115.6561514421
 20
75.2829568968
 30
0.0
 10
115.5970308859
 20
74.4190915834
 30
0.0
 10
115.6561645846
 20
73.5552325767
 30
0.0
 10
115.8885288034
 20
72.4075915805
 30
0.0
 10
116.217297033
 20
71.5810595459
 30
0.0
 10
116.4806105945
 20
71.0508815926
 30
0.0
  0
SPLINE
  5
515
100
AcDbEntity
  8
0
100
AcDbSpline
 62
7
  6
CONTINUOUS
 70
0
 71
3
 72
13
 73
9
 74
0
 42
0.0000001
 43
0.0000001
 44
0.0000000001
 40
0.0
 40
0.0
 40
0.0
 40
0.0
 40
0.3856454057
 40
0.5389974234
 40
0.6635852403
 40
0.837304468
 40
0.9127981859
 40
1.0
 40
1.0
 40
1.0
 40
1.0
 10
116.6220319508
 20
71.0382093598
 30
0.0
 10
116.6456709619
 20
70.9908826177
 30
0.0
 10
116.6762059175
 20
70.9233222405
 30
0.0
 10
116.700573936
 20
70.8349489196
 30
0.0
 10
116.7089544318
 20
70.7744719887
 30
0.0
 10
116.6981889374
 20
70.717441498
 30
0.0
 10
116.656670625
 20
70.6925010172
 30
0.0
 10
116.6339935147
 20
70.6902826844
 30
0.0
 10
116.6220319508
 20
70.6904020388
 30
0.0
  0
SPLINE
  5
516
100
AcDbEntity
  8
0
100
AcDbSpline
 62
7
  6
CONTINUOUS
 70
0
 71
3
 72
9
 73
5
 74
0
 42
0.0000001
 43
0.0000001
 44
0.0000000001
 40
0.0
 40
0.0
 40
0.0
 40
0.0
 40
0.2796526773
 40
1.0
 40
1.0
 40
1.0
 40
1.0
 10
116.4806105945
 20
71.0508815628
 30
0.0
 10
116.4936206589
 20
71.054112295
 30
0.0
 10
116.5405787071
 20
71.0623242897
 30
0.0
 10
116.5924230629
 20
71.0559754128
 30
0.0
 10
116.6220319658
 20
71.0382093734
 30
0.0
  0
SPLINE
  5
517
100
AcDbEntity
  8
0
100
AcDbSpline
 62
7
  6
CONTINUOUS
 70
0
 71
3
 72
14
 73
10
 74
0
 42
0.0000001
 43
0.0000001
 44
0.0000000001
 40
0.0
 40
0.0
 40
0.0
 40
0.0
 40
0.2008790158
 40
0.3777361087
 40
0.5270524109
 40
0.6474734022
 40
0.7422565616
 40
0.822284754
 40
1.0
 40
1.0
 40
1.0
 40
1.0
 10
116.4806105945
 20
71.0508815926
 30
0.0
 10
116.4930194046
 20
71.0300594437
 30
0.0
 10
116.515293473
 20
70.9902467112
 30
0.0
 10
116.541982282
 20
70.9324350885
 30
0.0
 10
116.5591160233
 20
70.8811573912
 30
0.0
 10
116.5659018577
 20
70.8374331152
 30
0.0
 10
116.5616867053
 20
70.8012444255
 30
0.0
 10
116.5370607692
 20
70.7640997689
 30
0.0
 10
116.5020547525
 20
70.7579855406
 30
0.0
 10
116.4806105945
 20
70.7579883737
 30
0.0
  0
LINE
  5
518
100
AcDbEntity
  8
0
100
AcDbLine
 62
7
  6
CONTINUOUS
 10
116.6220319508
 20
70.6904020388
 11
116.3207683532
 21
70.6934095356
  0
LINE
  5
519
100
AcDbEntity
  8
0
100
AcDbLine
 62
7
  6
CONTINUOUS
 10
116.3207683532
 20
70.6934095356
 11
115.758091169
 21
70.6994097213
  0
SPLINE
  5
51A
100
AcDbEntity
  8
0
100
AcDbSpline
 62
7
  6
CONTINUOUS
 70
0
 71
3
 72
9
 73
5
 74
0
 42
0.0000001
 43
0.0000001
 44
0.0000000001
 40
0.0
 40
0.0
 40
0.0
 40
0.0
 40
0.4953630344
 40
1.0
 40
1.0
 40
1.0
 40
1.0
 10
116.4806105945
 20
70.757988385
 30
0.0
 10
116.5071293449
 20
70.7579884268
 30
0.0
 10
116.5613304984
 20
70.7456220645
 30
0.0
 10
116.6047352298
 20
70.7111540583
 30
0.0
 10
116.62203212
 20
70.6904021972
 30
0.0
  0
SPLINE
  5
51B
100
AcDbEntity
  8
0
100
AcDbSpline
 62
7
  6
CONTINUOUS
 70
0
 71
3
 72
9
 73
5
 74
0
 42
0.0000001
 43
0.0000001
 44
0.0000000001
 40
0.0
 40
0.0
 40
0.0
 40
0.0
 40
0.2373325247
 40
1.0
 40
1.0
 40
1.0
 40
1.0
 10
137.2832521485
 20
145.6198775283
 30
0.0
 10
137.2759767614
 20
145.5834831743
 30
0.0
 10
137.2483991001
 20
145.4295446159
 30
0.0
 10
137.2258422506
 20
145.2746554855
 30
0.0
 10
137.2010748103
 20
145.1579883737
 30
0.0
  0
ELLIPSE
  5
51C
100
AcDbEntity
  8
0
100
AcDbEllipse
 62
7
  6
CONTINUOUS
 10
136.168706588
 20
145.195256155
 30
0.0
 11
0.5486916773
 21
1.2874646535
 31
0.0
 40
0.7145358838
 41
-1.5707963268
 42
-1.3028918007
  0
ELLIPSE
  5
51D
100
AcDbEntity
  8
0
100
AcDbEllipse
 62
7
  6
CONTINUOUS
 10
137.6237156167
 20
145.1579883737
 30
0.0
 11
-0.0
 21
1.0
 31
0.0
 40
0.383864035
 41
0.0
 42
1.0906723322
  0
ELLIPSE
  5
51E
100
AcDbEntity
  8
0
100
AcDbEllipse
 62
7
  6
CONTINUOUS
 10
137.2398515817
 20
146.1579883737
 30
0.0
 11
0.0
 21
3.0
 31
0.0
 40
0.383864035
 41
0.0
 42
1.5707963268
  0
ELLIPSE
  5
51F
100
AcDbEntity
  8
0
100
AcDbEllipse
 62
7
  6
CONTINUOUS
 10
118.7188984145
 20
146.1579883737
 30
0.0
 11
3.0
 21
0.0
 31
0.0
 40
1.0
 41
-0.0
 42
1.5707963268
  0
ELLIPSE
  5
520
100
AcDbEntity
  8
0
100
AcDbEllipse
 62
7
  6
CONTINUOUS
 10
135.0171144829
 20
142.4931300033
 30
0.0
 11
-0.5486916773
 21
-1.2874646535
 31
0.0
 40
0.7145358838
 41
1.5707963268
 42
2.1085963504
  0
ELLIPSE
  5
521
100
AcDbEntity
  8
0
100
AcDbEllipse
 62
7
  6
CONTINUOUS
 10
123.1331119768
 20
144.448762997
 30
0.0
 11
-1.2104221425
 21
1.2980188316
 31
0.0
 40
0.563438437
 41
0.5435120867
 42
1.5707963268
  0
ENDSEC
  0
SECTION
  2
OBJECTS
  0
DICTIONARY
  5
522
100
AcDbDictionary
  3
ACAD_GROUP
350
523
  3
ACAD_MLINESTYLE
350
524
  0
DICTIONARY
  5
523
102
{ACAD_REACTORS
330
522
102
}
100
AcDbDictionary
  0
DICTIONARY
  5
524
102
{ACAD_REACTORS
330
522
102
}
100
AcDbDictionary
  3
STANDARD
350
525
  0
MLINESTYLE
  5
525
102
{ACAD_REACTORS
330
524
102
}
100
AcDbMlineStyle
  2
STANDARD
 70
0
  3

 62
256
 51
90.0
 52
90.0
 71
2
 49
0.5
 62
256
  6
BYLAYER
 49
-0.5
 62
256
  6
BYLAYER
  0
ENDSEC
  0
EOF
