999
DXF file: C:\Users\64ciro\Desktop\FILE 3D-2D\ARMATEC\SINGOLI\h34nll050_3077.dxf
999
Pro/ENGINEER 2017260 by Parametric Technology Corporation
  0
SECTION
  2
HEADER
  9
$ACADVER
  1
AC1014
  9
$DWGCODEPAGE
  3
ANSI_1252
  9
$EXTMAX
 10
297.0
 20
210.0
 30
0.0
  9
$EXTMIN
 10
0.0
 20
0.0
 30
0.0
  9
$LIMMIN
 10
0.0
 20
0.0
  9
$LIMMAX
 10
297.0
 20
210.0
  9
$VIEWCTR
 10
148.5
 20
105.0
  9
$VIEWSIZE
 40
210.0
  9
$CLAYER
  8
0
  9
$LTSCALE
 40
16.335
  9
$CELTYPE
  6
BYLAYER
  9
$DIMSCALE
 40
1.0
  9
$DIMASZ
 40
2.5
  9
$DIMEXO
 40
0.0625
  9
$DIMDLI
 40
11.286
  9
$DIMEXE
 40
0.125
  9
$DIMCEN
 40
2.673
  9
$DIMLFAC
 40
1.0
  9
$DIMBLK
  1
_CLOSED
  9
$DIMALT
 70
0
  9
$DIMALTF
 40
25.4
  9
$DIMTXT
 40
2.5
  9
$DIMTOL
 70
1
  9
$DIMLIM
 70
0
  9
$DIMTFAC
 40
1.0
  9
$DIMTP
 40
0.01
  9
$DIMTM
 40
0.01
  9
$DIMGAP
 40
0.625
  9
$AUNITS
 70
0
  9
$PDMODE
 70
3
  9
$PDSIZE
 40
0.3125
  9
$HANDSEED
  5
3F4
  9
$TILEMODE
 70
1
  9
$MEASUREMENT
 70
1
  0
ENDSEC
  0
SECTION
  2
CLASSES
  0
ENDSEC
  0
SECTION
  2
TABLES
  0
TABLE
  2
VPORT
  5
8
100
AcDbSymbolTable
 70
2
  0
VPORT
  5
1F4
100
AcDbSymbolTableRecord
100
AcDbViewportTableRecord
  2
*ACTIVE
 70
0
 10
0.0
 20
0.0
 11
1.0
 21
1.0
 12
148.5
 22
105.0
 13
0.0
 23
0.0
 14
1.0
 24
1.0
 15
0.0
 25
0.0
 16
0.0
 26
0.0
 36
1.0
 17
0.0
 27
0.0
 37
0.0
 40
210.0
 41
1.4142857143
 42
50.0
 43
0.0
 44
0.0
 50
0.0
 51
0.0
 71
0
 72
100
 73
1
 74
1
 75
0
 76
0
 77
0
 78
0
  0
ENDTAB
  0
TABLE
  2
LTYPE
  5
5
100
AcDbSymbolTable
 70
6
  0
LTYPE
  5
14
100
AcDbSymbolTableRecord
100
AcDbLinetypeTableRecord
  2
BYBLOCK
 70
0
  3

 72
65
 73
0
 40
0.0
  0
LTYPE
  5
15
100
AcDbSymbolTableRecord
100
AcDbLinetypeTableRecord
  2
BYLAYER
 70
0
  3

 72
65
 73
0
 40
0.0
  0
LTYPE
  5
16
100
AcDbSymbolTableRecord
100
AcDbLinetypeTableRecord
  2
CONTINUOUS
 70
64
  3
Solid line
 72
65
 73
0
 40
0.0
  0
LTYPE
  5
1F5
100
AcDbSymbolTableRecord
100
AcDbLinetypeTableRecord
  2
CENTER
 70
64
  3
____ _ ____ _ ____ _ ____ _ ____ _ ____ _ ____
 72
65
 73
4
 40
0.6
 49
0.375
 74
0
 49
-0.075
 74
0
 49
0.075
 74
0
 49
-0.075
 74
0
  0
LTYPE
  5
1F6
100
AcDbSymbolTableRecord
100
AcDbLinetypeTableRecord
  2
HIDDEN
 70
64
  3
- - - - - - - - - - - - - - - - - - - -
 72
65
 73
2
 40
0.2
 49
0.1
 74
0
 49
-0.1
 74
0
  0
LTYPE
  5
1F7
100
AcDbSymbolTableRecord
100
AcDbLinetypeTableRecord
  2
PHANTOM
 70
64
  3
_____ _ _ _____ _ _ _____ _ _ _____
 72
65
 73
6
 40
0.8
 49
0.45
 74
0
 49
-0.05
 74
0
 49
0.1
 74
0
 49
-0.05
 74
0
 49
0.1
 74
0
 49
-0.05
 74
0
  0
LTYPE
  5
1F8
100
AcDbSymbolTableRecord
100
AcDbLinetypeTableRecord
  2
DOT
 70
64
  3
. . . . . . . . . . . . . . . . . . . .
 72
65
 73
2
 40
0.2
 49
0.1
 74
0
 49
-0.1
 74
0
  0
LTYPE
  5
1F9
100
AcDbSymbolTableRecord
100
AcDbLinetypeTableRecord
  2
DASHED
 70
64
  3
- - - - - - - - - - - - - - - - - - - -
 72
65
 73
2
 40
0.2
 49
0.1
 74
0
 49
-0.1
 74
0
  0
ENDTAB
  0
TABLE
  2
LAYER
  5
2
100
AcDbSymbolTable
 70
36
  0
LAYER
  5
10
100
AcDbSymbolTableRecord
100
AcDbLayerTableRecord
  2
0
 70
0
 62
7
  6
CONTINUOUS
  0
LAYER
  5
1FA
100
AcDbSymbolTableRecord
100
AcDbLayerTableRecord
  2
DEFAULT_1
 70
0
 62
7
  6
CENTER
  0
LAYER
  5
1FB
100
AcDbSymbolTableRecord
100
AcDbLayerTableRecord
  2
DEFAULT_2
 70
0
 62
8
  6
HIDDEN
  0
LAYER
  5
1FC
100
AcDbSymbolTableRecord
100
AcDbLayerTableRecord
  2
DEFAULT_3
 70
0
 62
7
  6
PHANTOM
  0
LAYER
  5
1FD
100
AcDbSymbolTableRecord
100
AcDbLayerTableRecord
  2
ASSI
 70
0
 62
7
  6
CONTINUOUS
  0
LAYER
  5
1FE
100
AcDbSymbolTableRecord
100
AcDbLayerTableRecord
  2
COSMETICA
 70
0
 62
7
  6
CONTINUOUS
  0
LAYER
  5
1FF
100
AcDbSymbolTableRecord
100
AcDbLayerTableRecord
  2
CSYS
 70
0
 62
7
  6
CONTINUOUS
  0
LAYER
  5
200
100
AcDbSymbolTableRecord
100
AcDbLayerTableRecord
  2
CURVE
 70
0
 62
7
  6
CONTINUOUS
  0
LAYER
  5
201
100
AcDbSymbolTableRecord
100
AcDbLayerTableRecord
  2
DETTAGLI
 70
0
 62
7
  6
CONTINUOUS
  0
LAYER
  5
202
100
AcDbSymbolTableRecord
100
AcDbLayerTableRecord
  2
FILETTI
 70
0
 62
7
  6
CONTINUOUS
  0
LAYER
  5
203
100
AcDbSymbolTableRecord
100
AcDbLayerTableRecord
  2
GEOM
 70
0
 62
7
  6
CONTINUOUS
  0
LAYER
  5
204
100
AcDbSymbolTableRecord
100
AcDbLayerTableRecord
  2
GEOMETRIA_SOLIDA
 70
0
 62
7
  6
CONTINUOUS
  0
LAYER
  5
205
100
AcDbSymbolTableRecord
100
AcDbLayerTableRecord
  2
NOGEOM
 70
0
 62
7
  6
CONTINUOUS
  0
LAYER
  5
206
100
AcDbSymbolTableRecord
100
AcDbLayerTableRecord
  2
PIANI
 70
0
 62
7
  6
CONTINUOUS
  0
LAYER
  5
207
100
AcDbSymbolTableRecord
100
AcDbLayerTableRecord
  2
QUOTE
 70
0
 62
7
  6
CONTINUOUS
  0
LAYER
  5
208
100
AcDbSymbolTableRecord
100
AcDbLayerTableRecord
  2
RACCORDI
 70
0
 62
7
  6
CONTINUOUS
  0
LAYER
  5
209
100
AcDbSymbolTableRecord
100
AcDbLayerTableRecord
  2
SKETCH
 70
0
 62
7
  6
CONTINUOUS
  0
LAYER
  5
20A
100
AcDbSymbolTableRecord
100
AcDbLayerTableRecord
  2
TABELLE
 70
0
 62
7
  6
CONTINUOUS
  0
ENDTAB
  0
TABLE
  2
STYLE
  5
3
100
AcDbSymbolTable
 70
1
  0
STYLE
  5
11
100
AcDbSymbolTableRecord
100
AcDbTextStyleTableRecord
  2
STANDARD
 70
0
 40
0.0
 41
1.0
 50
0.0
 71
0
 42
0.2
  3
trium.ttf
  4

  0
STYLE
  5
20B
100
AcDbSymbolTableRecord
100
AcDbTextStyleTableRecord
  2
TEXTSTYLE_1
 70
0
 40
0.0
 41
0.8
 50
0.0
 71
0
 42
0.2
  3
gdt
  4

  0
ENDTAB
  0
TABLE
  2
VIEW
  5
6
100
AcDbSymbolTable
 70
0
  0
ENDTAB
  0
TABLE
  2
UCS
  5
7
100
AcDbSymbolTable
 70
0
  0
ENDTAB
  0
TABLE
  2
APPID
  5
9
100
AcDbSymbolTable
 70
1
  0
APPID
  5
20C
100
AcDbSymbolTableRecord
100
AcDbRegAppTableRecord
  2
ACAD
 70
0
  0
ENDTAB
  0
TABLE
  2
BLOCK_RECORD
  5
1
100
AcDbSymbolTable
 70
0
  0
BLOCK_RECORD
  5
1F
100
AcDbSymbolTableRecord
100
AcDbBlockTableRecord
  2
*MODEL_SPACE
  0
BLOCK_RECORD
  5
1B
100
AcDbSymbolTableRecord
100
AcDbBlockTableRecord
  2
*PAPER_SPACE
  0
ENDTAB
  0
TABLE
  2
DIMSTYLE
  5
A
100
AcDbSymbolTable
 70
1
  0
DIMSTYLE
105
20D
100
AcDbSymbolTableRecord
100
AcDbDimStyleTableRecord
  2
STANDARD
 70
0
  3

  4

  5
_CLOSED
  6
_CLOSED
  7
_CLOSED
 40
1.0
 41
2.5
 42
0.0625
 43
0.38
 44
0.125
 45
0.0
 46
0.0
 47
0.01
 48
0.01
140
2.5
141
0.09
142
0.0
143
25.4
144
1.0
145
0.0
146
1.0
147
0.625
 71
1.0
 72
0.0
 73
0
 74
0
 75
0
 76
0
 77
1
 78
8
 79
2
170
0
171
1
172
0
173
0
174
0
175
0
176
0
177
0
178
0
270
2
179
2
271
2
272
2
273
2
274
2
275
0
280
0
281
0
282
0
283
1
284
8
285
0
286
0
287
3
288
0
340
11
  0
ENDTAB
  0
ENDSEC
  0
SECTION
  2
BLOCKS
  0
BLOCK
  5
20
100
AcDbEntity
  8
0
100
AcDbBlockBegin
  2
*MODEL_SPACE
 70
0
 10
0.0
 20
0.0
 30
0.0
  3
*MODEL_SPACE
  1

  0
ENDBLK
  5
21
100
AcDbEntity
  8
0
100
AcDbBlockEnd
  0
BLOCK
  5
1C
100
AcDbEntity
  8
0
100
AcDbBlockBegin
  2
*PAPER_SPACE
 70
0
 10
0.0
 20
0.0
 30
0.0
  3
*PAPER_SPACE
  1

  0
ENDBLK
  5
1D
100
AcDbEntity
  8
0
100
AcDbBlockEnd
  0
ENDSEC
  0
SECTION
  2
ENTITIES
  0
LINE
  5
20E
100
AcDbEntity
  8
0
100
AcDbLine
 62
7
  6
CONTINUOUS
 10
0.0
 20
0.0
 11
0.0
 21
210.0
  0
LINE
  5
20F
100
AcDbEntity
  8
0
100
AcDbLine
 62
7
  6
CONTINUOUS
 10
0.0
 20
0.0
 11
297.0
 21
0.0
  0
LINE
  5
210
100
AcDbEntity
  8
0
100
AcDbLine
 62
7
  6
CONTINUOUS
 10
0.0
 20
210.0
 11
297.0
 21
210.0
  0
LINE
  5
211
100
AcDbEntity
  8
0
100
AcDbLine
 62
7
  6
CONTINUOUS
 10
297.0
 20
0.0
 11
297.0
 21
210.0
  0
LINE
  5
212
100
AcDbEntity
  8
GEOM
100
AcDbLine
 62
7
  6
CONTINUOUS
 10
62.0947627092
 20
22.8038403061
 11
63.971151084
 21
19.5538403061
  0
LINE
  5
213
100
AcDbEntity
  8
GEOM
100
AcDbLine
 62
7
  6
CONTINUOUS
 10
96.3231898339
 20
14.7254131814
 11
89.6663355844
 21
21.3822674309
  0
LINE
  5
214
100
AcDbEntity
  8
GEOM
100
AcDbLine
 62
7
  6
CONTINUOUS
 10
62.0947627092
 20
22.8038403061
 11
62.0947627092
 21
89.3038403061
  0
LINE
  5
215
100
AcDbEntity
  8
GEOM
100
AcDbLine
 62
7
  6
CONTINUOUS
 10
62.2947627092
 20
25.7702998773
 11
62.2947627092
 21
28.3136786813
  0
LINE
  5
216
100
AcDbEntity
  8
GEOM
100
AcDbLine
 62
7
  6
CONTINUOUS
 10
62.2947627092
 20
53.5104615021
 11
62.2947627092
 21
58.5972191101
  0
LINE
  5
217
100
AcDbEntity
  8
GEOM
100
AcDbLine
 62
7
  6
CONTINUOUS
 10
62.2947627092
 20
83.7940019309
 11
62.2947627092
 21
86.3373807349
  0
LINE
  5
218
100
AcDbEntity
  8
GEOM
100
AcDbLine
 62
7
  6
CONTINUOUS
 10
63.971151084
 20
19.5538403061
 11
63.971151084
 21
19.7963009062
  0
LINE
  5
219
100
AcDbEntity
  8
GEOM
100
AcDbLine
 62
7
  6
CONTINUOUS
 10
63.971151084
 20
34.2876776524
 11
63.971151084
 21
41.5624635599
  0
LINE
  5
21A
100
AcDbEntity
  8
GEOM
100
AcDbLine
 62
7
  6
CONTINUOUS
 10
63.971151084
 20
70.5452170523
 11
63.971151084
 21
77.8200029598
  0
LINE
  5
21B
100
AcDbEntity
  8
GEOM
100
AcDbLine
 62
7
  6
CONTINUOUS
 10
63.971151084
 20
92.311379706
 11
63.971151084
 21
92.5538403061
  0
LINE
  5
21C
100
AcDbEntity
  8
0
100
AcDbLine
 62
7
  6
CONTINUOUS
 10
98.0947627092
 20
172.2277409849
 11
98.3683925293
 21
172.5538403061
  0
LINE
  5
21D
100
AcDbEntity
  8
0
100
AcDbLine
 62
7
  6
CONTINUOUS
 10
111.3212600173
 20
181.8072583187
 11
112.0947627092
 21
182.2538403061
  0
LINE
  5
21E
100
AcDbEntity
  8
0
100
AcDbLine
 62
7
  6
CONTINUOUS
 10
111.3212600173
 20
178.4619588571
 11
110.3947627092
 21
177.9270453869
  0
LINE
  5
21F
100
AcDbEntity
  8
0
100
AcDbLine
 62
7
  6
CONTINUOUS
 10
152.0274357212
 20
11.5538403061
 11
149.7947627092
 21
11.5538403061
  0
LINE
  5
220
100
AcDbEntity
  8
GEOM
100
AcDbLine
 62
7
  6
CONTINUOUS
 10
149.7947627092
 20
11.5538403061
 11
140.6302966151
 21
11.5538403061
  0
LINE
  5
221
100
AcDbEntity
  8
GEOM
100
AcDbLine
 62
7
  6
CONTINUOUS
 10
136.5592288032
 20
13.5538403061
 11
99.1516169587
 21
13.5538403061
  0
LINE
  5
222
100
AcDbEntity
  8
GEOM
100
AcDbLine
 62
7
  6
CONTINUOUS
 10
78.4966864978
 20
19.5538403061
 11
78.4966864978
 21
19.7957856505
  0
LINE
  5
223
100
AcDbEntity
  8
GEOM
100
AcDbLine
 62
7
  6
CONTINUOUS
 10
78.4966864978
 20
34.2912741015
 11
78.4966864978
 21
41.5583519662
  0
LINE
  5
224
100
AcDbEntity
  8
GEOM
100
AcDbLine
 62
7
  6
CONTINUOUS
 10
78.4966864978
 20
70.5493288087
 11
78.4966864978
 21
77.8164064607
  0
LINE
  5
225
100
AcDbEntity
  8
GEOM
100
AcDbLine
 62
7
  6
CONTINUOUS
 10
78.4966864978
 20
92.3118949634
 11
78.4966864978
 21
92.5538403061
  0
LINE
  5
226
100
AcDbEntity
  8
GEOM
100
AcDbLine
 62
7
  6
CONTINUOUS
 10
79.7957246035
 20
91.8038403061
 11
79.7957246035
 21
91.6011238743
  0
LINE
  5
227
100
AcDbEntity
  8
GEOM
100
AcDbLine
 62
7
  6
CONTINUOUS
 10
79.7957246035
 20
77.1198745625
 11
79.7957246035
 21
70.535089618
  0
LINE
  5
228
100
AcDbEntity
  8
GEOM
100
AcDbLine
 62
7
  6
CONTINUOUS
 10
79.7957246035
 20
41.5725909942
 11
79.7957246035
 21
34.9878060498
  0
LINE
  5
229
100
AcDbEntity
  8
GEOM
100
AcDbLine
 62
7
  6
CONTINUOUS
 10
79.7957246035
 20
20.5065567379
 11
79.7957246035
 21
20.3038403061
  0
LINE
  5
22A
100
AcDbEntity
  8
GEOM
100
AcDbLine
 62
7
  6
CONTINUOUS
 10
98.7447627092
 20
155.9672377657
 11
98.8947627092
 21
156.2270453869
  0
LINE
  5
22B
100
AcDbEntity
  8
0
100
AcDbLine
 62
7
  6
CONTINUOUS
 10
110.1947627092
 20
172.1538403061
 11
110.5947627092
 21
172.5538403061
  0
LINE
  5
22C
100
AcDbEntity
  8
GEOM
100
AcDbLine
 62
7
  6
CONTINUOUS
 10
103.3447627092
 20
164.7538403061
 11
103.6447627092
 21
165.0538403061
  0
LINE
  5
22D
100
AcDbEntity
  8
0
100
AcDbLine
 62
7
  6
CONTINUOUS
 10
107.0947627092
 20
167.0538403061
 11
106.1822014815
 21
166.1412790784
  0
LINE
  5
22E
100
AcDbEntity
  8
0
100
AcDbLine
 62
7
  6
CONTINUOUS
 10
107.0947627092
 20
169.9764900369
 11
108.0947627092
 21
170.5538403061
  0
LINE
  5
22F
100
AcDbEntity
  8
0
100
AcDbLine
 62
7
  6
CONTINUOUS
 10
106.9029464433
 20
165.5788647079
 11
106.102349903
 21
165.1617901992
  0
LINE
  5
230
100
AcDbEntity
  8
0
100
AcDbLine
 62
7
  6
CONTINUOUS
 10
155.5717086404
 20
19.0538403061
 11
170.074036767
 21
19.0538403061
  0
LINE
  5
231
100
AcDbEntity
  8
0
100
AcDbLine
 62
7
  6
CONTINUOUS
 10
155.5964181534
 20
19.1878502431
 11
170.074036767
 21
19.1878502431
  0
LINE
  5
232
100
AcDbEntity
  8
0
100
AcDbLine
 62
7
  6
CONTINUOUS
 10
78.4966864978
 20
19.5538403061
 11
63.971151084
 21
19.5538403061
  0
LINE
  5
233
100
AcDbEntity
  8
GEOM
100
AcDbLine
 62
7
  6
CONTINUOUS
 10
78.4225915925
 20
19.7963009062
 11
63.971151084
 21
19.7963009062
  0
LINE
  5
234
100
AcDbEntity
  8
ASSI
100
AcDbLine
 62
7
  6
CONTINUOUS
 10
86.8379084597
 20
22.5538403061
 11
81.0947627092
 21
22.5538403061
  0
LINE
  5
235
100
AcDbEntity
  8
0
100
AcDbLine
 62
7
  6
CONTINUOUS
 10
138.8625296621
 20
12.2860733532
 11
138.3269957562
 21
12.8216072591
  0
LINE
  5
236
100
AcDbEntity
  8
GEOM
100
AcDbLine
 62
7
  6
CONTINUOUS
 10
81.0947595093
 20
24.1422773224
 11
81.0947627092
 21
22.5538403061
  0
LINE
  5
237
100
AcDbEntity
  8
GEOM
100
AcDbLine
 62
7
  6
CONTINUOUS
 10
81.0947627092
 20
89.5538403061
 11
81.0947624388
 21
87.965429079
  0
LINE
  5
238
100
AcDbEntity
  8
GEOM
100
AcDbLine
 62
7
  6
CONTINUOUS
 10
81.0947615471
 20
80.8372224242
 11
81.0947610398
 21
63.1820579846
  0
LINE
  5
239
100
AcDbEntity
  8
GEOM
100
AcDbLine
 62
7
  6
CONTINUOUS
 10
81.0947628292
 20
48.9255675428
 11
81.0947619713
 21
31.2705056254
  0
LINE
  5
23A
100
AcDbEntity
  8
GEOM
100
AcDbLine
 62
7
  6
CONTINUOUS
 10
86.8379084597
 20
89.5538403061
 11
86.8379084597
 21
22.5538403061
  0
LINE
  5
23B
100
AcDbEntity
  8
GEOM
100
AcDbLine
 62
7
  6
CONTINUOUS
 10
89.6663355844
 20
90.7254131814
 11
89.6663355844
 21
21.3822674309
  0
LINE
  5
23C
100
AcDbEntity
  8
GEOM
100
AcDbLine
 62
7
  6
CONTINUOUS
 10
62.0947627092
 20
89.3038403061
 11
63.971151084
 21
92.5538403061
  0
LINE
  5
23D
100
AcDbEntity
  8
GEOM
100
AcDbLine
 62
7
  6
CONTINUOUS
 10
104.3961133927
 20
153.6346014906
 11
104.5993410674
 21
153.8467333396
  0
LINE
  5
23E
100
AcDbEntity
  8
GEOM
100
AcDbLine
 62
7
  6
CONTINUOUS
 10
104.2247988247
 20
153.798815053
 11
104.4282478915
 21
154.0109470868
  0
LINE
  5
23F
100
AcDbEntity
  8
ASSI
100
AcDbLine
 62
7
  6
CONTINUOUS
 10
79.7957246035
 20
91.8038403061
 11
81.0947627092
 21
89.5538403061
  0
LINE
  5
240
100
AcDbEntity
  8
GEOM
100
AcDbLine
 62
7
  6
CONTINUOUS
 10
96.3231898339
 20
14.7254131814
 11
96.3231898339
 21
97.3822674309
  0
LINE
  5
241
100
AcDbEntity
  8
0
100
AcDbLine
 62
7
  6
CONTINUOUS
 10
98.0947627092
 20
155.5538403061
 11
98.0947627092
 21
172.5538403061
  0
LINE
  5
242
100
AcDbEntity
  8
GEOM
100
AcDbLine
 62
7
  6
CONTINUOUS
 10
98.5947627092
 20
159.7538403061
 11
98.5947627092
 21
156.2270453869
  0
LINE
  5
243
100
AcDbEntity
  8
GEOM
100
AcDbLine
 62
7
  6
CONTINUOUS
 10
98.8947627092
 20
156.2270453869
 11
98.8947627092
 21
160.0538403061
  0
LINE
  5
244
100
AcDbEntity
  8
0
100
AcDbLine
 62
7
  6
CONTINUOUS
 10
117.0947627092
 20
176.7538403061
 11
117.0345496142
 21
176.5538403061
  0
LINE
  5
245
100
AcDbEntity
  8
0
100
AcDbLine
 62
7
  6
CONTINUOUS
 10
119.2578816698
 20
176.7538403061
 11
119.1696327257
 21
176.5538403061
  0
LINE
  5
246
100
AcDbEntity
  8
0
100
AcDbLine
 62
7
  6
CONTINUOUS
 10
124.0947627092
 20
176.7538403061
 11
123.9944999783
 21
176.5538403061
  0
LINE
  5
247
100
AcDbEntity
  8
0
100
AcDbLine
 62
7
  6
CONTINUOUS
 10
121.2092594752
 20
176.7538403061
 11
121.1016131036
 21
176.5538403061
  0
LINE
  5
248
100
AcDbEntity
  8
0
100
AcDbLine
 62
7
  6
CONTINUOUS
 10
123.7521583232
 20
176.7538403061
 11
123.6381959301
 21
176.5538403061
  0
LINE
  5
249
100
AcDbEntity
  8
0
100
AcDbLine
 62
7
  6
CONTINUOUS
 10
122.7578816698
 20
176.7538403061
 11
122.6413750474
 21
176.5538403061
  0
LINE
  5
24A
100
AcDbEntity
  8
0
100
AcDbLine
 62
7
  6
CONTINUOUS
 10
151.5445101775
 20
192.0893742121
 11
136.3018694904
 21
176.8467335249
  0
LINE
  5
24B
100
AcDbEntity
  8
0
100
AcDbLine
 62
7
  6
CONTINUOUS
 10
139.1302966151
 20
174.0183064002
 11
154.0800440834
 21
188.9680538685
  0
LINE
  5
24C
100
AcDbEntity
  8
GEOM
100
AcDbLine
 62
7
  6
CONTINUOUS
 10
78.4225915925
 20
34.2876776524
 11
63.971151084
 21
34.2876776524
  0
LINE
  5
24D
100
AcDbEntity
  8
0
100
AcDbLine
 62
7
  6
CONTINUOUS
 10
155.5964181534
 20
34.8961283155
 11
170.074036767
 21
34.8961283155
  0
LINE
  5
24E
100
AcDbEntity
  8
0
100
AcDbLine
 62
7
  6
CONTINUOUS
 10
155.5964181534
 20
40.3455622337
 11
170.074036767
 21
40.3455622337
  0
LINE
  5
24F
100
AcDbEntity
  8
GEOM
100
AcDbLine
 62
7
  6
CONTINUOUS
 10
78.4225915925
 20
41.5624635599
 11
63.971151084
 21
41.5624635599
  0
LINE
  5
250
100
AcDbEntity
  8
0
100
AcDbLine
 62
7
  6
CONTINUOUS
 10
109.4947627092
 20
57.5523510092
 11
111.6069953329
 21
53.4068610717
  0
LINE
  5
251
100
AcDbEntity
  8
0
100
AcDbLine
 62
7
  6
CONTINUOUS
 10
110.6170889468
 20
57.5523510092
 11
112.1681584517
 21
54.508205704
  0
LINE
  5
252
100
AcDbEntity
  8
GEOM
100
AcDbLine
 62
7
  6
CONTINUOUS
 10
99.1516169587
 20
13.5538403061
 11
99.1516169587
 21
98.5538403061
  0
LINE
  5
253
100
AcDbEntity
  8
0
100
AcDbLine
 62
7
  6
CONTINUOUS
 10
102.0947627092
 20
160.0538403061
 11
102.0947627092
 21
172.0538403061
  0
LINE
  5
254
100
AcDbEntity
  8
GEOM
100
AcDbLine
 62
7
  6
CONTINUOUS
 10
103.3447627092
 20
161.8010645715
 11
103.3447627092
 21
164.7538403061
  0
LINE
  5
255
100
AcDbEntity
  8
GEOM
100
AcDbLine
 62
7
  6
CONTINUOUS
 10
103.5947627092
 20
160.3538403061
 11
103.5947627092
 21
161.1396267437
  0
LINE
  5
256
100
AcDbEntity
  8
GEOM
100
AcDbLine
 62
7
  6
CONTINUOUS
 10
103.8282635477
 20
159.7538403061
 11
103.8282635477
 21
154.7180538685
  0
LINE
  5
257
100
AcDbEntity
  8
GEOM
100
AcDbLine
 62
7
  6
CONTINUOUS
 10
104.1166657034
 20
159.7538403061
 11
104.1166657034
 21
154.7180538685
  0
LINE
  5
258
100
AcDbEntity
  8
GEOM
100
AcDbLine
 62
7
  6
CONTINUOUS
 10
104.3447627092
 20
103.5538403061
 11
104.3447627092
 21
152.5608711775
  0
LINE
  5
259
100
AcDbEntity
  8
GEOM
100
AcDbLine
 62
7
  6
CONTINUOUS
 10
104.6102723311
 20
153.1396267437
 11
104.6102723311
 21
152.9271943681
  0
LINE
  5
25A
100
AcDbEntity
  8
GEOM
100
AcDbLine
 62
7
  6
CONTINUOUS
 10
104.8972721099
 20
153.1396267437
 11
104.8972721099
 21
152.9271943681
  0
LINE
  5
25B
100
AcDbEntity
  8
0
100
AcDbLine
 62
7
  6
CONTINUOUS
 10
106.0947627092
 20
165.1538863663
 11
106.0947627092
 21
165.0538403061
  0
LINE
  5
25C
100
AcDbEntity
  8
0
100
AcDbLine
 62
7
  6
CONTINUOUS
 10
106.8947655482
 20
165.7703415987
 11
106.8947655482
 21
165.5746026006
  0
LINE
  5
25D
100
AcDbEntity
  8
0
100
AcDbLine
 62
7
  6
CONTINUOUS
 10
107.0947627092
 20
61.9523510092
 11
107.0947627092
 21
49.9523510092
  0
LINE
  5
25E
100
AcDbEntity
  8
0
100
AcDbLine
 62
7
  6
CONTINUOUS
 10
107.0947627092
 20
167.0538403061
 11
107.0947627092
 21
169.9764900369
  0
LINE
  5
25F
100
AcDbEntity
  8
0
100
AcDbLine
 62
7
  6
CONTINUOUS
 10
107.1210846033
 20
167.0538403061
 11
107.1210846033
 21
169.9764900369
  0
LINE
  5
260
100
AcDbEntity
  8
0
100
AcDbLine
 62
7
  6
CONTINUOUS
 10
114.9316437485
 20
176.7538403061
 11
114.90536058
 21
176.5538403061
  0
LINE
  5
261
100
AcDbEntity
  8
0
100
AcDbLine
 62
7
  6
CONTINUOUS
 10
130.3018694904
 20
154.0109470873
 11
130.137655928
 21
153.8467335249
  0
LINE
  5
262
100
AcDbEntity
  8
0
100
AcDbLine
 62
7
  6
CONTINUOUS
 10
107.0947627092
 20
49.9523510092
 11
127.0947627092
 21
49.9523510092
  0
LINE
  5
263
100
AcDbEntity
  8
0
100
AcDbLine
 62
7
  6
CONTINUOUS
 10
112.9802659431
 20
176.7538403061
 11
112.9904854806
 21
176.5538403061
  0
LINE
  5
264
100
AcDbEntity
  8
0
100
AcDbLine
 62
7
  6
CONTINUOUS
 10
108.0947627092
 20
60.9523510092
 11
108.0947627092
 21
50.9523510092
  0
LINE
  5
265
100
AcDbEntity
  8
0
100
AcDbLine
 62
7
  6
CONTINUOUS
 10
110.0947627092
 20
177.4074301446
 11
110.0947627092
 21
176.7538403061
  0
LINE
  5
266
100
AcDbEntity
  8
0
100
AcDbLine
 62
7
  6
CONTINUOUS
 10
110.1947627092
 20
170.5538403061
 11
110.1947627092
 21
172.1538403061
  0
LINE
  5
267
100
AcDbEntity
  8
0
100
AcDbLine
 62
7
  6
CONTINUOUS
 10
111.3212600173
 20
178.4619588571
 11
111.3212600173
 21
181.8072583187
  0
LINE
  5
268
100
AcDbEntity
  8
0
100
AcDbLine
 62
7
  6
CONTINUOUS
 10
111.4799835469
 20
167.0538403061
 11
111.4799835469
 21
169.9764900369
  0
LINE
  5
269
100
AcDbEntity
  8
0
100
AcDbLine
 62
7
  6
CONTINUOUS
 10
112.4773962175
 20
172.5538403061
 11
112.4773962175
 21
172.2277409849
  0
LINE
  5
26A
100
AcDbEntity
  8
0
100
AcDbLine
 62
7
  6
CONTINUOUS
 10
112.7358637656
 20
167.0538403061
 11
112.7358637656
 21
169.9764900369
  0
LINE
  5
26B
100
AcDbEntity
  8
0
100
AcDbLine
 62
7
  6
CONTINUOUS
 10
114.2080113632
 20
178.4619588571
 11
114.2080113632
 21
181.8072583187
  0
LINE
  5
26C
100
AcDbEntity
  8
0
100
AcDbLine
 62
7
  6
CONTINUOUS
 10
130.9759605556
 20
165.1031238061
 11
133.2853616324
 21
171.4481511169
  0
LINE
  5
26D
100
AcDbEntity
  8
0
100
AcDbLine
 62
7
  6
CONTINUOUS
 10
128.0947627092
 20
155.5538403061
 11
132.6403378796
 21
168.0427054454
  0
LINE
  5
26E
100
AcDbEntity
  8
0
100
AcDbLine
 62
7
  6
CONTINUOUS
 10
108.0947627092
 20
50.9523510092
 11
126.0947627092
 21
50.9523510092
  0
LINE
  5
26F
100
AcDbEntity
  8
0
100
AcDbLine
 62
7
  6
CONTINUOUS
 10
112.0185091544
 20
52.4523510092
 11
113.140835392
 21
52.4523510092
  0
LINE
  5
270
100
AcDbEntity
  8
0
100
AcDbLine
 62
7
  6
CONTINUOUS
 10
117.1394151844
 20
52.4523510092
 11
118.1394151844
 21
52.4523510092
  0
LINE
  5
271
100
AcDbEntity
  8
0
100
AcDbLine
 62
7
  6
CONTINUOUS
 10
119.5394151844
 20
52.4923510092
 11
120.5394151844
 21
52.4923510092
  0
LINE
  5
272
100
AcDbEntity
  8
0
100
AcDbLine
 62
7
  6
CONTINUOUS
 10
122.7394151844
 20
55.9523510092
 11
123.3394151844
 21
55.9523510092
  0
LINE
  5
273
100
AcDbEntity
  8
0
100
AcDbLine
 62
7
  6
CONTINUOUS
 10
123.3394151844
 20
56.9523510092
 11
124.3394151844
 21
56.9523510092
  0
LINE
  5
274
100
AcDbEntity
  8
0
100
AcDbLine
 62
7
  6
CONTINUOUS
 10
109.4947627092
 20
57.5523510092
 11
110.6170889468
 21
57.5523510092
  0
LINE
  5
275
100
AcDbEntity
  8
0
100
AcDbLine
 62
7
  6
CONTINUOUS
 10
114.6170889468
 20
57.5523510092
 11
115.7394151844
 21
57.5523510092
  0
LINE
  5
276
100
AcDbEntity
  8
0
100
AcDbLine
 62
7
  6
CONTINUOUS
 10
117.1394151844
 20
57.5523510092
 11
118.1394151844
 21
57.5523510092
  0
LINE
  5
277
100
AcDbEntity
  8
0
100
AcDbLine
 62
7
  6
CONTINUOUS
 10
119.5394151844
 20
57.5523510092
 11
120.5394151844
 21
57.5523510092
  0
LINE
  5
278
100
AcDbEntity
  8
0
100
AcDbLine
 62
7
  6
CONTINUOUS
 10
117.1394151844
 20
58.5523510092
 11
118.1394151844
 21
58.5523510092
  0
LINE
  5
279
100
AcDbEntity
  8
0
100
AcDbLine
 62
7
  6
CONTINUOUS
 10
117.1394151844
 20
59.5523510092
 11
118.1394151844
 21
59.5523510092
  0
LINE
  5
27A
100
AcDbEntity
  8
0
100
AcDbLine
 62
7
  6
CONTINUOUS
 10
117.1394151844
 20
59.5523510092
 11
117.1394151844
 21
58.5523510092
  0
LINE
  5
27B
100
AcDbEntity
  8
0
100
AcDbLine
 62
7
  6
CONTINUOUS
 10
117.1394151844
 20
57.5523510092
 11
117.1394151844
 21
52.4523510092
  0
LINE
  5
27C
100
AcDbEntity
  8
0
100
AcDbLine
 62
7
  6
CONTINUOUS
 10
118.1394151844
 20
59.5523510092
 11
118.1394151844
 21
58.5523510092
  0
LINE
  5
27D
100
AcDbEntity
  8
0
100
AcDbLine
 62
7
  6
CONTINUOUS
 10
118.1394151844
 20
57.5523510092
 11
118.1394151844
 21
52.4523510092
  0
LINE
  5
27E
100
AcDbEntity
  8
0
100
AcDbLine
 62
7
  6
CONTINUOUS
 10
119.5394151844
 20
57.5523510092
 11
119.5394151844
 21
55.7021664602
  0
LINE
  5
27F
100
AcDbEntity
  8
0
100
AcDbLine
 62
7
  6
CONTINUOUS
 10
119.5394151844
 20
52.7523510092
 11
119.5394151844
 21
52.4923510092
  0
LINE
  5
280
100
AcDbEntity
  8
0
100
AcDbLine
 62
7
  6
CONTINUOUS
 10
119.9815140551
 20
178.4619588571
 11
119.9815140551
 21
181.8072583187
  0
LINE
  5
281
100
AcDbEntity
  8
0
100
AcDbLine
 62
7
  6
CONTINUOUS
 10
120.5394151844
 20
57.5523510092
 11
120.5394151844
 21
56.5523510092
  0
LINE
  5
282
100
AcDbEntity
  8
0
100
AcDbLine
 62
7
  6
CONTINUOUS
 10
120.5947627092
 20
155.5538403061
 11
120.5947627092
 21
162.5538403061
  0
LINE
  5
283
100
AcDbEntity
  8
0
100
AcDbLine
 62
7
  6
CONTINUOUS
 10
122.8682654011
 20
178.4619588571
 11
122.8682654011
 21
181.8072583187
  0
LINE
  5
284
100
AcDbEntity
  8
0
100
AcDbLine
 62
7
  6
CONTINUOUS
 10
123.3394151844
 20
56.9523510092
 11
123.3394151844
 21
55.9523510092
  0
LINE
  5
285
100
AcDbEntity
  8
0
100
AcDbLine
 62
7
  6
CONTINUOUS
 10
124.0947627092
 20
177.4074301446
 11
124.0947627092
 21
176.7538403061
  0
LINE
  5
286
100
AcDbEntity
  8
0
100
AcDbLine
 62
7
  6
CONTINUOUS
 10
124.3394151844
 20
56.9523510092
 11
124.3394151844
 21
55.6596842724
  0
LINE
  5
287
100
AcDbEntity
  8
GEOM
100
AcDbLine
 62
7
  6
CONTINUOUS
 10
96.3231898339
 20
97.3822674309
 11
89.6663355844
 21
90.7254131814
  0
LINE
  5
288
100
AcDbEntity
  8
0
100
AcDbLine
 62
7
  6
CONTINUOUS
 10
108.0947627092
 20
60.9523510092
 11
126.0947627092
 21
60.9523510092
  0
LINE
  5
289
100
AcDbEntity
  8
0
100
AcDbLine
 62
7
  6
CONTINUOUS
 10
107.0947627092
 20
61.9523510092
 11
127.0947627092
 21
61.9523510092
  0
LINE
  5
28A
100
AcDbEntity
  8
0
100
AcDbLine
 62
7
  6
CONTINUOUS
 10
126.0947627092
 20
60.9523510092
 11
126.0947627092
 21
50.9523510092
  0
LINE
  5
28B
100
AcDbEntity
  8
0
100
AcDbLine
 62
7
  6
CONTINUOUS
 10
127.0947627092
 20
61.9523510092
 11
127.0947627092
 21
49.9523510092
  0
LINE
  5
28C
100
AcDbEntity
  8
GEOM
100
AcDbLine
 62
7
  6
CONTINUOUS
 10
129.8447627092
 20
103.5538403061
 11
129.8447627092
 21
153.1396267437
  0
LINE
  5
28D
100
AcDbEntity
  8
GEOM
100
AcDbLine
 62
7
  6
CONTINUOUS
 10
130.5947627092
 20
154.7180538685
 11
130.5947627092
 21
161.1396267437
  0
LINE
  5
28E
100
AcDbEntity
  8
GEOM
100
AcDbLine
 62
7
  6
CONTINUOUS
 10
130.8447627092
 20
161.8010645715
 11
130.8447627092
 21
163.1094032096
  0
LINE
  5
28F
100
AcDbEntity
  8
0
100
AcDbLine
 62
7
  6
CONTINUOUS
 10
130.9759605556
 20
172.5538403061
 11
130.9759605556
 21
165.1031238061
  0
LINE
  5
290
100
AcDbEntity
  8
0
100
AcDbLine
 62
7
  6
CONTINUOUS
 10
133.2853616324
 20
171.4481511169
 11
133.2853616324
 21
171.5538403061
  0
LINE
  5
291
100
AcDbEntity
  8
ASSI
100
AcDbLine
 62
7
  6
CONTINUOUS
 10
79.7957246035
 20
20.3038403061
 11
81.0947627092
 21
22.5538403061
  0
LINE
  5
292
100
AcDbEntity
  8
GEOM
100
AcDbLine
 62
7
  6
CONTINUOUS
 10
78.4225915925
 20
70.5452170523
 11
63.971151084
 21
70.5452170523
  0
LINE
  5
293
100
AcDbEntity
  8
0
100
AcDbLine
 62
7
  6
CONTINUOUS
 10
155.5964181534
 20
71.7621183785
 11
170.074036767
 21
71.7621183785
  0
LINE
  5
294
100
AcDbEntity
  8
0
100
AcDbLine
 62
7
  6
CONTINUOUS
 10
155.5964181534
 20
77.2115522967
 11
170.074036767
 21
77.2115522967
  0
LINE
  5
295
100
AcDbEntity
  8
0
100
AcDbLine
 62
7
  6
CONTINUOUS
 10
111.4316437485
 20
176.7538403061
 11
111.4773656325
 21
176.5538403061
  0
LINE
  5
296
100
AcDbEntity
  8
0
100
AcDbLine
 62
7
  6
CONTINUOUS
 10
135.5947627092
 20
172.5538403061
 11
135.5947627092
 21
176.5538403061
  0
LINE
  5
297
100
AcDbEntity
  8
0
100
AcDbLine
 62
7
  6
CONTINUOUS
 10
136.5592288032
 20
98.5538403061
 11
136.5592288032
 21
13.5538403061
  0
LINE
  5
298
100
AcDbEntity
  8
0
100
AcDbLine
 62
7
  6
CONTINUOUS
 10
138.3269957562
 20
99.2860733532
 11
138.3269957562
 21
12.8216072591
  0
LINE
  5
299
100
AcDbEntity
  8
0
100
AcDbLine
 62
7
  6
CONTINUOUS
 10
138.8625296621
 20
12.2860733532
 11
138.8625296621
 21
99.8216072591
  0
LINE
  5
29A
100
AcDbEntity
  8
0
100
AcDbLine
 62
7
  6
CONTINUOUS
 10
140.6302966151
 20
11.5538403061
 11
140.6302966151
 21
100.5538403061
  0
LINE
  5
29B
100
AcDbEntity
  8
0
100
AcDbLine
 62
7
  6
CONTINUOUS
 10
112.1681584517
 20
54.508205704
 11
111.6069953329
 21
53.4068610717
  0
LINE
  5
29C
100
AcDbEntity
  8
0
100
AcDbLine
 62
7
  6
CONTINUOUS
 10
114.6170889468
 20
57.5523510092
 11
112.0185091544
 21
52.4523510092
  0
LINE
  5
29D
100
AcDbEntity
  8
0
100
AcDbLine
 62
7
  6
CONTINUOUS
 10
115.7394151844
 20
57.5523510092
 11
113.140835392
 21
52.4523510092
  0
LINE
  5
29E
100
AcDbEntity
  8
GEOM
100
AcDbLine
 62
7
  6
CONTINUOUS
 10
78.4225915925
 20
77.8200029598
 11
63.971151084
 21
77.8200029598
  0
LINE
  5
29F
100
AcDbEntity
  8
0
100
AcDbLine
 62
7
  6
CONTINUOUS
 10
110.4373670951
 20
176.7538403061
 11
110.514115749
 21
176.5538403061
  0
LINE
  5
2A0
100
AcDbEntity
  8
GEOM
100
AcDbLine
 62
7
  6
CONTINUOUS
 10
149.7947627092
 20
100.5538403061
 11
149.7947627092
 21
11.5544954453
  0
LINE
  5
2A1
100
AcDbEntity
  8
0
100
AcDbLine
 62
7
  6
CONTINUOUS
 10
149.7947627092
 20
11.5544954453
 11
149.7947627092
 21
100.553185167
  0
LINE
  5
2A2
100
AcDbEntity
  8
0
100
AcDbLine
 62
7
  6
CONTINUOUS
 10
152.0274357212
 20
100.5538403061
 11
152.0274357212
 21
11.5538403061
  0
LINE
  5
2A3
100
AcDbEntity
  8
0
100
AcDbLine
 62
7
  6
CONTINUOUS
 10
138.8625296621
 20
99.8216072591
 11
138.3269957562
 21
99.2860733532
  0
LINE
  5
2A4
100
AcDbEntity
  8
ASSI
100
AcDbLine
 62
7
  6
CONTINUOUS
 10
86.8379084597
 20
89.5538403061
 11
81.0947627092
 21
89.5538403061
  0
LINE
  5
2A5
100
AcDbEntity
  8
GEOM
100
AcDbLine
 62
7
  6
CONTINUOUS
 10
78.4225915925
 20
92.311379706
 11
63.971151084
 21
92.311379706
  0
LINE
  5
2A6
100
AcDbEntity
  8
0
100
AcDbLine
 62
7
  6
CONTINUOUS
 10
78.4966864978
 20
92.5538403061
 11
63.971151084
 21
92.5538403061
  0
LINE
  5
2A7
100
AcDbEntity
  8
0
100
AcDbLine
 62
7
  6
CONTINUOUS
 10
155.5964181534
 20
92.9198303691
 11
170.074036767
 21
92.9198303691
  0
LINE
  5
2A8
100
AcDbEntity
  8
0
100
AcDbLine
 62
7
  6
CONTINUOUS
 10
155.5717086404
 20
93.0538403061
 11
170.074036767
 21
93.0538403061
  0
LINE
  5
2A9
100
AcDbEntity
  8
0
100
AcDbLine
 62
7
  6
CONTINUOUS
 10
110.0947627092
 20
176.7538403061
 11
110.19502544
 21
176.5538403061
  0
LINE
  5
2AA
100
AcDbEntity
  8
0
100
AcDbLine
 62
7
  6
CONTINUOUS
 10
154.6057828141
 20
93.795021261
 11
152.9933615475
 21
99.8126593512
  0
LINE
  5
2AB
100
AcDbEntity
  8
0
100
AcDbLine
 62
7
  6
CONTINUOUS
 10
152.9933615484
 20
99.8126593477
 11
152.9933615484
 21
12.2950212645
  0
LINE
  5
2AC
100
AcDbEntity
  8
0
100
AcDbLine
 62
7
  6
CONTINUOUS
 10
154.6057828141
 20
93.795021261
 11
154.6057828141
 21
93.6387355715
  0
LINE
  5
2AD
100
AcDbEntity
  8
0
100
AcDbLine
 62
7
  6
CONTINUOUS
 10
154.6057828141
 20
77.8177001977
 11
154.6057828141
 21
71.8748756945
  0
LINE
  5
2AE
100
AcDbEntity
  8
0
100
AcDbLine
 62
7
  6
CONTINUOUS
 10
154.6057828141
 20
40.2328049184
 11
154.6057828141
 21
34.2899804151
  0
LINE
  5
2AF
100
AcDbEntity
  8
0
100
AcDbLine
 62
7
  6
CONTINUOUS
 10
154.6057828141
 20
18.4689450408
 11
154.6057828141
 21
18.3126593512
  0
LINE
  5
2B0
100
AcDbEntity
  8
0
100
AcDbLine
 62
7
  6
CONTINUOUS
 10
155.5717086404
 20
93.0538403061
 11
155.5717086404
 21
92.9197695947
  0
LINE
  5
2B1
100
AcDbEntity
  8
0
100
AcDbLine
 62
7
  6
CONTINUOUS
 10
155.5717086404
 20
77.2121385564
 11
155.5717086404
 21
71.7614713428
  0
LINE
  5
2B2
100
AcDbEntity
  8
0
100
AcDbLine
 62
7
  6
CONTINUOUS
 10
155.5717086404
 20
40.3462092695
 11
155.5717086404
 21
34.8955420559
  0
LINE
  5
2B3
100
AcDbEntity
  8
0
100
AcDbLine
 62
7
  6
CONTINUOUS
 10
155.5717086404
 20
19.1879110176
 11
155.5717086404
 21
19.0538403061
  0
LINE
  5
2B4
100
AcDbEntity
  8
0
100
AcDbLine
 62
7
  6
CONTINUOUS
 10
159.0947627092
 20
188.8538403061
 11
159.0947627092
 21
189.5538403061
  0
LINE
  5
2B5
100
AcDbEntity
  8
0
100
AcDbLine
 62
7
  6
CONTINUOUS
 10
159.0947627092
 20
189.5610001491
 11
159.0947627092
 21
193.5479477407
  0
LINE
  5
2B6
100
AcDbEntity
  8
0
100
AcDbLine
 62
7
  6
CONTINUOUS
 10
159.0947627092
 20
193.5538403061
 11
159.0947627092
 21
194.2538403061
  0
LINE
  5
2B7
100
AcDbEntity
  8
0
100
AcDbLine
 62
7
  6
CONTINUOUS
 10
159.8947627092
 20
188.0538403061
 11
159.8947627092
 21
195.0538403061
  0
LINE
  5
2B8
100
AcDbEntity
  8
GEOM
100
AcDbLine
 62
7
  6
CONTINUOUS
 10
136.5592288032
 20
98.5538403061
 11
134.8447627092
 21
98.5538403061
  0
LINE
  5
2B9
100
AcDbEntity
  8
GEOM
100
AcDbLine
 62
7
  6
CONTINUOUS
 10
99.3447627092
 20
98.5538403061
 11
99.1516169587
 21
98.5538403061
  0
LINE
  5
2BA
100
AcDbEntity
  8
0
100
AcDbLine
 62
7
  6
CONTINUOUS
 10
152.0274357212
 20
100.5538403061
 11
149.7947627092
 21
100.5538403061
  0
LINE
  5
2BB
100
AcDbEntity
  8
GEOM
100
AcDbLine
 62
7
  6
CONTINUOUS
 10
149.7947627092
 20
100.5538403061
 11
140.6302966151
 21
100.5538403061
  0
LINE
  5
2BC
100
AcDbEntity
  8
GEOM
100
AcDbLine
 62
7
  6
CONTINUOUS
 10
164.1324877092
 20
195.0538403061
 11
164.1324877092
 21
195.0972365561
  0
LINE
  5
2BD
100
AcDbEntity
  8
GEOM
100
AcDbLine
 62
7
  6
CONTINUOUS
 10
165.5734836408
 20
195.0538403061
 11
165.5734836408
 21
195.0972365561
  0
LINE
  5
2BE
100
AcDbEntity
  8
GEOM
100
AcDbLine
 62
7
  6
CONTINUOUS
 10
166.6324877092
 20
195.0538403061
 11
166.6324877092
 21
195.0972365561
  0
LINE
  5
2BF
100
AcDbEntity
  8
GEOM
100
AcDbLine
 62
7
  6
CONTINUOUS
 10
168.0125582405
 20
195.0538403061
 11
168.0125582405
 21
195.0972365561
  0
LINE
  5
2C0
100
AcDbEntity
  8
GEOM
100
AcDbLine
 62
7
  6
CONTINUOUS
 10
170.0389724905
 20
195.0538403061
 11
170.0389724905
 21
195.0972365561
  0
LINE
  5
2C1
100
AcDbEntity
  8
0
100
AcDbLine
 62
7
  6
CONTINUOUS
 10
170.074036767
 20
77.2115522967
 11
170.074036767
 21
71.7621183785
  0
LINE
  5
2C2
100
AcDbEntity
  8
0
100
AcDbLine
 62
7
  6
CONTINUOUS
 10
170.074036767
 20
40.3455622337
 11
170.074036767
 21
34.8961283155
  0
LINE
  5
2C3
100
AcDbEntity
  8
0
100
AcDbLine
 62
7
  6
CONTINUOUS
 10
170.074036767
 20
19.1878502431
 11
170.074036767
 21
19.0538403061
  0
LINE
  5
2C4
100
AcDbEntity
  8
0
100
AcDbLine
 62
7
  6
CONTINUOUS
 10
170.074036767
 20
92.9198303691
 11
170.074036767
 21
93.0538403061
  0
LINE
  5
2C5
100
AcDbEntity
  8
0
100
AcDbLine
 62
7
  6
CONTINUOUS
 10
120.5947627092
 20
162.5538403061
 11
112.2037663974
 21
172.5538403061
  0
LINE
  5
2C6
100
AcDbEntity
  8
0
100
AcDbLine
 62
7
  6
CONTINUOUS
 10
172.0947627092
 20
89.5538403061
 11
170.074036767
 21
93.0538403061
  0
LINE
  5
2C7
100
AcDbEntity
  8
GEOM
100
AcDbLine
 62
7
  6
CONTINUOUS
 10
171.2544408808
 20
195.0538403061
 11
171.2544408808
 21
195.0972365561
  0
LINE
  5
2C8
100
AcDbEntity
  8
0
100
AcDbLine
 62
7
  6
CONTINUOUS
 10
172.0947627092
 20
89.5534320311
 11
172.0947627092
 21
22.5538403061
  0
LINE
  5
2C9
100
AcDbEntity
  8
GEOM
100
AcDbLine
 62
7
  6
CONTINUOUS
 10
176.0997218808
 20
195.0538403061
 11
176.0997218808
 21
195.0972365561
  0
LINE
  5
2CA
100
AcDbEntity
  8
GEOM
100
AcDbLine
 62
7
  6
CONTINUOUS
 10
177.3356004746
 20
195.0538403061
 11
177.3356004746
 21
195.0972365561
  0
LINE
  5
2CB
100
AcDbEntity
  8
GEOM
100
AcDbLine
 62
7
  6
CONTINUOUS
 10
179.5205052246
 20
195.0538403061
 11
179.5205052246
 21
195.0972365561
  0
LINE
  5
2CC
100
AcDbEntity
  8
0
100
AcDbLine
 62
7
  6
CONTINUOUS
 10
154.6057828141
 20
18.3126593512
 11
152.9933615475
 21
12.295021261
  0
LINE
  5
2CD
100
AcDbEntity
  8
GEOM
100
AcDbLine
 62
7
  6
CONTINUOUS
 10
104.3495096936
 20
152.5581394434
 11
104.3447627092
 21
152.5608711775
  0
LINE
  5
2CE
100
AcDbEntity
  8
GEOM
100
AcDbLine
 62
7
  6
CONTINUOUS
 10
98.7447627092
 20
155.9672377657
 11
104.5931817803
 21
152.5906514407
  0
LINE
  5
2CF
100
AcDbEntity
  8
GEOM
100
AcDbLine
 62
7
  6
CONTINUOUS
 10
98.8947627092
 20
156.2270453869
 11
104.6102723311
 21
152.9271943681
  0
LINE
  5
2D0
100
AcDbEntity
  8
GEOM
100
AcDbLine
 62
7
  6
CONTINUOUS
 10
104.7340227212
 20
152.3308438196
 11
104.3447627082
 21
152.5608711797
  0
LINE
  5
2D1
100
AcDbEntity
  8
GEOM
100
AcDbLine
 62
7
  6
CONTINUOUS
 10
180.4714482246
 20
195.0538403061
 11
180.4714482246
 21
195.0972365561
  0
LINE
  5
2D2
100
AcDbEntity
  8
GEOM
100
AcDbLine
 62
7
  6
CONTINUOUS
 10
180.6412594746
 20
195.0538403061
 11
180.6412594746
 21
195.0972365561
  0
LINE
  5
2D3
100
AcDbEntity
  8
GEOM
100
AcDbLine
 62
7
  6
CONTINUOUS
 10
180.9355989746
 20
195.0538403061
 11
180.9355989746
 21
195.0972365561
  0
LINE
  5
2D4
100
AcDbEntity
  8
GEOM
100
AcDbLine
 62
7
  6
CONTINUOUS
 10
182.1106928246
 20
195.0538403061
 11
182.1106928246
 21
195.0972365561
  0
LINE
  5
2D5
100
AcDbEntity
  8
GEOM
100
AcDbLine
 62
7
  6
CONTINUOUS
 10
182.9818245371
 20
195.0538403061
 11
182.9818245371
 21
195.0972365561
  0
LINE
  5
2D6
100
AcDbEntity
  8
GEOM
100
AcDbLine
 62
7
  6
CONTINUOUS
 10
183.9016354746
 20
195.0538403061
 11
183.9016354746
 21
195.0972365561
  0
LINE
  5
2D7
100
AcDbEntity
  8
GEOM
100
AcDbLine
 62
7
  6
CONTINUOUS
 10
184.8186162246
 20
195.0538403061
 11
184.8186162246
 21
195.0972365561
  0
LINE
  5
2D8
100
AcDbEntity
  8
GEOM
100
AcDbLine
 62
7
  6
CONTINUOUS
 10
185.3733329746
 20
195.0538403061
 11
185.3733329746
 21
195.0972365561
  0
LINE
  5
2D9
100
AcDbEntity
  8
GEOM
100
AcDbLine
 62
7
  6
CONTINUOUS
 10
186.6752192246
 20
195.0538403061
 11
186.6752192246
 21
195.0972365561
  0
LINE
  5
2DA
100
AcDbEntity
  8
GEOM
100
AcDbLine
 62
7
  6
CONTINUOUS
 10
188.0563507246
 20
195.0538403061
 11
188.0563507246
 21
195.0972365561
  0
LINE
  5
2DB
100
AcDbEntity
  8
GEOM
100
AcDbLine
 62
7
  6
CONTINUOUS
 10
188.0729455512
 20
195.0538403061
 11
188.0729455512
 21
195.0972365561
  0
LINE
  5
2DC
100
AcDbEntity
  8
GEOM
100
AcDbLine
 62
7
  6
CONTINUOUS
 10
188.8601239746
 20
195.0538403061
 11
188.8601239746
 21
195.0972365561
  0
LINE
  5
2DD
100
AcDbEntity
  8
GEOM
100
AcDbLine
 62
7
  6
CONTINUOUS
 10
189.3582369746
 20
195.0538403061
 11
189.3582369746
 21
195.0972365561
  0
LINE
  5
2DE
100
AcDbEntity
  8
GEOM
100
AcDbLine
 62
7
  6
CONTINUOUS
 10
192.7657827246
 20
195.0538403061
 11
192.7657827246
 21
195.0972365561
  0
LINE
  5
2DF
100
AcDbEntity
  8
GEOM
100
AcDbLine
 62
7
  6
CONTINUOUS
 10
195.3960315792
 20
195.0538403061
 11
195.3960315792
 21
195.0972365561
  0
LINE
  5
2E0
100
AcDbEntity
  8
GEOM
100
AcDbLine
 62
7
  6
CONTINUOUS
 10
195.5620079746
 20
195.0538403061
 11
195.5620079746
 21
195.0972365561
  0
LINE
  5
2E1
100
AcDbEntity
  8
GEOM
100
AcDbLine
 62
7
  6
CONTINUOUS
 10
196.9771017246
 20
195.0538403061
 11
196.9771017246
 21
195.0972365561
  0
LINE
  5
2E2
100
AcDbEntity
  8
GEOM
100
AcDbLine
 62
7
  6
CONTINUOUS
 10
197.226155001
 20
195.0972365561
 11
197.226155001
 21
195.0538403061
  0
LINE
  5
2E3
100
AcDbEntity
  8
0
100
AcDbLine
 62
7
  6
CONTINUOUS
 10
106.1846086326
 20
166.1360420236
 11
106.8930195449
 21
165.7669902366
  0
LINE
  5
2E4
100
AcDbEntity
  8
0
100
AcDbLine
 62
7
  6
CONTINUOUS
 10
123.7521583232
 20
176.7538403061
 11
123.9923982515
 21
176.5538403061
  0
LINE
  5
2E5
100
AcDbEntity
  8
GEOM
100
AcDbLine
 62
7
  6
CONTINUOUS
 10
197.9620069746
 20
195.0538403061
 11
197.9620069746
 21
195.0972365561
  0
LINE
  5
2E6
100
AcDbEntity
  8
GEOM
100
AcDbLine
 62
7
  6
CONTINUOUS
 10
200.4072889746
 20
195.0538403061
 11
200.4072889746
 21
195.0972365561
  0
LINE
  5
2E7
100
AcDbEntity
  8
GEOM
100
AcDbLine
 62
7
  6
CONTINUOUS
 10
202.4155027136
 20
195.0538403061
 11
202.4155027136
 21
195.0972365561
  0
LINE
  5
2E8
100
AcDbEntity
  8
GEOM
100
AcDbLine
 62
7
  6
CONTINUOUS
 10
203.4946806476
 20
195.0538403061
 11
203.4946806476
 21
195.0972365561
  0
LINE
  5
2E9
100
AcDbEntity
  8
GEOM
100
AcDbLine
 62
7
  6
CONTINUOUS
 10
203.9502906022
 20
195.0538403061
 11
203.9502906022
 21
195.0972365561
  0
LINE
  5
2EA
100
AcDbEntity
  8
GEOM
100
AcDbLine
 62
7
  6
CONTINUOUS
 10
204.2607586807
 20
195.0538403061
 11
204.2607586807
 21
195.0972365561
  0
LINE
  5
2EB
100
AcDbEntity
  8
GEOM
100
AcDbLine
 62
7
  6
CONTINUOUS
 10
204.4676782074
 20
195.0538403061
 11
204.4676782074
 21
195.0972365561
  0
LINE
  5
2EC
100
AcDbEntity
  8
GEOM
100
AcDbLine
 62
7
  6
CONTINUOUS
 10
204.552622559
 20
195.0538403061
 11
204.552622559
 21
195.0972365561
  0
LINE
  5
2ED
100
AcDbEntity
  8
GEOM
100
AcDbLine
 62
7
  6
CONTINUOUS
 10
204.7204947246
 20
195.0538403061
 11
204.7204947246
 21
195.0972365561
  0
LINE
  5
2EE
100
AcDbEntity
  8
GEOM
100
AcDbLine
 62
7
  6
CONTINUOUS
 10
205.0159545736
 20
195.0538403061
 11
205.0159545736
 21
195.0972365561
  0
LINE
  5
2EF
100
AcDbEntity
  8
GEOM
100
AcDbLine
 62
7
  6
CONTINUOUS
 10
205.3634536689
 20
195.0538403061
 11
205.3634536689
 21
195.0972365561
  0
LINE
  5
2F0
100
AcDbEntity
  8
GEOM
100
AcDbLine
 62
7
  6
CONTINUOUS
 10
205.7051612195
 20
195.0538403061
 11
205.7051612195
 21
195.0972365561
  0
LINE
  5
2F1
100
AcDbEntity
  8
GEOM
100
AcDbLine
 62
7
  6
CONTINUOUS
 10
205.8480220224
 20
195.0538403061
 11
205.8480220224
 21
195.0972365561
  0
LINE
  5
2F2
100
AcDbEntity
  8
GEOM
100
AcDbLine
 62
7
  6
CONTINUOUS
 10
205.8866329955
 20
195.0538403061
 11
205.8866329955
 21
195.0972365561
  0
LINE
  5
2F3
100
AcDbEntity
  8
GEOM
100
AcDbLine
 62
7
  6
CONTINUOUS
 10
206.1105771119
 20
195.0538403061
 11
206.1105771119
 21
195.0972365561
  0
LINE
  5
2F4
100
AcDbEntity
  8
GEOM
100
AcDbLine
 62
7
  6
CONTINUOUS
 10
206.395995194
 20
195.0538403061
 11
206.395995194
 21
195.0972365561
  0
LINE
  5
2F5
100
AcDbEntity
  8
GEOM
100
AcDbLine
 62
7
  6
CONTINUOUS
 10
206.6087748837
 20
195.0538403061
 11
206.6087748837
 21
195.0972365561
  0
LINE
  5
2F6
100
AcDbEntity
  8
0
100
AcDbLine
 62
7
  6
CONTINUOUS
 10
110.0947627092
 20
176.7538403061
 11
110.4789065386
 21
176.5538403061
  0
LINE
  5
2F7
100
AcDbEntity
  8
GEOM
100
AcDbLine
 62
7
  6
CONTINUOUS
 10
206.8036447876
 20
195.0538403061
 11
206.8036447876
 21
195.0972365561
  0
LINE
  5
2F8
100
AcDbEntity
  8
GEOM
100
AcDbLine
 62
7
  6
CONTINUOUS
 10
207.5835873215
 20
195.0538403061
 11
207.5835873215
 21
195.0972365561
  0
LINE
  5
2F9
100
AcDbEntity
  8
GEOM
100
AcDbLine
 62
7
  6
CONTINUOUS
 10
207.655017723
 20
195.0538403061
 11
207.655017723
 21
195.0972365561
  0
LINE
  5
2FA
100
AcDbEntity
  8
GEOM
100
AcDbLine
 62
7
  6
CONTINUOUS
 10
207.9619753303
 20
195.0538403061
 11
207.9619753303
 21
195.0972365561
  0
LINE
  5
2FB
100
AcDbEntity
  8
GEOM
100
AcDbLine
 62
7
  6
CONTINUOUS
 10
208.3075435733
 20
195.0538403061
 11
208.3075435733
 21
195.0972365561
  0
LINE
  5
2FC
100
AcDbEntity
  8
GEOM
100
AcDbLine
 62
7
  6
CONTINUOUS
 10
208.7071675836
 20
195.0538403061
 11
208.7071675836
 21
195.0972365561
  0
LINE
  5
2FD
100
AcDbEntity
  8
GEOM
100
AcDbLine
 62
7
  6
CONTINUOUS
 10
208.8017648388
 20
195.0538403061
 11
208.8017648388
 21
195.0972365561
  0
LINE
  5
2FE
100
AcDbEntity
  8
GEOM
100
AcDbLine
 62
7
  6
CONTINUOUS
 10
208.8538894163
 20
195.0538403061
 11
208.8538894163
 21
195.0972365561
  0
LINE
  5
2FF
100
AcDbEntity
  8
GEOM
100
AcDbLine
 62
7
  6
CONTINUOUS
 10
208.9735840402
 20
195.0538403061
 11
208.9735840402
 21
195.0972365561
  0
LINE
  5
300
100
AcDbEntity
  8
GEOM
100
AcDbLine
 62
7
  6
CONTINUOUS
 10
209.3210827982
 20
195.0538403061
 11
209.3210827982
 21
195.0972365561
  0
LINE
  5
301
100
AcDbEntity
  8
GEOM
100
AcDbLine
 62
7
  6
CONTINUOUS
 10
209.3788668594
 20
195.0538403061
 11
209.3788668594
 21
195.0972365561
  0
LINE
  5
302
100
AcDbEntity
  8
GEOM
100
AcDbLine
 62
7
  6
CONTINUOUS
 10
209.5079899173
 20
195.0538403061
 11
209.5079899173
 21
195.0972365561
  0
LINE
  5
303
100
AcDbEntity
  8
GEOM
100
AcDbLine
 62
7
  6
CONTINUOUS
 10
209.7129847487
 20
195.0538403061
 11
209.7129847487
 21
195.0972365561
  0
LINE
  5
304
100
AcDbEntity
  8
GEOM
100
AcDbLine
 62
7
  6
CONTINUOUS
 10
209.9678174411
 20
195.0538403061
 11
209.9678174411
 21
195.0972365561
  0
LINE
  5
305
100
AcDbEntity
  8
GEOM
100
AcDbLine
 62
7
  6
CONTINUOUS
 10
210.0875113903
 20
195.0538403061
 11
210.0875113903
 21
195.0972365561
  0
LINE
  5
306
100
AcDbEntity
  8
GEOM
100
AcDbLine
 62
7
  6
CONTINUOUS
 10
210.2960110499
 20
195.0538403061
 11
210.2960110499
 21
195.0972365561
  0
LINE
  5
307
100
AcDbEntity
  8
GEOM
100
AcDbLine
 62
7
  6
CONTINUOUS
 10
210.6435104826
 20
195.0538403061
 11
210.6435104826
 21
195.0972365561
  0
LINE
  5
308
100
AcDbEntity
  8
0
100
AcDbLine
 62
7
  6
CONTINUOUS
 10
172.0947627092
 20
22.5538403061
 11
170.074036767
 21
19.0538403061
  0
LINE
  5
309
100
AcDbEntity
  8
GEOM
100
AcDbLine
 62
7
  6
CONTINUOUS
 10
104.6102723311
 20
152.9271943681
 11
104.8972721099
 21
152.9271943681
  0
LINE
  5
30A
100
AcDbEntity
  8
GEOM
100
AcDbLine
 62
7
  6
CONTINUOUS
 10
104.6102723311
 20
153.1396267437
 11
129.8447627092
 21
153.1396267437
  0
LINE
  5
30B
100
AcDbEntity
  8
GEOM
100
AcDbLine
 62
7
  6
CONTINUOUS
 10
104.5993412449
 20
153.8467335249
 11
130.137655928
 21
153.8467335249
  0
LINE
  5
30C
100
AcDbEntity
  8
GEOM
100
AcDbLine
 62
7
  6
CONTINUOUS
 10
130.3018694904
 20
154.0109470873
 11
104.428247892
 21
154.0109470873
  0
LINE
  5
30D
100
AcDbEntity
  8
GEOM
100
AcDbLine
 62
7
  6
CONTINUOUS
 10
103.8282635477
 20
154.7180538685
 11
130.5947627092
 21
154.7180538685
  0
LINE
  5
30E
100
AcDbEntity
  8
0
100
AcDbLine
 62
7
  6
CONTINUOUS
 10
98.0947627092
 20
155.5538403061
 11
99.4607881129
 21
155.5538403061
  0
LINE
  5
30F
100
AcDbEntity
  8
0
100
AcDbLine
 62
7
  6
CONTINUOUS
 10
120.5947627092
 20
155.5538403061
 11
128.0947627092
 21
155.5538403061
  0
LINE
  5
310
100
AcDbEntity
  8
GEOM
100
AcDbLine
 62
7
  6
CONTINUOUS
 10
98.8947627092
 20
156.2270453869
 11
98.5947627092
 21
156.2270453869
  0
LINE
  5
311
100
AcDbEntity
  8
0
100
AcDbLine
 62
7
  6
CONTINUOUS
 10
122.8682654011
 20
178.4619588571
 11
123.7947627092
 21
177.9270453869
  0
LINE
  5
312
100
AcDbEntity
  8
0
100
AcDbLine
 62
7
  6
CONTINUOUS
 10
122.8682654011
 20
181.8072583187
 11
122.0947627092
 21
182.2538403061
  0
LINE
  5
313
100
AcDbEntity
  8
0
100
AcDbLine
 62
7
  6
CONTINUOUS
 10
118.3673814021
 20
165.2087153173
 11
117.0947627092
 21
165.1840417306
  0
LINE
  5
314
100
AcDbEntity
  8
0
100
AcDbLine
 62
7
  6
CONTINUOUS
 10
118.1160862092
 20
165.5079235296
 11
117.0947627092
 21
165.4881378905
  0
LINE
  5
315
100
AcDbEntity
  8
0
100
AcDbLine
 62
7
  6
CONTINUOUS
 10
117.0947627092
 20
166.3610994656
 11
117.3968905346
 21
166.3650555607
  0
LINE
  5
316
100
AcDbEntity
  8
GEOM
100
AcDbLine
 62
7
  6
CONTINUOUS
 10
98.5947627092
 20
159.7538403061
 11
104.1166657034
 21
159.7538403061
  0
LINE
  5
317
100
AcDbEntity
  8
GEOM
100
AcDbLine
 62
7
  6
CONTINUOUS
 10
103.6709033535
 20
160.0538403061
 11
98.8947627092
 21
160.0538403061
  0
LINE
  5
318
100
AcDbEntity
  8
GEOM
100
AcDbLine
 62
7
  6
CONTINUOUS
 10
103.5947627092
 20
160.3538403061
 11
103.962726383
 21
160.3538403061
  0
LINE
  5
319
100
AcDbEntity
  8
GEOM
100
AcDbLine
 62
7
  6
CONTINUOUS
 10
130.5947627092
 20
161.1396267437
 11
130.1278227074
 21
161.1396267437
  0
LINE
  5
31A
100
AcDbEntity
  8
GEOM
100
AcDbLine
 62
7
  6
CONTINUOUS
 10
120.5947627092
 20
161.1396267437
 11
103.5947627092
 21
161.1396267437
  0
LINE
  5
31B
100
AcDbEntity
  8
GEOM
100
AcDbLine
 62
7
  6
CONTINUOUS
 10
130.8447627092
 20
161.8010645715
 11
130.3685663886
 21
161.8010645715
  0
LINE
  5
31C
100
AcDbEntity
  8
GEOM
100
AcDbLine
 62
7
  6
CONTINUOUS
 10
120.5947627092
 20
161.8010645715
 11
103.3447627092
 21
161.8010645715
  0
LINE
  5
31D
100
AcDbEntity
  8
0
100
AcDbLine
 62
7
  6
CONTINUOUS
 10
98.0947627092
 20
162.5538403061
 11
102.0947627092
 21
162.5538403061
  0
LINE
  5
31E
100
AcDbEntity
  8
GEOM
100
AcDbLine
 62
7
  6
CONTINUOUS
 10
118.7487435206
 20
164.7538403061
 11
103.3447627092
 21
164.7538403061
  0
LINE
  5
31F
100
AcDbEntity
  8
GEOM
100
AcDbLine
 62
7
  6
CONTINUOUS
 10
118.4970136312
 20
165.0538403061
 11
103.6447627092
 21
165.0538403061
  0
LINE
  5
320
100
AcDbEntity
  8
0
100
AcDbLine
 62
7
  6
CONTINUOUS
 10
116.8188143689
 20
167.0538403061
 11
107.0947627092
 21
167.0538403061
  0
LINE
  5
321
100
AcDbEntity
  8
0
100
AcDbLine
 62
7
  6
CONTINUOUS
 10
110.4373670951
 20
176.7538403061
 11
111.4082920077
 21
176.5538403061
  0
LINE
  5
322
100
AcDbEntity
  8
0
100
AcDbLine
 62
7
  6
CONTINUOUS
 10
122.7578816698
 20
176.7538403061
 11
123.5989889977
 21
176.5538403061
  0
LINE
  5
323
100
AcDbEntity
  8
GEOM
100
AcDbLine
 62
7
  6
CONTINUOUS
 10
225.2699994676
 20
195.0538403061
 11
225.2699994676
 21
195.0972365561
  0
LINE
  5
324
100
AcDbEntity
  8
GEOM
100
AcDbLine
 62
7
  6
CONTINUOUS
 10
225.5336792594
 20
195.0538403061
 11
225.5336792594
 21
195.0972365561
  0
LINE
  5
325
100
AcDbEntity
  8
GEOM
100
AcDbLine
 62
7
  6
CONTINUOUS
 10
226.231206638
 20
195.0538403061
 11
226.231206638
 21
195.0972365561
  0
LINE
  5
326
100
AcDbEntity
  8
GEOM
100
AcDbLine
 62
7
  6
CONTINUOUS
 10
226.9242659292
 20
195.0538403061
 11
226.9242659292
 21
195.0972365561
  0
LINE
  5
327
100
AcDbEntity
  8
GEOM
100
AcDbLine
 62
7
  6
CONTINUOUS
 10
227.1827879301
 20
195.0538403061
 11
227.1827879301
 21
195.0972365561
  0
LINE
  5
328
100
AcDbEntity
  8
GEOM
100
AcDbLine
 62
7
  6
CONTINUOUS
 10
227.5114411809
 20
195.0538403061
 11
227.5114411809
 21
195.0972365561
  0
LINE
  5
329
100
AcDbEntity
  8
GEOM
100
AcDbLine
 62
7
  6
CONTINUOUS
 10
227.5279426004
 20
195.0538403061
 11
227.5279426004
 21
195.0972365561
  0
LINE
  5
32A
100
AcDbEntity
  8
GEOM
100
AcDbLine
 62
7
  6
CONTINUOUS
 10
227.9404778454
 20
195.0538403061
 11
227.9404778454
 21
195.0972365561
  0
LINE
  5
32B
100
AcDbEntity
  8
GEOM
100
AcDbLine
 62
7
  6
CONTINUOUS
 10
228.8246785627
 20
195.0538403061
 11
228.8246785627
 21
195.0972365561
  0
LINE
  5
32C
100
AcDbEntity
  8
GEOM
100
AcDbLine
 62
7
  6
CONTINUOUS
 10
228.9511893648
 20
195.0538403061
 11
228.9511893648
 21
195.0972365561
  0
LINE
  5
32D
100
AcDbEntity
  8
GEOM
100
AcDbLine
 62
7
  6
CONTINUOUS
 10
229.1423307063
 20
195.0538403061
 11
229.1423307063
 21
195.0972365561
  0
LINE
  5
32E
100
AcDbEntity
  8
GEOM
100
AcDbLine
 62
7
  6
CONTINUOUS
 10
229.2413389816
 20
195.0538403061
 11
229.2413389816
 21
195.0972365561
  0
LINE
  5
32F
100
AcDbEntity
  8
GEOM
100
AcDbLine
 62
7
  6
CONTINUOUS
 10
229.6538742266
 20
195.0538403061
 11
229.6538742266
 21
195.0972365561
  0
LINE
  5
330
100
AcDbEntity
  8
GEOM
100
AcDbLine
 62
7
  6
CONTINUOUS
 10
230.5380749439
 20
195.0538403061
 11
230.5380749439
 21
195.0972365561
  0
LINE
  5
331
100
AcDbEntity
  8
GEOM
100
AcDbLine
 62
7
  6
CONTINUOUS
 10
230.664585746
 20
195.0538403061
 11
230.664585746
 21
195.0972365561
  0
LINE
  5
332
100
AcDbEntity
  8
GEOM
100
AcDbLine
 62
7
  6
CONTINUOUS
 10
232.5012499844
 20
195.0538403061
 11
232.5012499844
 21
195.0972365561
  0
LINE
  5
333
100
AcDbEntity
  8
0
100
AcDbLine
 62
7
  6
CONTINUOUS
 10
107.1210846033
 20
169.9764900369
 11
107.0947627092
 21
169.9764900369
  0
LINE
  5
334
100
AcDbEntity
  8
0
100
AcDbLine
 62
7
  6
CONTINUOUS
 10
111.4799835469
 20
169.9764900369
 11
112.7358637656
 21
169.9764900369
  0
LINE
  5
335
100
AcDbEntity
  8
0
100
AcDbLine
 62
7
  6
CONTINUOUS
 10
108.0947627092
 20
170.5538403061
 11
113.8819656597
 21
170.5538403061
  0
LINE
  5
336
100
AcDbEntity
  8
0
100
AcDbLine
 62
7
  6
CONTINUOUS
 10
112.5394062499
 20
172.1538403061
 11
110.1947627092
 21
172.1538403061
  0
LINE
  5
337
100
AcDbEntity
  8
0
100
AcDbLine
 62
7
  6
CONTINUOUS
 10
98.3683925293
 20
172.5538403061
 11
112.2037663974
 21
172.5538403061
  0
LINE
  5
338
100
AcDbEntity
  8
0
100
AcDbLine
 62
7
  6
CONTINUOUS
 10
112.4773962175
 20
172.5538403061
 11
130.9759605556
 21
172.5538403061
  0
LINE
  5
339
100
AcDbEntity
  8
0
100
AcDbLine
 62
7
  6
CONTINUOUS
 10
133.8627119016
 20
172.5538403061
 11
135.5947627092
 21
172.5538403061
  0
LINE
  5
33A
100
AcDbEntity
  8
0
100
AcDbLine
 62
7
  6
CONTINUOUS
 10
114.9316437485
 20
176.7538403061
 11
116.9141417658
 21
176.5538403061
  0
LINE
  5
33B
100
AcDbEntity
  8
0
100
AcDbLine
 62
7
  6
CONTINUOUS
 10
117.0947627092
 20
176.7538403061
 11
119.0544685876
 21
176.5538403061
  0
LINE
  5
33C
100
AcDbEntity
  8
0
100
AcDbLine
 62
7
  6
CONTINUOUS
 10
112.9802659431
 20
176.7538403061
 11
114.7914953805
 21
176.5538403061
  0
LINE
  5
33D
100
AcDbEntity
  8
0
100
AcDbLine
 62
7
  6
CONTINUOUS
 10
119.2578816698
 20
176.7538403061
 11
121.0029657439
 21
176.5538403061
  0
LINE
  5
33E
100
AcDbEntity
  8
0
100
AcDbLine
 62
7
  6
CONTINUOUS
 10
111.4316437485
 20
176.7538403061
 11
112.894308849
 21
176.5538403061
  0
LINE
  5
33F
100
AcDbEntity
  8
0
100
AcDbLine
 62
7
  6
CONTINUOUS
 10
121.2092594752
 20
176.7538403061
 11
122.5689007572
 21
176.5538403061
  0
LINE
  5
340
100
AcDbEntity
  8
GEOM
100
AcDbLine
 62
7
  6
CONTINUOUS
 10
234.7679348889
 20
195.0538403061
 11
234.7679348889
 21
195.0972365561
  0
LINE
  5
341
100
AcDbEntity
  8
GEOM
100
AcDbLine
 62
7
  6
CONTINUOUS
 10
237.832353486
 20
195.0538403061
 11
237.832353486
 21
195.0972365561
  0
LINE
  5
342
100
AcDbEntity
  8
0
100
AcDbLine
 62
7
  6
CONTINUOUS
 10
102.0947627092
 20
176.5538403061
 11
135.5947627092
 21
176.5538403061
  0
LINE
  5
343
100
AcDbEntity
  8
0
100
AcDbLine
 62
7
  6
CONTINUOUS
 10
124.0947627067
 20
176.7538403061
 11
110.0947627195
 21
176.7538403061
  0
LINE
  5
344
100
AcDbEntity
  8
0
100
AcDbLine
 62
7
  6
CONTINUOUS
 10
110.0947627092
 20
177.4074301446
 11
124.0947627092
 21
177.4074301446
  0
LINE
  5
345
100
AcDbEntity
  8
0
100
AcDbLine
 62
7
  6
CONTINUOUS
 10
110.3947627092
 20
177.9270453869
 11
123.7947627092
 21
177.9270453869
  0
LINE
  5
346
100
AcDbEntity
  8
0
100
AcDbLine
 62
7
  6
CONTINUOUS
 10
112.0948215686
 20
182.2538403061
 11
122.0947038498
 21
182.2538403061
  0
LINE
  5
347
100
AcDbEntity
  8
0
100
AcDbLine
 62
7
  6
CONTINUOUS
 10
246.0947627092
 20
188.0538403061
 11
246.0947627092
 21
195.0538403061
  0
LINE
  5
348
100
AcDbEntity
  8
0
100
AcDbLine
 62
7
  6
CONTINUOUS
 10
159.8947627092
 20
188.0538403061
 11
255.8947627092
 21
188.0538403061
  0
LINE
  5
349
100
AcDbEntity
  8
0
100
AcDbLine
 62
7
  6
CONTINUOUS
 10
155.4942576458
 20
189.5538403061
 11
159.0947627092
 21
189.5538403061
  0
LINE
  5
34A
100
AcDbEntity
  8
0
100
AcDbLine
 62
7
  6
CONTINUOUS
 10
159.0947627092
 20
191.2538403061
 11
259.0947627092
 21
191.2538403061
  0
LINE
  5
34B
100
AcDbEntity
  8
0
100
AcDbLine
 62
7
  6
CONTINUOUS
 10
159.0947627092
 20
191.8538403061
 11
259.0947627092
 21
191.8538403061
  0
LINE
  5
34C
100
AcDbEntity
  8
0
100
AcDbLine
 62
7
  6
CONTINUOUS
 10
159.0947627092
 20
193.5538403061
 11
155.0800440834
 21
193.5538403061
  0
LINE
  5
34D
100
AcDbEntity
  8
0
100
AcDbLine
 62
7
  6
CONTINUOUS
 10
259.0947627092
 20
191.2538403061
 11
259.0947627092
 21
191.8538403061
  0
LINE
  5
34E
100
AcDbEntity
  8
0
100
AcDbLine
 62
7
  6
CONTINUOUS
 10
159.8947627092
 20
195.0538403061
 11
255.8947627092
 21
195.0538403061
  0
LINE
  5
34F
100
AcDbEntity
  8
GEOM
100
AcDbLine
 62
7
  6
CONTINUOUS
 10
164.1324877092
 20
195.0972365561
 11
166.6324877092
 21
195.0972365561
  0
LINE
  5
350
100
AcDbEntity
  8
GEOM
100
AcDbLine
 62
7
  6
CONTINUOUS
 10
168.0125582405
 20
195.0972365561
 11
180.4519816421
 21
195.0972365561
  0
LINE
  5
351
100
AcDbEntity
  8
GEOM
100
AcDbLine
 62
7
  6
CONTINUOUS
 10
180.4714482246
 20
195.0972365561
 11
188.8601239746
 21
195.0972365561
  0
LINE
  5
352
100
AcDbEntity
  8
GEOM
100
AcDbLine
 62
7
  6
CONTINUOUS
 10
189.3582369746
 20
195.0972365561
 11
196.9771017246
 21
195.0972365561
  0
LINE
  5
353
100
AcDbEntity
  8
GEOM
100
AcDbLine
 62
7
  6
CONTINUOUS
 10
197.2261145582
 20
195.0972365561
 11
210.6435104826
 21
195.0972365561
  0
LINE
  5
354
100
AcDbEntity
  8
GEOM
100
AcDbLine
 62
7
  6
CONTINUOUS
 10
225.2699994676
 20
195.0972365561
 11
227.1827879301
 21
195.0972365561
  0
LINE
  5
355
100
AcDbEntity
  8
GEOM
100
AcDbLine
 62
7
  6
CONTINUOUS
 10
227.5114411809
 20
195.0972365561
 11
229.1423307063
 21
195.0972365561
  0
LINE
  5
356
100
AcDbEntity
  8
GEOM
100
AcDbLine
 62
7
  6
CONTINUOUS
 10
229.2413389816
 20
195.0972365561
 11
230.664585746
 21
195.0972365561
  0
LINE
  5
357
100
AcDbEntity
  8
GEOM
100
AcDbLine
 62
7
  6
CONTINUOUS
 10
232.5012499844
 20
195.0972365561
 11
237.8322128932
 21
195.0972365561
  0
ARC
  5
358
100
AcDbEntity
  8
GEOM
100
AcDbCircle
 62
7
  6
CONTINUOUS
 10
119.7443254168
 20
56.0538403061
 40
57.5058347565
100
AcDbArc
 50
177.4650846617
 51
182.5349153383
  0
ARC
  5
359
100
AcDbEntity
  8
GEOM
100
AcDbCircle
 62
7
  6
CONTINUOUS
 10
23.0801199338
 20
55.9722890801
 40
57.1507658572
100
AcDbArc
 50
3.593423771
 51
4.3847613074
  0
ARC
  5
35A
100
AcDbEntity
  8
GEOM
100
AcDbCircle
 62
7
  6
CONTINUOUS
 10
65.4836741108
 20
84.9758239273
 40
14.7500390384
100
AcDbArc
 50
6.6002641372
 51
10.2025741845
  0
ARC
  5
35B
100
AcDbEntity
  8
GEOM
100
AcDbCircle
 62
7
  6
CONTINUOUS
 10
76.6360493641
 20
27.0419892793
 40
14.3975587116
100
AcDbArc
 50
174.9326471272
 51
185.0673528728
  0
ARC
  5
35C
100
AcDbEntity
  8
GEOM
100
AcDbCircle
 62
7
  6
CONTINUOUS
 10
76.6360487592
 20
85.0656913329
 40
14.3975581091
100
AcDbArc
 50
174.9326469146
 51
185.0673530854
  0
ARC
  5
35D
100
AcDbEntity
  8
GEOM
100
AcDbCircle
 62
7
  6
CONTINUOUS
 10
66.1692937586
 20
85.0586355593
 40
14.0594454286
100
AcDbArc
 50
0.0287540549
 51
6.5861781613
  0
ARC
  5
35E
100
AcDbEntity
  8
GEOM
100
AcDbCircle
 62
7
  6
CONTINUOUS
 10
78.4230770036
 20
14.5383411939
 40
5.2579597347
100
AcDbArc
 50
89.1978540462
 51
90.0052895053
  0
ARC
  5
35F
100
AcDbEntity
  8
GEOM
100
AcDbCircle
 62
7
  6
CONTINUOUS
 10
78.423076906
 20
97.5693363881
 40
5.2579567045
100
AcDbArc
 50
269.9947115558
 51
270.8021474803
  0
ARC
  5
360
100
AcDbEntity
  8
GEOM
100
AcDbCircle
 62
7
  6
CONTINUOUS
 10
86.8379084597
 20
18.5538403061
 40
4.0
100
AcDbArc
 50
45.0
 51
90.0
  0
ARC
  5
361
100
AcDbEntity
  8
GEOM
100
AcDbCircle
 62
7
  6
CONTINUOUS
 10
86.8379084597
 20
93.5538403061
 40
4.0
100
AcDbArc
 50
270.0
 51
315.0
  0
ARC
  5
362
100
AcDbEntity
  8
GEOM
100
AcDbCircle
 62
7
  6
CONTINUOUS
 10
99.1516169587
 20
94.5538403061
 40
4.0
100
AcDbArc
 50
90.0
 51
135.0
  0
ARC
  5
363
100
AcDbEntity
  8
GEOM
100
AcDbCircle
 62
7
  6
CONTINUOUS
 10
99.1516169587
 20
17.5538403061
 40
4.0
100
AcDbArc
 50
225.0
 51
270.0
  0
ARC
  5
364
100
AcDbEntity
  8
0
100
AcDbCircle
 62
7
  6
CONTINUOUS
 10
123.7594151844
 20
52.4923510092
 40
3.22
100
AcDbArc
 50
79.6230044397
 51
180.0
  0
ARC
  5
365
100
AcDbEntity
  8
0
100
AcDbCircle
 62
7
  6
CONTINUOUS
 10
122.7394151844
 20
52.7523510092
 40
3.2
100
AcDbArc
 50
90.0
 51
180.0
  0
ARC
  5
366
100
AcDbEntity
  8
0
100
AcDbCircle
 62
7
  6
CONTINUOUS
 10
136.5592288032
 20
101.0538403061
 40
2.5
100
AcDbArc
 50
270.0
 51
315.0000000001
  0
ARC
  5
367
100
AcDbEntity
  8
0
100
AcDbCircle
 62
7
  6
CONTINUOUS
 10
136.5592288032
 20
11.0538403061
 40
2.5
100
AcDbArc
 50
44.9999999999
 51
90.0
  0
ARC
  5
368
100
AcDbEntity
  8
0
100
AcDbCircle
 62
7
  6
CONTINUOUS
 10
121.3315183613
 20
54.6074673219
 40
2.1
100
AcDbArc
 50
112.1598560878
 51
148.5814933011
  0
ARC
  5
369
100
AcDbEntity
  8
GEOM
100
AcDbCircle
 62
7
  6
CONTINUOUS
 10
78.4966864978
 20
21.0538403061
 40
1.5
100
AcDbArc
 50
270.0
 51
330.0
  0
ARC
  5
36A
100
AcDbEntity
  8
GEOM
100
AcDbCircle
 62
7
  6
CONTINUOUS
 10
78.4966864978
 20
91.0538403061
 40
1.5
100
AcDbArc
 50
30.0
 51
90.0
  0
ARC
  5
36B
100
AcDbEntity
  8
GEOM
100
AcDbCircle
 62
7
  6
CONTINUOUS
 10
78.4229904263
 20
35.0445195109
 40
0.7568419636
100
AcDbArc
 50
269.9698067864
 51
275.587923613
  0
ARC
  5
36C
100
AcDbEntity
  8
GEOM
100
AcDbCircle
 62
7
  6
CONTINUOUS
 10
78.4229899454
 20
77.0631616793
 40
0.7568413853
100
AcDbArc
 50
84.4120355242
 51
90.0301568307
  0
ARC
  5
36D
100
AcDbEntity
  8
GEOM
100
AcDbCircle
 62
7
  6
CONTINUOUS
 10
78.4229549255
 20
40.899324356
 40
0.6631393035
100
AcDbArc
 50
83.6163325909
 51
90.0313922668
  0
ARC
  5
36E
100
AcDbEntity
  8
GEOM
100
AcDbCircle
 62
7
  6
CONTINUOUS
 10
78.4229535149
 20
71.2083555922
 40
0.6631386386
100
AcDbArc
 50
269.9687295751
 51
276.3837964697
  0
ARC
  5
36F
100
AcDbEntity
  8
0
100
AcDbCircle
 62
7
  6
CONTINUOUS
 10
63.0071844449
 20
183.7320844528
 40
54.5358782259
100
AcDbArc
 50
352.4365383188
 51
352.6484523501
  0
ARC
  5
370
100
AcDbEntity
  8
0
100
AcDbCircle
 62
7
  6
CONTINUOUS
 10
117.8991460803
 20
149.5573154329
 40
21.061865439
100
AcDbArc
 50
100.3499945413
 51
104.1906030356
  0
ARC
  5
371
100
AcDbEntity
  8
0
100
AcDbCircle
 62
7
  6
CONTINUOUS
 10
135.5947627092
 20
177.5538403061
 40
5.0
100
AcDbArc
 50
270.0
 51
315.0
  0
ARC
  5
372
100
AcDbEntity
  8
GEOM
100
AcDbCircle
 62
7
  6
CONTINUOUS
 10
134.8447339192
 20
103.5538237538
 40
4.9999918902
100
AcDbArc
 50
179.9998103234
 51
270.0003299097
  0
ARC
  5
373
100
AcDbEntity
  8
GEOM
100
AcDbCircle
 62
7
  6
CONTINUOUS
 10
99.3447953431
 20
103.5538213406
 40
4.9999908073
100
AcDbArc
 50
269.9996260413
 51
0.0002173302
  0
ARC
  5
374
100
AcDbEntity
  8
0
100
AcDbCircle
 62
7
  6
CONTINUOUS
 10
102.0947627092
 20
172.5538403061
 40
4.0
100
AcDbArc
 50
90.0
 51
180.0
  0
ARC
  5
375
100
AcDbEntity
  8
0
100
AcDbCircle
 62
7
  6
CONTINUOUS
 10
135.5947627092
 20
177.5538403061
 40
1.0
100
AcDbArc
 50
270.0
 51
315.0
  0
ARC
  5
376
100
AcDbEntity
  8
0
100
AcDbCircle
 62
7
  6
CONTINUOUS
 10
129.5947627092
 20
154.7180538685
 40
1.0
100
AcDbArc
 50
315.0
 51
360.0
  0
ARC
  5
377
100
AcDbEntity
  8
0
100
AcDbCircle
 62
7
  6
CONTINUOUS
 10
130.8447627092
 20
153.1396267437
 40
1.0
100
AcDbArc
 50
135.0
 51
180.0
  0
ARC
  5
378
100
AcDbEntity
  8
GEOM
100
AcDbCircle
 62
7
  6
CONTINUOUS
 10
102.5947627092
 20
161.1396267437
 40
1.0
100
AcDbArc
 50
0.0
 51
41.4096221093
  0
ARC
  5
379
100
AcDbEntity
  8
GEOM
100
AcDbCircle
 62
7
  6
CONTINUOUS
 10
131.5947627092
 20
161.1396267437
 40
1.0
100
AcDbArc
 50
138.5903778907
 51
180.0
  0
ARC
  5
37A
100
AcDbEntity
  8
0
100
AcDbCircle
 62
7
  6
CONTINUOUS
 10
110.6947627092
 20
177.4074301446
 40
0.6
100
AcDbArc
 50
120.0
 51
180.0
  0
ARC
  5
37B
100
AcDbEntity
  8
0
100
AcDbCircle
 62
7
  6
CONTINUOUS
 10
123.4947627092
 20
177.4074301446
 40
0.6
100
AcDbArc
 50
0.0
 51
60.0
  0
ARC
  5
37C
100
AcDbEntity
  8
0
100
AcDbCircle
 62
7
  6
CONTINUOUS
 10
102.5947627092
 20
172.0538403061
 40
0.5
100
AcDbArc
 50
90.0
 51
180.0
  0
ARC
  5
37D
100
AcDbEntity
  8
GEOM
100
AcDbCircle
 62
7
  6
CONTINUOUS
 10
103.2947627092
 20
160.3538403061
 40
0.3
100
AcDbArc
 50
270.0
 51
360.0
  0
ARC
  5
37E
100
AcDbEntity
  8
GEOM
100
AcDbCircle
 62
7
  6
CONTINUOUS
 10
98.8947627092
 20
156.2270453869
 40
0.3
100
AcDbArc
 50
180.0
 51
240.0
  0
ARC
  5
37F
100
AcDbEntity
  8
GEOM
100
AcDbCircle
 62
7
  6
CONTINUOUS
 10
98.8947627092
 20
159.7538403061
 40
0.3
100
AcDbArc
 50
90.0
 51
180.0
  0
ARC
  5
380
100
AcDbEntity
  8
0
100
AcDbCircle
 62
7
  6
CONTINUOUS
 10
155.596378958
 20
87.9125698317
 40
5.0072605376
100
AcDbArc
 50
89.9995717583
 51
90.2822922408
  0
ARC
  5
381
100
AcDbEntity
  8
0
100
AcDbCircle
 62
7
  6
CONTINUOUS
 10
155.5963789576
 20
24.1951105439
 40
5.0072603009
100
AcDbArc
 50
269.7177077498
 51
270.0004282323
  0
ARC
  5
382
100
AcDbEntity
  8
0
100
AcDbCircle
 62
7
  6
CONTINUOUS
 10
140.6302966151
 20
14.0538403061
 40
2.5
100
AcDbArc
 50
224.9999999999
 51
270.0
  0
ARC
  5
383
100
AcDbEntity
  8
0
100
AcDbCircle
 62
7
  6
CONTINUOUS
 10
140.6302966151
 20
98.0538403061
 40
2.5
100
AcDbArc
 50
90.0
 51
135.0000000001
  0
ARC
  5
384
100
AcDbEntity
  8
0
100
AcDbCircle
 62
7
  6
CONTINUOUS
 10
155.5717086404
 20
94.0538403061
 40
1.0
100
AcDbArc
 50
195.0
 51
270.0
  0
ARC
  5
385
100
AcDbEntity
  8
0
100
AcDbCircle
 62
7
  6
CONTINUOUS
 10
155.5717086404
 20
18.0538403061
 40
1.0
100
AcDbArc
 50
90.0
 51
165.0
  0
ARC
  5
386
100
AcDbEntity
  8
0
100
AcDbCircle
 62
7
  6
CONTINUOUS
 10
152.0274357212
 20
99.5538403061
 40
1.0
100
AcDbArc
 50
15.0
 51
90.0
  0
ARC
  5
387
100
AcDbEntity
  8
0
100
AcDbCircle
 62
7
  6
CONTINUOUS
 10
152.0274357212
 20
12.5538403061
 40
1.0
100
AcDbArc
 50
270.0
 51
345.0
  0
ARC
  5
388
100
AcDbEntity
  8
0
100
AcDbCircle
 62
7
  6
CONTINUOUS
 10
155.5963890394
 20
34.3763372776
 40
0.5197910387
100
AcDbArc
 50
89.9969846616
 51
92.7215062859
  0
ARC
  5
389
100
AcDbEntity
  8
0
100
AcDbCircle
 62
7
  6
CONTINUOUS
 10
155.5963890391
 20
77.7313433119
 40
0.5197910159
100
AcDbArc
 50
267.2784936326
 51
270.0030152551
  0
ARC
  5
38A
100
AcDbEntity
  8
0
100
AcDbCircle
 62
7
  6
CONTINUOUS
 10
155.5963908437
 20
71.2910244827
 40
0.4710938965
100
AcDbArc
 50
89.9968895351
 51
93.0032948778
  0
ARC
  5
38B
100
AcDbEntity
  8
0
100
AcDbCircle
 62
7
  6
CONTINUOUS
 10
155.5963908434
 20
40.8166561073
 40
0.4710938742
100
AcDbArc
 50
266.9967050124
 51
270.0031103532
  0
ARC
  5
38C
100
AcDbEntity
  8
0
100
AcDbCircle
 62
7
  6
CONTINUOUS
 10
155.0800440834
 20
188.5538403061
 40
5.0
100
AcDbArc
 50
90.0
 51
135.0
  0
ARC
  5
38D
100
AcDbEntity
  8
0
100
AcDbCircle
 62
7
  6
CONTINUOUS
 10
255.8947627092
 20
191.2538403061
 40
3.2
100
AcDbArc
 50
270.0
 51
360.0
  0
ARC
  5
38E
100
AcDbEntity
  8
0
100
AcDbCircle
 62
7
  6
CONTINUOUS
 10
255.8947627092
 20
191.8538403061
 40
3.2
100
AcDbArc
 50
0.0
 51
90.0
  0
ARC
  5
38F
100
AcDbEntity
  8
0
100
AcDbCircle
 62
7
  6
CONTINUOUS
 10
155.4942576458
 20
187.5538403061
 40
2.0
100
AcDbArc
 50
90.0
 51
135.0
  0
ARC
  5
390
100
AcDbEntity
  8
0
100
AcDbCircle
 62
7
  6
CONTINUOUS
 10
159.8947627092
 20
188.8538403061
 40
0.8
100
AcDbArc
 50
180.0
 51
270.0
  0
ARC
  5
391
100
AcDbEntity
  8
0
100
AcDbCircle
 62
7
  6
CONTINUOUS
 10
159.8947627092
 20
194.2538403061
 40
0.8
100
AcDbArc
 50
90.0
 51
180.0
  0
SPLINE
  5
392
100
AcDbEntity
  8
0
100
AcDbSpline
 62
7
  6
CONTINUOUS
 70
0
 71
3
 72
11
 73
7
 74
0
 42
0.0000001
 43
0.0000001
 44
0.0000000001
 40
0.0
 40
0.0
 40
0.0
 40
0.0
 40
0.2404052701
 40
0.4855029998
 40
0.7383572369
 40
1.0
 40
1.0
 40
1.0
 40
1.0
 10
112.7646356904
 20
182.2538403061
 30
0.0
 10
112.8870522334
 20
182.2538403061
 30
0.0
 10
113.1347333723
 20
182.2324975671
 30
0.0
 10
113.5005840987
 20
182.140304604
 30
0.0
 10
113.8605060136
 20
181.9962102423
 30
0.0
 10
114.0926300478
 20
181.8738737522
 30
0.0
 10
114.2080113632
 20
181.8072583187
 30
0.0
  0
SPLINE
  5
393
100
AcDbEntity
  8
0
100
AcDbSpline
 62
7
  6
CONTINUOUS
 70
0
 71
3
 72
15
 73
11
 74
0
 42
0.0000001
 43
0.0000001
 44
0.0000000001
 40
0.0
 40
0.0
 40
0.0
 40
0.0
 40
0.1308200694
 40
0.2572467302
 40
0.3797970158
 40
0.500000022
 40
0.6202030249
 40
0.7427533028
 40
0.8691799416
 40
1.0
 40
1.0
 40
1.0
 40
1.0
 10
114.2080113632
 20
178.4619588571
 30
0.0
 10
114.0926313072
 20
178.5285735635
 30
0.0
 10
113.8605038032
 20
178.650908903
 30
0.0
 10
113.5006060405
 20
178.7950051562
 30
0.0
 10
113.1346732406
 20
178.8871944865
 30
0.0
 10
112.7646356274
 20
178.9190974031
 30
0.0
 10
112.3945980268
 20
178.8871944472
 30
0.0
 10
112.0286652632
 20
178.795005116
 30
0.0
 10
111.6687675367
 20
178.6509088842
 30
0.0
 10
111.4366400635
 20
178.5285735579
 30
0.0
 10
111.3212600173
 20
178.4619588571
 30
0.0
  0
SPLINE
  5
394
100
AcDbEntity
  8
0
100
AcDbSpline
 62
7
  6
CONTINUOUS
 70
0
 71
3
 72
11
 73
7
 74
0
 42
0.0000001
 43
0.0000001
 44
0.0000000001
 40
0.0
 40
0.0
 40
0.0
 40
0.0
 40
0.250004133
 40
0.5000063387
 40
0.7500033535
 40
1.0
 40
1.0
 40
1.0
 40
1.0
 10
114.2080113632
 20
181.8072583187
 30
0.0
 10
114.4426314525
 20
181.8749873046
 30
0.0
 10
114.9152857395
 20
181.9990729569
 30
0.0
 10
115.6343124396
 20
182.1421529957
 30
0.0
 10
116.361944422
 20
182.2330092546
 30
0.0
 10
116.8505696908
 20
182.2538403061
 30
0.0
 10
117.0947627095
 20
182.2538403061
 30
0.0
  0
SPLINE
  5
395
100
AcDbEntity
  8
0
100
AcDbSpline
 62
7
  6
CONTINUOUS
 70
0
 71
3
 72
11
 73
7
 74
0
 42
0.0000001
 43
0.0000001
 44
0.0000000001
 40
0.0
 40
0.0
 40
0.0
 40
0.0
 40
0.2499913856
 40
0.4999850118
 40
0.7499883992
 40
1.0
 40
1.0
 40
1.0
 40
1.0
 10
117.0947627095
 20
182.2538403061
 30
0.0
 10
117.3389505497
 20
182.2538403061
 30
0.0
 10
117.8275671633
 20
182.2330066101
 30
0.0
 10
118.5551918309
 20
182.1421530636
 30
0.0
 10
119.2742242313
 20
181.9990758408
 30
0.0
 10
119.7468869956
 20
181.8749893167
 30
0.0
 10
119.9815140551
 20
181.8072583187
 30
0.0
  0
SPLINE
  5
396
100
AcDbEntity
  8
0
100
AcDbSpline
 62
7
  6
CONTINUOUS
 70
0
 71
3
 72
11
 73
7
 74
0
 42
0.0000001
 43
0.0000001
 44
0.0000000001
 40
0.0
 40
0.0
 40
0.0
 40
0.0
 40
0.2500114279
 40
0.5000145929
 40
0.7500082953
 40
1.0
 40
1.0
 40
1.0
 40
1.0
 10
119.9815140551
 20
178.4619588571
 30
0.0
 10
119.7468871575
 20
178.5296898084
 30
0.0
 10
119.2742247723
 20
178.6537762597
 30
0.0
 10
118.5551926871
 20
178.7968534607
 30
0.0
 10
117.8275678672
 20
178.887707182
 30
0.0
 10
117.3389508616
 20
178.9085408445
 30
0.0
 10
117.0947627092
 20
178.9085408445
 30
0.0
  0
SPLINE
  5
397
100
AcDbEntity
  8
0
100
AcDbSpline
 62
7
  6
CONTINUOUS
 70
0
 71
3
 72
11
 73
7
 74
0
 42
0.0000001
 43
0.0000001
 44
0.0000000001
 40
0.0
 40
0.0
 40
0.0
 40
0.0
 40
0.2499921102
 40
0.4999859297
 40
0.7499889485
 40
1.0
 40
1.0
 40
1.0
 40
1.0
 10
117.0947627092
 20
178.9085408445
 30
0.0
 10
116.8505741601
 20
178.9085408445
 30
0.0
 10
116.3619566354
 20
178.8877072385
 30
0.0
 10
115.6343314755
 20
178.7968532341
 30
0.0
 10
114.9152997889
 20
178.6537760731
 30
0.0
 10
114.4426379081
 20
178.5296897065
 30
0.0
 10
114.2080113632
 20
178.4619588571
 30
0.0
  0
SPLINE
  5
398
100
AcDbEntity
  8
0
100
AcDbSpline
 62
7
  6
CONTINUOUS
 70
0
 71
3
 72
11
 73
7
 74
0
 42
0.0000001
 43
0.0000001
 44
0.0000000001
 40
0.0
 40
0.0
 40
0.0
 40
0.0
 40
0.2616352191
 40
0.5144887546
 40
0.7595898472
 40
1.0
 40
1.0
 40
1.0
 40
1.0
 10
119.9815140551
 20
181.8072583187
 30
0.0
 10
120.0968921092
 20
181.8738718693
 30
0.0
 10
120.3290119756
 20
181.9962074152
 30
0.0
 10
120.6889303556
 20
182.1403043431
 30
0.0
 10
121.05478489
 20
182.2325002126
 30
0.0
 10
121.3024706293
 20
182.2538403061
 30
0.0
 10
121.4248897282
 20
182.2538403061
 30
0.0
  0
SPLINE
  5
399
100
AcDbEntity
  8
0
100
AcDbSpline
 62
7
  6
CONTINUOUS
 70
0
 71
3
 72
11
 73
7
 74
0
 42
0.0000001
 43
0.0000001
 44
0.0000000001
 40
0.0
 40
0.0
 40
0.0
 40
0.0
 40
0.2404052701
 40
0.4855029998
 40
0.7383572369
 40
1.0
 40
1.0
 40
1.0
 40
1.0
 10
121.4248897282
 20
182.2538403061
 30
0.0
 10
121.5473062713
 20
182.2538403061
 30
0.0
 10
121.7949874101
 20
182.2324975671
 30
0.0
 10
122.1608381365
 20
182.140304604
 30
0.0
 10
122.5207600515
 20
181.9962102423
 30
0.0
 10
122.7528840857
 20
181.8738737522
 30
0.0
 10
122.8682654011
 20
181.8072583187
 30
0.0
  0
SPLINE
  5
39A
100
AcDbEntity
  8
0
100
AcDbSpline
 62
7
  6
CONTINUOUS
 70
0
 71
3
 72
15
 73
11
 74
0
 42
0.0000001
 43
0.0000001
 44
0.0000000001
 40
0.0
 40
0.0
 40
0.0
 40
0.0
 40
0.1308200694
 40
0.2572467302
 40
0.3797970158
 40
0.500000022
 40
0.6202030249
 40
0.7427533028
 40
0.8691799416
 40
1.0
 40
1.0
 40
1.0
 40
1.0
 10
122.8682654011
 20
178.4619588571
 30
0.0
 10
122.752885345
 20
178.5285735635
 30
0.0
 10
122.520757841
 20
178.650908903
 30
0.0
 10
122.1608600784
 20
178.7950051562
 30
0.0
 10
121.7949272785
 20
178.8871944865
 30
0.0
 10
121.4248896653
 20
178.9190974031
 30
0.0
 10
121.0548520646
 20
178.8871944472
 30
0.0
 10
120.688919301
 20
178.795005116
 30
0.0
 10
120.3290215746
 20
178.6509088842
 30
0.0
 10
120.0968941014
 20
178.5285735579
 30
0.0
 10
119.9815140551
 20
178.4619588571
 30
0.0
  0
SPLINE
  5
39B
100
AcDbEntity
  8
0
100
AcDbSpline
 62
7
  6
CONTINUOUS
 70
0
 71
3
 72
9
 73
5
 74
0
 42
0.0000001
 43
0.0000001
 44
0.0000000001
 40
0.0
 40
0.0
 40
0.0
 40
0.0
 40
0.2530923568
 40
1.0
 40
1.0
 40
1.0
 40
1.0
 10
117.0947627092
 20
176.7538403061
 30
0.0
 10
117.166590094
 20
176.7367359811
 30
0.0
 10
117.4505994042
 20
176.6700430057
 30
0.0
 10
117.7349898793
 20
176.6049549874
 30
0.0
 10
117.9468087433
 20
176.5538403061
 30
0.0
  0
LINE
  5
39C
100
AcDbEntity
  8
0
100
AcDbLine
 62
7
  6
CONTINUOUS
 10
116.1428487399
 20
176.5538403061
 11
116.1524772147
 21
176.6306791258
  0
SPLINE
  5
39D
100
AcDbEntity
  8
0
100
AcDbSpline
 62
7
  6
CONTINUOUS
 70
0
 71
3
 72
11
 73
7
 74
0
 42
0.0000001
 43
0.0000001
 44
0.0000000001
 40
0.0
 40
0.0
 40
0.0
 40
0.0
 40
0.2616352191
 40
0.5144887546
 40
0.7595898472
 40
1.0
 40
1.0
 40
1.0
 40
1.0
 10
111.3212600173
 20
181.8072583187
 30
0.0
 10
111.4366380714
 20
181.8738718693
 30
0.0
 10
111.6687579377
 20
181.9962074152
 30
0.0
 10
112.0286763178
 20
182.1403043431
 30
0.0
 10
112.3945308522
 20
182.2325002126
 30
0.0
 10
112.6422165915
 20
182.2538403061
 30
0.0
 10
112.7646356904
 20
182.2538403061
 30
0.0
  0
SPLINE
  5
39E
100
AcDbEntity
  8
0
100
AcDbSpline
 62
7
  6
CONTINUOUS
 70
0
 71
3
 72
11
 73
7
 74
0
 42
0.0000001
 43
0.0000001
 44
0.0000000001
 40
0.0
 40
0.0
 40
0.0
 40
0.0
 40
0.3465710285
 40
0.5896744981
 40
0.7780153407
 40
1.0
 40
1.0
 40
1.0
 40
1.0
 10
106.1846165335
 20
166.1360420174
 30
0.0
 10
106.1839009553
 20
166.1364147075
 30
0.0
 10
106.1827295474
 20
166.1371216565
 30
0.0
 10
106.1814001922
 20
166.138456779
 30
0.0
 10
106.1812040922
 20
166.1401003403
 30
0.0
 10
106.1818385309
 20
166.1409134197
 30
0.0
 10
106.1822037122
 20
166.1412790736
 30
0.0
  0
SPLINE
  5
39F
100
AcDbEntity
  8
0
100
AcDbSpline
 62
7
  6
CONTINUOUS
 70
0
 71
3
 72
9
 73
5
 74
0
 42
0.0000001
 43
0.0000001
 44
0.0000000001
 40
0.0
 40
0.0
 40
0.0
 40
0.0
 40
0.3458561174
 40
1.0
 40
1.0
 40
1.0
 40
1.0
 10
106.102354958
 20
165.1617901917
 30
0.0
 10
106.1012136081
 20
165.1611953213
 30
0.0
 10
106.0981074215
 20
165.1594317063
 30
0.0
 10
106.0947723817
 20
165.1563207015
 30
0.0
 10
106.0947721809
 20
165.1538863676
 30
0.0
  0
SPLINE
  5
3A0
100
AcDbEntity
  8
0
100
AcDbSpline
 62
7
  6
CONTINUOUS
 70
0
 71
3
 72
11
 73
7
 74
0
 42
0.0000001
 43
0.0000001
 44
0.0000000001
 40
0.0
 40
0.0
 40
0.0
 40
0.0
 40
0.2426863618
 40
0.4887729527
 40
0.7407841591
 40
1.0
 40
1.0
 40
1.0
 40
1.0
 10
109.3005340752
 20
170.5538403061
 30
0.0
 10
109.4845235859
 20
170.553840301
 30
0.0
 10
109.8555784829
 20
170.5272725185
 30
0.0
 10
110.4065347202
 20
170.4109534731
 30
0.0
 10
110.9511669103
 20
170.2256687678
 30
0.0
 10
111.3044436105
 20
170.0648432007
 30
0.0
 10
111.4799835469
 20
169.9764900369
 30
0.0
  0
SPLINE
  5
3A1
100
AcDbEntity
  8
0
100
AcDbSpline
 62
7
  6
CONTINUOUS
 70
0
 71
3
 72
9
 73
5
 74
0
 42
0.0000001
 43
0.0000001
 44
0.0000000001
 40
0.0
 40
0.0
 40
0.0
 40
0.0
 40
0.4756623461
 40
1.0
 40
1.0
 40
1.0
 40
1.0
 10
110.7763450796
 20
165.0538404138
 30
0.0
 10
111.7780896932
 20
165.0775138208
 30
0.0
 10
113.8842137242
 20
165.1219355853
 30
0.0
 10
115.9904062205
 20
165.1626789406
 30
0.0
 10
117.0947627092
 20
165.1840417306
 30
0.0
  0
SPLINE
  5
3A2
100
AcDbEntity
  8
0
100
AcDbSpline
 62
7
  6
CONTINUOUS
 70
0
 71
3
 72
30
 73
26
 74
0
 42
0.0000001
 43
0.0000001
 44
0.0000000001
 40
0.0
 40
0.0
 40
0.0
 40
0.0
 40
0.0006816581
 40
0.0019183517
 40
0.0037315732
 40
0.0061264194
 40
0.0091042904
 40
0.0126653038
 40
0.0215324356
 40
0.0327098221
 40
0.0461747228
 40
0.0618983736
 40
0.0798433466
 40
0.0999705382
 40
0.1222326296
 40
0.1729496766
 40
0.2315208175
 40
0.2973952797
 40
0.3699482785
 40
0.4484872285
 40
0.5322596388
 40
0.6204612724
 40
0.7122422337
 40
0.8067044768
 40
1.0
 40
1.0
 40
1.0
 40
1.0
 10
106.1822037122
 20
166.1412790736
 30
0.0
 10
106.1839565879
 20
166.1430342173
 30
0.0
 10
106.190840943
 20
166.1454914237
 30
0.0
 10
106.2038290096
 20
166.1487181451
 30
0.0
 10
106.2234958703
 20
166.1519247765
 30
0.0
 10
106.2493921884
 20
166.1552537373
 30
0.0
 10
106.2817486956
 20
166.1585903881
 30
0.0
 10
106.3375953391
 20
166.1634362618
 30
0.0
 10
106.4233077567
 20
166.1692719403
 30
0.0
 10
106.5450640194
 20
166.1759565407
 30
0.0
 10
106.6918037766
 20
166.1826765625
 30
0.0
 10
106.8631894969
 20
166.1894300977
 30
0.0
 10
107.0588351774
 20
166.1962045349
 30
0.0
 10
107.2782860407
 20
166.2029949978
 30
0.0
 10
107.616966236
 20
166.2124831158
 30
0.0
 10
108.0955350654
 20
166.2241537421
 30
0.0
 10
108.7328063721
 20
166.2376942308
 30
0.0
 10
109.4495533239
 20
166.2512833648
 30
0.0
 10
110.2389737663
 20
166.2649146139
 30
0.0
 10
111.0935329499
 20
166.2785792925
 30
0.0
 10
112.0050436198
 20
166.2922731061
 30
0.0
 10
112.9647465459
 20
166.3059926544
 30
0.0
 10
113.9633531008
 20
166.3197354468
 30
0.0
 10
115.3443656363
 20
166.3382289885
 30
0.0
 10
116.3914231268
 20
166.3518945181
 30
0.0
 10
117.0947627092
 20
166.3610994656
 30
0.0
  0
SPLINE
  5
3A3
100
AcDbEntity
  8
0
100
AcDbSpline
 62
7
  6
CONTINUOUS
 70
0
 71
3
 72
26
 73
22
 74
0
 42
0.0000001
 43
0.0000001
 44
0.0000000001
 40
0.0
 40
0.0
 40
0.0
 40
0.0
 40
0.190566729
 40
0.3741462152
 40
0.461202707
 40
0.5440257358
 40
0.6218577111
 40
0.6939833285
 40
0.7597419088
 40
0.8185302187
 40
0.8698082849
 40
0.9131095453
 40
0.931643359
 40
0.9480412755
 40
0.9622658233
 40
0.9742881731
 40
0.9840815692
 40
0.9916286728
 40
0.9969255639
 40
0.998735741
 40
1.0
 40
1.0
 40
1.0
 40
1.0
 10
117.0947627092
 20
165.4881378905
 30
0.0
 10
116.3961171571
 20
165.4746228819
 30
0.0
 10
115.0244423236
 20
165.4480890832
 30
0.0
 10
113.3336285683
 20
165.4141925949
 30
0.0
 10
112.037845919
 20
165.3866594212
 30
0.0
 10
111.1297554069
 20
165.3663867004
 30
0.0
 10
110.276427893
 20
165.3461308726
 30
0.0
 10
109.485691062
 20
165.3258973075
 30
0.0
 10
108.764808086
 20
165.3056951968
 30
0.0
 10
108.1204007286
 20
165.2855444354
 30
0.0
 10
107.5583841832
 20
165.265456569
 30
0.0
 10
107.1439778507
 20
165.2480424978
 30
0.0
 10
106.8574627551
 20
165.2337975571
 30
0.0
 10
106.6774973306
 20
165.2236947956
 30
0.0
 10
106.5214460614
 20
165.2136272428
 30
0.0
 10
106.3896750589
 20
165.2035954169
 30
0.0
 10
106.2824420319
 20
165.1936857759
 30
0.0
 10
106.2000423106
 20
165.1838243985
 30
0.0
 10
106.1469006495
 20
165.1752679922
 30
0.0
 10
106.1171502236
 20
165.1677427289
 30
0.0
 10
106.1064659214
 20
165.1639328215
 30
0.0
 10
106.102354958
 20
165.1617901917
 30
0.0
  0
SPLINE
  5
3A4
100
AcDbEntity
  8
0
100
AcDbSpline
 62
7
  6
CONTINUOUS
 70
0
 71
3
 72
30
 73
26
 74
0
 42
0.0000001
 43
0.0000001
 44
0.0000000001
 40
0.0
 40
0.0
 40
0.0
 40
0.0
 40
0.0005881359
 40
0.0010448397
 40
0.0016346979
 40
0.0032393172
 40
0.0054298677
 40
0.0115973153
 40
0.0201531117
 40
0.0310850007
 40
0.0443724871
 40
0.0599815911
 40
0.0778742565
 40
0.0980076261
 40
0.1203281413
 40
0.1713028408
 40
0.2302778502
 40
0.2966515682
 40
0.3697449404
 40
0.4488080485
 40
0.5330313236
 40
0.6215525121
 40
0.7134635192
 40
0.8078222523
 40
1.0
 40
1.0
 40
1.0
 40
1.0
 10
106.8947704176
 20
165.7703416087
 30
0.0
 10
106.8947727568
 20
165.7724440585
 30
0.0
 10
106.897599555
 20
165.7757660258
 30
0.0
 10
106.9024754075
 20
165.7787278228
 30
0.0
 10
106.9111619192
 20
165.7827246215
 30
0.0
 10
106.9261608274
 20
165.7872854841
 30
0.0
 10
106.9609123487
 20
165.7952127122
 30
0.0
 10
107.0207354328
 20
165.8042956922
 30
0.0
 10
107.1118490776
 20
165.814753891
 30
0.0
 10
107.2285529345
 20
165.8252586006
 30
0.0
 10
107.3705361759
 20
165.8358724513
 30
0.0
 10
107.5374607441
 20
165.8465216877
 30
0.0
 10
107.7288974906
 20
165.8572046195
 30
0.0
 10
107.9443581197
 20
165.8679055681
 30
0.0
 10
108.2780096495
 20
165.8828650582
 30
0.0
 10
108.7504922932
 20
165.9012314552
 30
0.0
 10
109.3804504539
 20
165.9225076219
 30
0.0
 10
110.0895160343
 20
165.9438353957
 30
0.0
 10
110.8704197132
 20
165.9652043056
 30
0.0
 10
111.7151526503
 20
165.9865998728
 30
0.0
 10
112.6150524503
 20
166.0080146309
 30
0.0
 10
113.5608925113
 20
166.0294424269
 30
0.0
 10
114.5429731814
 20
166.0508797867
 30
0.0
 10
115.8955303327
 20
166.0796455208
 30
0.0
 10
116.9196114787
 20
166.1009256548
 30
0.0
 10
117.6064530227
 20
166.1152725098
 30
0.0
  0
SPLINE
  5
3A5
100
AcDbEntity
  8
0
100
AcDbSpline
 62
7
  6
CONTINUOUS
 70
0
 71
3
 72
9
 73
5
 74
0
 42
0.0000001
 43
0.0000001
 44
0.0000000001
 40
0.0
 40
0.0
 40
0.0
 40
0.0
 40
0.2238383367
 40
1.0
 40
1.0
 40
1.0
 40
1.0
 10
106.9029481962
 20
165.578864701
 30
0.0
 10
106.9035164202
 20
165.5791608759
 30
0.0
 10
106.9060833886
 20
165.5804295562
 30
0.0
 10
106.9087404902
 20
165.5815086699
 30
0.0
 10
106.9108230159
 20
165.582283243
 30
0.0
  0
SPLINE
  5
3A6
100
AcDbEntity
  8
0
100
AcDbSpline
 62
7
  6
CONTINUOUS
 70
0
 71
3
 72
24
 73
20
 74
0
 42
0.0000001
 43
0.0000001
 44
0.0000000001
 40
0.0
 40
0.0
 40
0.0
 40
0.0
 40
0.0016585973
 40
0.0038696732
 40
0.0099678038
 40
0.0183075138
 40
0.0288797151
 40
0.0416602878
 40
0.0566213612
 40
0.0929411083
 40
0.1374908267
 40
0.189838487
 40
0.2494771907
 40
0.3158264683
 40
0.3882387186
 40
0.4660091957
 40
0.6345477238
 40
0.8148837264
 40
1.0
 40
1.0
 40
1.0
 40
1.0
 10
106.9108230159
 20
165.582283243
 30
0.0
 10
106.9164549738
 20
165.5843779895
 30
0.0
 10
106.9299571301
 20
165.5882619518
 30
0.0
 10
106.9652530884
 20
165.5959200405
 30
0.0
 10
107.0249585281
 20
165.6048410436
 30
0.0
 10
107.1149874131
 20
165.6150442411
 30
0.0
 10
107.2293580056
 20
165.6253090731
 30
0.0
 10
107.3677786253
 20
165.635670282
 30
0.0
 10
107.5993952012
 20
165.6505029636
 30
0.0
 10
107.9461225771
 20
165.6684691355
 30
0.0
 10
108.4283150368
 20
165.6890870138
 30
0.0
 10
108.9950514332
 20
165.709797283
 30
0.0
 10
109.6408073085
 20
165.7305835443
 30
0.0
 10
110.3592870693
 20
165.7514125718
 30
0.0
 10
111.1434801097
 20
165.7722749455
 30
0.0
 10
112.297815553
 20
165.8008897627
 30
0.0
 10
113.8431026873
 20
165.8359993583
 30
0.0
 10
115.7772496727
 20
165.8772072228
 30
0.0
 10
117.1009547497
 20
165.9047018343
 30
0.0
 10
117.7714626739
 20
165.918720821
 30
0.0
  0
SPLINE
  5
3A7
100
AcDbEntity
  8
0
100
AcDbSpline
 62
7
  6
CONTINUOUS
 70
0
 71
3
 72
11
 73
7
 74
0
 42
0.0000001
 43
0.0000001
 44
0.0000000001
 40
0.0
 40
0.0
 40
0.0
 40
0.0
 40
0.2592111028
 40
0.511222125
 40
0.7573110754
 40
1.0
 40
1.0
 40
1.0
 40
1.0
 10
107.1210846033
 20
169.9764900369
 30
0.0
 10
107.2966213909
 20
170.0648416158
 30
0.0
 10
107.6498943255
 20
170.2256665201
 30
0.0
 10
108.1945234955
 20
170.4109547011
 30
0.0
 10
108.7454836689
 20
170.5272748299
 30
0.0
 10
109.1165425587
 20
170.5538403113
 30
0.0
 10
109.3005340752
 20
170.5538403061
 30
0.0
  0
SPLINE
  5
3A8
100
AcDbEntity
  8
0
100
AcDbSpline
 62
7
  6
CONTINUOUS
 70
0
 71
3
 72
11
 73
7
 74
0
 42
0.0000001
 43
0.0000001
 44
0.0000000001
 40
0.0
 40
0.0
 40
0.0
 40
0.0
 40
0.2587949513
 40
0.5106779333
 40
0.7569396182
 40
1.0
 40
1.0
 40
1.0
 40
1.0
 10
170.074036767
 20
77.2115522967
 30
0.0
 10
170.3845673889
 20
77.8449962693
 30
0.0
 10
170.9489387192
 20
79.1198039498
 30
0.0
 10
171.5967837194
 20
81.0830094908
 30
0.0
 10
172.002321996
 20
83.0675589898
 30
0.0
 10
172.0947627175
 20
84.4031185631
 30
0.0
 10
172.0947627092
 20
85.0656915157
 30
0.0
  0
SPLINE
  5
3A9
100
AcDbEntity
  8
0
100
AcDbSpline
 62
7
  6
CONTINUOUS
 70
0
 71
3
 72
11
 73
7
 74
0
 42
0.0000001
 43
0.0000001
 44
0.0000000001
 40
0.0
 40
0.0
 40
0.0
 40
0.0
 40
0.2430603919
 40
0.4893220868
 40
0.7412050543
 40
1.0
 40
1.0
 40
1.0
 40
1.0
 10
172.0947627092
 20
85.0656915157
 30
0.0
 10
172.0947627008
 20
85.7282644659
 30
0.0
 10
172.0023219427
 20
87.0638240315
 30
0.0
 10
171.5967836439
 20
89.048373449
 30
0.0
 10
170.9489386482
 20
91.0115788642
 30
0.0
 10
170.3845673683
 20
92.2863864383
 30
0.0
 10
170.074036767
 20
92.9198303691
 30
0.0
  0
SPLINE
  5
3AA
100
AcDbEntity
  8
0
100
AcDbSpline
 62
7
  6
CONTINUOUS
 70
0
 71
3
 72
11
 73
7
 74
0
 42
0.0000001
 43
0.0000001
 44
0.0000000001
 40
0.0
 40
0.0
 40
0.0
 40
0.0
 40
0.2512009416
 40
0.5000000048
 40
0.7487990516
 40
1.0
 40
1.0
 40
1.0
 40
1.0
 10
155.5964181534
 20
77.2115522967
 30
0.0
 10
155.8839080794
 20
78.506208228
 30
0.0
 10
156.344779303
 20
81.1105436464
 30
0.0
 10
156.5914760094
 20
85.0656913219
 30
0.0
 10
156.3447792983
 20
89.0208390346
 30
0.0
 10
155.8839080551
 20
91.6251743957
 30
0.0
 10
155.5964181534
 20
92.9198303691
 30
0.0
  0
SPLINE
  5
3AB
100
AcDbEntity
  8
0
100
AcDbSpline
 62
7
  6
CONTINUOUS
 70
0
 71
3
 72
11
 73
7
 74
0
 42
0.0000001
 43
0.0000001
 44
0.0000000001
 40
0.0
 40
0.0
 40
0.0
 40
0.0
 40
0.2744880824
 40
0.5375302137
 40
0.7799367003
 40
1.0
 40
1.0
 40
1.0
 40
1.0
 10
155.5717086404
 20
77.2121385564
 30
0.0
 10
155.4619382895
 20
77.21736265
 30
0.0
 10
155.2472841929
 20
77.2541899516
 30
0.0
 10
154.9590032276
 20
77.3828861403
 30
0.0
 10
154.7328248336
 20
77.5716388173
 30
0.0
 10
154.6347941276
 20
77.7345086674
 30
0.0
 10
154.6057828141
 20
77.8177001977
 30
0.0
  0
SPLINE
  5
3AC
100
AcDbEntity
  8
0
100
AcDbSpline
 62
7
  6
CONTINUOUS
 70
0
 71
3
 72
11
 73
7
 74
0
 42
0.0000001
 43
0.0000001
 44
0.0000000001
 40
0.0
 40
0.0
 40
0.0
 40
0.0
 40
0.2503270706
 40
0.4987210679
 40
0.747836508
 40
1.0
 40
1.0
 40
1.0
 40
1.0
 10
154.6057828141
 20
77.8177001977
 30
0.0
 10
154.9004536785
 20
79.1161728059
 30
0.0
 10
155.3743112785
 20
81.7316047107
 30
0.0
 10
155.6281020621
 20
85.7114422443
 30
0.0
 10
155.3730638989
 20
89.7008826857
 30
0.0
 10
154.9000764055
 20
92.3301636509
 30
0.0
 10
154.6057828141
 20
93.6387355715
 30
0.0
  0
SPLINE
  5
3AD
100
AcDbEntity
  8
0
100
AcDbSpline
 62
7
  6
CONTINUOUS
 70
0
 71
3
 72
11
 73
7
 74
0
 42
0.0000001
 43
0.0000001
 44
0.0000000001
 40
0.0
 40
0.0
 40
0.0
 40
0.0
 40
0.255234521
 40
0.5070422753
 40
0.7549413489
 40
1.0
 40
1.0
 40
1.0
 40
1.0
 10
155.5717086404
 20
92.9197695947
 30
0.0
 10
155.4620865379
 20
92.9192287082
 30
0.0
 10
155.2424826625
 20
92.9537034001
 30
0.0
 10
154.9500606761
 20
93.1062323914
 30
0.0
 10
154.7246835823
 20
93.34102066
 30
0.0
 10
154.6336868133
 20
93.5372489311
 30
0.0
 10
154.6057828141
 20
93.6387355715
 30
0.0
  0
SPLINE
  5
3AE
100
AcDbEntity
  8
0
100
AcDbSpline
 62
7
  6
CONTINUOUS
 70
0
 71
3
 72
9
 73
5
 74
0
 42
0.0000001
 43
0.0000001
 44
0.0000000001
 40
0.0
 40
0.0
 40
0.0
 40
0.0
 40
0.4999923951
 40
1.0
 40
1.0
 40
1.0
 40
1.0
 10
156.5095308139
 20
56.0538403061
 30
0.0
 10
156.5095312574
 20
58.6772879977
 30
0.0
 10
156.3467589896
 20
63.9254198681
 30
0.0
 10
155.8859279805
 20
69.1546137113
 30
0.0
 10
155.5964181534
 20
71.7621183785
 30
0.0
  0
SPLINE
  5
3AF
100
AcDbEntity
  8
0
100
AcDbSpline
 62
7
  6
CONTINUOUS
 70
0
 71
3
 72
9
 73
5
 74
0
 42
0.0000001
 43
0.0000001
 44
0.0000000001
 40
0.0
 40
0.0
 40
0.0
 40
0.0
 40
0.4999921485
 40
1.0
 40
1.0
 40
1.0
 40
1.0
 10
155.5436049876
 20
56.0538403061
 30
0.0
 10
155.5436052211
 20
58.6963321033
 30
0.0
 10
155.375814274
 20
63.9826074212
 30
0.0
 10
154.9023913232
 20
69.2489996687
 30
0.0
 10
154.6057828141
 20
71.8748756945
 30
0.0
  0
SPLINE
  5
3B0
100
AcDbEntity
  8
0
100
AcDbSpline
 62
7
  6
CONTINUOUS
 70
0
 71
3
 72
12
 73
8
 74
0
 42
0.0000001
 43
0.0000001
 44
0.0000000001
 40
0.0
 40
0.0
 40
0.0
 40
0.0
 40
0.3304649771
 40
0.6236650805
 40
0.8520740492
 40
0.9365050956
 40
1.0
 40
1.0
 40
1.0
 40
1.0
 10
155.5717086404
 20
71.7614713428
 30
0.0
 10
155.4635682203
 20
71.7557912376
 30
0.0
 10
155.2589394699
 20
71.7521904084
 30
0.0
 10
154.9801740019
 20
71.7692864186
 30
0.0
 10
154.7830816071
 20
71.8010230316
 30
0.0
 10
154.6658353871
 20
71.8396299145
 30
0.0
 10
154.622272922
 20
71.8621875813
 30
0.0
 10
154.6057828141
 20
71.8748756945
 30
0.0
  0
SPLINE
  5
3B1
100
AcDbEntity
  8
0
100
AcDbSpline
 62
7
  6
CONTINUOUS
 70
0
 71
3
 72
9
 73
5
 74
0
 42
0.0000001
 43
0.0000001
 44
0.0000000001
 40
0.0
 40
0.0
 40
0.0
 40
0.0
 40
0.5000076049
 40
1.0
 40
1.0
 40
1.0
 40
1.0
 10
155.5964181534
 20
40.3455622337
 30
0.0
 10
155.8859279821
 20
42.9530669007
 30
0.0
 10
156.3467590063
 20
48.1822607436
 30
0.0
 10
156.5095312373
 20
53.4303926143
 30
0.0
 10
156.5095308139
 20
56.0538403061
 30
0.0
  0
SPLINE
  5
3B2
100
AcDbEntity
  8
0
100
AcDbSpline
 62
7
  6
CONTINUOUS
 70
0
 71
3
 72
12
 73
8
 74
0
 42
0.0000001
 43
0.0000001
 44
0.0000000001
 40
0.0
 40
0.0
 40
0.0
 40
0.0
 40
0.330464978
 40
0.6236650824
 40
0.8520740529
 40
0.9365050975
 40
1.0
 40
1.0
 40
1.0
 40
1.0
 10
155.5717086404
 20
40.3462092695
 30
0.0
 10
155.4635682202
 20
40.3518893743
 30
0.0
 10
155.2589394699
 20
40.3554902021
 30
0.0
 10
154.9801740004
 20
40.3383941942
 30
0.0
 10
154.783081608
 20
40.3066575707
 30
0.0
 10
154.6658353872
 20
40.2680506946
 30
0.0
 10
154.6222729215
 20
40.2454930311
 30
0.0
 10
154.6057828141
 20
40.2328049184
 30
0.0
  0
SPLINE
  5
3B3
100
AcDbEntity
  8
0
100
AcDbSpline
 62
7
  6
CONTINUOUS
 70
0
 71
3
 72
9
 73
5
 74
0
 42
0.0000001
 43
0.0000001
 44
0.0000000001
 40
0.0
 40
0.0
 40
0.0
 40
0.0
 40
0.5000078514
 40
1.0
 40
1.0
 40
1.0
 40
1.0
 10
154.6057828141
 20
40.2328049184
 30
0.0
 10
154.9023913235
 20
42.8586809439
 30
0.0
 10
155.3758142797
 20
48.1250731912
 30
0.0
 10
155.5436052105
 20
53.4113485089
 30
0.0
 10
155.5436049876
 20
56.0538403061
 30
0.0
  0
SPLINE
  5
3B4
100
AcDbEntity
  8
0
100
AcDbSpline
 62
7
  6
CONTINUOUS
 70
0
 71
3
 72
10
 73
6
 74
0
 42
0.0000001
 43
0.0000001
 44
0.0000000001
 40
0.0
 40
0.0
 40
0.0
 40
0.0
 40
0.4999106822
 40
0.7499553437
 40
1.0
 40
1.0
 40
1.0
 40
1.0
 10
170.074036767
 20
40.3455622337
 30
0.0
 10
170.7036616425
 20
42.914275619
 30
0.0
 10
171.4692824679
 20
46.8180500338
 30
0.0
 10
172.0037411786
 20
52.0843314267
 30
0.0
 10
172.0947627091
 20
54.7309915209
 30
0.0
 10
172.0947627092
 20
56.0538403029
 30
0.0
  0
SPLINE
  5
3B5
100
AcDbEntity
  8
0
100
AcDbSpline
 62
7
  6
CONTINUOUS
 70
0
 71
3
 72
10
 73
6
 74
0
 42
0.0000001
 43
0.0000001
 44
0.0000000001
 40
0.0
 40
0.0
 40
0.0
 40
0.0
 40
0.2500446666
 40
0.5000893379
 40
1.0
 40
1.0
 40
1.0
 40
1.0
 10
172.0947627092
 20
56.0538403029
 30
0.0
 10
172.0947627092
 20
57.3766891401
 30
0.0
 10
172.0037411684
 20
60.0233493417
 30
0.0
 10
171.4692824424
 20
65.2896307355
 30
0.0
 10
170.7036616175
 20
69.1934050956
 30
0.0
 10
170.074036767
 20
71.7621183785
 30
0.0
  0
SPLINE
  5
3B6
100
AcDbEntity
  8
0
100
AcDbSpline
 62
7
  6
CONTINUOUS
 70
0
 71
3
 72
11
 73
7
 74
0
 42
0.0000001
 43
0.0000001
 44
0.0000000001
 40
0.0
 40
0.0
 40
0.0
 40
0.0
 40
0.2587949512
 40
0.5106779332
 40
0.7569396182
 40
1.0
 40
1.0
 40
1.0
 40
1.0
 10
170.074036767
 20
19.1878502431
 30
0.0
 10
170.3845673818
 20
19.8212942015
 30
0.0
 10
170.9489387007
 20
21.0961018528
 30
0.0
 10
171.5967836934
 20
23.0593073477
 30
0.0
 10
172.002321975
 20
25.0438567997
 30
0.0
 10
172.0947627092
 20
26.3794163422
 30
0.0
 10
172.0947627092
 20
27.0419892799
 30
0.0
  0
SPLINE
  5
3B7
100
AcDbEntity
  8
0
100
AcDbSpline
 62
7
  6
CONTINUOUS
 70
0
 71
3
 72
11
 73
7
 74
0
 42
0.0000001
 43
0.0000001
 44
0.0000000001
 40
0.0
 40
0.0
 40
0.0
 40
0.0
 40
0.2512009484
 40
0.4999999952
 40
0.7487990583
 40
1.0
 40
1.0
 40
1.0
 40
1.0
 10
155.5964181534
 20
19.1878502431
 30
0.0
 10
155.8839080568
 20
20.482506216
 30
0.0
 10
156.3447792919
 20
23.0868415785
 30
0.0
 10
156.5914760096
 20
27.0419892898
 30
0.0
 10
156.344779309
 20
30.9971369666
 30
0.0
 10
155.8839080776
 20
33.6014723835
 30
0.0
 10
155.5964181534
 20
34.8961283155
 30
0.0
  0
SPLINE
  5
3B8
100
AcDbEntity
  8
0
100
AcDbSpline
 62
7
  6
CONTINUOUS
 70
0
 71
3
 72
11
 73
7
 74
0
 42
0.0000001
 43
0.0000001
 44
0.0000000001
 40
0.0
 40
0.0
 40
0.0
 40
0.0
 40
0.2552345212
 40
0.507042276
 40
0.7549413506
 40
1.0
 40
1.0
 40
1.0
 40
1.0
 10
155.5717086404
 20
19.1879110176
 30
0.0
 10
155.4620865378
 20
19.188451904
 30
0.0
 10
155.2424826622
 20
19.153977212
 30
0.0
 10
154.9500606752
 20
19.0014482202
 30
0.0
 10
154.7246835823
 20
18.7666599511
 30
0.0
 10
154.6336868131
 20
18.5704316805
 30
0.0
 10
154.6057828141
 20
18.4689450408
 30
0.0
  0
SPLINE
  5
3B9
100
AcDbEntity
  8
0
100
AcDbSpline
 62
7
  6
CONTINUOUS
 70
0
 71
3
 72
11
 73
7
 74
0
 42
0.0000001
 43
0.0000001
 44
0.0000000001
 40
0.0
 40
0.0
 40
0.0
 40
0.0
 40
0.252163492
 40
0.5012789321
 40
0.7496729294
 40
1.0
 40
1.0
 40
1.0
 40
1.0
 10
154.6057828141
 20
18.4689450408
 30
0.0
 10
154.9000764059
 20
19.7775169612
 30
0.0
 10
155.3730638986
 20
22.4067979266
 30
0.0
 10
155.6281020623
 20
26.3962383679
 30
0.0
 10
155.3743112785
 20
30.3760759019
 30
0.0
 10
154.900453678
 20
32.9915078067
 30
0.0
 10
154.6057828141
 20
34.2899804151
 30
0.0
  0
SPLINE
  5
3BA
100
AcDbEntity
  8
0
100
AcDbSpline
 62
7
  6
CONTINUOUS
 70
0
 71
3
 72
11
 73
7
 74
0
 42
0.0000001
 43
0.0000001
 44
0.0000000001
 40
0.0
 40
0.0
 40
0.0
 40
0.0
 40
0.2744880829
 40
0.5375302149
 40
0.7799367033
 40
1.0
 40
1.0
 40
1.0
 40
1.0
 10
155.5717086404
 20
34.8955420559
 30
0.0
 10
155.4619382895
 20
34.890317962
 30
0.0
 10
155.2472841932
 20
34.8534906597
 30
0.0
 10
154.9590032267
 20
34.7247944706
 30
0.0
 10
154.7328248378
 20
34.5360417902
 30
0.0
 10
154.6347941272
 20
34.3731719441
 30
0.0
 10
154.6057828141
 20
34.2899804151
 30
0.0
  0
SPLINE
  5
3BB
100
AcDbEntity
  8
0
100
AcDbSpline
 62
7
  6
CONTINUOUS
 70
0
 71
3
 72
11
 73
7
 74
0
 42
0.0000001
 43
0.0000001
 44
0.0000000001
 40
0.0
 40
0.0
 40
0.0
 40
0.0
 40
0.2430603919
 40
0.4893220868
 40
0.7412050542
 40
1.0
 40
1.0
 40
1.0
 40
1.0
 10
172.0947627092
 20
27.0419892799
 30
0.0
 10
172.0947627091
 20
27.704562245
 30
0.0
 10
172.0023219636
 20
29.0401218414
 30
0.0
 10
171.5967836699
 20
31.0246713059
 30
0.0
 10
170.9489386668
 20
32.9878767673
 30
0.0
 10
170.3845673754
 20
34.2626843704
 30
0.0
 10
170.074036767
 20
34.8961283155
 30
0.0
  0
SPLINE
  5
3BC
100
AcDbEntity
  8
GEOM
100
AcDbSpline
 62
7
  6
CONTINUOUS
 70
0
 71
3
 72
9
 73
5
 74
0
 42
0.0000001
 43
0.0000001
 44
0.0000000001
 40
0.0
 40
0.0
 40
0.0
 40
0.0
 40
0.508868369
 40
1.0
 40
1.0
 40
1.0
 40
1.0
 10
63.971151084
 20
19.7963009062
 30
0.0
 10
63.5309136722
 20
20.7565873441
 30
0.0
 10
62.7828617093
 20
22.7019850077
 30
0.0
 10
62.3835500614
 20
24.7546042951
 30
0.0
 10
62.2947627092
 20
25.7702998773
 30
0.0
  0
SPLINE
  5
3BD
100
AcDbEntity
  8
GEOM
100
AcDbSpline
 62
7
  6
CONTINUOUS
 70
0
 71
3
 72
9
 73
5
 74
0
 42
0.0000001
 43
0.0000001
 44
0.0000000001
 40
0.0
 40
0.0
 40
0.0
 40
0.0
 40
0.4911316372
 40
1.0
 40
1.0
 40
1.0
 40
1.0
 10
62.2947627092
 20
28.3136786813
 30
0.0
 10
62.3835500625
 20
29.3293742769
 30
0.0
 10
62.7828616853
 20
31.3819935715
 30
0.0
 10
63.5309136775
 20
33.327391226
 30
0.0
 10
63.971151084
 20
34.2876776524
 30
0.0
  0
SPLINE
  5
3BE
100
AcDbEntity
  8
GEOM
100
AcDbSpline
 62
7
  6
CONTINUOUS
 70
0
 71
3
 72
10
 73
6
 74
0
 42
0.0000001
 43
0.0000001
 44
0.0000000001
 40
0.0
 40
0.0
 40
0.0
 40
0.0
 40
0.2435842919
 40
0.4901768966
 40
1.0
 40
1.0
 40
1.0
 40
1.0
 10
80.2279001
 20
27.0428628825
 30
0.0
 10
80.2279928809
 20
27.6535675966
 30
0.0
 10
80.1468894679
 20
28.8841769301
 30
0.0
 10
79.659850155
 20
31.3489108161
 30
0.0
 10
78.9722801759
 20
33.1337027822
 30
0.0
 10
78.4225915925
 20
34.2876776524
 30
0.0
  0
SPLINE
  5
3BF
100
AcDbEntity
  8
GEOM
100
AcDbSpline
 62
7
  6
CONTINUOUS
 70
0
 71
3
 72
10
 73
6
 74
0
 42
0.0000001
 43
0.0000001
 44
0.0000000001
 40
0.0
 40
0.0
 40
0.0
 40
0.0
 40
0.5098079911
 40
0.7564030042
 40
1.0
 40
1.0
 40
1.0
 40
1.0
 10
78.4225915925
 20
19.7963009062
 30
0.0
 10
78.9723935656
 20
20.9505043754
 30
0.0
 10
79.6603820557
 20
22.7356271793
 30
0.0
 10
80.1467422558
 20
25.2010828194
 30
0.0
 10
80.2279589722
 20
26.4319862964
 30
0.0
 10
80.2279001
 20
27.0428628825
 30
0.0
  0
SPLINE
  5
3C0
100
AcDbEntity
  8
GEOM
100
AcDbSpline
 62
7
  6
CONTINUOUS
 70
0
 71
3
 72
9
 73
5
 74
0
 42
0.0000001
 43
0.0000001
 44
0.0000000001
 40
0.0
 40
0.0
 40
0.0
 40
0.0
 40
0.5000180725
 40
1.0
 40
1.0
 40
1.0
 40
1.0
 10
63.971151084
 20
41.5624635599
 30
0.0
 10
63.5213896489
 20
43.5245857915
 30
0.0
 10
62.7678160853
 20
47.4844027997
 30
0.0
 10
62.3826563865
 20
51.4995169791
 30
0.0
 10
62.2947627092
 20
53.5104615021
 30
0.0
  0
SPLINE
  5
3C1
100
AcDbEntity
  8
GEOM
100
AcDbSpline
 62
7
  6
CONTINUOUS
 70
0
 71
3
 72
9
 73
5
 74
0
 42
0.0000001
 43
0.0000001
 44
0.0000000001
 40
0.0
 40
0.0
 40
0.0
 40
0.0
 40
0.4999819342
 40
1.0
 40
1.0
 40
1.0
 40
1.0
 10
62.2947627092
 20
58.5972191101
 30
0.0
 10
62.3826563877
 20
60.6081636606
 30
0.0
 10
62.7678160598
 20
64.6232778439
 30
0.0
 10
63.5213896549
 20
68.5830948471
 30
0.0
 10
63.971151084
 20
70.5452170523
 30
0.0
  0
SPLINE
  5
3C2
100
AcDbEntity
  8
GEOM
100
AcDbSpline
 62
7
  6
CONTINUOUS
 70
0
 71
3
 72
9
 73
5
 74
0
 42
0.0000001
 43
0.0000001
 44
0.0000000001
 40
0.0
 40
0.0
 40
0.0
 40
0.0
 40
0.4999902255
 40
1.0
 40
1.0
 40
1.0
 40
1.0
 10
80.0636124469
 20
60.341684813
 30
0.0
 10
79.931851703
 20
62.0603918459
 30
0.0
 10
79.51215549
 20
65.4872777608
 30
0.0
 10
78.8219860203
 20
68.8683058435
 30
0.0
 10
78.4225915925
 20
70.5452170523
 30
0.0
  0
SPLINE
  5
3C3
100
AcDbEntity
  8
GEOM
100
AcDbSpline
 62
7
  6
CONTINUOUS
 70
0
 71
3
 72
11
 73
7
 74
0
 42
0.0000001
 43
0.0000001
 44
0.0000000001
 40
0.0
 40
0.0
 40
0.0
 40
0.0
 40
0.2500098528
 40
0.5000148313
 40
0.7500120051
 40
1.0
 40
1.0
 40
1.0
 40
1.0
 10
78.4225915925
 20
41.5624635599
 30
0.0
 10
78.7727666185
 20
43.0327304396
 30
0.0
 10
79.3896124756
 20
45.994183332
 30
0.0
 10
80.0103722537
 20
50.4895945071
 30
0.0
 10
80.2812703744
 20
55.0201864314
 30
0.0
 10
80.2132114838
 20
58.0459776129
 30
0.0
 10
80.1185233134
 20
59.5542686952
 30
0.0
  0
SPLINE
  5
3C4
100
AcDbEntity
  8
GEOM
100
AcDbSpline
 62
7
  6
CONTINUOUS
 70
0
 71
3
 72
9
 73
5
 74
0
 42
0.0000001
 43
0.0000001
 44
0.0000000001
 40
0.0
 40
0.0
 40
0.0
 40
0.0
 40
0.508868369
 40
1.0
 40
1.0
 40
1.0
 40
1.0
 10
63.971151084
 20
77.8200029598
 30
0.0
 10
63.5309136722
 20
78.7802893976
 30
0.0
 10
62.7828617093
 20
80.7256870613
 30
0.0
 10
62.3835500614
 20
82.7783063487
 30
0.0
 10
62.2947627092
 20
83.7940019309
 30
0.0
  0
SPLINE
  5
3C5
100
AcDbEntity
  8
GEOM
100
AcDbSpline
 62
7
  6
CONTINUOUS
 70
0
 71
3
 72
9
 73
5
 74
0
 42
0.0000001
 43
0.0000001
 44
0.0000000001
 40
0.0
 40
0.0
 40
0.0
 40
0.0
 40
0.4911316372
 40
1.0
 40
1.0
 40
1.0
 40
1.0
 10
62.2947627092
 20
86.3373807349
 30
0.0
 10
62.3835500625
 20
87.3530763305
 30
0.0
 10
62.7828616853
 20
89.4056956251
 30
0.0
 10
63.5309136775
 20
91.3510932796
 30
0.0
 10
63.971151084
 20
92.311379706
 30
0.0
  0
SPLINE
  5
3C6
100
AcDbEntity
  8
GEOM
100
AcDbSpline
 62
7
  6
CONTINUOUS
 70
0
 71
3
 72
9
 73
5
 74
0
 42
0.0000001
 43
0.0000001
 44
0.0000000001
 40
0.0
 40
0.0
 40
0.0
 40
0.0
 40
0.4918773595
 40
1.0
 40
1.0
 40
1.0
 40
1.0
 10
80.0004803829
 20
87.5884829737
 30
0.0
 10
79.8556495992
 20
88.3938221753
 30
0.0
 10
79.4263523575
 20
90.0085040372
 30
0.0
 10
78.7861042977
 20
91.5482529586
 30
0.0
 10
78.4225915925
 20
92.311379706
 30
0.0
  0
SPLINE
  5
3C7
100
AcDbEntity
  8
GEOM
100
AcDbSpline
 62
7
  6
CONTINUOUS
 70
0
 71
3
 72
10
 73
6
 74
0
 42
0.0000001
 43
0.0000001
 44
0.0000000001
 40
0.0
 40
0.0
 40
0.0
 40
0.0
 40
0.509826586
 40
0.7564133424
 40
1.0
 40
1.0
 40
1.0
 40
1.0
 10
78.4225915925
 20
77.8200029598
 30
0.0
 10
78.9723507508
 20
78.9741277235
 30
0.0
 10
79.6603386941
 20
80.7590939262
 30
0.0
 10
80.1465413176
 20
83.2242416796
 30
0.0
 10
80.2287341461
 20
84.4549056955
 30
0.0
 10
80.2287374168
 20
85.0656913329
 30
0.0
  0
SPLINE
  5
3C8
100
AcDbEntity
  8
GEOM
100
AcDbSpline
 62
7
  6
CONTINUOUS
 70
0
 71
3
 72
8
 73
4
 74
0
 42
0.0000001
 43
0.0000001
 44
0.0000000001
 40
0.0
 40
0.0
 40
0.0
 40
0.0
 40
1.0
 40
1.0
 40
1.0
 40
1.0
 10
81.0947610398
 20
63.1821199608
 30
0.0
 10
80.797682105
 20
65.6532725349
 30
0.0
 10
80.3530440215
 20
68.1093431341
 30
0.0
 10
79.7957246035
 20
70.535089618
 30
0.0
  0
SPLINE
  5
3C9
100
AcDbEntity
  8
GEOM
100
AcDbSpline
 62
7
  6
CONTINUOUS
 70
0
 71
3
 72
9
 73
5
 74
0
 42
0.0000001
 43
0.0000001
 44
0.0000000001
 40
0.0
 40
0.0
 40
0.0
 40
0.0
 40
0.2552145989
 40
1.0
 40
1.0
 40
1.0
 40
1.0
 10
79.7957246035
 20
77.1198745625
 30
0.0
 10
79.9341619464
 20
77.4252195697
 30
0.0
 10
80.4529301466
 20
78.6319666496
 30
0.0
 10
80.8677624506
 20
79.885472844
 30
0.0
 10
81.0947615471
 20
80.837159912
 30
0.0
  0
SPLINE
  5
3CA
100
AcDbEntity
  8
GEOM
100
AcDbSpline
 62
7
  6
CONTINUOUS
 70
0
 71
3
 72
9
 73
5
 74
0
 42
0.0000001
 43
0.0000001
 44
0.0000000001
 40
0.0
 40
0.0
 40
0.0
 40
0.0
 40
0.2547183096
 40
1.0
 40
1.0
 40
1.0
 40
1.0
 10
79.7957246035
 20
20.5065567379
 30
0.0
 10
79.934318314
 20
20.8040987314
 30
0.0
 10
80.4545627058
 20
21.9829255872
 30
0.0
 10
80.8685872015
 20
23.2106689773
 30
0.0
 10
81.0947595039
 20
24.1440473742
 30
0.0
  0
SPLINE
  5
3CB
100
AcDbEntity
  8
GEOM
100
AcDbSpline
 62
7
  6
CONTINUOUS
 70
0
 71
3
 72
8
 73
4
 74
0
 42
0.0000001
 43
0.0000001
 44
0.0000000001
 40
0.0
 40
0.0
 40
0.0
 40
0.0
 40
1.0
 40
1.0
 40
1.0
 40
1.0
 10
79.7957246035
 20
41.5725909942
 30
0.0
 10
80.3530414336
 20
43.9983423813
 30
0.0
 10
80.7976691281
 20
46.4544180996
 30
0.0
 10
81.0947628292
 20
48.9255731278
 30
0.0
  0
SPLINE
  5
3CC
100
AcDbEntity
  8
GEOM
100
AcDbSpline
 62
7
  6
CONTINUOUS
 70
0
 71
3
 72
9
 73
5
 74
0
 42
0.0000001
 43
0.0000001
 44
0.0000000001
 40
0.0
 40
0.0
 40
0.0
 40
0.0
 40
0.4934080984
 40
1.0
 40
1.0
 40
1.0
 40
1.0
 10
81.0947619706
 20
31.267885322
 30
0.0
 10
80.9442547706
 20
31.8989825601
 30
0.0
 10
80.5677466016
 20
33.1617638968
 30
0.0
 10
80.0707853168
 20
34.3811158519
 30
0.0
 10
79.7957246035
 20
34.9878060498
 30
0.0
  0
SPLINE
  5
3CD
100
AcDbEntity
  8
GEOM
100
AcDbSpline
 62
7
  6
CONTINUOUS
 70
0
 71
3
 72
9
 73
5
 74
0
 42
0.0000001
 43
0.0000001
 44
0.0000000001
 40
0.0
 40
0.0
 40
0.0
 40
0.0
 40
0.2459631248
 40
1.0
 40
1.0
 40
1.0
 40
1.0
 10
81.0947624388
 20
87.965432816
 30
0.0
 10
81.0201169715
 20
88.2733596312
 30
0.0
 10
80.680489502
 20
89.5165056122
 30
0.0
 10
80.2058578679
 20
90.72062105
 30
0.0
 10
79.7957246035
 20
91.6011238743
 30
0.0
  0
SPLINE
  5
3CE
100
AcDbEntity
  8
GEOM
100
AcDbSpline
 62
7
  6
CONTINUOUS
 70
0
 71
3
 72
9
 73
5
 74
0
 42
0.0000001
 43
0.0000001
 44
0.0000000001
 40
0.0
 40
0.0
 40
0.0
 40
0.0
 40
0.4997664278
 40
1.0
 40
1.0
 40
1.0
 40
1.0
 10
104.5993412449
 20
153.8467335249
 30
0.0
 10
104.6923195302
 20
153.755320407
 30
0.0
 10
104.8441072339
 20
153.5337208235
 30
0.0
 10
104.89727141
 20
153.2701377304
 30
0.0
 10
104.8972721099
 20
153.1396267437
 30
0.0
  0
SPLINE
  5
3CF
100
AcDbEntity
  8
GEOM
100
AcDbSpline
 62
7
  6
CONTINUOUS
 70
0
 71
3
 72
9
 73
5
 74
0
 42
0.0000001
 43
0.0000001
 44
0.0000000001
 40
0.0
 40
0.0
 40
0.0
 40
0.0
 40
0.5000463349
 40
1.0
 40
1.0
 40
1.0
 40
1.0
 10
104.1166657034
 20
154.7180538685
 30
0.0
 10
104.1166251982
 20
154.5865030772
 30
0.0
 10
104.1734560317
 20
154.3204884476
 30
0.0
 10
104.3323194249
 20
154.1009300185
 30
0.0
 10
104.428247892
 20
154.0109470873
 30
0.0
  0
SPLINE
  5
3D0
100
AcDbEntity
  8
GEOM
100
AcDbSpline
 62
7
  6
CONTINUOUS
 70
0
 71
3
 72
9
 73
5
 74
0
 42
0.0000001
 43
0.0000001
 44
0.0000000001
 40
0.0
 40
0.0
 40
0.0
 40
0.0
 40
0.4998981749
 40
1.0
 40
1.0
 40
1.0
 40
1.0
 10
103.8282635477
 20
154.7180538685
 30
0.0
 10
103.828164156
 20
154.54777538
 30
0.0
 10
103.8998552728
 20
154.2035138196
 30
0.0
 10
104.1018526787
 20
153.9167245416
 30
0.0
 10
104.2247988247
 20
153.798815053
 30
0.0
  0
LINE
  5
3D1
100
AcDbEntity
  8
GEOM
100
AcDbLine
 62
7
  6
CONTINUOUS
 10
104.2247988247
 20
153.798815053
 11
104.3961133927
 21
153.6346014906
  0
SPLINE
  5
3D2
100
AcDbEntity
  8
GEOM
100
AcDbSpline
 62
7
  6
CONTINUOUS
 70
0
 71
3
 72
9
 73
5
 74
0
 42
0.0000001
 43
0.0000001
 44
0.0000000001
 40
0.0
 40
0.0
 40
0.0
 40
0.0
 40
0.5001024868
 40
1.0
 40
1.0
 40
1.0
 40
1.0
 10
104.3961133927
 20
153.6346014906
 30
0.0
 10
104.4623828939
 20
153.57111394
 30
0.0
 10
104.5715085797
 20
153.416841348
 30
0.0
 10
104.6102713159
 20
153.2313623055
 30
0.0
 10
104.6102723311
 20
153.1396267437
 30
0.0
  0
SPLINE
  5
3D3
100
AcDbEntity
  8
GEOM
100
AcDbSpline
 62
7
  6
CONTINUOUS
 70
0
 71
3
 72
14
 73
10
 74
0
 42
0.0000001
 43
0.0000001
 44
0.0000000001
 40
0.0
 40
0.0
 40
0.0
 40
0.0
 40
0.338249495
 40
0.5001817405
 40
0.6488936608
 40
0.7727415998
 40
0.8609720757
 40
0.9252746067
 40
1.0
 40
1.0
 40
1.0
 40
1.0
 10
104.6102723311
 20
152.9271943681
 30
0.0
 10
104.6250813122
 20
152.8844472015
 30
0.0
 10
104.6443682469
 20
152.8201520551
 30
0.0
 10
104.6607021175
 20
152.7349463464
 30
0.0
 10
104.666213977
 20
152.6766873413
 30
0.0
 10
104.6631696995
 20
152.6289764725
 30
0.0
 10
104.6510947579
 20
152.5914645172
 30
0.0
 10
104.6202129358
 20
152.5771823279
 30
0.0
 10
104.6018374256
 20
152.5856549534
 30
0.0
 10
104.5931817803
 20
152.5906514407
 30
0.0
  0
SPLINE
  5
3D4
100
AcDbEntity
  8
GEOM
100
AcDbSpline
 62
7
  6
CONTINUOUS
 70
0
 71
3
 72
9
 73
5
 74
0
 42
0.0000001
 43
0.0000001
 44
0.0000000001
 40
0.0
 40
0.0
 40
0.0
 40
0.0
 40
0.4953796963
 40
1.0
 40
1.0
 40
1.0
 40
1.0
 10
104.593181587
 20
152.5906511058
 30
0.0
 10
104.6370471962
 20
152.5653269869
 30
0.0
 10
104.712520165
 20
152.4876817737
 30
0.0
 10
104.7358188652
 20
152.3824083912
 30
0.0
 10
104.7340294605
 20
152.3308438196
 30
0.0
  0
SPLINE
  5
3D5
100
AcDbEntity
  8
GEOM
100
AcDbSpline
 62
7
  6
CONTINUOUS
 70
0
 71
3
 72
9
 73
5
 74
0
 42
0.0000001
 43
0.0000001
 44
0.0000000001
 40
0.0
 40
0.0
 40
0.0
 40
0.0
 40
0.4932420922
 40
1.0
 40
1.0
 40
1.0
 40
1.0
 10
79.7957246035
 20
91.6011238743
 30
0.0
 10
79.6663026941
 20
91.8173781511
 30
0.0
 10
79.2781331766
 20
92.1905479857
 30
0.0
 10
78.7555904326
 20
92.3155438232
 30
0.0
 10
78.4966864978
 20
92.3118949634
 30
0.0
  0
SPLINE
  5
3D6
100
AcDbEntity
  8
GEOM
100
AcDbSpline
 62
7
  6
CONTINUOUS
 70
0
 71
3
 72
10
 73
6
 74
0
 42
0.0000001
 43
0.0000001
 44
0.0000000001
 40
0.0
 40
0.0
 40
0.0
 40
0.0
 40
0.5577258367
 40
0.7958134955
 40
1.0
 40
1.0
 40
1.0
 40
1.0
 10
80.7029070998
 20
86.2593949324
 30
0.0
 10
80.5939156563
 20
86.3314783629
 30
0.0
 10
80.4334808851
 20
86.4268853786
 30
0.0
 10
80.2427506432
 20
86.5631203334
 30
0.0
 10
80.1663450781
 20
86.6342696255
 30
0.0
 10
80.1359549573
 20
86.6712166029
 30
0.0
  0
SPLINE
  5
3D7
100
AcDbEntity
  8
GEOM
100
AcDbSpline
 62
7
  6
CONTINUOUS
 70
0
 71
3
 72
9
 73
5
 74
0
 42
0.0000001
 43
0.0000001
 44
0.0000000001
 40
0.0
 40
0.0
 40
0.0
 40
0.0
 40
0.2352198414
 40
1.0
 40
1.0
 40
1.0
 40
1.0
 10
80.7029066122
 20
86.2593938083
 30
0.0
 10
80.6687711185
 20
86.1646392736
 30
0.0
 10
80.5193149192
 20
85.7633634701
 30
0.0
 10
80.3563641372
 20
85.3672576889
 30
0.0
 10
80.2287374168
 20
85.0656913329
 30
0.0
  0
SPLINE
  5
3D8
100
AcDbEntity
  8
GEOM
100
AcDbSpline
 62
7
  6
CONTINUOUS
 70
0
 71
3
 72
9
 73
5
 74
0
 42
0.0000001
 43
0.0000001
 44
0.0000000001
 40
0.0
 40
0.0
 40
0.0
 40
0.0
 40
0.470749254
 40
1.0
 40
1.0
 40
1.0
 40
1.0
 10
80.2287374168
 20
85.0656913329
 30
0.0
 10
80.4940135591
 20
84.4388603387
 30
0.0
 10
80.9347863663
 20
83.0525322002
 30
0.0
 10
81.0947664166
 20
81.6024623327
 30
0.0
 10
81.0947615471
 20
80.8372224242
 30
0.0
  0
SPLINE
  5
3D9
100
AcDbEntity
  8
GEOM
100
AcDbSpline
 62
7
  6
CONTINUOUS
 70
0
 71
3
 72
10
 73
6
 74
0
 42
0.0000001
 43
0.0000001
 44
0.0000000001
 40
0.0
 40
0.0
 40
0.0
 40
0.0
 40
0.1836818896
 40
0.4208619594
 40
1.0
 40
1.0
 40
1.0
 40
1.0
 10
79.7957246035
 20
70.535089618
 30
0.0
 10
79.7184674086
 20
70.5552161014
 30
0.0
 10
79.5365805801
 20
70.5815988089
 30
0.0
 10
79.102228291
 20
70.6009122093
 30
0.0
 10
78.7468253323
 20
70.5774751485
 30
0.0
 10
78.4966864978
 20
70.5493288087
 30
0.0
  0
SPLINE
  5
3DA
100
AcDbEntity
  8
GEOM
100
AcDbSpline
 62
7
  6
CONTINUOUS
 70
0
 71
3
 72
9
 73
5
 74
0
 42
0.0000001
 43
0.0000001
 44
0.0000000001
 40
0.0
 40
0.0
 40
0.0
 40
0.0
 40
0.4990863607
 40
1.0
 40
1.0
 40
1.0
 40
1.0
 10
80.6399338269
 20
58.2195503268
 30
0.0
 10
80.511555517
 20
58.4219251605
 30
0.0
 10
80.2865717226
 20
58.8498867682
 30
0.0
 10
80.1580246087
 20
59.3170668479
 30
0.0
 10
80.1185117848
 20
59.5543359975
 30
0.0
  0
SPLINE
  5
3DB
100
AcDbEntity
  8
GEOM
100
AcDbSpline
 62
7
  6
CONTINUOUS
 70
0
 71
3
 72
15
 73
11
 74
0
 42
0.0000001
 43
0.0000001
 44
0.0000000001
 40
0.0
 40
0.0
 40
0.0
 40
0.0
 40
0.1255844128
 40
0.2513205567
 40
0.3770540524
 40
0.5025931242
 40
0.6278215115
 40
0.752570535
 40
0.8766827959
 40
1.0
 40
1.0
 40
1.0
 40
1.0
 10
80.6399331676
 20
58.2195503013
 30
0.0
 10
80.5756198557
 20
57.8319275709
 30
0.0
 10
80.4519710501
 20
57.0619679262
 30
0.0
 10
80.1478719599
 20
55.8874646958
 30
0.0
 10
80.5283071335
 20
54.7366020025
 30
0.0
 10
80.6875718706
 20
53.5738517323
 30
0.0
 10
80.865899812
 20
52.411233307
 30
0.0
 10
80.9907259132
 20
51.2474083339
 30
0.0
 10
81.0744438632
 20
50.0856473962
 30
0.0
 10
81.0947642493
 20
49.3113958741
 30
0.0
 10
81.0947628292
 20
48.9255675428
 30
0.0
  0
SPLINE
  5
3DC
100
AcDbEntity
  8
GEOM
100
AcDbSpline
 62
7
  6
CONTINUOUS
 70
0
 71
3
 72
9
 73
5
 74
0
 42
0.0000001
 43
0.0000001
 44
0.0000000001
 40
0.0
 40
0.0
 40
0.0
 40
0.0
 40
0.5292604762
 40
1.0
 40
1.0
 40
1.0
 40
1.0
 10
81.0947619713
 20
31.2705056254
 30
0.0
 10
81.0947896946
 20
30.5052753693
 30
0.0
 10
80.9348867743
 20
29.0552369227
 30
0.0
 10
80.4940012002
 20
27.6689718154
 30
0.0
 10
80.2286204773
 20
27.0422232793
 30
0.0
  0
SPLINE
  5
3DD
100
AcDbEntity
  8
GEOM
100
AcDbSpline
 62
7
  6
CONTINUOUS
 70
0
 71
3
 72
9
 73
5
 74
0
 42
0.0000001
 43
0.0000001
 44
0.0000000001
 40
0.0
 40
0.0
 40
0.0
 40
0.0
 40
0.476966174
 40
1.0
 40
1.0
 40
1.0
 40
1.0
 10
79.7957246035
 20
34.9878060498
 30
0.0
 10
79.6572098131
 20
34.7924430691
 30
0.0
 10
79.2524247152
 20
34.4626032005
 30
0.0
 10
78.7580390716
 20
34.3169986908
 30
0.0
 10
78.4966864978
 20
34.2912741015
 30
0.0
  0
SPLINE
  5
3DE
100
AcDbEntity
  8
GEOM
100
AcDbSpline
 62
7
  6
CONTINUOUS
 70
0
 71
3
 72
11
 73
7
 74
0
 42
0.0000001
 43
0.0000001
 44
0.0000000001
 40
0.0
 40
0.0
 40
0.0
 40
0.0
 40
0.1975722832
 40
0.4307099093
 40
0.6989828708
 40
1.0
 40
1.0
 40
1.0
 40
1.0
 10
81.0947595093
 20
24.1422773224
 30
0.0
 10
81.0947579147
 20
24.3426015103
 30
0.0
 10
81.0354303209
 20
24.778739141
 30
0.0
 10
80.8451101169
 20
25.4620041316
 30
0.0
 10
80.5674098102
 20
26.2273827531
 30
0.0
 10
80.3475951224
 20
26.7611572693
 30
0.0
 10
80.2286204773
 20
27.0422232793
 30
0.0
  0
SPLINE
  5
3DF
100
AcDbEntity
  8
GEOM
100
AcDbSpline
 62
7
  6
CONTINUOUS
 70
0
 71
3
 72
49
 73
45
 74
0
 42
0.0000001
 43
0.0000001
 44
0.0000000001
 40
0.0
 40
0.0
 40
0.0
 40
0.0
 40
0.0001798543
 40
0.0007150434
 40
0.0016035073
 40
0.0028431869
 40
0.0044320237
 40
0.0063679604
 40
0.0112707728
 40
0.0175142806
 40
0.0250514608
 40
0.0338351835
 40
0.0438131811
 40
0.0549262435
 40
0.0671148893
 40
0.0944819599
 40
0.1254435093
 40
0.1595437363
 40
0.1963658448
 40
0.2355161835
 40
0.3193673834
 40
0.408392802
 40
0.4999999623
 40
0.591607172
 40
0.6806326547
 40
0.7644838414
 40
0.8036341653
 40
0.840456276
 40
0.8745565117
 40
0.9055180638
 40
0.9328851327
 40
0.9450737758
 40
0.9561868351
 40
0.9661648297
 40
0.9749485495
 40
0.9824857262
 40
0.9887292333
 40
0.9936320506
 40
0.9955679876
 40
0.9971568223
 40
0.9983964985
 40
0.9992849589
 40
0.9998201457
 40
1.0
 40
1.0
 40
1.0
 40
1.0
 10
99.3447627092
 20
98.5538403061
 30
0.0
 10
99.3469292342
 20
98.553952752
 30
0.0
 10
99.3548507635
 20
98.5492959382
 30
0.0
 10
99.373440189
 20
98.5450016344
 30
0.0
 10
99.4037705646
 20
98.5337773428
 30
0.0
 10
99.446368785
 20
98.5200663436
 30
0.0
 10
99.5008839042
 20
98.5017700486
 30
0.0
 10
99.5973953545
 20
98.4698928893
 30
0.0
 10
99.7472572596
 20
98.4204377388
 30
0.0
 10
99.9615033125
 20
98.350538027
 30
0.0
 10
100.2205602296
 20
98.2670462013
 30
0.0
 10
100.5228949109
 20
98.1710021217
 30
0.0
 10
100.8668551846
 20
98.0635357402
 30
0.0
 10
101.2506888538
 20
97.9459887645
 30
0.0
 10
101.8361942542
 20
97.7707013824
 30
0.0
 10
102.6536563827
 20
97.5354886032
 30
0.0
 10
103.7300631934
 20
97.2448473485
 30
0.0
 10
104.922466372
 20
96.9470521775
 30
0.0
 10
106.2173374412
 20
96.6529860097
 30
0.0
 10
108.1071206039
 20
96.2711070317
 30
0.0
 10
110.6336741611
 20
95.865067859
 30
0.0
 10
113.810326306
 20
95.5486461448
 30
0.0
 10
117.0947619359
 20
95.4377305617
 30
0.0
 10
120.3791983279
 20
95.5486463083
 30
0.0
 10
123.5558517
 20
95.8650678985
 30
0.0
 10
126.0824056995
 20
96.2711071055
 30
0.0
 10
127.9721885336
 20
96.6529861361
 30
0.0
 10
129.2670595514
 20
96.9470523153
 30
0.0
 10
130.4594628906
 20
97.2448475189
 30
0.0
 10
131.535869815
 20
97.5354888036
 30
0.0
 10
132.3533319092
 20
97.7707016287
 30
0.0
 10
132.9388372233
 20
97.9459889791
 30
0.0
 10
133.3226707985
 20
98.0635358977
 30
0.0
 10
133.6666309737
 20
98.1710022267
 30
0.0
 10
133.9689655434
 20
98.2670462947
 30
0.0
 10
134.2280223778
 20
98.3505380778
 30
0.0
 10
134.4422684418
 20
98.4204378493
 30
0.0
 10
134.5921303647
 20
98.4698929719
 30
0.0
 10
134.6886418561
 20
98.5017703524
 30
0.0
 10
134.7431568981
 20
98.5200661986
 30
0.0
 10
134.7857550821
 20
98.5337782052
 30
0.0
 10
134.8160852305
 20
98.5450000034
 30
0.0
 10
134.8346748265
 20
98.5492985537
 30
0.0
 10
134.8425960887
 20
98.5539509015
 30
0.0
 10
134.8447627092
 20
98.5538403061
 30
0.0
  0
SPLINE
  5
3E0
100
AcDbEntity
  8
GEOM
100
AcDbSpline
 62
7
  6
CONTINUOUS
 70
0
 71
3
 72
10
 73
6
 74
0
 42
0.0000001
 43
0.0000001
 44
0.0000000001
 40
0.0
 40
0.0
 40
0.0
 40
0.0
 40
0.2124428373
 40
0.4496509144
 40
1.0
 40
1.0
 40
1.0
 40
1.0
 10
81.0947624388
 20
87.965429079
 30
0.0
 10
81.0947666249
 20
87.8409728868
 30
0.0
 10
81.0719312349
 20
87.5774982299
 30
0.0
 10
80.9560455498
 20
87.0026082592
 30
0.0
 10
80.8121818211
 20
86.5627238748
 30
0.0
 10
80.7029066122
 20
86.2593938083
 30
0.0
  0
SPLINE
  5
3E1
100
AcDbEntity
  8
GEOM
100
AcDbSpline
 62
7
  6
CONTINUOUS
 70
0
 71
3
 72
12
 73
8
 74
0
 42
0.0000001
 43
0.0000001
 44
0.0000000001
 40
0.0
 40
0.0
 40
0.0
 40
0.0
 40
0.1121029444
 40
0.207634336
 40
0.3295716186
 40
0.6387387794
 40
1.0
 40
1.0
 40
1.0
 40
1.0
 10
103.962726383
 20
160.3538403061
 30
0.0
 10
103.9866239482
 20
160.3538418459
 30
0.0
 10
104.0203241754
 20
160.3104415645
 30
0.0
 10
104.0474582612
 20
160.2492591771
 30
0.0
 10
104.0815757548
 20
160.1404878029
 30
0.0
 10
104.1088765518
 20
159.9741077806
 30
0.0
 10
104.1166717387
 20
159.8308522313
 30
0.0
 10
104.1166657034
 20
159.7538403061
 30
0.0
  0
SPLINE
  5
3E2
100
AcDbEntity
  8
GEOM
100
AcDbSpline
 62
7
  6
CONTINUOUS
 70
0
 71
3
 72
9
 73
5
 74
0
 42
0.0000001
 43
0.0000001
 44
0.0000000001
 40
0.0
 40
0.0
 40
0.0
 40
0.0
 40
0.4973243379
 40
1.0
 40
1.0
 40
1.0
 40
1.0
 10
81.0947610398
 20
63.1820579846
 30
0.0
 10
81.0947578826
 20
62.3552686022
 30
0.0
 10
81.0014867652
 20
60.6923761187
 30
0.0
 10
80.7767179322
 20
59.0439656872
 30
0.0
 10
80.6399331676
 20
58.2195503013
 30
0.0
  0
SPLINE
  5
3E3
100
AcDbEntity
  8
GEOM
100
AcDbSpline
 62
7
  6
CONTINUOUS
 70
0
 71
3
 72
10
 73
6
 74
0
 42
0.0000001
 43
0.0000001
 44
0.0000000001
 40
0.0
 40
0.0
 40
0.0
 40
0.0
 40
0.3713656876
 40
0.6611962625
 40
1.0
 40
1.0
 40
1.0
 40
1.0
 10
103.6709033535
 20
160.0538403061
 30
0.0
 10
103.7153689597
 20
160.0538412221
 30
0.0
 10
103.7805461107
 20
159.9803843006
 30
0.0
 10
103.8187657057
 20
159.8709775893
 30
0.0
 10
103.828266465
 20
159.7944070952
 30
0.0
 10
103.8282635477
 20
159.7538403061
 30
0.0
  0
SPLINE
  5
3E4
100
AcDbEntity
  8
GEOM
100
AcDbSpline
 62
7
  6
CONTINUOUS
 70
0
 71
3
 72
9
 73
5
 74
0
 42
0.0000001
 43
0.0000001
 44
0.0000000001
 40
0.0
 40
0.0
 40
0.0
 40
0.0
 40
0.4951140531
 40
1.0
 40
1.0
 40
1.0
 40
1.0
 10
103.6709033535
 20
160.0538403061
 30
0.0
 10
103.7456676295
 20
160.0538403061
 30
0.0
 10
103.9024884937
 20
160.119823846
 30
0.0
 10
103.9627263831
 20
160.2776004337
 30
0.0
 10
103.962726383
 20
160.3538403061
 30
0.0
  0
LINE
  5
3E5
100
AcDbEntity
  8
GEOM
100
AcDbLine
 62
7
  6
CONTINUOUS
 10
104.428247892
 20
154.0109470873
 11
104.5993412449
 21
153.8467335249
  0
SPLINE
  5
3E6
100
AcDbEntity
  8
GEOM
100
AcDbSpline
 62
7
  6
CONTINUOUS
 70
0
 71
3
 72
9
 73
5
 74
0
 42
0.0000001
 43
0.0000001
 44
0.0000000001
 40
0.0
 40
0.0
 40
0.0
 40
0.0
 40
0.493241871
 40
1.0
 40
1.0
 40
1.0
 40
1.0
 10
79.7957246035
 20
20.5065567379
 30
0.0
 10
79.6663027051
 20
20.290302602
 30
0.0
 10
79.2781331816
 20
19.9171329448
 30
0.0
 10
78.7555905319
 20
19.7921367962
 30
0.0
 10
78.4966864978
 20
19.7957856505
 30
0.0
  0
SPLINE
  5
3E7
100
AcDbEntity
  8
GEOM
100
AcDbSpline
 62
7
  6
CONTINUOUS
 70
0
 71
3
 72
10
 73
6
 74
0
 42
0.0000001
 43
0.0000001
 44
0.0000000001
 40
0.0
 40
0.0
 40
0.0
 40
0.0
 40
0.1836810506
 40
0.4208612113
 40
1.0
 40
1.0
 40
1.0
 40
1.0
 10
79.7957246035
 20
41.5725909942
 30
0.0
 10
79.7184678377
 20
41.552464511
 30
0.0
 10
79.5365804729
 20
41.5260874347
 30
0.0
 10
79.1022291145
 20
41.5067715223
 30
0.0
 10
78.7468255602
 20
41.5302061714
 30
0.0
 10
78.4966864978
 20
41.5583519662
 30
0.0
  0
SPLINE
  5
3E8
100
AcDbEntity
  8
GEOM
100
AcDbSpline
 62
7
  6
CONTINUOUS
 70
0
 71
3
 72
51
 73
47
 74
0
 42
0.0000001
 43
0.0000001
 44
0.0000000001
 40
0.0
 40
0.0
 40
0.0
 40
0.0
 40
0.000169986
 40
0.0006760837
 40
0.0015165391
 40
0.0026895982
 40
0.0041935079
 40
0.006026516
 40
0.0106719822
 40
0.0165976984
 40
0.0237646254
 40
0.0321335762
 40
0.0416633489
 40
0.052305821
 40
0.064011793
 40
0.0904192255
 40
0.1205006124
 40
0.1538834394
 40
0.1902227214
 40
0.2291974955
 40
0.2704930946
 40
0.3138075972
 40
0.4050940444
 40
0.4999999477
 40
0.5949059179
 40
0.6861924439
 40
0.7295069463
 40
0.770802527
 40
0.8097772862
 40
0.8461165732
 40
0.8794994095
 40
0.9095807993
 40
0.9359882275
 40
0.9476941952
 40
0.9583366629
 40
0.9678664329
 40
0.9762353822
 40
0.9834023087
 40
0.9893280274
 40
0.9939734993
 40
0.9958065068
 40
0.9973104138
 40
0.998483469
 40
0.9993239204
 40
0.9998300151
 40
1.0
 40
1.0
 40
1.0
 40
1.0
 10
104.3447627092
 20
103.5538403061
 30
0.0
 10
104.3454656965
 20
103.552502704
 30
0.0
 10
104.3523132676
 20
103.5512246123
 30
0.0
 10
104.3628002976
 20
103.5435352971
 30
0.0
 10
104.3835061249
 20
103.5340312241
 30
0.0
 10
104.4109020418
 20
103.5192821373
 30
0.0
 10
104.4466607443
 20
103.501018259
 30
0.0
 10
104.5096712027
 20
103.4684492159
 30
0.0
 10
104.6078140854
 20
103.4181410729
 30
0.0
 10
104.748318445
 20
103.3465891025
 30
0.0
 10
104.9187491614
 20
103.2608420677
 30
0.0
 10
105.1183212354
 20
103.1617472866
 30
0.0
 10
105.3462366628
 20
103.0502696801
 30
0.0
 10
105.6016882871
 20
102.9275899073
 30
0.0
 10
105.9939000059
 20
102.7431437615
 30
0.0
 10
106.546030334
 20
102.492746174
 30
0.0
 10
107.2806857563
 20
102.1786509568
 30
0.0
 10
108.105188475
 20
101.8507546142
 30
0.0
 10
109.0134192439
 20
101.5204732292
 30
0.0
 10
109.9992652667
 20
101.199393165
 30
0.0
 10
111.0564058812
 20
100.8992405484
 30
0.0
 10
112.5778197785
 20
100.5366703783
 30
0.0
 10
114.5947412077
 20
100.2056255636
 30
0.0
 10
117.0947619005
 20
100.0656174479
 30
0.0
 10
119.5947832518
 20
100.2056258233
 30
0.0
 10
121.6117060447
 20
100.5366703683
 30
0.0
 10
123.1331204233
 20
100.8992408359
 30
0.0
 10
124.1902607667
 20
101.1993933104
 30
0.0
 10
125.1761065302
 20
101.5204733599
 30
0.0
 10
126.0843372979
 20
101.8507547315
 30
0.0
 10
126.9088401414
 20
102.1786511737
 30
0.0
 10
127.6434956351
 20
102.4927464039
 30
0.0
 10
128.1956258855
 20
102.7431440407
 30
0.0
 10
128.5878375052
 20
102.9275901268
 30
0.0
 10
128.8432890534
 20
103.0502698232
 30
0.0
 10
129.0712044216
 20
103.1617473771
 30
0.0
 10
129.2707764694
 20
103.2608421172
 30
0.0
 10
129.4412072013
 20
103.3465891272
 30
0.0
 10
129.5817116337
 20
103.4181411174
 30
0.0
 10
129.6798545001
 20
103.4684494125
 30
0.0
 10
129.7428649899
 20
103.501018483
 30
0.0
 10
129.7786235717
 20
103.5192823658
 30
0.0
 10
129.8060195747
 20
103.5340313129
 30
0.0
 10
129.8267249505
 20
103.5435355169
 30
0.0
 10
129.8372125874
 20
103.5512244392
 30
0.0
 10
129.8440594428
 20
103.5525028611
 30
0.0
 10
129.8447627092
 20
103.5538403061
 30
0.0
  0
SPLINE
  5
3E9
100
AcDbEntity
  8
GEOM
100
AcDbSpline
 62
7
  6
CONTINUOUS
 70
0
 71
3
 72
9
 73
5
 74
0
 42
0.0000001
 43
0.0000001
 44
0.0000000001
 40
0.0
 40
0.0
 40
0.0
 40
0.0
 40
0.4769659058
 40
1.0
 40
1.0
 40
1.0
 40
1.0
 10
79.7957246035
 20
77.1198745625
 30
0.0
 10
79.6572100034
 20
77.3152373901
 30
0.0
 10
79.2524233989
 20
77.6450748489
 30
0.0
 10
78.7580390779
 20
77.7906816829
 30
0.0
 10
78.4966864978
 20
77.8164064607
 30
0.0
  0
SPLINE
  5
3EA
100
AcDbEntity
  8
GEOM
100
AcDbSpline
 62
7
  6
CONTINUOUS
 70
0
 71
3
 72
12
 73
8
 74
0
 42
0.0000001
 43
0.0000001
 44
0.0000000001
 40
0.0
 40
0.0
 40
0.0
 40
0.0
 40
0.1894493429
 40
0.3740018971
 40
0.5474681155
 40
0.7021632987
 40
1.0
 40
1.0
 40
1.0
 40
1.0
 10
104.8972721099
 20
152.9271943681
 30
0.0
 10
104.8972712569
 20
152.8868118633
 30
0.0
 10
104.8953860755
 20
152.8067880238
 30
0.0
 10
104.8874380793
 20
152.6915845242
 30
0.0
 10
104.8717528024
 20
152.5790233822
 30
0.0
 10
104.8510872183
 20
152.4658028709
 30
0.0
 10
104.7886900732
 20
152.2985644108
 30
0.0
 10
104.7340227212
 20
152.3308438196
 30
0.0
  0
ELLIPSE
  5
3EB
100
AcDbEntity
  8
0
100
AcDbEllipse
 62
7
  6
CONTINUOUS
 10
129.8212600173
 20
169.0687658754
 30
0.0
 11
2.0131567266
 21
5.5311026482
 31
0.0
 40
0.5096773721
 41
-1.5707963268
 42
-0.9506573207
  0
ELLIPSE
  5
3EC
100
AcDbEntity
  8
0
100
AcDbEllipse
 62
7
  6
CONTINUOUS
 10
133.8627119016
 20
171.5538403061
 30
0.0
 11
0.0
 21
1.0
 31
0.0
 40
0.5773502692
 41
-0.0
 42
1.5707963268
  0
ELLIPSE
  5
3ED
100
AcDbEntity
  8
0
100
AcDbEllipse
 62
7
  6
CONTINUOUS
 10
127.5118589405
 20
162.7237385645
 30
0.0
 11
2.0131567266
 21
5.5311026482
 31
0.0
 40
0.5096773721
 41
-1.5707963268
 42
-0.9506573207
  0
ELLIPSE
  5
3EE
100
AcDbEntity
  8
0
100
AcDbEllipse
 62
7
  6
CONTINUOUS
 10
133.2853616324
 20
172.5538403061
 30
0.0
 11
0.0
 21
4.0
 31
0.0
 40
0.5773502692
 41
0.0
 42
1.5707963268
  0
ELLIPSE
  5
3EF
100
AcDbEntity
  8
0
100
AcDbEllipse
 62
7
  6
CONTINUOUS
 10
108.4773962175
 20
172.5538403061
 30
0.0
 11
0.0
 21
4.0
 31
0.0
 40
1.0
 41
-1.5707963268
 42
0.0
  0
ENDSEC
  0
SECTION
  2
OBJECTS
  0
DICTIONARY
  5
3F0
100
AcDbDictionary
  3
ACAD_GROUP
350
3F1
  3
ACAD_MLINESTYLE
350
3F2
  0
DICTIONARY
  5
3F1
102
{ACAD_REACTORS
330
3F0
102
}
100
AcDbDictionary
  0
DICTIONARY
  5
3F2
102
{ACAD_REACTORS
330
3F0
102
}
100
AcDbDictionary
  3
STANDARD
350
3F3
  0
MLINESTYLE
  5
3F3
102
{ACAD_REACTORS
330
3F2
102
}
100
AcDbMlineStyle
  2
STANDARD
 70
0
  3

 62
256
 51
90.0
 52
90.0
 71
2
 49
0.5
 62
256
  6
BYLAYER
 49
-0.5
 62
256
  6
BYLAYER
  0
ENDSEC
  0
EOF
