999
DXF file: C:\Users\64ciro\Desktop\FILE 3D-2D\ARMATEC\SINGOLI\h34nll032_3077.dxf
999
Pro/ENGINEER 2017260 by Parametric Technology Corporation
  0
SECTION
  2
HEADER
  9
$ACADVER
  1
AC1014
  9
$DWGCODEPAGE
  3
ANSI_1252
  9
$EXTMAX
 10
297.0
 20
210.0
 30
0.0
  9
$EXTMIN
 10
0.0
 20
0.0
 30
0.0
  9
$LIMMIN
 10
0.0
 20
0.0
  9
$LIMMAX
 10
297.0
 20
210.0
  9
$VIEWCTR
 10
148.5
 20
105.0
  9
$VIEWSIZE
 40
210.0
  9
$CLAYER
  8
0
  9
$LTSCALE
 40
16.335
  9
$CELTYPE
  6
BYLAYER
  9
$DIMSCALE
 40
1.0
  9
$DIMASZ
 40
2.5
  9
$DIMEXO
 40
0.0625
  9
$DIMDLI
 40
11.286
  9
$DIMEXE
 40
0.125
  9
$DIMCEN
 40
2.673
  9
$DIMLFAC
 40
1.0
  9
$DIMBLK
  1
_CLOSED
  9
$DIMALT
 70
0
  9
$DIMALTF
 40
25.4
  9
$DIMTXT
 40
2.5
  9
$DIMTOL
 70
1
  9
$DIMLIM
 70
0
  9
$DIMTFAC
 40
1.0
  9
$DIMTP
 40
0.01
  9
$DIMTM
 40
0.01
  9
$DIMGAP
 40
0.625
  9
$AUNITS
 70
0
  9
$PDMODE
 70
3
  9
$PDSIZE
 40
0.3125
  9
$HANDSEED
  5
3EA
  9
$TILEMODE
 70
1
  9
$MEASUREMENT
 70
1
  0
ENDSEC
  0
SECTION
  2
CLASSES
  0
ENDSEC
  0
SECTION
  2
TABLES
  0
TABLE
  2
VPORT
  5
8
100
AcDbSymbolTable
 70
2
  0
VPORT
  5
1F4
100
AcDbSymbolTableRecord
100
AcDbViewportTableRecord
  2
*ACTIVE
 70
0
 10
0.0
 20
0.0
 11
1.0
 21
1.0
 12
148.5
 22
105.0
 13
0.0
 23
0.0
 14
1.0
 24
1.0
 15
0.0
 25
0.0
 16
0.0
 26
0.0
 36
1.0
 17
0.0
 27
0.0
 37
0.0
 40
210.0
 41
1.4142857143
 42
50.0
 43
0.0
 44
0.0
 50
0.0
 51
0.0
 71
0
 72
100
 73
1
 74
1
 75
0
 76
0
 77
0
 78
0
  0
ENDTAB
  0
TABLE
  2
LTYPE
  5
5
100
AcDbSymbolTable
 70
6
  0
LTYPE
  5
14
100
AcDbSymbolTableRecord
100
AcDbLinetypeTableRecord
  2
BYBLOCK
 70
0
  3

 72
65
 73
0
 40
0.0
  0
LTYPE
  5
15
100
AcDbSymbolTableRecord
100
AcDbLinetypeTableRecord
  2
BYLAYER
 70
0
  3

 72
65
 73
0
 40
0.0
  0
LTYPE
  5
16
100
AcDbSymbolTableRecord
100
AcDbLinetypeTableRecord
  2
CONTINUOUS
 70
64
  3
Solid line
 72
65
 73
0
 40
0.0
  0
LTYPE
  5
1F5
100
AcDbSymbolTableRecord
100
AcDbLinetypeTableRecord
  2
CENTER
 70
64
  3
____ _ ____ _ ____ _ ____ _ ____ _ ____ _ ____
 72
65
 73
4
 40
0.6
 49
0.375
 74
0
 49
-0.075
 74
0
 49
0.075
 74
0
 49
-0.075
 74
0
  0
LTYPE
  5
1F6
100
AcDbSymbolTableRecord
100
AcDbLinetypeTableRecord
  2
HIDDEN
 70
64
  3
- - - - - - - - - - - - - - - - - - - -
 72
65
 73
2
 40
0.2
 49
0.1
 74
0
 49
-0.1
 74
0
  0
LTYPE
  5
1F7
100
AcDbSymbolTableRecord
100
AcDbLinetypeTableRecord
  2
PHANTOM
 70
64
  3
_____ _ _ _____ _ _ _____ _ _ _____
 72
65
 73
6
 40
0.8
 49
0.45
 74
0
 49
-0.05
 74
0
 49
0.1
 74
0
 49
-0.05
 74
0
 49
0.1
 74
0
 49
-0.05
 74
0
  0
LTYPE
  5
1F8
100
AcDbSymbolTableRecord
100
AcDbLinetypeTableRecord
  2
DOT
 70
64
  3
. . . . . . . . . . . . . . . . . . . .
 72
65
 73
2
 40
0.2
 49
0.1
 74
0
 49
-0.1
 74
0
  0
LTYPE
  5
1F9
100
AcDbSymbolTableRecord
100
AcDbLinetypeTableRecord
  2
DASHED
 70
64
  3
- - - - - - - - - - - - - - - - - - - -
 72
65
 73
2
 40
0.2
 49
0.1
 74
0
 49
-0.1
 74
0
  0
ENDTAB
  0
TABLE
  2
LAYER
  5
2
100
AcDbSymbolTable
 70
36
  0
LAYER
  5
10
100
AcDbSymbolTableRecord
100
AcDbLayerTableRecord
  2
0
 70
0
 62
7
  6
CONTINUOUS
  0
LAYER
  5
1FA
100
AcDbSymbolTableRecord
100
AcDbLayerTableRecord
  2
DEFAULT_1
 70
0
 62
7
  6
CENTER
  0
LAYER
  5
1FB
100
AcDbSymbolTableRecord
100
AcDbLayerTableRecord
  2
DEFAULT_2
 70
0
 62
8
  6
HIDDEN
  0
LAYER
  5
1FC
100
AcDbSymbolTableRecord
100
AcDbLayerTableRecord
  2
DEFAULT_3
 70
0
 62
7
  6
PHANTOM
  0
LAYER
  5
1FD
100
AcDbSymbolTableRecord
100
AcDbLayerTableRecord
  2
ASSI
 70
0
 62
7
  6
CONTINUOUS
  0
LAYER
  5
1FE
100
AcDbSymbolTableRecord
100
AcDbLayerTableRecord
  2
COSMETICA
 70
0
 62
7
  6
CONTINUOUS
  0
LAYER
  5
1FF
100
AcDbSymbolTableRecord
100
AcDbLayerTableRecord
  2
CSYS
 70
0
 62
7
  6
CONTINUOUS
  0
LAYER
  5
200
100
AcDbSymbolTableRecord
100
AcDbLayerTableRecord
  2
CURVE
 70
0
 62
7
  6
CONTINUOUS
  0
LAYER
  5
201
100
AcDbSymbolTableRecord
100
AcDbLayerTableRecord
  2
DETTAGLI
 70
0
 62
7
  6
CONTINUOUS
  0
LAYER
  5
202
100
AcDbSymbolTableRecord
100
AcDbLayerTableRecord
  2
FILETTI
 70
0
 62
7
  6
CONTINUOUS
  0
LAYER
  5
203
100
AcDbSymbolTableRecord
100
AcDbLayerTableRecord
  2
GEOM
 70
0
 62
7
  6
CONTINUOUS
  0
LAYER
  5
204
100
AcDbSymbolTableRecord
100
AcDbLayerTableRecord
  2
GEOMETRIA_SOLIDA
 70
0
 62
7
  6
CONTINUOUS
  0
LAYER
  5
205
100
AcDbSymbolTableRecord
100
AcDbLayerTableRecord
  2
LAY0001
 70
0
 62
7
  6
CONTINUOUS
  0
LAYER
  5
206
100
AcDbSymbolTableRecord
100
AcDbLayerTableRecord
  2
LAY0002
 70
0
 62
7
  6
CONTINUOUS
  0
LAYER
  5
207
100
AcDbSymbolTableRecord
100
AcDbLayerTableRecord
  2
NOGEOM
 70
0
 62
7
  6
CONTINUOUS
  0
LAYER
  5
208
100
AcDbSymbolTableRecord
100
AcDbLayerTableRecord
  2
PIANI
 70
0
 62
7
  6
CONTINUOUS
  0
LAYER
  5
209
100
AcDbSymbolTableRecord
100
AcDbLayerTableRecord
  2
QUOTE
 70
0
 62
7
  6
CONTINUOUS
  0
LAYER
  5
20A
100
AcDbSymbolTableRecord
100
AcDbLayerTableRecord
  2
RACCORDI
 70
0
 62
7
  6
CONTINUOUS
  0
LAYER
  5
20B
100
AcDbSymbolTableRecord
100
AcDbLayerTableRecord
  2
SKETCH
 70
0
 62
7
  6
CONTINUOUS
  0
LAYER
  5
20C
100
AcDbSymbolTableRecord
100
AcDbLayerTableRecord
  2
SMUSSI
 70
0
 62
7
  6
CONTINUOUS
  0
LAYER
  5
20D
100
AcDbSymbolTableRecord
100
AcDbLayerTableRecord
  2
TABELLE
 70
0
 62
7
  6
CONTINUOUS
  0
ENDTAB
  0
TABLE
  2
STYLE
  5
3
100
AcDbSymbolTable
 70
1
  0
STYLE
  5
11
100
AcDbSymbolTableRecord
100
AcDbTextStyleTableRecord
  2
STANDARD
 70
0
 40
0.0
 41
1.0
 50
0.0
 71
0
 42
0.2
  3
trium.ttf
  4

  0
STYLE
  5
20E
100
AcDbSymbolTableRecord
100
AcDbTextStyleTableRecord
  2
TEXTSTYLE_1
 70
0
 40
0.0
 41
0.8
 50
0.0
 71
0
 42
0.2
  3
gdt
  4

  0
ENDTAB
  0
TABLE
  2
VIEW
  5
6
100
AcDbSymbolTable
 70
0
  0
ENDTAB
  0
TABLE
  2
UCS
  5
7
100
AcDbSymbolTable
 70
0
  0
ENDTAB
  0
TABLE
  2
APPID
  5
9
100
AcDbSymbolTable
 70
1
  0
APPID
  5
20F
100
AcDbSymbolTableRecord
100
AcDbRegAppTableRecord
  2
ACAD
 70
0
  0
ENDTAB
  0
TABLE
  2
BLOCK_RECORD
  5
1
100
AcDbSymbolTable
 70
0
  0
BLOCK_RECORD
  5
1F
100
AcDbSymbolTableRecord
100
AcDbBlockTableRecord
  2
*MODEL_SPACE
  0
BLOCK_RECORD
  5
1B
100
AcDbSymbolTableRecord
100
AcDbBlockTableRecord
  2
*PAPER_SPACE
  0
ENDTAB
  0
TABLE
  2
DIMSTYLE
  5
A
100
AcDbSymbolTable
 70
1
  0
DIMSTYLE
105
210
100
AcDbSymbolTableRecord
100
AcDbDimStyleTableRecord
  2
STANDARD
 70
0
  3

  4

  5
_CLOSED
  6
_CLOSED
  7
_CLOSED
 40
1.0
 41
2.5
 42
0.0625
 43
0.38
 44
0.125
 45
0.0
 46
0.0
 47
0.01
 48
0.01
140
2.5
141
0.09
142
0.0
143
25.4
144
1.0
145
0.0
146
1.0
147
0.625
 71
1.0
 72
0.0
 73
0
 74
0
 75
0
 76
0
 77
1
 78
8
 79
2
170
0
171
1
172
0
173
0
174
0
175
0
176
0
177
0
178
0
270
2
179
2
271
2
272
2
273
2
274
2
275
0
280
0
281
0
282
0
283
1
284
8
285
0
286
0
287
3
288
0
340
11
  0
ENDTAB
  0
ENDSEC
  0
SECTION
  2
BLOCKS
  0
BLOCK
  5
20
100
AcDbEntity
  8
0
100
AcDbBlockBegin
  2
*MODEL_SPACE
 70
0
 10
0.0
 20
0.0
 30
0.0
  3
*MODEL_SPACE
  1

  0
ENDBLK
  5
21
100
AcDbEntity
  8
0
100
AcDbBlockEnd
  0
BLOCK
  5
1C
100
AcDbEntity
  8
0
100
AcDbBlockBegin
  2
*PAPER_SPACE
 70
0
 10
0.0
 20
0.0
 30
0.0
  3
*PAPER_SPACE
  1

  0
ENDBLK
  5
1D
100
AcDbEntity
  8
0
100
AcDbBlockEnd
  0
ENDSEC
  0
SECTION
  2
ENTITIES
  0
LINE
  5
211
100
AcDbEntity
  8
0
100
AcDbLine
 62
7
  6
CONTINUOUS
 10
0.0
 20
0.0
 11
0.0
 21
210.0
  0
LINE
  5
212
100
AcDbEntity
  8
0
100
AcDbLine
 62
7
  6
CONTINUOUS
 10
0.0
 20
0.0
 11
297.0
 21
0.0
  0
LINE
  5
213
100
AcDbEntity
  8
0
100
AcDbLine
 62
7
  6
CONTINUOUS
 10
0.0
 20
210.0
 11
297.0
 21
210.0
  0
LINE
  5
214
100
AcDbEntity
  8
0
100
AcDbLine
 62
7
  6
CONTINUOUS
 10
297.0
 20
0.0
 11
297.0
 21
210.0
  0
LINE
  5
215
100
AcDbEntity
  8
GEOM
100
AcDbLine
 62
7
  6
CONTINUOUS
 10
74.7233329757
 20
37.6222013333
 11
76.0223710813
 21
35.3722013333
  0
LINE
  5
216
100
AcDbEntity
  8
GEOM
100
AcDbLine
 62
7
  6
CONTINUOUS
 10
100.8446533192
 20
34.2508809898
 11
97.6020126321
 21
37.4935216769
  0
LINE
  5
217
100
AcDbEntity
  8
GEOM
100
AcDbLine
 62
7
  6
CONTINUOUS
 10
74.7233329757
 20
37.6222013333
 11
74.7233329757
 21
85.1222013333
  0
LINE
  5
218
100
AcDbEntity
  8
GEOM
100
AcDbLine
 62
7
  6
CONTINUOUS
 10
76.0223710813
 20
35.3722013333
 11
76.0223710813
 21
35.5875916425
  0
LINE
  5
219
100
AcDbEntity
  8
GEOM
100
AcDbLine
 62
7
  6
CONTINUOUS
 10
76.0223710813
 20
45.5875916425
 11
76.0223710813
 21
51.3722013333
  0
LINE
  5
21A
100
AcDbEntity
  8
GEOM
100
AcDbLine
 62
7
  6
CONTINUOUS
 10
76.0223710813
 20
71.3722013333
 11
76.0223710813
 21
77.1568110241
  0
LINE
  5
21B
100
AcDbEntity
  8
GEOM
100
AcDbLine
 62
7
  6
CONTINUOUS
 10
76.0223710813
 20
87.1568110241
 11
76.0223710813
 21
87.3722013333
  0
LINE
  5
21C
100
AcDbEntity
  8
0
100
AcDbLine
 62
7
  6
CONTINUOUS
 10
100.2233329757
 20
153.5861629893
 11
101.5158346414
 21
154.9722013333
  0
LINE
  5
21D
100
AcDbEntity
  8
0
100
AcDbLine
 62
7
  6
CONTINUOUS
 10
110.6045308222
 20
162.8149357434
 11
111.2233329757
 21
163.1722013333
  0
LINE
  5
21E
100
AcDbEntity
  8
0
100
AcDbLine
 62
7
  6
CONTINUOUS
 10
138.6842333445
 20
32.3722013333
 11
137.2233329757
 21
32.3722013333
  0
LINE
  5
21F
100
AcDbEntity
  8
GEOM
100
AcDbLine
 62
7
  6
CONTINUOUS
 10
137.2233329757
 20
32.3722013333
 11
128.8446533192
 21
32.3722013333
  0
LINE
  5
220
100
AcDbEntity
  8
0
100
AcDbLine
 62
7
  6
CONTINUOUS
 10
88.4716669258
 20
77.1548995265
 11
88.4716669258
 21
71.3744216561
  0
LINE
  5
221
100
AcDbEntity
  8
0
100
AcDbLine
 62
7
  6
CONTINUOUS
 10
88.4716669258
 20
51.3699809592
 11
88.4716669258
 21
45.5895030967
  0
LINE
  5
222
100
AcDbEntity
  8
0
100
AcDbLine
 62
7
  6
CONTINUOUS
 10
88.4716669258
 20
35.3722013333
 11
88.4716669258
 21
35.587282768
  0
LINE
  5
223
100
AcDbEntity
  8
0
100
AcDbLine
 62
7
  6
CONTINUOUS
 10
88.4716669258
 20
87.1571198916
 11
88.4716669258
 21
87.3722013333
  0
LINE
  5
224
100
AcDbEntity
  8
0
100
AcDbLine
 62
7
  6
CONTINUOUS
 10
89.2510897892
 20
86.9222013333
 11
89.2510897892
 21
86.7332345926
  0
LINE
  5
225
100
AcDbEntity
  8
0
100
AcDbLine
 62
7
  6
CONTINUOUS
 10
89.2510897892
 20
76.7388620432
 11
89.2510897892
 21
71.366574076
  0
LINE
  5
226
100
AcDbEntity
  8
0
100
AcDbLine
 62
7
  6
CONTINUOUS
 10
89.2510897892
 20
51.3778288311
 11
89.2510897892
 21
46.0055408284
  0
LINE
  5
227
100
AcDbEntity
  8
0
100
AcDbLine
 62
7
  6
CONTINUOUS
 10
89.2510897892
 20
36.0111681051
 11
89.2510897892
 21
35.8222013333
  0
LINE
  5
228
100
AcDbEntity
  8
0
100
AcDbLine
 62
7
  6
CONTINUOUS
 10
90.4346578411
 20
84.8722013333
 11
90.4346578411
 21
37.8722013333
  0
LINE
  5
229
100
AcDbEntity
  8
0
100
AcDbLine
 62
7
  6
CONTINUOUS
 10
91.3006832449
 20
84.3722013333
 11
91.3006832449
 21
38.3722013333
  0
LINE
  5
22A
100
AcDbEntity
  8
GEOM
100
AcDbLine
 62
7
  6
CONTINUOUS
 10
100.3733329757
 20
140.6855987929
 11
100.5233329757
 21
140.9454064141
  0
LINE
  5
22B
100
AcDbEntity
  8
GEOM
100
AcDbLine
 62
7
  6
CONTINUOUS
 10
103.9233329757
 20
148.0722013333
 11
104.2233329757
 21
148.3722013333
  0
LINE
  5
22C
100
AcDbEntity
  8
0
100
AcDbLine
 62
7
  6
CONTINUOUS
 10
106.9233329757
 20
150.8722013333
 11
106.5927375653
 21
150.5416059229
  0
LINE
  5
22D
100
AcDbEntity
  8
0
100
AcDbLine
 62
7
  6
CONTINUOUS
 10
110.6045308222
 20
159.9696362818
 11
109.5233329757
 21
159.3454064141
  0
LINE
  5
22E
100
AcDbEntity
  8
0
100
AcDbLine
 62
7
  6
CONTINUOUS
 10
108.2233329757
 20
154.3722013333
 11
107.2233329757
 21
153.7948510641
  0
LINE
  5
22F
100
AcDbEntity
  8
0
100
AcDbLine
 62
7
  6
CONTINUOUS
 10
102.9659736628
 20
33.3722013333
 11
126.0162261945
 21
33.3722013333
  0
LINE
  5
230
100
AcDbEntity
  8
0
100
AcDbLine
 62
7
  6
CONTINUOUS
 10
154.5686324373
 20
35.3722013333
 11
140.7235936227
 21
35.3722013333
  0
LINE
  5
231
100
AcDbEntity
  8
0
100
AcDbLine
 62
7
  6
CONTINUOUS
 10
88.4716669258
 20
35.3722013333
 11
76.0223710813
 21
35.3722013333
  0
LINE
  5
232
100
AcDbEntity
  8
0
100
AcDbLine
 62
7
  6
CONTINUOUS
 10
154.5686324373
 20
35.5875916425
 11
140.7341323582
 21
35.5875916425
  0
LINE
  5
233
100
AcDbEntity
  8
GEOM
100
AcDbLine
 62
7
  6
CONTINUOUS
 10
88.4303222995
 20
35.5875916425
 11
76.0223710813
 21
35.5875916425
  0
LINE
  5
234
100
AcDbEntity
  8
0
100
AcDbLine
 62
7
  6
CONTINUOUS
 10
95.4806922886
 20
38.3722013333
 11
91.3006832449
 21
38.3722013333
  0
LINE
  5
235
100
AcDbEntity
  8
0
100
AcDbLine
 62
7
  6
CONTINUOUS
 10
90.4346578411
 20
84.8722013333
 11
89.2510897892
 21
86.9222013333
  0
LINE
  5
236
100
AcDbEntity
  8
GEOM
100
AcDbLine
 62
7
  6
CONTINUOUS
 10
95.4806922886
 20
84.3722013333
 11
95.4806922886
 21
38.3722013333
  0
LINE
  5
237
100
AcDbEntity
  8
GEOM
100
AcDbLine
 62
7
  6
CONTINUOUS
 10
97.6020126321
 20
85.2508809898
 11
97.6020126321
 21
37.4935216769
  0
LINE
  5
238
100
AcDbEntity
  8
0
100
AcDbLine
 62
7
  6
CONTINUOUS
 10
118.7500444894
 20
158.1722013333
 11
118.6494804144
 21
157.9722013333
  0
LINE
  5
239
100
AcDbEntity
  8
0
100
AcDbLine
 62
7
  6
CONTINUOUS
 10
120.9296720734
 20
158.1722013333
 11
120.8184425414
 21
157.9722013333
  0
LINE
  5
23A
100
AcDbEntity
  8
0
100
AcDbLine
 62
7
  6
CONTINUOUS
 10
120.0774349419
 20
158.1722013333
 11
119.9660884533
 21
157.9722013333
  0
LINE
  5
23B
100
AcDbEntity
  8
GEOM
100
AcDbLine
 62
7
  6
CONTINUOUS
 10
74.7233329757
 20
85.1222013333
 11
76.0223710813
 21
87.3722013333
  0
LINE
  5
23C
100
AcDbEntity
  8
0
100
AcDbLine
 62
7
  6
CONTINUOUS
 10
107.0335024698
 20
150.1280508067
 11
106.232601386
 21
149.7106563803
  0
LINE
  5
23D
100
AcDbEntity
  8
0
100
AcDbLine
 62
7
  6
CONTINUOUS
 10
107.0335025266
 20
148.7910505113
 11
106.232601411
 21
148.3736560656
  0
LINE
  5
23E
100
AcDbEntity
  8
0
100
AcDbLine
 62
7
  6
CONTINUOUS
 10
154.5686324373
 20
45.5875916425
 11
140.7341323582
 21
45.5875916425
  0
LINE
  5
23F
100
AcDbEntity
  8
GEOM
100
AcDbLine
 62
7
  6
CONTINUOUS
 10
88.4303222995
 20
45.5875916425
 11
76.0223710813
 21
45.5875916425
  0
LINE
  5
240
100
AcDbEntity
  8
0
100
AcDbLine
 62
7
  6
CONTINUOUS
 10
109.1076109955
 20
62.6822013333
 11
110.7973970945
 21
59.3658093833
  0
LINE
  5
241
100
AcDbEntity
  8
0
100
AcDbLine
 62
7
  6
CONTINUOUS
 10
110.0054719856
 20
62.6822013333
 11
111.2463275895
 21
60.2468850892
  0
LINE
  5
242
100
AcDbEntity
  8
GEOM
100
AcDbLine
 62
7
  6
CONTINUOUS
 10
100.2233329757
 20
144.0722013333
 11
100.2233329757
 21
140.9454064141
  0
LINE
  5
243
100
AcDbEntity
  8
0
100
AcDbLine
 62
7
  6
CONTINUOUS
 10
100.2233329757
 20
139.9722013333
 11
100.2233329757
 21
140.9454064141
  0
LINE
  5
244
100
AcDbEntity
  8
0
100
AcDbLine
 62
7
  6
CONTINUOUS
 10
100.2233329757
 20
144.0722013333
 11
100.2233329757
 21
154.9722013333
  0
LINE
  5
245
100
AcDbEntity
  8
GEOM
100
AcDbLine
 62
7
  6
CONTINUOUS
 10
100.5233329757
 20
140.9454064141
 11
100.5233329757
 21
144.3722013333
  0
LINE
  5
246
100
AcDbEntity
  8
GEOM
100
AcDbLine
 62
7
  6
CONTINUOUS
 10
100.8446533192
 20
34.2508809898
 11
100.8446533192
 21
88.4935216769
  0
LINE
  5
247
100
AcDbEntity
  8
GEOM
100
AcDbLine
 62
7
  6
CONTINUOUS
 10
102.9659736628
 20
33.3722013333
 11
102.9659736628
 21
89.0008786213
  0
LINE
  5
248
100
AcDbEntity
  8
0
100
AcDbLine
 62
7
  6
CONTINUOUS
 10
103.2233329757
 20
144.3722013333
 11
103.2233329757
 21
154.4722013333
  0
LINE
  5
249
100
AcDbEntity
  8
GEOM
100
AcDbLine
 62
7
  6
CONTINUOUS
 10
103.9233329757
 20
146.1721306138
 11
103.9233329757
 21
148.0722013333
  0
LINE
  5
24A
100
AcDbEntity
  8
GEOM
100
AcDbLine
 62
7
  6
CONTINUOUS
 10
104.2233329757
 20
144.6722013333
 11
104.2233329757
 21
145.4579877709
  0
LINE
  5
24B
100
AcDbEntity
  8
GEOM
100
AcDbLine
 62
7
  6
CONTINUOUS
 10
104.2757304984
 20
144.0722013333
 11
104.2757304984
 21
139.0364148957
  0
LINE
  5
24C
100
AcDbEntity
  8
GEOM
100
AcDbLine
 62
7
  6
CONTINUOUS
 10
104.566374812
 20
144.0722013333
 11
104.566374812
 21
139.0364148957
  0
LINE
  5
24D
100
AcDbEntity
  8
0
100
AcDbLine
 62
7
  6
CONTINUOUS
 10
104.9733329757
 20
92.2895203602
 11
104.9733329757
 21
137.4579877709
  0
LINE
  5
24E
100
AcDbEntity
  8
0
100
AcDbLine
 62
7
  6
CONTINUOUS
 10
106.2233329757
 20
149.7009984305
 11
106.2233329757
 21
149.3969054736
  0
LINE
  5
24F
100
AcDbEntity
  8
0
100
AcDbLine
 62
7
  6
CONTINUOUS
 10
107.0233330375
 20
150.3174521066
 11
107.0233330375
 21
150.1227504062
  0
LINE
  5
250
100
AcDbEntity
  8
0
100
AcDbLine
 62
7
  6
CONTINUOUS
 10
107.0233330658
 20
148.9804517816
 11
107.0233330658
 21
148.7857500959
  0
LINE
  5
251
100
AcDbEntity
  8
0
100
AcDbLine
 62
7
  6
CONTINUOUS
 10
107.1876109955
 20
66.2022013333
 11
107.1876109955
 21
56.6022013333
  0
LINE
  5
252
100
AcDbEntity
  8
0
100
AcDbLine
 62
7
  6
CONTINUOUS
 10
107.2246634761
 20
153.7948510641
 11
107.2246634761
 21
150.8722013333
  0
LINE
  5
253
100
AcDbEntity
  8
0
100
AcDbLine
 62
7
  6
CONTINUOUS
 10
115.2233329757
 20
158.1722013333
 11
115.1718464162
 21
157.9722013333
  0
LINE
  5
254
100
AcDbEntity
  8
0
100
AcDbLine
 62
7
  6
CONTINUOUS
 10
117.0774349419
 20
158.1722013333
 11
116.9974971927
 21
157.9722013333
  0
LINE
  5
255
100
AcDbEntity
  8
0
100
AcDbLine
 62
7
  6
CONTINUOUS
 10
121.2233329757
 20
158.1722013333
 11
121.1231083217
 21
157.9722013333
  0
LINE
  5
256
100
AcDbEntity
  8
0
100
AcDbLine
 62
7
  6
CONTINUOUS
 10
149.0659736628
 20
175.8006284581
 11
131.5304397569
 21
158.2650945521
  0
LINE
  5
257
100
AcDbEntity
  8
0
100
AcDbLine
 62
7
  6
CONTINUOUS
 10
133.6517601004
 20
156.1437742086
 11
150.8944007875
 21
173.3864148957
  0
LINE
  5
258
100
AcDbEntity
  8
0
100
AcDbLine
 62
7
  6
CONTINUOUS
 10
154.5686324373
 20
51.3722013333
 11
140.7341323582
 21
51.3722013333
  0
LINE
  5
259
100
AcDbEntity
  8
GEOM
100
AcDbLine
 62
7
  6
CONTINUOUS
 10
88.4303222995
 20
51.3722013333
 11
76.0223710813
 21
51.3722013333
  0
LINE
  5
25A
100
AcDbEntity
  8
0
100
AcDbLine
 62
7
  6
CONTINUOUS
 10
107.9876109955
 20
65.4022013333
 11
107.9876109955
 21
57.4022013333
  0
LINE
  5
25B
100
AcDbEntity
  8
0
100
AcDbLine
 62
7
  6
CONTINUOUS
 10
109.2233329757
 20
158.8257911718
 11
109.2233329757
 21
158.1722013333
  0
LINE
  5
25C
100
AcDbEntity
  8
0
100
AcDbLine
 62
7
  6
CONTINUOUS
 10
109.8233329757
 20
154.3722013333
 11
109.8233329757
 21
154.9722013333
  0
LINE
  5
25D
100
AcDbEntity
  8
0
100
AcDbLine
 62
7
  6
CONTINUOUS
 10
110.6045308222
 20
159.9696362818
 11
110.6045308222
 21
162.8149357434
  0
LINE
  5
25E
100
AcDbEntity
  8
0
100
AcDbLine
 62
7
  6
CONTINUOUS
 10
111.0976468223
 20
153.7948510641
 11
111.0976468223
 21
150.8722013333
  0
LINE
  5
25F
100
AcDbEntity
  8
0
100
AcDbLine
 62
7
  6
CONTINUOUS
 10
111.3503496295
 20
153.7948510641
 11
111.3503496295
 21
150.8722013333
  0
LINE
  5
260
100
AcDbEntity
  8
0
100
AcDbLine
 62
7
  6
CONTINUOUS
 10
111.5557139523
 20
154.9722013333
 11
111.5557139523
 21
153.5861629893
  0
LINE
  5
261
100
AcDbEntity
  8
0
100
AcDbLine
 62
7
  6
CONTINUOUS
 10
112.9139318989
 20
159.9696362818
 11
112.9139318989
 21
162.8149357434
  0
LINE
  5
262
100
AcDbEntity
  8
0
100
AcDbLine
 62
7
  6
CONTINUOUS
 10
113.3692310094
 20
158.1722013333
 11
113.3512355029
 21
157.9722013333
  0
LINE
  5
263
100
AcDbEntity
  8
0
100
AcDbLine
 62
7
  6
CONTINUOUS
 10
129.2233329757
 20
153.7095884306
 11
124.2233329757
 21
139.9722013333
  0
LINE
  5
264
100
AcDbEntity
  8
0
100
AcDbLine
 62
7
  6
CONTINUOUS
 10
125.9304397569
 20
138.3293081145
 11
125.7662261945
 21
138.1650945521
  0
LINE
  5
265
100
AcDbEntity
  8
0
100
AcDbLine
 62
7
  6
CONTINUOUS
 10
107.1876109955
 20
56.6022013333
 11
123.1876109955
 21
56.6022013333
  0
LINE
  5
266
100
AcDbEntity
  8
0
100
AcDbLine
 62
7
  6
CONTINUOUS
 10
107.9876109955
 20
57.4022013333
 11
122.3876109955
 21
57.4022013333
  0
LINE
  5
267
100
AcDbEntity
  8
0
100
AcDbLine
 62
7
  6
CONTINUOUS
 10
111.1266081516
 20
58.6022013333
 11
112.0244691417
 21
58.6022013333
  0
LINE
  5
268
100
AcDbEntity
  8
0
100
AcDbLine
 62
7
  6
CONTINUOUS
 10
115.2233329757
 20
58.6022013333
 11
116.0233329757
 21
58.6022013333
  0
LINE
  5
269
100
AcDbEntity
  8
0
100
AcDbLine
 62
7
  6
CONTINUOUS
 10
117.1433329757
 20
58.6022013333
 11
117.9433329757
 21
58.6022013333
  0
LINE
  5
26A
100
AcDbEntity
  8
0
100
AcDbLine
 62
7
  6
CONTINUOUS
 10
119.7033329757
 20
61.3722013333
 11
120.1833329757
 21
61.3722013333
  0
LINE
  5
26B
100
AcDbEntity
  8
0
100
AcDbLine
 62
7
  6
CONTINUOUS
 10
111.6966214619
 20
158.1722013333
 11
111.7138785338
 21
157.9722013333
  0
LINE
  5
26C
100
AcDbEntity
  8
0
100
AcDbLine
 62
7
  6
CONTINUOUS
 10
115.2233329757
 20
64.2822013333
 11
115.2233329757
 21
63.4822013333
  0
LINE
  5
26D
100
AcDbEntity
  8
0
100
AcDbLine
 62
7
  6
CONTINUOUS
 10
115.2233329757
 20
62.6822013333
 11
115.2233329757
 21
58.6022013333
  0
LINE
  5
26E
100
AcDbEntity
  8
0
100
AcDbLine
 62
7
  6
CONTINUOUS
 10
116.0233329757
 20
64.2822013333
 11
116.0233329757
 21
63.4822013333
  0
LINE
  5
26F
100
AcDbEntity
  8
0
100
AcDbLine
 62
7
  6
CONTINUOUS
 10
116.0233329757
 20
62.6822013333
 11
116.0233329757
 21
58.6022013333
  0
LINE
  5
270
100
AcDbEntity
  8
0
100
AcDbLine
 62
7
  6
CONTINUOUS
 10
117.1433329757
 20
62.6822013333
 11
117.1433329757
 21
61.1444931103
  0
LINE
  5
271
100
AcDbEntity
  8
0
100
AcDbLine
 62
7
  6
CONTINUOUS
 10
117.1433329757
 20
58.8122013333
 11
117.1433329757
 21
58.6022013333
  0
LINE
  5
272
100
AcDbEntity
  8
0
100
AcDbLine
 62
7
  6
CONTINUOUS
 10
117.5327340524
 20
159.9696362818
 11
117.5327340524
 21
162.8149357434
  0
LINE
  5
273
100
AcDbEntity
  8
0
100
AcDbLine
 62
7
  6
CONTINUOUS
 10
117.7233329757
 20
139.9722013333
 11
117.7233329757
 21
146.9722013333
  0
LINE
  5
274
100
AcDbEntity
  8
0
100
AcDbLine
 62
7
  6
CONTINUOUS
 10
117.9433329757
 20
62.6822013333
 11
117.9433329757
 21
61.8822013333
  0
LINE
  5
275
100
AcDbEntity
  8
0
100
AcDbLine
 62
7
  6
CONTINUOUS
 10
119.8421351292
 20
159.9696362818
 11
119.8421351292
 21
162.8149357434
  0
LINE
  5
276
100
AcDbEntity
  8
0
100
AcDbLine
 62
7
  6
CONTINUOUS
 10
120.1833329757
 20
62.2022013333
 11
120.1833329757
 21
61.3722013333
  0
LINE
  5
277
100
AcDbEntity
  8
0
100
AcDbLine
 62
7
  6
CONTINUOUS
 10
120.9833329757
 20
62.2022013333
 11
120.9833329757
 21
61.1408623977
  0
LINE
  5
278
100
AcDbEntity
  8
0
100
AcDbLine
 62
7
  6
CONTINUOUS
 10
121.2233329757
 20
158.8257911718
 11
121.2233329757
 21
158.1722013333
  0
LINE
  5
279
100
AcDbEntity
  8
0
100
AcDbLine
 62
7
  6
CONTINUOUS
 10
120.1833329757
 20
62.2022013333
 11
120.9833329757
 21
62.2022013333
  0
LINE
  5
27A
100
AcDbEntity
  8
0
100
AcDbLine
 62
7
  6
CONTINUOUS
 10
109.1076109955
 20
62.6822013333
 11
110.0054719856
 21
62.6822013333
  0
LINE
  5
27B
100
AcDbEntity
  8
0
100
AcDbLine
 62
7
  6
CONTINUOUS
 10
113.2054719856
 20
62.6822013333
 11
114.1033329757
 21
62.6822013333
  0
LINE
  5
27C
100
AcDbEntity
  8
0
100
AcDbLine
 62
7
  6
CONTINUOUS
 10
115.2233329757
 20
62.6822013333
 11
116.0233329757
 21
62.6822013333
  0
LINE
  5
27D
100
AcDbEntity
  8
0
100
AcDbLine
 62
7
  6
CONTINUOUS
 10
117.1433329757
 20
62.6822013333
 11
117.9433329757
 21
62.6822013333
  0
LINE
  5
27E
100
AcDbEntity
  8
0
100
AcDbLine
 62
7
  6
CONTINUOUS
 10
115.2233329757
 20
63.4822013333
 11
116.0233329757
 21
63.4822013333
  0
LINE
  5
27F
100
AcDbEntity
  8
0
100
AcDbLine
 62
7
  6
CONTINUOUS
 10
115.2233329757
 20
64.2822013333
 11
116.0233329757
 21
64.2822013333
  0
LINE
  5
280
100
AcDbEntity
  8
0
100
AcDbLine
 62
7
  6
CONTINUOUS
 10
107.9876109955
 20
65.4022013333
 11
122.3876109955
 21
65.4022013333
  0
LINE
  5
281
100
AcDbEntity
  8
0
100
AcDbLine
 62
7
  6
CONTINUOUS
 10
107.1876109955
 20
66.2022013333
 11
123.1876109955
 21
66.2022013333
  0
LINE
  5
282
100
AcDbEntity
  8
0
100
AcDbLine
 62
7
  6
CONTINUOUS
 10
122.3876109955
 20
65.4022013333
 11
122.3876109955
 21
57.4022013333
  0
LINE
  5
283
100
AcDbEntity
  8
0
100
AcDbLine
 62
7
  6
CONTINUOUS
 10
123.1876109955
 20
66.2022013333
 11
123.1876109955
 21
56.6022013333
  0
LINE
  5
284
100
AcDbEntity
  8
0
100
AcDbLine
 62
7
  6
CONTINUOUS
 10
125.4733329757
 20
94.3722013333
 11
125.4733329757
 21
137.4579877709
  0
LINE
  5
285
100
AcDbEntity
  8
GEOM
100
AcDbLine
 62
7
  6
CONTINUOUS
 10
126.0162147113
 20
87.9534167663
 11
126.0162261945
 21
33.3722013333
  0
LINE
  5
286
100
AcDbEntity
  8
GEOM
100
AcDbLine
 62
7
  6
CONTINUOUS
 10
126.2233329757
 20
139.0364148957
 11
126.2233329757
 21
145.4579877709
  0
LINE
  5
287
100
AcDbEntity
  8
GEOM
100
AcDbLine
 62
7
  6
CONTINUOUS
 10
126.5233329757
 20
146.1721306138
 11
126.5233329757
 21
146.2913993981
  0
LINE
  5
288
100
AcDbEntity
  8
0
100
AcDbLine
 62
7
  6
CONTINUOUS
 10
127.6479064951
 20
154.9722013333
 11
127.6479064951
 21
149.3811397493
  0
LINE
  5
289
100
AcDbEntity
  8
GEOM
100
AcDbLine
 62
7
  6
CONTINUOUS
 10
127.901845701
 20
88.5863373978
 11
127.9018442776
 21
32.7055346666
  0
LINE
  5
28A
100
AcDbEntity
  8
GEOM
100
AcDbLine
 62
7
  6
CONTINUOUS
 10
128.8446533192
 20
32.3722013333
 11
128.8446533192
 21
90.1379485982
  0
LINE
  5
28B
100
AcDbEntity
  8
0
100
AcDbLine
 62
7
  6
CONTINUOUS
 10
129.1965380564
 20
157.9553325977
 11
129.1965380564
 21
153.635969995
  0
LINE
  5
28C
100
AcDbEntity
  8
0
100
AcDbLine
 62
7
  6
CONTINUOUS
 10
129.2233329757
 20
157.9642926473
 11
129.2233329757
 21
153.7095884306
  0
LINE
  5
28D
100
AcDbEntity
  8
0
100
AcDbLine
 62
7
  6
CONTINUOUS
 10
154.5686324373
 20
71.3722013333
 11
140.7341323582
 21
71.3722013333
  0
LINE
  5
28E
100
AcDbEntity
  8
GEOM
100
AcDbLine
 62
7
  6
CONTINUOUS
 10
88.4303222995
 20
71.3722013333
 11
76.0223710813
 21
71.3722013333
  0
LINE
  5
28F
100
AcDbEntity
  8
0
100
AcDbLine
 62
7
  6
CONTINUOUS
 10
110.3692310094
 20
158.1722013333
 11
110.4200514174
 21
157.9722013333
  0
LINE
  5
290
100
AcDbEntity
  8
0
100
AcDbLine
 62
7
  6
CONTINUOUS
 10
111.2463275895
 20
60.2468850892
 11
110.7973970945
 21
59.3658093833
  0
LINE
  5
291
100
AcDbEntity
  8
0
100
AcDbLine
 62
7
  6
CONTINUOUS
 10
90.4346578411
 20
37.8722013333
 11
89.2510897892
 21
35.8222013333
  0
LINE
  5
292
100
AcDbEntity
  8
GEOM
100
AcDbLine
 62
7
  6
CONTINUOUS
 10
100.8446533192
 20
88.4935216769
 11
97.6020126321
 21
85.2508809898
  0
LINE
  5
293
100
AcDbEntity
  8
0
100
AcDbLine
 62
7
  6
CONTINUOUS
 10
154.5686324373
 20
77.1568110241
 11
140.7341323582
 21
77.1568110241
  0
LINE
  5
294
100
AcDbEntity
  8
GEOM
100
AcDbLine
 62
7
  6
CONTINUOUS
 10
88.4303222995
 20
77.1568110241
 11
76.0223710813
 21
77.1568110241
  0
LINE
  5
295
100
AcDbEntity
  8
0
100
AcDbLine
 62
7
  6
CONTINUOUS
 10
109.5169938779
 20
158.1722013333
 11
109.5964029663
 21
157.9722013333
  0
LINE
  5
296
100
AcDbEntity
  8
GEOM
100
AcDbLine
 62
7
  6
CONTINUOUS
 10
137.2233329757
 20
90.3722013333
 11
137.2233329757
 21
32.3722013333
  0
LINE
  5
297
100
AcDbEntity
  8
0
100
AcDbLine
 62
7
  6
CONTINUOUS
 10
137.2233329757
 20
32.3726119642
 11
137.2233329757
 21
90.3717907025
  0
LINE
  5
298
100
AcDbEntity
  8
0
100
AcDbLine
 62
7
  6
CONTINUOUS
 10
138.6842333445
 20
90.3722013333
 11
138.6842333445
 21
32.3722013333
  0
LINE
  5
299
100
AcDbEntity
  8
0
100
AcDbLine
 62
7
  6
CONTINUOUS
 10
139.6690410988
 20
89.5458495039
 11
139.6690410988
 21
33.1985531628
  0
LINE
  5
29A
100
AcDbEntity
  8
0
100
AcDbLine
 62
7
  6
CONTINUOUS
 10
139.9357474203
 20
34.7111198754
 11
139.9357474203
 21
34.9530592702
  0
LINE
  5
29B
100
AcDbEntity
  8
0
100
AcDbLine
 62
7
  6
CONTINUOUS
 10
139.9357474203
 20
45.0591406473
 11
139.9357474203
 21
51.2661199416
  0
LINE
  5
29C
100
AcDbEntity
  8
0
100
AcDbLine
 62
7
  6
CONTINUOUS
 10
139.9357474203
 20
71.4782827252
 11
139.9357474203
 21
77.6852620195
  0
LINE
  5
29D
100
AcDbEntity
  8
0
100
AcDbLine
 62
7
  6
CONTINUOUS
 10
139.9357474203
 20
87.7913433965
 11
139.9357474203
 21
88.0332827912
  0
LINE
  5
29E
100
AcDbEntity
  8
0
100
AcDbLine
 62
7
  6
CONTINUOUS
 10
140.7235936227
 20
35.3722013333
 11
140.7235936227
 21
35.5876147561
  0
LINE
  5
29F
100
AcDbEntity
  8
0
100
AcDbLine
 62
7
  6
CONTINUOUS
 10
140.7235936227
 20
45.5874486591
 11
140.7235936227
 21
51.3723674316
  0
LINE
  5
2A0
100
AcDbEntity
  8
0
100
AcDbLine
 62
7
  6
CONTINUOUS
 10
140.7235936227
 20
71.372035235
 11
140.7235936227
 21
77.1569540075
  0
LINE
  5
2A1
100
AcDbEntity
  8
0
100
AcDbLine
 62
7
  6
CONTINUOUS
 10
140.7235936227
 20
87.1567879105
 11
140.7235936227
 21
87.3722013333
  0
LINE
  5
2A2
100
AcDbEntity
  8
0
100
AcDbLine
 62
7
  6
CONTINUOUS
 10
113.2054719856
 20
62.6822013333
 11
111.1266081516
 21
58.6022013333
  0
LINE
  5
2A3
100
AcDbEntity
  8
0
100
AcDbLine
 62
7
  6
CONTINUOUS
 10
114.1033329757
 20
62.6822013333
 11
112.0244691417
 21
58.6022013333
  0
LINE
  5
2A4
100
AcDbEntity
  8
0
100
AcDbLine
 62
7
  6
CONTINUOUS
 10
95.4806922886
 20
84.3722013333
 11
91.3006832449
 21
84.3722013333
  0
LINE
  5
2A5
100
AcDbEntity
  8
0
100
AcDbLine
 62
7
  6
CONTINUOUS
 10
154.5686324373
 20
87.1568110241
 11
140.7341323582
 21
87.1568110241
  0
LINE
  5
2A6
100
AcDbEntity
  8
GEOM
100
AcDbLine
 62
7
  6
CONTINUOUS
 10
88.4303222995
 20
87.1568110241
 11
76.0223710813
 21
87.1568110241
  0
LINE
  5
2A7
100
AcDbEntity
  8
0
100
AcDbLine
 62
7
  6
CONTINUOUS
 10
154.5686324373
 20
87.3722013333
 11
140.7235936227
 21
87.3722013333
  0
LINE
  5
2A8
100
AcDbEntity
  8
0
100
AcDbLine
 62
7
  6
CONTINUOUS
 10
88.4716669258
 20
87.3722013333
 11
76.0223710813
 21
87.3722013333
  0
LINE
  5
2A9
100
AcDbEntity
  8
0
100
AcDbLine
 62
7
  6
CONTINUOUS
 10
138.6842333445
 20
90.3722013333
 11
137.2233329757
 21
90.3722013333
  0
LINE
  5
2AA
100
AcDbEntity
  8
GEOM
100
AcDbLine
 62
7
  6
CONTINUOUS
 10
137.2233329757
 20
90.3722013333
 11
129.4733329757
 21
90.3722013333
  0
LINE
  5
2AB
100
AcDbEntity
  8
0
100
AcDbLine
 62
7
  6
CONTINUOUS
 10
104.6445810065
 20
138.2009533025
 11
104.6804397569
 21
138.1650945521
  0
LINE
  5
2AC
100
AcDbEntity
  8
0
100
AcDbLine
 62
7
  6
CONTINUOUS
 10
109.2233329757
 20
158.1722013333
 11
109.3235576296
 21
157.9722013333
  0
LINE
  5
2AD
100
AcDbEntity
  8
0
100
AcDbLine
 62
7
  6
CONTINUOUS
 10
139.9357474203
 20
88.0332827912
 11
139.6690410975
 21
89.545849511
  0
LINE
  5
2AE
100
AcDbEntity
  8
0
100
AcDbLine
 62
7
  6
CONTINUOUS
 10
155.7233329757
 20
85.3722013333
 11
154.5686324373
 21
87.3722013333
  0
LINE
  5
2AF
100
AcDbEntity
  8
0
100
AcDbLine
 62
7
  6
CONTINUOUS
 10
152.7233329757
 20
173.7722013333
 11
152.7233329757
 21
173.9722013333
  0
LINE
  5
2B0
100
AcDbEntity
  8
0
100
AcDbLine
 62
7
  6
CONTINUOUS
 10
152.7233329757
 20
174.3088763752
 11
152.7233329757
 21
176.6355262914
  0
LINE
  5
2B1
100
AcDbEntity
  8
0
100
AcDbLine
 62
7
  6
CONTINUOUS
 10
152.7233329757
 20
176.9722013333
 11
152.7233329757
 21
177.1722013333
  0
LINE
  5
2B2
100
AcDbEntity
  8
0
100
AcDbLine
 62
7
  6
CONTINUOUS
 10
154.0233329757
 20
172.4722013333
 11
154.0233329757
 21
178.4722013333
  0
LINE
  5
2B3
100
AcDbEntity
  8
0
100
AcDbLine
 62
7
  6
CONTINUOUS
 10
154.5686324373
 20
35.3722013333
 11
154.5686324373
 21
35.5875916425
  0
LINE
  5
2B4
100
AcDbEntity
  8
0
100
AcDbLine
 62
7
  6
CONTINUOUS
 10
154.5686324373
 20
45.5875916425
 11
154.5686324373
 21
51.3722013333
  0
LINE
  5
2B5
100
AcDbEntity
  8
0
100
AcDbLine
 62
7
  6
CONTINUOUS
 10
154.5686324373
 20
71.3722013333
 11
154.5686324373
 21
77.1568110241
  0
LINE
  5
2B6
100
AcDbEntity
  8
0
100
AcDbLine
 62
7
  6
CONTINUOUS
 10
154.5686324373
 20
87.1568110241
 11
154.5686324373
 21
87.3722013333
  0
LINE
  5
2B7
100
AcDbEntity
  8
0
100
AcDbLine
 62
7
  6
CONTINUOUS
 10
155.7233329757
 20
37.3722013333
 11
155.7233329757
 21
85.3722013333
  0
LINE
  5
2B8
100
AcDbEntity
  8
GEOM
100
AcDbLine
 62
7
  6
CONTINUOUS
 10
157.0233329757
 20
178.4722013333
 11
157.0233329757
 21
178.5222013333
  0
LINE
  5
2B9
100
AcDbEntity
  8
GEOM
100
AcDbLine
 62
7
  6
CONTINUOUS
 10
158.2914093955
 20
178.4722013333
 11
158.2914093955
 21
178.5222013333
  0
LINE
  5
2BA
100
AcDbEntity
  8
0
100
AcDbLine
 62
7
  6
CONTINUOUS
 10
139.9357474203
 20
34.7111198754
 11
139.6690410975
 21
33.1985531556
  0
LINE
  5
2BB
100
AcDbEntity
  8
0
100
AcDbLine
 62
7
  6
CONTINUOUS
 10
117.7233329757
 20
146.9722013333
 11
110.2632122866
 21
154.9722013333
  0
LINE
  5
2BC
100
AcDbEntity
  8
GEOM
100
AcDbLine
 62
7
  6
CONTINUOUS
 10
159.2233329757
 20
178.4722013333
 11
159.2233329757
 21
178.5222013333
  0
LINE
  5
2BD
100
AcDbEntity
  8
GEOM
100
AcDbLine
 62
7
  6
CONTINUOUS
 10
160.0340526995
 20
178.4722013333
 11
160.0340526995
 21
178.5222013333
  0
LINE
  5
2BE
100
AcDbEntity
  8
GEOM
100
AcDbLine
 62
7
  6
CONTINUOUS
 10
161.8240526995
 20
178.4722013333
 11
161.8240526995
 21
178.5222013333
  0
LINE
  5
2BF
100
AcDbEntity
  8
GEOM
100
AcDbLine
 62
7
  6
CONTINUOUS
 10
162.8977168916
 20
178.4722013333
 11
162.8977168916
 21
178.5222013333
  0
LINE
  5
2C0
100
AcDbEntity
  8
GEOM
100
AcDbLine
 62
7
  6
CONTINUOUS
 10
100.3733329757
 20
140.6855987929
 11
104.9830901358
 21
138.0241542556
  0
LINE
  5
2C1
100
AcDbEntity
  8
GEOM
100
AcDbLine
 62
7
  6
CONTINUOUS
 10
100.5233329757
 20
140.9454064141
 11
104.3060968841
 21
138.7614266533
  0
LINE
  5
2C2
100
AcDbEntity
  8
GEOM
100
AcDbLine
 62
7
  6
CONTINUOUS
 10
167.1777168916
 20
178.4722013333
 11
167.1777168916
 21
178.5222013333
  0
LINE
  5
2C3
100
AcDbEntity
  8
GEOM
100
AcDbLine
 62
7
  6
CONTINUOUS
 10
168.2694101043
 20
178.4722013333
 11
168.2694101043
 21
178.5222013333
  0
LINE
  5
2C4
100
AcDbEntity
  8
GEOM
100
AcDbLine
 62
7
  6
CONTINUOUS
 10
170.1994101043
 20
178.4722013333
 11
170.1994101043
 21
178.5222013333
  0
LINE
  5
2C5
100
AcDbEntity
  8
GEOM
100
AcDbLine
 62
7
  6
CONTINUOUS
 10
171.0394101043
 20
178.4722013333
 11
171.0394101043
 21
178.5222013333
  0
LINE
  5
2C6
100
AcDbEntity
  8
GEOM
100
AcDbLine
 62
7
  6
CONTINUOUS
 10
171.1894101043
 20
178.4722013333
 11
171.1894101043
 21
178.5222013333
  0
LINE
  5
2C7
100
AcDbEntity
  8
GEOM
100
AcDbLine
 62
7
  6
CONTINUOUS
 10
171.4494101043
 20
178.4722013333
 11
171.4494101043
 21
178.5222013333
  0
LINE
  5
2C8
100
AcDbEntity
  8
GEOM
100
AcDbLine
 62
7
  6
CONTINUOUS
 10
172.4874101043
 20
178.4722013333
 11
172.4874101043
 21
178.5222013333
  0
LINE
  5
2C9
100
AcDbEntity
  8
GEOM
100
AcDbLine
 62
7
  6
CONTINUOUS
 10
173.2569101043
 20
178.4722013333
 11
173.2569101043
 21
178.5222013333
  0
LINE
  5
2CA
100
AcDbEntity
  8
0
100
AcDbLine
 62
7
  6
CONTINUOUS
 10
106.2326014117
 20
149.3872474971
 11
107.0211614701
 21
148.9762853259
  0
LINE
  5
2CB
100
AcDbEntity
  8
0
100
AcDbLine
 62
7
  6
CONTINUOUS
 10
120.9296720734
 20
158.1722013333
 11
121.121311193
 21
157.9722013333
  0
LINE
  5
2CC
100
AcDbEntity
  8
GEOM
100
AcDbLine
 62
7
  6
CONTINUOUS
 10
174.0694101043
 20
178.4722013333
 11
174.0694101043
 21
178.5222013333
  0
LINE
  5
2CD
100
AcDbEntity
  8
GEOM
100
AcDbLine
 62
7
  6
CONTINUOUS
 10
174.8794101043
 20
178.4722013333
 11
174.8794101043
 21
178.5222013333
  0
LINE
  5
2CE
100
AcDbEntity
  8
GEOM
100
AcDbLine
 62
7
  6
CONTINUOUS
 10
175.3694101043
 20
178.4722013333
 11
175.3694101043
 21
178.5222013333
  0
LINE
  5
2CF
100
AcDbEntity
  8
GEOM
100
AcDbLine
 62
7
  6
CONTINUOUS
 10
176.5194101043
 20
178.4722013333
 11
176.5194101043
 21
178.5222013333
  0
LINE
  5
2D0
100
AcDbEntity
  8
GEOM
100
AcDbLine
 62
7
  6
CONTINUOUS
 10
177.7394101043
 20
178.4722013333
 11
177.7394101043
 21
178.5222013333
  0
LINE
  5
2D1
100
AcDbEntity
  8
GEOM
100
AcDbLine
 62
7
  6
CONTINUOUS
 10
177.7540688739
 20
178.4722013333
 11
177.7540688739
 21
178.5222013333
  0
LINE
  5
2D2
100
AcDbEntity
  8
GEOM
100
AcDbLine
 62
7
  6
CONTINUOUS
 10
178.4494101043
 20
178.4722013333
 11
178.4494101043
 21
178.5222013333
  0
LINE
  5
2D3
100
AcDbEntity
  8
GEOM
100
AcDbLine
 62
7
  6
CONTINUOUS
 10
178.8894101043
 20
178.4722013333
 11
178.8894101043
 21
178.5222013333
  0
LINE
  5
2D4
100
AcDbEntity
  8
0
100
AcDbLine
 62
7
  6
CONTINUOUS
 10
106.5957760627
 20
150.5349879833
 11
107.0211614478
 21
150.3132856624
  0
LINE
  5
2D5
100
AcDbEntity
  8
0
100
AcDbLine
 62
7
  6
CONTINUOUS
 10
109.2233329757
 20
158.1722013333
 11
109.5662965399
 21
157.9722013333
  0
LINE
  5
2D6
100
AcDbEntity
  8
GEOM
100
AcDbLine
 62
7
  6
CONTINUOUS
 10
181.8994101043
 20
178.4722013333
 11
181.8994101043
 21
178.5222013333
  0
LINE
  5
2D7
100
AcDbEntity
  8
GEOM
100
AcDbLine
 62
7
  6
CONTINUOUS
 10
184.2227975606
 20
178.4722013333
 11
184.2227975606
 21
178.5222013333
  0
LINE
  5
2D8
100
AcDbEntity
  8
GEOM
100
AcDbLine
 62
7
  6
CONTINUOUS
 10
184.3694101043
 20
178.4722013333
 11
184.3694101043
 21
178.5222013333
  0
LINE
  5
2D9
100
AcDbEntity
  8
GEOM
100
AcDbLine
 62
7
  6
CONTINUOUS
 10
185.6194101043
 20
178.4722013333
 11
185.6194101043
 21
178.5222013333
  0
LINE
  5
2DA
100
AcDbEntity
  8
GEOM
100
AcDbLine
 62
7
  6
CONTINUOUS
 10
185.8394072568
 20
178.5222013333
 11
185.8394072568
 21
178.4722013333
  0
LINE
  5
2DB
100
AcDbEntity
  8
GEOM
100
AcDbLine
 62
7
  6
CONTINUOUS
 10
186.4894101043
 20
178.4722013333
 11
186.4894101043
 21
178.5222013333
  0
LINE
  5
2DC
100
AcDbEntity
  8
GEOM
100
AcDbLine
 62
7
  6
CONTINUOUS
 10
188.6494101043
 20
178.4722013333
 11
188.6494101043
 21
178.5222013333
  0
LINE
  5
2DD
100
AcDbEntity
  8
0
100
AcDbLine
 62
7
  6
CONTINUOUS
 10
119.8421351292
 20
159.9696362818
 11
120.9233329757
 21
159.3454064141
  0
LINE
  5
2DE
100
AcDbEntity
  8
0
100
AcDbLine
 62
7
  6
CONTINUOUS
 10
119.8421351292
 20
162.8149357434
 11
119.2233329757
 21
163.1722013333
  0
LINE
  5
2DF
100
AcDbEntity
  8
GEOM
100
AcDbLine
 62
7
  6
CONTINUOUS
 10
190.423332957
 20
178.4722013333
 11
190.423332957
 21
178.5222013333
  0
LINE
  5
2E0
100
AcDbEntity
  8
GEOM
100
AcDbLine
 62
7
  6
CONTINUOUS
 10
191.3766071959
 20
178.4722013333
 11
191.3766071959
 21
178.5222013333
  0
LINE
  5
2E1
100
AcDbEntity
  8
GEOM
100
AcDbLine
 62
7
  6
CONTINUOUS
 10
191.7790628235
 20
178.4722013333
 11
191.7790628235
 21
178.5222013333
  0
LINE
  5
2E2
100
AcDbEntity
  8
GEOM
100
AcDbLine
 62
7
  6
CONTINUOUS
 10
192.0533097404
 20
178.4722013333
 11
192.0533097404
 21
178.5222013333
  0
LINE
  5
2E3
100
AcDbEntity
  8
GEOM
100
AcDbLine
 62
7
  6
CONTINUOUS
 10
192.2360887318
 20
178.4722013333
 11
192.2360887318
 21
178.5222013333
  0
LINE
  5
2E4
100
AcDbEntity
  8
GEOM
100
AcDbLine
 62
7
  6
CONTINUOUS
 10
192.3111229403
 20
178.4722013333
 11
192.3111229403
 21
178.5222013333
  0
LINE
  5
2E5
100
AcDbEntity
  8
GEOM
100
AcDbLine
 62
7
  6
CONTINUOUS
 10
192.4594101043
 20
178.4722013333
 11
192.4594101043
 21
178.5222013333
  0
LINE
  5
2E6
100
AcDbEntity
  8
GEOM
100
AcDbLine
 62
7
  6
CONTINUOUS
 10
192.7203997238
 20
178.4722013333
 11
192.7203997238
 21
178.5222013333
  0
LINE
  5
2E7
100
AcDbEntity
  8
GEOM
100
AcDbLine
 62
7
  6
CONTINUOUS
 10
193.0273573859
 20
178.4722013333
 11
193.0273573859
 21
178.5222013333
  0
LINE
  5
2E8
100
AcDbEntity
  8
GEOM
100
AcDbLine
 62
7
  6
CONTINUOUS
 10
193.3291991814
 20
178.4722013333
 11
193.3291991814
 21
178.5222013333
  0
LINE
  5
2E9
100
AcDbEntity
  8
GEOM
100
AcDbLine
 62
7
  6
CONTINUOUS
 10
193.4553929432
 20
178.4722013333
 11
193.4553929432
 21
178.5222013333
  0
LINE
  5
2EA
100
AcDbEntity
  8
GEOM
100
AcDbLine
 62
7
  6
CONTINUOUS
 10
193.489499317
 20
178.4222013333
 11
193.489499317
 21
178.5222013333
  0
LINE
  5
2EB
100
AcDbEntity
  8
GEOM
100
AcDbLine
 62
7
  6
CONTINUOUS
 10
193.6873167022
 20
178.4222013333
 11
193.6873167022
 21
178.5222013333
  0
LINE
  5
2EC
100
AcDbEntity
  8
GEOM
100
AcDbLine
 62
7
  6
CONTINUOUS
 10
193.9394361131
 20
178.4722013333
 11
193.9394361131
 21
178.5222013333
  0
LINE
  5
2ED
100
AcDbEntity
  8
GEOM
100
AcDbLine
 62
7
  6
CONTINUOUS
 10
194.127391584
 20
178.4722013333
 11
194.127391584
 21
178.5222013333
  0
LINE
  5
2EE
100
AcDbEntity
  8
GEOM
100
AcDbLine
 62
7
  6
CONTINUOUS
 10
194.2995267375
 20
178.4722013333
 11
194.2995267375
 21
178.5222013333
  0
LINE
  5
2EF
100
AcDbEntity
  8
GEOM
100
AcDbLine
 62
7
  6
CONTINUOUS
 10
194.9884762629
 20
178.4722013333
 11
194.9884762629
 21
178.5222013333
  0
LINE
  5
2F0
100
AcDbEntity
  8
GEOM
100
AcDbLine
 62
7
  6
CONTINUOUS
 10
195.0515731438
 20
178.4722013333
 11
195.0515731438
 21
178.5222013333
  0
LINE
  5
2F1
100
AcDbEntity
  8
GEOM
100
AcDbLine
 62
7
  6
CONTINUOUS
 10
195.3227191432
 20
178.4722013333
 11
195.3227191432
 21
178.5222013333
  0
LINE
  5
2F2
100
AcDbEntity
  8
GEOM
100
AcDbLine
 62
7
  6
CONTINUOUS
 10
195.6279712184
 20
178.4722013333
 11
195.6279712184
 21
178.5222013333
  0
LINE
  5
2F3
100
AcDbEntity
  8
GEOM
100
AcDbLine
 62
7
  6
CONTINUOUS
 10
195.9809725745
 20
178.4722013333
 11
195.9809725745
 21
178.5222013333
  0
LINE
  5
2F4
100
AcDbEntity
  8
GEOM
100
AcDbLine
 62
7
  6
CONTINUOUS
 10
196.0645335181
 20
178.4722013333
 11
196.0645335181
 21
178.5222013333
  0
LINE
  5
2F5
100
AcDbEntity
  8
GEOM
100
AcDbLine
 62
7
  6
CONTINUOUS
 10
196.1105769141
 20
178.4722013333
 11
196.1105769141
 21
178.5222013333
  0
LINE
  5
2F6
100
AcDbEntity
  8
0
100
AcDbLine
 62
7
  6
CONTINUOUS
 10
155.7233329757
 20
37.3722013333
 11
154.5686324373
 21
35.3722013333
  0
LINE
  5
2F7
100
AcDbEntity
  8
0
100
AcDbLine
 62
7
  6
CONTINUOUS
 10
125.4733329757
 20
137.4579877709
 11
104.9733329757
 21
137.4579877709
  0
LINE
  5
2F8
100
AcDbEntity
  8
GEOM
100
AcDbLine
 62
7
  6
CONTINUOUS
 10
104.717778588
 20
138.1650945521
 11
104.6804397569
 21
138.1650945521
  0
LINE
  5
2F9
100
AcDbEntity
  8
GEOM
100
AcDbLine
 62
7
  6
CONTINUOUS
 10
104.9890823797
 20
138.1650945521
 11
125.7662261945
 21
138.1650945521
  0
LINE
  5
2FA
100
AcDbEntity
  8
GEOM
100
AcDbLine
 62
7
  6
CONTINUOUS
 10
104.8366074175
 20
138.3293081145
 11
125.9304397569
 21
138.3293081145
  0
LINE
  5
2FB
100
AcDbEntity
  8
GEOM
100
AcDbLine
 62
7
  6
CONTINUOUS
 10
104.2757304984
 20
139.0364148957
 11
126.2233329757
 21
139.0364148957
  0
LINE
  5
2FC
100
AcDbEntity
  8
0
100
AcDbLine
 62
7
  6
CONTINUOUS
 10
100.2233329757
 20
139.9722013333
 11
101.6089736217
 21
139.9722013333
  0
LINE
  5
2FD
100
AcDbEntity
  8
0
100
AcDbLine
 62
7
  6
CONTINUOUS
 10
117.7233329757
 20
139.9722013333
 11
124.2233329757
 21
139.9722013333
  0
LINE
  5
2FE
100
AcDbEntity
  8
GEOM
100
AcDbLine
 62
7
  6
CONTINUOUS
 10
100.5233329757
 20
140.9454064141
 11
100.2233329757
 21
140.9454064141
  0
LINE
  5
2FF
100
AcDbEntity
  8
GEOM
100
AcDbLine
 62
7
  6
CONTINUOUS
 10
196.2163072093
 20
178.4722013333
 11
196.2163072093
 21
178.5222013333
  0
LINE
  5
300
100
AcDbEntity
  8
GEOM
100
AcDbLine
 62
7
  6
CONTINUOUS
 10
196.5232645734
 20
178.4722013333
 11
196.5232645734
 21
178.5222013333
  0
LINE
  5
301
100
AcDbEntity
  8
GEOM
100
AcDbLine
 62
7
  6
CONTINUOUS
 10
196.574307182
 20
178.4722013333
 11
196.574307182
 21
178.5222013333
  0
LINE
  5
302
100
AcDbEntity
  8
GEOM
100
AcDbLine
 62
7
  6
CONTINUOUS
 10
196.6883659307
 20
178.4722013333
 11
196.6883659307
 21
178.5222013333
  0
LINE
  5
303
100
AcDbEntity
  8
GEOM
100
AcDbLine
 62
7
  6
CONTINUOUS
 10
196.869444774
 20
178.4722013333
 11
196.869444774
 21
178.5222013333
  0
LINE
  5
304
100
AcDbEntity
  8
GEOM
100
AcDbLine
 62
7
  6
CONTINUOUS
 10
197.0945470794
 20
178.4722013333
 11
197.0945470794
 21
178.5222013333
  0
LINE
  5
305
100
AcDbEntity
  8
GEOM
100
AcDbLine
 62
7
  6
CONTINUOUS
 10
197.2002767785
 20
178.4722013333
 11
197.2002767785
 21
178.5222013333
  0
LINE
  5
306
100
AcDbEntity
  8
GEOM
100
AcDbLine
 62
7
  6
CONTINUOUS
 10
197.3844515546
 20
178.4722013333
 11
197.3844515546
 21
178.5222013333
  0
LINE
  5
307
100
AcDbEntity
  8
GEOM
100
AcDbLine
 62
7
  6
CONTINUOUS
 10
197.6914095147
 20
178.4722013333
 11
197.6914095147
 21
178.5222013333
  0
LINE
  5
308
100
AcDbEntity
  8
GEOM
100
AcDbLine
 62
7
  6
CONTINUOUS
 10
104.306096884
 20
138.7614266533
 11
104.5901217002
 21
138.8248867899
  0
LINE
  5
309
100
AcDbEntity
  8
0
100
AcDbLine
 62
7
  6
CONTINUOUS
 10
114.2964778034
 20
148.3722012547
 11
115.2233329757
 21
148.3941545709
  0
LINE
  5
30A
100
AcDbEntity
  8
0
100
AcDbLine
 62
7
  6
CONTINUOUS
 10
116.0946330503
 20
148.7188813646
 11
115.2233329757
 21
148.6982483272
  0
LINE
  5
30B
100
AcDbEntity
  8
GEOM
100
AcDbLine
 62
7
  6
CONTINUOUS
 10
100.2233329757
 20
144.0722013333
 11
104.566374812
 21
144.0722013333
  0
LINE
  5
30C
100
AcDbEntity
  8
GEOM
100
AcDbLine
 62
7
  6
CONTINUOUS
 10
104.1395610545
 20
144.3722013333
 11
100.5233329757
 21
144.3722013333
  0
LINE
  5
30D
100
AcDbEntity
  8
GEOM
100
AcDbLine
 62
7
  6
CONTINUOUS
 10
104.2233329757
 20
144.6722013333
 11
104.4338204861
 21
144.6722013333
  0
LINE
  5
30E
100
AcDbEntity
  8
GEOM
100
AcDbLine
 62
7
  6
CONTINUOUS
 10
117.7233329757
 20
145.4579877709
 11
104.2233329757
 21
145.4579877709
  0
LINE
  5
30F
100
AcDbEntity
  8
GEOM
100
AcDbLine
 62
7
  6
CONTINUOUS
 10
126.5233329757
 20
146.1721306138
 11
126.4799226883
 21
146.1721306138
  0
LINE
  5
310
100
AcDbEntity
  8
GEOM
100
AcDbLine
 62
7
  6
CONTINUOUS
 10
117.7233329757
 20
146.1721306138
 11
103.9233329757
 21
146.1721306138
  0
LINE
  5
311
100
AcDbEntity
  8
0
100
AcDbLine
 62
7
  6
CONTINUOUS
 10
100.2233329757
 20
146.9722013333
 11
103.2233329757
 21
146.9722013333
  0
LINE
  5
312
100
AcDbEntity
  8
GEOM
100
AcDbLine
 62
7
  6
CONTINUOUS
 10
116.6975663809
 20
148.0722013333
 11
103.9233329757
 21
148.0722013333
  0
LINE
  5
313
100
AcDbEntity
  8
GEOM
100
AcDbLine
 62
7
  6
CONTINUOUS
 10
116.4178118551
 20
148.3722013333
 11
104.2233329757
 21
148.3722013333
  0
LINE
  5
314
100
AcDbEntity
  8
0
100
AcDbLine
 62
7
  6
CONTINUOUS
 10
110.3692310094
 20
158.1722013333
 11
111.6316405445
 21
157.9722013333
  0
LINE
  5
315
100
AcDbEntity
  8
0
100
AcDbLine
 62
7
  6
CONTINUOUS
 10
118.7500444894
 20
158.1722013333
 11
119.9041176834
 21
157.9722013333
  0
LINE
  5
316
100
AcDbEntity
  8
0
100
AcDbLine
 62
7
  6
CONTINUOUS
 10
109.5169938779
 20
158.1722013333
 11
110.3609884628
 21
157.9722013333
  0
LINE
  5
317
100
AcDbEntity
  8
0
100
AcDbLine
 62
7
  6
CONTINUOUS
 10
120.0774349419
 20
158.1722013333
 11
120.7849177731
 21
157.9722013333
  0
LINE
  5
318
100
AcDbEntity
  8
0
100
AcDbLine
 62
7
  6
CONTINUOUS
 10
106.9233593268
 20
150.8722013333
 11
114.0865241397
 21
150.8722013333
  0
LINE
  5
319
100
AcDbEntity
  8
0
100
AcDbLine
 62
7
  6
CONTINUOUS
 10
111.3503496295
 20
153.7948510641
 11
111.0976468223
 21
153.7948510641
  0
LINE
  5
31A
100
AcDbEntity
  8
0
100
AcDbLine
 62
7
  6
CONTINUOUS
 10
110.8227213383
 20
154.3722013333
 11
108.2233329757
 21
154.3722013333
  0
LINE
  5
31B
100
AcDbEntity
  8
0
100
AcDbLine
 62
7
  6
CONTINUOUS
 10
101.5158346414
 20
154.9722013333
 11
110.2632122866
 21
154.9722013333
  0
LINE
  5
31C
100
AcDbEntity
  8
0
100
AcDbLine
 62
7
  6
CONTINUOUS
 10
111.5557139523
 20
154.9722013333
 11
127.6479064951
 21
154.9722013333
  0
LINE
  5
31D
100
AcDbEntity
  8
0
100
AcDbLine
 62
7
  6
CONTINUOUS
 10
129.2233329757
 20
154.9722013333
 11
130.8233329757
 21
154.9722013333
  0
LINE
  5
31E
100
AcDbEntity
  8
0
100
AcDbLine
 62
7
  6
CONTINUOUS
 10
103.2233329757
 20
157.9722013333
 11
130.8233329757
 21
157.9722013333
  0
LINE
  5
31F
100
AcDbEntity
  8
0
100
AcDbLine
 62
7
  6
CONTINUOUS
 10
121.2233329757
 20
158.1722013333
 11
109.2233329843
 21
158.1722013333
  0
LINE
  5
320
100
AcDbEntity
  8
0
100
AcDbLine
 62
7
  6
CONTINUOUS
 10
113.3692310094
 20
158.1722013333
 11
115.0688889807
 21
157.9722013333
  0
LINE
  5
321
100
AcDbEntity
  8
0
100
AcDbLine
 62
7
  6
CONTINUOUS
 10
115.2233329757
 20
158.1722013333
 11
116.8990235094
 21
157.9722013333
  0
LINE
  5
322
100
AcDbEntity
  8
0
100
AcDbLine
 62
7
  6
CONTINUOUS
 10
111.6966214619
 20
158.1722013333
 11
113.2538725062
 21
157.9722013333
  0
LINE
  5
323
100
AcDbEntity
  8
0
100
AcDbLine
 62
7
  6
CONTINUOUS
 10
117.0774349419
 20
158.1722013333
 11
118.5651297735
 21
157.9722013333
  0
LINE
  5
324
100
AcDbEntity
  8
GEOM
100
AcDbLine
 62
7
  6
CONTINUOUS
 10
212.5448017462
 20
178.4722013333
 11
212.5448017462
 21
178.5222013333
  0
LINE
  5
325
100
AcDbEntity
  8
GEOM
100
AcDbLine
 62
7
  6
CONTINUOUS
 10
212.7777189927
 20
178.4722013333
 11
212.7777189927
 21
178.5222013333
  0
LINE
  5
326
100
AcDbEntity
  8
GEOM
100
AcDbLine
 62
7
  6
CONTINUOUS
 10
213.3938684339
 20
178.4722013333
 11
213.3938684339
 21
178.5222013333
  0
LINE
  5
327
100
AcDbEntity
  8
GEOM
100
AcDbLine
 62
7
  6
CONTINUOUS
 10
214.0060710628
 20
178.4722013333
 11
214.0060710628
 21
178.5222013333
  0
LINE
  5
328
100
AcDbEntity
  8
GEOM
100
AcDbLine
 62
7
  6
CONTINUOUS
 10
214.2344322588
 20
178.4722013333
 11
214.2344322588
 21
178.5222013333
  0
LINE
  5
329
100
AcDbEntity
  8
GEOM
100
AcDbLine
 62
7
  6
CONTINUOUS
 10
214.5247427513
 20
178.4722013333
 11
214.5247427513
 21
178.5222013333
  0
LINE
  5
32A
100
AcDbEntity
  8
GEOM
100
AcDbLine
 62
7
  6
CONTINUOUS
 10
214.5393190112
 20
178.4722013333
 11
214.5393190112
 21
178.5222013333
  0
LINE
  5
32B
100
AcDbEntity
  8
GEOM
100
AcDbLine
 62
7
  6
CONTINUOUS
 10
214.9037252962
 20
178.4722013333
 11
214.9037252962
 21
178.5222013333
  0
LINE
  5
32C
100
AcDbEntity
  8
GEOM
100
AcDbLine
 62
7
  6
CONTINUOUS
 10
215.6847695886
 20
178.4722013333
 11
215.6847695886
 21
178.5222013333
  0
LINE
  5
32D
100
AcDbEntity
  8
GEOM
100
AcDbLine
 62
7
  6
CONTINUOUS
 10
215.7965208436
 20
178.4722013333
 11
215.7965208436
 21
178.5222013333
  0
LINE
  5
32E
100
AcDbEntity
  8
GEOM
100
AcDbLine
 62
7
  6
CONTINUOUS
 10
215.9653624323
 20
178.4722013333
 11
215.9653624323
 21
178.5222013333
  0
LINE
  5
32F
100
AcDbEntity
  8
GEOM
100
AcDbLine
 62
7
  6
CONTINUOUS
 10
216.0528197786
 20
178.4722013333
 11
216.0528197786
 21
178.5222013333
  0
LINE
  5
330
100
AcDbEntity
  8
GEOM
100
AcDbLine
 62
7
  6
CONTINUOUS
 10
216.4172260635
 20
178.4722013333
 11
216.4172260635
 21
178.5222013333
  0
LINE
  5
331
100
AcDbEntity
  8
GEOM
100
AcDbLine
 62
7
  6
CONTINUOUS
 10
217.1982703559
 20
178.4722013333
 11
217.1982703559
 21
178.5222013333
  0
LINE
  5
332
100
AcDbEntity
  8
GEOM
100
AcDbLine
 62
7
  6
CONTINUOUS
 10
217.310021611
 20
178.4722013333
 11
217.310021611
 21
178.5222013333
  0
LINE
  5
333
100
AcDbEntity
  8
0
100
AcDbLine
 62
7
  6
CONTINUOUS
 10
109.2233329757
 20
158.8257911718
 11
121.2233329757
 21
158.8257911718
  0
LINE
  5
334
100
AcDbEntity
  8
0
100
AcDbLine
 62
7
  6
CONTINUOUS
 10
109.5233329757
 20
159.3454064141
 11
120.9233329757
 21
159.3454064141
  0
LINE
  5
335
100
AcDbEntity
  8
0
100
AcDbLine
 62
7
  6
CONTINUOUS
 10
111.2233800515
 20
163.1722013333
 11
119.2232858998
 21
163.1722013333
  0
LINE
  5
336
100
AcDbEntity
  8
GEOM
100
AcDbLine
 62
7
  6
CONTINUOUS
 10
218.9324090309
 20
178.4722013333
 11
218.9324090309
 21
178.5222013333
  0
LINE
  5
337
100
AcDbEntity
  8
GEOM
100
AcDbLine
 62
7
  6
CONTINUOUS
 10
220.9346481975
 20
178.4722013333
 11
220.9346481975
 21
178.5222013333
  0
LINE
  5
338
100
AcDbEntity
  8
GEOM
100
AcDbLine
 62
7
  6
CONTINUOUS
 10
223.6415524194
 20
178.4722013333
 11
223.6415524194
 21
178.5222013333
  0
LINE
  5
339
100
AcDbEntity
  8
0
100
AcDbLine
 62
7
  6
CONTINUOUS
 10
154.0233329757
 20
172.4722013333
 11
239.2233329757
 21
172.4722013333
  0
LINE
  5
33A
100
AcDbEntity
  8
0
100
AcDbLine
 62
7
  6
CONTINUOUS
 10
230.7233329757
 20
172.4722013333
 11
230.7233329757
 21
178.4722013333
  0
LINE
  5
33B
100
AcDbEntity
  8
0
100
AcDbLine
 62
7
  6
CONTINUOUS
 10
152.3086143499
 20
173.9722013333
 11
152.7411034527
 21
173.9722013333
  0
LINE
  5
33C
100
AcDbEntity
  8
0
100
AcDbLine
 62
7
  6
CONTINUOUS
 10
152.7233329757
 20
174.9722013333
 11
241.7233329757
 21
174.9722013333
  0
LINE
  5
33D
100
AcDbEntity
  8
0
100
AcDbLine
 62
7
  6
CONTINUOUS
 10
152.7233329757
 20
175.9722013333
 11
241.7233329757
 21
175.9722013333
  0
LINE
  5
33E
100
AcDbEntity
  8
0
100
AcDbLine
 62
7
  6
CONTINUOUS
 10
152.7411034527
 20
176.9722013333
 11
151.8944007875
 21
176.9722013333
  0
LINE
  5
33F
100
AcDbEntity
  8
0
100
AcDbLine
 62
7
  6
CONTINUOUS
 10
154.0233329757
 20
178.4722013333
 11
239.2233329757
 21
178.4722013333
  0
LINE
  5
340
100
AcDbEntity
  8
GEOM
100
AcDbLine
 62
7
  6
CONTINUOUS
 10
157.0233329757
 20
178.5222013333
 11
159.2233329757
 21
178.5222013333
  0
LINE
  5
341
100
AcDbEntity
  8
GEOM
100
AcDbLine
 62
7
  6
CONTINUOUS
 10
160.0340526995
 20
178.5222013333
 11
170.1994101043
 21
178.5222013333
  0
LINE
  5
342
100
AcDbEntity
  8
GEOM
100
AcDbLine
 62
7
  6
CONTINUOUS
 10
170.2106784542
 20
178.5222013333
 11
174.0681417545
 21
178.5222013333
  0
LINE
  5
343
100
AcDbEntity
  8
GEOM
100
AcDbLine
 62
7
  6
CONTINUOUS
 10
174.0694101043
 20
178.5222013333
 11
178.4494101043
 21
178.5222013333
  0
LINE
  5
344
100
AcDbEntity
  8
GEOM
100
AcDbLine
 62
7
  6
CONTINUOUS
 10
178.8894101043
 20
178.5222013333
 11
185.6194101043
 21
178.5222013333
  0
LINE
  5
345
100
AcDbEntity
  8
GEOM
100
AcDbLine
 62
7
  6
CONTINUOUS
 10
185.839463096
 20
178.5222013333
 11
197.6914095147
 21
178.5222013333
  0
LINE
  5
346
100
AcDbEntity
  8
GEOM
100
AcDbLine
 62
7
  6
CONTINUOUS
 10
212.5448017462
 20
178.5222013333
 11
214.2344322588
 21
178.5222013333
  0
LINE
  5
347
100
AcDbEntity
  8
GEOM
100
AcDbLine
 62
7
  6
CONTINUOUS
 10
214.5247427513
 20
178.5222013333
 11
215.9653624323
 21
178.5222013333
  0
LINE
  5
348
100
AcDbEntity
  8
GEOM
100
AcDbLine
 62
7
  6
CONTINUOUS
 10
216.0528197786
 20
178.5222013333
 11
217.310021611
 21
178.5222013333
  0
LINE
  5
349
100
AcDbEntity
  8
GEOM
100
AcDbLine
 62
7
  6
CONTINUOUS
 10
218.9324090309
 20
178.5222013333
 11
223.6415524194
 21
178.5222013333
  0
LINE
  5
34A
100
AcDbEntity
  8
0
100
AcDbLine
 62
7
  6
CONTINUOUS
 10
241.7233329757
 20
174.9722013333
 11
241.7233329757
 21
175.9722013333
  0
ARC
  5
34B
100
AcDbEntity
  8
GEOM
100
AcDbCircle
 62
7
  6
CONTINUOUS
 10
129.6922261915
 20
102.6388545633
 40
14.070649493
100
AcDbArc
 50
237.4313471564
 51
240.1045577014
  0
ARC
  5
34C
100
AcDbEntity
  8
GEOM
100
AcDbCircle
 62
7
  6
CONTINUOUS
 10
125.4301098123
 20
83.1999369199
 40
4.9086448843
100
AcDbArc
 50
102.2764044857
 51
105.2889056903
  0
ARC
  5
34D
100
AcDbEntity
  8
GEOM
100
AcDbCircle
 62
7
  6
CONTINUOUS
 10
129.4733254817
 20
94.3721961017
 40
3.9999978964
100
AcDbArc
 50
179.999925063
 51
270.0001073429
  0
ARC
  5
34E
100
AcDbEntity
  8
GEOM
100
AcDbCircle
 62
7
  6
CONTINUOUS
 10
126.0162261945
 20
30.3722013333
 40
3.0
100
AcDbArc
 50
51.057558731
 51
90.0
  0
ARC
  5
34F
100
AcDbEntity
  8
GEOM
100
AcDbCircle
 62
7
  6
CONTINUOUS
 10
102.9659736628
 20
36.3722013333
 40
3.0
100
AcDbArc
 50
225.0
 51
270.0
  0
ARC
  5
350
100
AcDbEntity
  8
GEOM
100
AcDbCircle
 62
7
  6
CONTINUOUS
 10
102.9659736628
 20
86.3722013333
 40
3.0
100
AcDbArc
 50
99.5228025625
 51
135.0
  0
ARC
  5
351
100
AcDbEntity
  8
GEOM
100
AcDbCircle
 62
7
  6
CONTINUOUS
 10
95.4806922886
 20
35.3722013333
 40
3.0
100
AcDbArc
 50
45.0
 51
90.0
  0
ARC
  5
352
100
AcDbEntity
  8
GEOM
100
AcDbCircle
 62
7
  6
CONTINUOUS
 10
95.4806922886
 20
87.3722013333
 40
3.0
100
AcDbArc
 50
270.0
 51
315.0
  0
ARC
  5
353
100
AcDbEntity
  8
GEOM
100
AcDbCircle
 62
7
  6
CONTINUOUS
 10
101.9733336477
 20
92.2895228853
 40
2.9999998479
100
AcDbArc
 50
279.5227819267
 51
359.9999517739
  0
ARC
  5
354
100
AcDbEntity
  8
0
100
AcDbCircle
 62
7
  6
CONTINUOUS
 10
88.4305705766
 20
32.853564281
 40
2.734027373
100
AcDbArc
 50
89.1387298949
 51
90.0052480803
  0
ARC
  5
355
100
AcDbEntity
  8
0
100
AcDbCircle
 62
7
  6
CONTINUOUS
 10
88.4305711355
 20
89.8908255146
 40
2.7340145019
100
AcDbArc
 50
269.9947448389
 51
270.8612624461
  0
ARC
  5
356
100
AcDbEntity
  8
0
100
AcDbCircle
 62
7
  6
CONTINUOUS
 10
120.5233329757
 20
58.6022013333
 40
2.58
100
AcDbArc
 50
79.7295607216
 51
180.0
  0
ARC
  5
357
100
AcDbEntity
  8
0
100
AcDbCircle
 62
7
  6
CONTINUOUS
 10
119.7033329757
 20
58.8122013333
 40
2.56
100
AcDbArc
 50
90.0
 51
180.0
  0
ARC
  5
358
100
AcDbEntity
  8
0
100
AcDbCircle
 62
7
  6
CONTINUOUS
 10
140.7341216381
 20
84.7591044278
 40
2.3977065963
100
AcDbArc
 50
89.9997712719
 51
90.2515790656
  0
ARC
  5
359
100
AcDbEntity
  8
0
100
AcDbCircle
 62
7
  6
CONTINUOUS
 10
140.7341216375
 20
37.9852982002
 40
2.3977065577
100
AcDbArc
 50
269.748420945
 51
270.000228739
  0
ARC
  5
35A
100
AcDbEntity
  8
0
100
AcDbCircle
 62
7
  6
CONTINUOUS
 10
118.6208300637
 20
60.3448667257
 40
1.68
100
AcDbArc
 50
113.7828917797
 51
151.5775992543
  0
ARC
  5
35B
100
AcDbEntity
  8
0
100
AcDbCircle
 62
7
  6
CONTINUOUS
 10
128.8446533192
 20
33.8722013333
 40
1.5
100
AcDbArc
 50
231.057558731
 51
270.0
  0
ARC
  5
35C
100
AcDbEntity
  8
0
100
AcDbCircle
 62
7
  6
CONTINUOUS
 10
138.6842333445
 20
89.3722013333
 40
1.0
100
AcDbArc
 50
10.0
 51
90.0
  0
ARC
  5
35D
100
AcDbEntity
  8
0
100
AcDbCircle
 62
7
  6
CONTINUOUS
 10
138.6842333445
 20
33.3722013333
 40
1.0
100
AcDbArc
 50
270.0
 51
350.0
  0
ARC
  5
35E
100
AcDbEntity
  8
0
100
AcDbCircle
 62
7
  6
CONTINUOUS
 10
91.3006832449
 20
85.3722013333
 40
1.0
100
AcDbArc
 50
209.9999999976
 51
270.0
  0
ARC
  5
35F
100
AcDbEntity
  8
0
100
AcDbCircle
 62
7
  6
CONTINUOUS
 10
91.3006832449
 20
37.3722013333
 40
1.0
100
AcDbArc
 50
90.0
 51
150.0000000024
  0
ARC
  5
360
100
AcDbEntity
  8
0
100
AcDbCircle
 62
7
  6
CONTINUOUS
 10
88.4716669258
 20
86.4722013333
 40
0.9
100
AcDbArc
 50
30.0
 51
90.0
  0
ARC
  5
361
100
AcDbEntity
  8
0
100
AcDbCircle
 62
7
  6
CONTINUOUS
 10
88.4716669258
 20
36.2722013333
 40
0.9
100
AcDbArc
 50
270.0
 51
330.0
  0
ARC
  5
362
100
AcDbEntity
  8
0
100
AcDbCircle
 62
7
  6
CONTINUOUS
 10
140.7235936227
 20
88.1722013333
 40
0.8
100
AcDbArc
 50
190.0
 51
270.0
  0
ARC
  5
363
100
AcDbEntity
  8
0
100
AcDbCircle
 62
7
  6
CONTINUOUS
 10
140.7235936227
 20
34.5722013333
 40
0.8
100
AcDbArc
 50
90.0
 51
170.0
  0
ARC
  5
364
100
AcDbEntity
  8
0
100
AcDbCircle
 62
7
  6
CONTINUOUS
 10
88.4305242833
 20
76.7130937109
 40
0.4437173602
100
AcDbArc
 50
84.6797422579
 51
90.0263572006
  0
ARC
  5
365
100
AcDbEntity
  8
0
100
AcDbCircle
 62
7
  6
CONTINUOUS
 10
88.4305248463
 20
46.0313068325
 40
0.4437152371
100
AcDbArc
 50
269.9735987478
 51
275.3202102574
  0
ARC
  5
366
100
AcDbEntity
  8
0
100
AcDbCircle
 62
7
  6
CONTINUOUS
 10
140.7341230178
 20
45.1998243379
 40
0.3877673047
100
AcDbArc
 50
89.9988029488
 51
91.5559951894
  0
ARC
  5
367
100
AcDbEntity
  8
0
100
AcDbCircle
 62
7
  6
CONTINUOUS
 10
140.7341230173
 20
77.544578315
 40
0.3877672909
100
AcDbArc
 50
268.444004826
 51
270.0011970667
  0
ARC
  5
368
100
AcDbEntity
  8
0
100
AcDbCircle
 62
7
  6
CONTINUOUS
 10
88.4305037028
 20
50.9895389555
 40
0.3826624218
100
AcDbArc
 50
83.8247103376
 51
90.0274823622
  0
ARC
  5
369
100
AcDbEntity
  8
0
100
AcDbCircle
 62
7
  6
CONTINUOUS
 10
88.4305042762
 20
71.7548618438
 40
0.3826605547
100
AcDbArc
 50
269.9724654378
 51
276.1752335525
  0
ARC
  5
36A
100
AcDbEntity
  8
0
100
AcDbCircle
 62
7
  6
CONTINUOUS
 10
140.7341234756
 20
71.0383469079
 40
0.3338544255
100
AcDbArc
 50
89.9986794348
 51
91.8074231074
  0
ARC
  5
36B
100
AcDbEntity
  8
0
100
AcDbCircle
 62
7
  6
CONTINUOUS
 10
140.7341234753
 20
51.7060557463
 40
0.333854413
100
AcDbArc
 50
268.1925768879
 51
270.0013205597
  0
ARC
  5
36C
100
AcDbEntity
  8
0
100
AcDbCircle
 62
7
  6
CONTINUOUS
 10
59.9571618158
 20
164.0995390078
 40
55.5831179998
100
AcDbArc
 50
353.6709999501
 51
353.8783855052
  0
ARC
  5
36D
100
AcDbEntity
  8
GEOM
100
AcDbCircle
 62
7
  6
CONTINUOUS
 10
91.6426150821
 20
121.8192010763
 40
21.0358948043
100
AcDbArc
 50
50.9971967332
 51
51.5280146197
  0
ARC
  5
36E
100
AcDbEntity
  8
GEOM
100
AcDbCircle
 62
7
  6
CONTINUOUS
 10
99.1810561001
 20
130.0105241587
 40
9.8576511805
100
AcDbArc
 50
53.1203986959
 51
53.840455223
  0
ARC
  5
36F
100
AcDbEntity
  8
0
100
AcDbCircle
 62
7
  6
CONTINUOUS
 10
130.8233329757
 20
158.9722013333
 40
4.0
100
AcDbArc
 50
270.0
 51
315.0
  0
ARC
  5
370
100
AcDbEntity
  8
0
100
AcDbCircle
 62
7
  6
CONTINUOUS
 10
103.2233329757
 20
154.9722013333
 40
3.0
100
AcDbArc
 50
90.0
 51
180.0
  0
ARC
  5
371
100
AcDbEntity
  8
GEOM
100
AcDbCircle
 62
7
  6
CONTINUOUS
 10
105.5388671492
 20
139.0367297064
 40
1.26313669
100
AcDbArc
 50
180.0142797878
 51
192.588767187
  0
ARC
  5
372
100
AcDbEntity
  8
0
100
AcDbCircle
 62
7
  6
CONTINUOUS
 10
130.8233329757
 20
158.9722013333
 40
1.0
100
AcDbArc
 50
270.0
 51
315.0
  0
ARC
  5
373
100
AcDbEntity
  8
0
100
AcDbCircle
 62
7
  6
CONTINUOUS
 10
125.2233329757
 20
139.0364148957
 40
1.0
100
AcDbArc
 50
315.0
 51
360.0
  0
ARC
  5
374
100
AcDbEntity
  8
GEOM
100
AcDbCircle
 62
7
  6
CONTINUOUS
 10
103.2233329757
 20
145.4579877709
 40
1.0
100
AcDbArc
 50
0.0
 51
45.5729959992
  0
ARC
  5
375
100
AcDbEntity
  8
0
100
AcDbCircle
 62
7
  6
CONTINUOUS
 10
126.4733329757
 20
137.4579877709
 40
1.0
100
AcDbArc
 50
134.9999999923
 51
180.0
  0
ARC
  5
376
100
AcDbEntity
  8
0
100
AcDbCircle
 62
7
  6
CONTINUOUS
 10
103.9733329757
 20
137.4579877709
 40
1.0
100
AcDbArc
 50
0.0
 51
45.0000000077
  0
ARC
  5
377
100
AcDbEntity
  8
GEOM
100
AcDbCircle
 62
7
  6
CONTINUOUS
 10
105.5238011433
 20
139.0367746741
 40
0.9574263989
100
AcDbArc
 50
180.0215304114
 51
192.7860583863
  0
ARC
  5
378
100
AcDbEntity
  8
0
100
AcDbCircle
 62
7
  6
CONTINUOUS
 10
120.6233329757
 20
158.8257911718
 40
0.6
100
AcDbArc
 50
0.0
 51
60.0
  0
ARC
  5
379
100
AcDbEntity
  8
0
100
AcDbCircle
 62
7
  6
CONTINUOUS
 10
109.8233329757
 20
158.8257911718
 40
0.6
100
AcDbArc
 50
120.0
 51
180.0
  0
ARC
  5
37A
100
AcDbEntity
  8
0
100
AcDbCircle
 62
7
  6
CONTINUOUS
 10
103.7233329757
 20
154.4722013333
 40
0.5
100
AcDbArc
 50
90.0
 51
180.0
  0
ARC
  5
37B
100
AcDbEntity
  8
GEOM
100
AcDbCircle
 62
7
  6
CONTINUOUS
 10
103.9233329757
 20
144.6722013333
 40
0.3
100
AcDbArc
 50
270.0
 51
360.0
  0
ARC
  5
37C
100
AcDbEntity
  8
GEOM
100
AcDbCircle
 62
7
  6
CONTINUOUS
 10
100.5233329757
 20
140.9454064141
 40
0.3
100
AcDbArc
 50
180.0
 51
240.0
  0
ARC
  5
37D
100
AcDbEntity
  8
GEOM
100
AcDbCircle
 62
7
  6
CONTINUOUS
 10
100.5233329757
 20
144.0722013333
 40
0.3
100
AcDbArc
 50
90.0
 51
180.0
  0
ARC
  5
37E
100
AcDbEntity
  8
0
100
AcDbCircle
 62
7
  6
CONTINUOUS
 10
151.8944007875
 20
172.9722013333
 40
4.0
100
AcDbArc
 50
90.0
 51
135.0
  0
ARC
  5
37F
100
AcDbEntity
  8
0
100
AcDbCircle
 62
7
  6
CONTINUOUS
 10
239.2233329757
 20
175.9722013333
 40
2.5
100
AcDbArc
 50
0.0
 51
90.0
  0
ARC
  5
380
100
AcDbEntity
  8
0
100
AcDbCircle
 62
7
  6
CONTINUOUS
 10
239.2233329757
 20
174.9722013333
 40
2.5
100
AcDbArc
 50
270.0
 51
360.0
  0
ARC
  5
381
100
AcDbEntity
  8
0
100
AcDbCircle
 62
7
  6
CONTINUOUS
 10
152.3086143499
 20
171.9722013333
 40
2.0
100
AcDbArc
 50
90.0
 51
135.0
  0
ARC
  5
382
100
AcDbEntity
  8
0
100
AcDbCircle
 62
7
  6
CONTINUOUS
 10
154.0233329757
 20
173.7722013333
 40
1.3
100
AcDbArc
 50
180.0
 51
270.0
  0
ARC
  5
383
100
AcDbEntity
  8
0
100
AcDbCircle
 62
7
  6
CONTINUOUS
 10
154.0233329757
 20
177.1722013333
 40
1.3
100
AcDbArc
 50
90.0
 51
180.0
  0
SPLINE
  5
384
100
AcDbEntity
  8
0
100
AcDbSpline
 62
7
  6
CONTINUOUS
 70
0
 71
3
 72
11
 73
7
 74
0
 42
0.0000001
 43
0.0000001
 44
0.0000000001
 40
0.0
 40
0.0
 40
0.0
 40
0.0
 40
0.2220706424
 40
0.4104503194
 40
0.6535264574
 40
1.0
 40
1.0
 40
1.0
 40
1.0
 10
106.5927394003
 20
150.5416059166
 30
0.0
 10
106.5922778252
 20
150.541143783
 30
0.0
 10
106.5914759744
 20
150.5401163627
 30
0.0
 10
106.591722867
 20
150.5380395046
 30
0.0
 10
106.5934016168
 20
150.5363522015
 30
0.0
 10
106.5948810995
 20
150.5354588925
 30
0.0
 10
106.5957848234
 20
150.5349879752
 30
0.0
  0
SPLINE
  5
385
100
AcDbEntity
  8
0
100
AcDbSpline
 62
7
  6
CONTINUOUS
 70
0
 71
3
 72
10
 73
6
 74
0
 42
0.0000001
 43
0.0000001
 44
0.0000000001
 40
0.0
 40
0.0
 40
0.0
 40
0.0
 40
0.1783999066
 40
0.5181058999
 40
1.0
 40
1.0
 40
1.0
 40
1.0
 10
106.2233411375
 20
149.3969054762
 30
0.0
 10
106.2233409395
 20
149.3960778764
 30
0.0
 10
106.2239947617
 20
149.3936639809
 30
0.0
 10
106.2273454696
 20
149.3902333946
 30
0.0
 10
106.2306204914
 20
149.3882808921
 30
0.0
 10
106.2326028209
 20
149.3872475031
 30
0.0
  0
SPLINE
  5
386
100
AcDbEntity
  8
0
100
AcDbSpline
 62
7
  6
CONTINUOUS
 70
0
 71
3
 72
10
 73
6
 74
0
 42
0.0000001
 43
0.0000001
 44
0.0000000001
 40
0.0
 40
0.0
 40
0.0
 40
0.0
 40
0.1783627744
 40
0.5181328966
 40
1.0
 40
1.0
 40
1.0
 40
1.0
 10
106.2233368246
 20
149.7009984397
 30
0.0
 10
106.2233376013
 20
149.7018262854
 30
0.0
 10
106.223995189
 20
149.7042405508
 30
0.0
 10
106.2273499544
 20
149.7076697875
 30
0.0
 10
106.230627066
 20
149.7096227742
 30
0.0
 10
106.2326104167
 20
149.7106563788
 30
0.0
  0
SPLINE
  5
387
100
AcDbEntity
  8
0
100
AcDbSpline
 62
7
  6
CONTINUOUS
 70
0
 71
3
 72
11
 73
7
 74
0
 42
0.0000001
 43
0.0000001
 44
0.0000000001
 40
0.0
 40
0.0
 40
0.0
 40
0.0
 40
0.2409986936
 40
0.4863412479
 40
0.7389668424
 40
1.0
 40
1.0
 40
1.0
 40
1.0
 10
109.1611551492
 20
154.3722013333
 30
0.0
 10
108.9971193693
 20
154.3722013298
 30
0.0
 10
108.6655222493
 20
154.3448895428
 30
0.0
 10
108.1749940525
 20
154.2264633809
 30
0.0
 10
107.6917970719
 20
154.0404091942
 30
0.0
 10
107.3797485211
 20
153.8815462398
 30
0.0
 10
107.2246634761
 20
153.7948510641
 30
0.0
  0
SPLINE
  5
388
100
AcDbEntity
  8
0
100
AcDbSpline
 62
7
  6
CONTINUOUS
 70
0
 71
3
 72
11
 73
7
 74
0
 42
0.0000001
 43
0.0000001
 44
0.0000000001
 40
0.0
 40
0.0
 40
0.0
 40
0.0
 40
0.2610331594
 40
0.5136587636
 40
0.7590013162
 40
1.0
 40
1.0
 40
1.0
 40
1.0
 10
111.0976468223
 20
153.7948510641
 30
0.0
 10
110.9425617763
 20
153.8815462404
 30
0.0
 10
110.6305132181
 20
154.0404091968
 30
0.0
 10
110.1473162311
 20
154.2264633872
 30
0.0
 10
109.656788034
 20
154.3448895363
 30
0.0
 10
109.3251909225
 20
154.3722013369
 30
0.0
 10
109.1611551492
 20
154.3722013333
 30
0.0
  0
SPLINE
  5
389
100
AcDbEntity
  8
0
100
AcDbSpline
 62
7
  6
CONTINUOUS
 70
0
 71
3
 72
26
 73
22
 74
0
 42
0.0000001
 43
0.0000001
 44
0.0000000001
 40
0.0
 40
0.0
 40
0.0
 40
0.0
 40
0.1895785392
 40
0.3722814733
 40
0.4589750182
 40
0.5415013553
 40
0.6191136588
 40
0.6911068072
 40
0.7568289005
 40
0.8156843246
 40
0.86713964
 40
0.9107322442
 40
0.9294553454
 40
0.9460722714
 40
0.9605454928
 40
0.972846678
 40
0.9829499656
 40
0.9908384517
 40
0.9965109777
 40
0.9985235009
 40
1.0
 40
1.0
 40
1.0
 40
1.0
 10
115.2233329757
 20
148.6982483272
 30
0.0
 10
114.6547482739
 20
148.6848039025
 30
0.0
 10
113.5382001258
 20
148.6584077143
 30
0.0
 10
112.1616680063
 20
148.6246910166
 30
0.0
 10
111.1062395851
 20
148.5973098019
 30
0.0
 10
110.3660069483
 20
148.5771444059
 30
0.0
 10
109.6698928891
 20
148.5569954565
 30
0.0
 10
109.0242140772
 20
148.5368680962
 30
0.0
 10
108.4348352918
 20
148.5167711564
 30
0.0
 10
107.9071080405
 20
148.496723203
 30
0.0
 10
107.4458220206
 20
148.4767352443
 30
0.0
 10
107.1049377928
 20
148.4594173306
 30
0.0
 10
106.8685581907
 20
148.4452617716
 30
0.0
 10
106.7194534702
 20
148.4352091918
 30
0.0
 10
106.5896599964
 20
148.4251872208
 30
0.0
 10
106.4794762401
 20
148.4152009577
 30
0.0
 10
106.3891179032
 20
148.4053137908
 30
0.0
 10
106.3188161644
 20
148.3954869933
 30
0.0
 10
106.2728142858
 20
148.3869031699
 30
0.0
 10
106.2463474893
 20
148.3794765646
 30
0.0
 10
106.236531803
 20
148.3757037283
 30
0.0
 10
106.2326039476
 20
148.3736560583
 30
0.0
  0
SPLINE
  5
38A
100
AcDbEntity
  8
0
100
AcDbSpline
 62
7
  6
CONTINUOUS
 70
0
 71
3
 72
26
 73
22
 74
0
 42
0.0000001
 43
0.0000001
 44
0.0000000001
 40
0.0
 40
0.0
 40
0.0
 40
0.0
 40
0.0014902705
 40
0.0035089659
 40
0.0091743564
 40
0.0170308389
 40
0.0270743035
 40
0.0392921459
 40
0.0536614226
 40
0.0701514937
 40
0.0887303838
 40
0.1319911826
 40
0.1830762454
 40
0.241546246
 40
0.3069008057
 40
0.3785773096
 40
0.4559572538
 40
0.538375543
 40
0.6251213897
 40
0.8085729266
 40
1.0
 40
1.0
 40
1.0
 40
1.0
 10
106.2326104167
 20
149.7106563788
 30
0.0
 10
106.2364215262
 20
149.7126425027
 30
0.0
 10
106.2458986187
 20
149.7163159978
 30
0.0
 10
106.2713522095
 20
149.7235500509
 30
0.0
 10
106.315451096
 20
149.7319224098
 30
0.0
 10
106.3827220283
 20
149.7415000593
 30
0.0
 10
106.46905454
 20
149.7511421376
 30
0.0
 10
106.5742399727
 20
149.7608758756
 30
0.0
 10
106.6980837009
 20
149.770642556
 30
0.0
 10
106.8403160179
 20
149.7804419886
 30
0.0
 10
107.0657805372
 20
149.7942384936
 30
0.0
 10
107.3909967769
 20
149.811120271
 30
0.0
 10
107.8312528887
 20
149.8306024813
 30
0.0
 10
108.3352739509
 20
149.8501446005
 30
0.0
 10
108.8987131787
 20
149.8697332101
 30
0.0
 10
109.5167129822
 20
149.8893511773
 30
0.0
 10
110.1839425545
 20
149.9089910925
 30
0.0
 10
110.8946456146
 20
149.928646543
 30
0.0
 10
111.9111544781
 20
149.9553677582
 30
0.0
 10
113.2419633216
 20
149.988282461
 30
0.0
 10
114.3227195278
 20
150.0139427792
 30
0.0
 10
114.8745952411
 20
150.0270007765
 30
0.0
  0
SPLINE
  5
38B
100
AcDbEntity
  8
0
100
AcDbSpline
 62
7
  6
CONTINUOUS
 70
0
 71
3
 72
30
 73
26
 74
0
 42
0.0000001
 43
0.0000001
 44
0.0000000001
 40
0.0
 40
0.0
 40
0.0
 40
0.0
 40
0.1987850593
 40
0.2946413909
 40
0.387073314
 40
0.4753171055
 40
0.5586483306
 40
0.6363866725
 40
0.7079013656
 40
0.7726124988
 40
0.8300032948
 40
0.8796170809
 40
0.9013817039
 40
0.9210610451
 40
0.9386182085
 40
0.9540172558
 40
0.967230709
 40
0.9782366559
 40
0.9870148367
 40
0.9905648931
 40
0.9935554612
 40
0.9959875068
 40
0.9978638831
 40
0.9991924803
 40
1.0
 40
1.0
 40
1.0
 40
1.0
 10
114.2053856346
 20
150.7444808065
 30
0.0
 10
113.7006843926
 20
150.7360554552
 30
0.0
 10
112.9526121962
 20
150.7234736581
 30
0.0
 10
111.9698734489
 20
150.7062991281
 30
0.0
 10
111.2677950997
 20
150.6935973081
 30
0.0
 10
110.5975264776
 20
150.6809207445
 30
0.0
 10
109.964575497
 20
150.668270771
 30
0.0
 10
109.3741127996
 20
150.6556505069
 30
0.0
 10
108.8309426269
 20
150.6430642687
 30
0.0
 10
108.339454631
 20
150.630518857
 30
0.0
 10
107.9035981681
 20
150.6180207141
 30
0.0
 10
107.5767924009
 20
150.6072482602
 30
0.0
 10
107.3457362814
 20
150.5984942222
 30
0.0
 10
107.1960462544
 20
150.5922303412
 30
0.0
 10
107.0625349998
 20
150.5859831264
 30
0.0
 10
106.9454619602
 20
150.5797535996
 30
0.0
 10
106.8450484366
 20
150.5735537827
 30
0.0
 10
106.76148438
 20
150.5673885364
 30
0.0
 10
106.7024688347
 20
150.562004947
 30
0.0
 10
106.6638270051
 20
150.557548225
 30
0.0
 10
106.641244222
 20
150.554462746
 30
0.0
 10
106.6229779479
 20
150.5513994702
 30
0.0
 10
106.6089332372
 20
150.5483879967
 30
0.0
 10
106.5992584999
 20
150.5454340703
 30
0.0
 10
106.594188461
 20
150.5430567303
 30
0.0
 10
106.5927394003
 20
150.5416059166
 30
0.0
  0
SPLINE
  5
38C
100
AcDbEntity
  8
0
100
AcDbSpline
 62
7
  6
CONTINUOUS
 70
0
 71
3
 72
25
 73
21
 74
0
 42
0.0000001
 43
0.0000001
 44
0.0000000001
 40
0.0
 40
0.0
 40
0.0
 40
0.0
 40
0.0016265965
 40
0.0037688805
 40
0.0096396438
 40
0.0176474616
 40
0.0277942923
 40
0.0400689907
 40
0.0544487216
 40
0.0894177643
 40
0.1324343067
 40
0.1831631403
 40
0.2411987866
 40
0.3060810843
 40
0.3772925624
 40
0.454262616
 40
0.536378378
 40
0.6229817104
 40
0.8068513906
 40
1.0
 40
1.0
 40
1.0
 40
1.0
 10
107.0335051909
 20
150.1280507975
 30
0.0
 10
107.0370976271
 20
150.1299240762
 30
0.0
 10
107.0458370981
 20
150.1334454107
 30
0.0
 10
107.0688332769
 20
150.1403781766
 30
0.0
 10
107.1079697698
 20
150.1484783671
 30
0.0
 10
107.1670909869
 20
150.157723647
 30
0.0
 10
107.2423255663
 20
150.1670289942
 30
0.0
 10
107.3335101602
 20
150.1764132271
 30
0.0
 10
107.4864163836
 20
150.189860608
 30
0.0
 10
107.7159146081
 20
150.2061468793
 30
0.0
 10
108.0359746045
 20
150.2248307274
 30
0.0
 10
108.4135674555
 20
150.2435953471
 30
0.0
 10
108.8456769574
 20
150.2624313122
 30
0.0
 10
109.3288458564
 20
150.2813060092
 30
0.0
 10
109.8592076517
 20
150.3002097538
 30
0.0
 10
110.4325187231
 20
150.3191341102
 30
0.0
 10
111.0441866432
 20
150.3380731457
 30
0.0
 10
111.9220339217
 20
150.3638556343
 30
0.0
 10
113.0763828129
 20
150.3956302291
 30
0.0
 10
114.0151338008
 20
150.4202747941
 30
0.0
 10
114.4960637536
 20
150.4328043412
 30
0.0
  0
LINE
  5
38D
100
AcDbEntity
  8
0
100
AcDbLine
 62
7
  6
CONTINUOUS
 10
107.0335035855
 20
148.7910505051
 11
107.0398023105
 21
148.7939404636
  0
SPLINE
  5
38E
100
AcDbEntity
  8
0
100
AcDbSpline
 62
7
  6
CONTINUOUS
 70
0
 71
3
 72
23
 73
19
 74
0
 42
0.0000001
 43
0.0000001
 44
0.0000000001
 40
0.0
 40
0.0
 40
0.0
 40
0.0
 40
0.0042331976
 40
0.0106553349
 40
0.0192827789
 40
0.0301094388
 40
0.0431128057
 40
0.0582657285
 40
0.0948806916
 40
0.1396124534
 40
0.1920369379
 40
0.2516568576
 40
0.3179020101
 40
0.390138029
 40
0.4676750574
 40
0.6356372
 40
0.8153691226
 40
1.0
 40
1.0
 40
1.0
 40
1.0
 10
107.0398023105
 20
148.7939404636
 30
0.0
 10
107.0511406562
 20
148.79858521
 30
0.0
 10
107.0811797607
 20
148.8062893122
 30
0.0
 10
107.1360421711
 20
148.8162806433
 30
0.0
 10
107.2103077163
 20
148.8263433983
 30
0.0
 10
107.3036905814
 20
148.836566062
 30
0.0
 10
107.4160657662
 20
148.8468345433
 30
0.0
 10
107.6029687023
 20
148.8615256458
 30
0.0
 10
107.8817284559
 20
148.8793329755
 30
0.0
 10
108.2683864926
 20
148.8997833334
 30
0.0
 10
108.7217077852
 20
148.9203202261
 30
0.0
 10
109.2373497805
 20
148.9409295946
 30
0.0
 10
109.8103748904
 20
148.9615801827
 30
0.0
 10
110.4352896718
 20
148.9822628761
 30
0.0
 10
111.3545249683
 20
149.0106261549
 30
0.0
 10
112.5848491107
 20
149.0454371695
 30
0.0
 10
114.1251012868
 20
149.0862972053
 30
0.0
 10
115.1793832889
 20
149.1135442451
 30
0.0
 10
115.7136097166
 20
149.1274323091
 30
0.0
  0
SPLINE
  5
38F
100
AcDbEntity
  8
0
100
AcDbSpline
 62
7
  6
CONTINUOUS
 70
0
 71
3
 72
28
 73
24
 74
0
 42
0.0000001
 43
0.0000001
 44
0.0000000001
 40
0.0
 40
0.0
 40
0.0
 40
0.0
 40
0.0017685268
 40
0.0033721201
 40
0.0055193956
 40
0.0082251719
 40
0.0114959493
 40
0.0197422851
 40
0.0302632888
 40
0.0430429426
 40
0.0580597834
 40
0.0752879833
 40
0.1162296181
 40
0.1655398346
 40
0.2228105734
 40
0.2875705091
 40
0.3592840226
 40
0.4373541111
 40
0.5211349174
 40
0.6099298188
 40
0.7030004753
 40
0.7995750573
 40
1.0
 40
1.0
 40
1.0
 40
1.0
 10
107.0233374733
 20
150.3174520963
 30
0.0
 10
107.0233335774
 20
150.3217585595
 30
0.0
 10
107.0318176279
 20
150.3276667283
 30
0.0
 10
107.0435083978
 20
150.3325935569
 30
0.0
 10
107.0587732234
 20
150.337448839
 30
0.0
 10
107.0778877513
 20
150.3421571822
 30
0.0
 10
107.1118728661
 20
150.3491065789
 30
0.0
 10
107.1648818149
 20
150.3574080871
 30
0.0
 10
107.2411281143
 20
150.3669125685
 30
0.0
 10
107.333945147
 20
150.3764597912
 30
0.0
 10
107.4431659515
 20
150.3860581505
 30
0.0
 10
107.6208606903
 20
150.39967914
 30
0.0
 10
107.8820638915
 20
150.4162734459
 30
0.0
 10
108.2407854987
 20
150.4353604678
 30
0.0
 10
108.657573284
 20
150.4545198919
 30
0.0
 10
109.1289614704
 20
150.4737360354
 30
0.0
 10
109.651033635
 20
150.4929860886
 30
0.0
 10
110.2194503338
 20
150.5122621728
 30
0.0
 10
110.8294827339
 20
150.5315553355
 30
0.0
 10
111.4760590726
 20
150.5508614896
 30
0.0
 10
112.1538018584
 20
150.5701776508
 30
0.0
 10
113.1032871446
 20
150.5962635224
 30
0.0
 10
113.8262472136
 20
150.6153202521
 30
0.0
 10
114.3141272475
 20
150.6280593201
 30
0.0
  0
SPLINE
  5
390
100
AcDbEntity
  8
0
100
AcDbSpline
 62
7
  6
CONTINUOUS
 70
0
 71
3
 72
30
 73
26
 74
0
 42
0.0000001
 43
0.0000001
 44
0.0000000001
 40
0.0
 40
0.0
 40
0.0
 40
0.0
 40
0.0006969618
 40
0.0018035884
 40
0.0034465898
 40
0.0056612827
 40
0.0084605044
 40
0.0118496908
 40
0.0204044936
 40
0.0313200844
 40
0.0445751505
 40
0.0601431701
 40
0.0779852663
 40
0.0980576404
 40
0.1203132532
 40
0.1711401354
 40
0.2299594124
 40
0.2961788927
 40
0.3691314053
 40
0.4480832487
 40
0.5322383228
 40
0.6207470018
 40
0.7127171857
 40
0.8072213183
 40
1.0
 40
1.0
 40
1.0
 40
1.0
 10
107.0233355938
 20
148.9804517726
 30
0.0
 10
107.0233338947
 20
148.9824319232
 30
0.0
 10
107.0264170683
 20
148.98722845
 30
0.0
 10
107.0349405854
 20
148.992049225
 30
0.0
 10
107.0480870327
 20
148.9972995568
 30
0.0
 10
107.0663023791
 20
149.0024354689
 30
0.0
 10
107.089597435
 20
149.0076978303
 30
0.0
 10
107.1307927399
 20
149.0153198428
 30
0.0
 10
107.1951109903
 20
149.0244848441
 30
0.0
 10
107.2875022304
 20
149.0349467898
 30
0.0
 10
107.39991912
 20
149.0454694261
 30
0.0
 10
107.5320808614
 20
149.0560396321
 30
0.0
 10
107.683662946
 20
149.0666380259
 30
0.0
 10
107.8542843375
 20
149.0772584317
 30
0.0
 10
108.1185331914
 20
149.0921000741
 30
0.0
 10
108.4928429119
 20
149.1103275536
 30
0.0
 10
108.9920538877
 20
149.1314381649
 30
0.0
 10
109.5541739692
 20
149.1526012342
 30
0.0
 10
110.1735276903
 20
149.1738053734
 30
0.0
 10
110.8438650528
 20
149.1950354105
 30
0.0
 10
111.5584193234
 20
149.216284417
 30
0.0
 10
112.3099752764
 20
149.2375469513
 30
0.0
 10
113.0909451092
 20
149.2588188547
 30
0.0
 10
114.1680694838
 20
149.2873777617
 30
0.0
 10
114.9840012327
 20
149.3084831614
 30
0.0
 10
115.5315238029
 20
149.3227014742
 30
0.0
  0
SPLINE
  5
391
100
AcDbEntity
  8
0
100
AcDbSpline
 62
7
  6
CONTINUOUS
 70
0
 71
3
 72
30
 73
26
 74
0
 42
0.0000001
 43
0.0000001
 44
0.0000000001
 40
0.0
 40
0.0
 40
0.0
 40
0.0
 40
0.1952617539
 40
0.2904506997
 40
0.3827965811
 40
0.471418848
 40
0.5554737647
 40
0.6341614332
 40
0.7067317775
 40
0.7724939519
 40
0.8308240561
 40
0.8811682126
 40
0.9031925866
 40
0.9230491568
 40
0.9406911314
 40
0.9560761563
 40
0.9691722599
 40
0.9799504086
 40
0.9883906271
 40
0.9917326038
 40
0.9944902169
 40
0.9966674014
 40
0.998275144
 40
0.9993460663
 40
1.0
 40
1.0
 40
1.0
 40
1.0
 10
115.1521179177
 20
149.7294719247
 30
0.0
 10
114.5702253665
 20
149.7157135779
 30
0.0
 10
113.704663823
 20
149.6952381943
 30
0.0
 10
112.5639254758
 20
149.6674293011
 30
0.0
 10
111.7409891518
 20
149.6467555979
 30
0.0
 10
110.9512527983
 20
149.6260913601
 30
0.0
 10
110.2022443775
 20
149.6054402549
 30
0.0
 10
109.5011037316
 20
149.5848081842
 30
0.0
 10
108.8545163915
 20
149.5642016744
 30
0.0
 10
108.2686447679
 20
149.5436348504
 30
0.0
 10
107.7490708235
 20
149.5231184956
 30
0.0
 10
107.3598703369
 20
149.5054030726
 30
0.0
 10
107.0853345191
 20
149.4909749443
 30
0.0
 10
106.9082020286
 20
149.480655593
 30
0.0
 10
106.7508963721
 20
149.4703578698
 30
0.0
 10
106.6137903068
 20
149.4600845041
 30
0.0
 10
106.4972042509
 20
149.4498614614
 30
0.0
 10
106.4014117095
 20
149.4396975492
 30
0.0
 10
106.3347342746
 20
149.43078806
 30
0.0
 10
106.292024032
 20
149.4233841015
 30
0.0
 10
106.2678781361
 20
149.4182685339
 30
0.0
 10
106.2490155483
 20
149.4132953996
 30
0.0
 10
106.2354041315
 20
149.408177408
 30
0.0
 10
106.2266459422
 20
149.4035824505
 30
0.0
 10
106.2233416041
 20
149.3988547853
 30
0.0
 10
106.2233411375
 20
149.3969054762
 30
0.0
  0
LINE
  5
392
100
AcDbEntity
  8
0
100
AcDbLine
 62
7
  6
CONTINUOUS
 10
115.2233329757
 20
148.3941545709
 11
116.3721210752
 21
148.4213901846
  0
SPLINE
  5
393
100
AcDbEntity
  8
0
100
AcDbSpline
 62
7
  6
CONTINUOUS
 70
0
 71
3
 72
11
 73
7
 74
0
 42
0.0000001
 43
0.0000001
 44
0.0000000001
 40
0.0
 40
0.0
 40
0.0
 40
0.0
 40
0.2616429466
 40
0.5144970929
 40
0.7595947853
 40
1.0
 40
1.0
 40
1.0
 40
1.0
 10
117.5327340524
 20
162.8149357434
 30
0.0
 10
117.6250391695
 20
162.8682281276
 30
0.0
 10
117.8107384373
 20
162.9660973224
 30
0.0
 10
118.0986759839
 20
163.0813728423
 30
0.0
 10
118.3913565104
 20
163.1551271217
 30
0.0
 10
118.5895013793
 20
163.1722013333
 30
0.0
 10
118.6874345912
 20
163.1722013333
 30
0.0
  0
SPLINE
  5
394
100
AcDbEntity
  8
0
100
AcDbSpline
 62
7
  6
CONTINUOUS
 70
0
 71
3
 72
11
 73
7
 74
0
 42
0.0000001
 43
0.0000001
 44
0.0000000001
 40
0.0
 40
0.0
 40
0.0
 40
0.0
 40
0.2404052601
 40
0.485503008
 40
0.7383572234
 40
1.0
 40
1.0
 40
1.0
 40
1.0
 10
118.6874345912
 20
163.1722013333
 30
0.0
 10
118.7853678215
 20
163.1722013333
 30
0.0
 10
118.9835127345
 20
163.1551271321
 30
0.0
 10
119.2761933128
 20
163.0813727757
 30
0.0
 10
119.5641308484
 20
162.9660972837
 30
0.0
 10
119.7498300722
 20
162.8682280929
 30
0.0
 10
119.8421351292
 20
162.8149357434
 30
0.0
  0
SPLINE
  5
395
100
AcDbEntity
  8
0
100
AcDbSpline
 62
7
  6
CONTINUOUS
 70
0
 71
3
 72
15
 73
11
 74
0
 42
0.0000001
 43
0.0000001
 44
0.0000000001
 40
0.0
 40
0.0
 40
0.0
 40
0.0
 40
0.1308200724
 40
0.2572467341
 40
0.3797970183
 40
0.5000000228
 40
0.620203024
 40
0.7427533002
 40
0.8691799394
 40
1.0
 40
1.0
 40
1.0
 40
1.0
 10
119.8421351292
 20
159.9696362818
 30
0.0
 10
119.7498310822
 20
160.0229280482
 30
0.0
 10
119.564129076
 20
160.1207963212
 30
0.0
 10
119.276210864
 20
160.2360733248
 30
0.0
 10
118.9834646255
 20
160.3098247887
 30
0.0
 10
118.6874345386
 20
160.3353471184
 30
0.0
 10
118.3914044621
 20
160.309824756
 30
0.0
 10
118.0986582535
 20
160.2360732912
 30
0.0
 10
117.8107400716
 20
160.1207963054
 30
0.0
 10
117.6250380911
 20
160.0229280433
 30
0.0
 10
117.5327340524
 20
159.9696362818
 30
0.0
  0
SPLINE
  5
396
100
AcDbEntity
  8
0
100
AcDbSpline
 62
7
  6
CONTINUOUS
 70
0
 71
3
 72
9
 73
5
 74
0
 42
0.0000001
 43
0.0000001
 44
0.0000000001
 40
0.0
 40
0.0
 40
0.0
 40
0.0
 40
0.2530239619
 40
1.0
 40
1.0
 40
1.0
 40
1.0
 10
115.2233329757
 20
158.1722013333
 30
0.0
 10
115.2831434619
 20
158.155068675
 30
0.0
 10
115.5197849773
 20
158.0882653732
 30
0.0
 10
115.7569129576
 20
158.023175985
 30
0.0
 10
115.9333713374
 20
157.9722013333
 30
0.0
  0
SPLINE
  5
397
100
AcDbEntity
  8
0
100
AcDbSpline
 62
7
  6
CONTINUOUS
 70
0
 71
3
 72
11
 73
7
 74
0
 42
0.0000001
 43
0.0000001
 44
0.0000000001
 40
0.0
 40
0.0
 40
0.0
 40
0.0
 40
0.2616427032
 40
0.5144968934
 40
0.7595946658
 40
1.0
 40
1.0
 40
1.0
 40
1.0
 10
110.6045308222
 20
162.8149357434
 30
0.0
 10
110.6968358534
 20
162.868228078
 30
0.0
 10
110.882535039
 20
162.9660972561
 30
0.0
 10
111.1704725445
 20
163.0813727393
 30
0.0
 10
111.4631531437
 20
163.1551271401
 30
0.0
 10
111.6612980995
 20
163.1722013333
 30
0.0
 10
111.7592313601
 20
163.1722013333
 30
0.0
  0
SPLINE
  5
398
100
AcDbEntity
  8
0
100
AcDbSpline
 62
7
  6
CONTINUOUS
 70
0
 71
3
 72
11
 73
7
 74
0
 42
0.0000001
 43
0.0000001
 44
0.0000000001
 40
0.0
 40
0.0
 40
0.0
 40
0.0
 40
0.2404053342
 40
0.4855030662
 40
0.7383571529
 40
1.0
 40
1.0
 40
1.0
 40
1.0
 10
111.7592313601
 20
163.1722013333
 30
0.0
 10
111.8571646209
 20
163.1722013333
 30
0.0
 10
112.0553095593
 20
163.155127138
 30
0.0
 10
112.3479901106
 20
163.0813727822
 30
0.0
 10
112.6359276111
 20
162.9660972833
 30
0.0
 10
112.8216268167
 20
162.8682281075
 30
0.0
 10
112.9139318989
 20
162.8149357434
 30
0.0
  0
SPLINE
  5
399
100
AcDbEntity
  8
0
100
AcDbSpline
 62
7
  6
CONTINUOUS
 70
0
 71
3
 72
15
 73
11
 74
0
 42
0.0000001
 43
0.0000001
 44
0.0000000001
 40
0.0
 40
0.0
 40
0.0
 40
0.0
 40
0.1308200724
 40
0.2572467341
 40
0.3797970183
 40
0.5000000228
 40
0.620203024
 40
0.7427533002
 40
0.8691799394
 40
1.0
 40
1.0
 40
1.0
 40
1.0
 10
112.9139318989
 20
159.9696362818
 30
0.0
 10
112.8216278519
 20
160.0229280482
 30
0.0
 10
112.6359258457
 20
160.1207963212
 30
0.0
 10
112.3480076337
 20
160.2360733248
 30
0.0
 10
112.0552613952
 20
160.3098247887
 30
0.0
 10
111.7592313083
 20
160.3353471184
 30
0.0
 10
111.4632012318
 20
160.309824756
 30
0.0
 10
111.1704550232
 20
160.2360732912
 30
0.0
 10
110.8825368413
 20
160.1207963054
 30
0.0
 10
110.6968348608
 20
160.0229280433
 30
0.0
 10
110.6045308222
 20
159.9696362818
 30
0.0
  0
LINE
  5
39A
100
AcDbEntity
  8
0
100
AcDbLine
 62
7
  6
CONTINUOUS
 10
114.4300713347
 20
157.9722013333
 11
114.4378384111
 21
158.0464575089
  0
SPLINE
  5
39B
100
AcDbEntity
  8
0
100
AcDbSpline
 62
7
  6
CONTINUOUS
 70
0
 71
3
 72
10
 73
6
 74
0
 42
0.0000001
 43
0.0000001
 44
0.0000000001
 40
0.0
 40
0.0
 40
0.0
 40
0.0
 40
0.4999011814
 40
0.7499517172
 40
1.0
 40
1.0
 40
1.0
 40
1.0
 10
112.9139318989
 20
162.8149357434
 30
0.0
 10
113.2891581775
 20
162.9232542399
 30
0.0
 10
113.8612011325
 20
163.0586670272
 30
0.0
 10
114.6370733951
 20
163.1555298502
 30
0.0
 10
115.027982707
 20
163.1722013333
 30
0.0
 10
115.2233329755
 20
163.1722013333
 30
0.0
  0
SPLINE
  5
39C
100
AcDbEntity
  8
0
100
AcDbSpline
 62
7
  6
CONTINUOUS
 70
0
 71
3
 72
10
 73
6
 74
0
 42
0.0000001
 43
0.0000001
 44
0.0000000001
 40
0.0
 40
0.0
 40
0.0
 40
0.0
 40
0.2500483041
 40
0.5000988454
 40
1.0
 40
1.0
 40
1.0
 40
1.0
 10
115.2233329755
 20
163.1722013333
 30
0.0
 10
115.4186832607
 20
163.1722013333
 30
0.0
 10
115.8095925941
 20
163.1555298532
 30
0.0
 10
116.5854648552
 20
163.058667016
 30
0.0
 10
117.1575077939
 20
162.9232542341
 30
0.0
 10
117.5327340524
 20
162.8149357434
 30
0.0
  0
SPLINE
  5
39D
100
AcDbEntity
  8
0
100
AcDbSpline
 62
7
  6
CONTINUOUS
 70
0
 71
3
 72
10
 73
6
 74
0
 42
0.0000001
 43
0.0000001
 44
0.0000000001
 40
0.0
 40
0.0
 40
0.0
 40
0.0
 40
0.4999007856
 40
0.7499513904
 40
1.0
 40
1.0
 40
1.0
 40
1.0
 10
117.5327340524
 20
159.9696362818
 30
0.0
 10
117.1575080701
 20
160.0779546927
 30
0.0
 10
116.585465366
 20
160.2133673862
 30
0.0
 10
115.8095931277
 20
160.3102304403
 30
0.0
 10
115.4186834999
 20
160.3269018717
 30
0.0
 10
115.2233329757
 20
160.3269018717
 30
0.0
  0
SPLINE
  5
39E
100
AcDbEntity
  8
0
100
AcDbSpline
 62
7
  6
CONTINUOUS
 70
0
 71
3
 72
10
 73
6
 74
0
 42
0.0000001
 43
0.0000001
 44
0.0000000001
 40
0.0
 40
0.0
 40
0.0
 40
0.0
 40
0.2500490219
 40
0.5000997455
 40
1.0
 40
1.0
 40
1.0
 40
1.0
 10
115.2233329757
 20
160.3269018717
 30
0.0
 10
115.0279821287
 20
160.3269018717
 30
0.0
 10
114.6370720791
 20
160.3102304837
 30
0.0
 10
113.861199865
 20
160.213367188
 30
0.0
 10
113.2891574837
 20
160.077954578
 30
0.0
 10
112.9139318989
 20
159.9696362818
 30
0.0
  0
SPLINE
  5
39F
100
AcDbEntity
  8
0
100
AcDbSpline
 62
7
  6
CONTINUOUS
 70
0
 71
3
 72
8
 73
4
 74
0
 42
0.0000001
 43
0.0000001
 44
0.0000000001
 40
0.0
 40
0.0
 40
0.0
 40
0.0
 40
1.0
 40
1.0
 40
1.0
 40
1.0
 10
152.7233329757
 20
174.3088763752
 30
0.0
 10
152.7233329757
 20
174.1964951423
 30
0.0
 10
152.7279193484
 20
174.0838065344
 30
0.0
 10
152.7411034527
 20
173.9722013333
 30
0.0
  0
SPLINE
  5
3A0
100
AcDbEntity
  8
0
100
AcDbSpline
 62
7
  6
CONTINUOUS
 70
0
 71
3
 72
8
 73
4
 74
0
 42
0.0000001
 43
0.0000001
 44
0.0000000001
 40
0.0
 40
0.0
 40
0.0
 40
0.0
 40
1.0
 40
1.0
 40
1.0
 40
1.0
 10
152.7411034527
 20
176.9722013333
 30
0.0
 10
152.7279193484
 20
176.8605961322
 30
0.0
 10
152.7233329757
 20
176.7479075243
 30
0.0
 10
152.7233329757
 20
176.6355262914
 30
0.0
  0
SPLINE
  5
3A1
100
AcDbEntity
  8
0
100
AcDbSpline
 62
7
  6
CONTINUOUS
 70
0
 71
3
 72
10
 73
6
 74
0
 42
0.0000001
 43
0.0000001
 44
0.0000000001
 40
0.0
 40
0.0
 40
0.0
 40
0.0
 40
0.2444262975
 40
0.4914181851
 40
1.0
 40
1.0
 40
1.0
 40
1.0
 10
155.7233329757
 20
40.5875916442
 30
0.0
 10
155.7233329756
 20
41.0083981188
 30
0.0
 10
155.6714441979
 20
41.8553602704
 30
0.0
 10
155.3637544867
 20
43.5523105552
 30
0.0
 10
154.9240189695
 20
44.7873798533
 30
0.0
 10
154.5686324373
 20
45.5875916425
 30
0.0
  0
SPLINE
  5
3A2
100
AcDbEntity
  8
0
100
AcDbSpline
 62
7
  6
CONTINUOUS
 70
0
 71
3
 72
10
 73
6
 74
0
 42
0.0000001
 43
0.0000001
 44
0.0000000001
 40
0.0
 40
0.0
 40
0.0
 40
0.0
 40
0.5085818278
 40
0.7555737097
 40
1.0
 40
1.0
 40
1.0
 40
1.0
 10
154.5686324373
 20
77.1568110241
 30
0.0
 10
154.9240189785
 20
77.9570228335
 30
0.0
 10
155.3637544969
 20
79.1920921447
 30
0.0
 10
155.671444202
 20
80.8890424303
 30
0.0
 10
155.7233329756
 20
81.7360045596
 30
0.0
 10
155.7233329757
 20
82.1568110218
 30
0.0
  0
SPLINE
  5
3A3
100
AcDbEntity
  8
0
100
AcDbSpline
 62
7
  6
CONTINUOUS
 70
0
 71
3
 72
10
 73
6
 74
0
 42
0.0000001
 43
0.0000001
 44
0.0000000001
 40
0.0
 40
0.0
 40
0.0
 40
0.0
 40
0.2444262976
 40
0.4914181851
 40
1.0
 40
1.0
 40
1.0
 40
1.0
 10
155.7233329757
 20
82.1568110218
 30
0.0
 10
155.7233329758
 20
82.5776174967
 30
0.0
 10
155.6714441984
 20
83.4245796489
 30
0.0
 10
155.3637544873
 20
85.1215299352
 30
0.0
 10
154.9240189698
 20
86.3565992343
 30
0.0
 10
154.5686324373
 20
87.1568110241
 30
0.0
  0
SPLINE
  5
3A4
100
AcDbEntity
  8
0
100
AcDbSpline
 62
7
  6
CONTINUOUS
 70
0
 71
3
 72
10
 73
6
 74
0
 42
0.0000001
 43
0.0000001
 44
0.0000000001
 40
0.0
 40
0.0
 40
0.0
 40
0.0
 40
0.4999223001
 40
0.7499611543
 40
1.0
 40
1.0
 40
1.0
 40
1.0
 10
154.5686324373
 20
51.3722013333
 30
0.0
 10
154.9329059731
 20
53.0126460403
 30
0.0
 10
155.3700116912
 20
55.501157743
 30
0.0
 10
155.6721055279
 20
58.850320663
 30
0.0
 10
155.7233329756
 20
60.5317386973
 30
0.0
 10
155.7233329757
 20
61.3722013286
 30
0.0
  0
SPLINE
  5
3A5
100
AcDbEntity
  8
0
100
AcDbSpline
 62
7
  6
CONTINUOUS
 70
0
 71
3
 72
10
 73
6
 74
0
 42
0.0000001
 43
0.0000001
 44
0.0000000001
 40
0.0
 40
0.0
 40
0.0
 40
0.0
 40
0.250038853
 40
0.5000777128
 40
1.0
 40
1.0
 40
1.0
 40
1.0
 10
155.7233329757
 20
61.3722013286
 30
0.0
 10
155.7233329758
 20
62.2126639853
 30
0.0
 10
155.6721055243
 20
63.8940820647
 30
0.0
 10
155.3700116817
 20
67.2432449874
 30
0.0
 10
154.932905964
 20
69.7317566672
 30
0.0
 10
154.5686324373
 20
71.3722013333
 30
0.0
  0
SPLINE
  5
3A6
100
AcDbEntity
  8
0
100
AcDbSpline
 62
7
  6
CONTINUOUS
 70
0
 71
3
 72
11
 73
7
 74
0
 42
0.0000001
 43
0.0000001
 44
0.0000000001
 40
0.0
 40
0.0
 40
0.0
 40
0.0
 40
0.2504242301
 40
0.5000000188
 40
0.7495757881
 40
1.0
 40
1.0
 40
1.0
 40
1.0
 10
140.7341323582
 20
77.1568110241
 30
0.0
 10
140.8435933516
 20
77.9867803011
 30
0.0
 10
141.015974144
 20
79.6505802119
 30
0.0
 10
141.1063107983
 20
82.1568111523
 30
0.0
 10
141.0159749451
 20
84.663042103
 30
0.0
 10
140.8435933738
 20
86.3268418117
 30
0.0
 10
140.7341323582
 20
87.1568110241
 30
0.0
  0
SPLINE
  5
3A7
100
AcDbEntity
  8
0
100
AcDbSpline
 62
7
  6
CONTINUOUS
 70
0
 71
3
 72
11
 73
7
 74
0
 42
0.0000001
 43
0.0000001
 44
0.0000000001
 40
0.0
 40
0.0
 40
0.0
 40
0.0
 40
0.2498001903
 40
0.4991180689
 40
0.7489191672
 40
1.0
 40
1.0
 40
1.0
 40
1.0
 10
139.9357474203
 20
77.6852620195
 30
0.0
 10
140.0484201036
 20
78.5217328814
 30
0.0
 10
140.2262687397
 20
80.2000459603
 30
0.0
 10
140.3194925878
 20
82.7309637636
 30
0.0
 10
140.2259467289
 20
85.2661852588
 30
0.0
 10
140.0482960994
 20
86.9504900137
 30
0.0
 10
139.9357474203
 20
87.7913433965
 30
0.0
  0
SPLINE
  5
3A8
100
AcDbEntity
  8
0
100
AcDbSpline
 62
7
  6
CONTINUOUS
 70
0
 71
3
 72
11
 73
7
 74
0
 42
0.0000001
 43
0.0000001
 44
0.0000000001
 40
0.0
 40
0.0
 40
0.0
 40
0.0
 40
0.2560611039
 40
0.5083700527
 40
0.7559568348
 40
1.0
 40
1.0
 40
1.0
 40
1.0
 10
140.7235936227
 20
87.1567879105
 30
0.0
 10
140.6303260191
 20
87.1563780524
 30
0.0
 10
140.4434517967
 20
87.1873657581
 30
0.0
 10
140.1981466757
 20
87.3237601289
 30
0.0
 10
140.0165131955
 20
87.5321149453
 30
0.0
 10
139.9517464958
 20
87.703903996
 30
0.0
 10
139.9357474203
 20
87.7913433965
 30
0.0
  0
SPLINE
  5
3A9
100
AcDbEntity
  8
0
100
AcDbSpline
 62
7
  6
CONTINUOUS
 70
0
 71
3
 72
11
 73
7
 74
0
 42
0.0000001
 43
0.0000001
 44
0.0000000001
 40
0.0
 40
0.0
 40
0.0
 40
0.0
 40
0.2762326535
 40
0.539393502
 40
0.7804930221
 40
1.0
 40
1.0
 40
1.0
 40
1.0
 10
140.7235936227
 20
77.1569540075
 30
0.0
 10
140.6304193685
 20
77.1594867532
 30
0.0
 10
140.4481574886
 20
77.1887291034
 30
0.0
 10
140.205893647
 20
77.3007369397
 30
0.0
 10
140.022344054
 20
77.4685399186
 30
0.0
 10
139.9522357166
 20
77.6130527414
 30
0.0
 10
139.9357474203
 20
77.6852620195
 30
0.0
  0
SPLINE
  5
3AA
100
AcDbEntity
  8
0
100
AcDbSpline
 62
7
  6
CONTINUOUS
 70
0
 71
3
 72
9
 73
5
 74
0
 42
0.0000001
 43
0.0000001
 44
0.0000000001
 40
0.0
 40
0.0
 40
0.0
 40
0.0
 40
0.4999984096
 40
1.0
 40
1.0
 40
1.0
 40
1.0
 10
141.0762475842
 20
61.3722013333
 30
0.0
 10
141.0762477355
 20
63.0400672338
 30
0.0
 10
141.0162144181
 20
66.3760643488
 30
0.0
 10
140.8438784393
 20
69.7079393786
 30
0.0
 10
140.7341323582
 20
71.3722013333
 30
0.0
  0
SPLINE
  5
3AB
100
AcDbEntity
  8
0
100
AcDbSpline
 62
7
  6
CONTINUOUS
 70
0
 71
3
 72
9
 73
5
 74
0
 42
0.0000001
 43
0.0000001
 44
0.0000000001
 40
0.0
 40
0.0
 40
0.0
 40
0.0
 40
0.4999984819
 40
1.0
 40
1.0
 40
1.0
 40
1.0
 10
140.2884013817
 20
61.3722013333
 30
0.0
 10
140.2884014595
 20
63.0578088661
 30
0.0
 10
140.2263777978
 20
66.4293025798
 30
0.0
 10
140.0486605106
 20
69.796451017
 30
0.0
 10
139.9357474203
 20
71.4782827252
 30
0.0
  0
SPLINE
  5
3AC
100
AcDbEntity
  8
0
100
AcDbSpline
 62
7
  6
CONTINUOUS
 70
0
 71
3
 72
13
 73
9
 74
0
 42
0.0000001
 43
0.0000001
 44
0.0000000001
 40
0.0
 40
0.0
 40
0.0
 40
0.0
 40
0.3428244957
 40
0.6430110138
 40
0.7663958155
 40
0.8679515165
 40
0.9457580188
 40
1.0
 40
1.0
 40
1.0
 40
1.0
 10
140.7235936227
 20
71.372035235
 30
0.0
 10
140.6316512432
 20
71.36913193
 30
0.0
 10
140.4589933954
 20
71.3695309341
 30
0.0
 10
140.2535685242
 20
71.3850065543
 30
0.0
 10
140.1144608191
 20
71.4076830951
 30
0.0
 10
140.0352938519
 20
71.4268712857
 30
0.0
 10
139.9765664114
 20
71.4485766601
 30
0.0
 10
139.945607031
 20
71.4675766452
 30
0.0
 10
139.9357474203
 20
71.4782827252
 30
0.0
  0
SPLINE
  5
3AD
100
AcDbEntity
  8
0
100
AcDbSpline
 62
7
  6
CONTINUOUS
 70
0
 71
3
 72
9
 73
5
 74
0
 42
0.0000001
 43
0.0000001
 44
0.0000000001
 40
0.0
 40
0.0
 40
0.0
 40
0.0
 40
0.5000015904
 40
1.0
 40
1.0
 40
1.0
 40
1.0
 10
140.7341323582
 20
51.3722013333
 30
0.0
 10
140.8438784398
 20
53.036463288
 30
0.0
 10
141.0162144188
 20
56.3683383177
 30
0.0
 10
141.0762477348
 20
59.7043354328
 30
0.0
 10
141.0762475842
 20
61.3722013333
 30
0.0
  0
SPLINE
  5
3AE
100
AcDbEntity
  8
0
100
AcDbSpline
 62
7
  6
CONTINUOUS
 70
0
 71
3
 72
13
 73
9
 74
0
 42
0.0000001
 43
0.0000001
 44
0.0000000001
 40
0.0
 40
0.0
 40
0.0
 40
0.0
 40
0.3428244962
 40
0.6430110148
 40
0.766395817
 40
0.8679515183
 40
0.9457580197
 40
1.0
 40
1.0
 40
1.0
 40
1.0
 10
140.7235936227
 20
51.3723674316
 30
0.0
 10
140.6316512432
 20
51.3752707365
 30
0.0
 10
140.4589933953
 20
51.3748717319
 30
0.0
 10
140.2535685239
 20
51.3593961121
 30
0.0
 10
140.1144608189
 20
51.3367195693
 30
0.0
 10
140.035293852
 20
51.3175313778
 30
0.0
 10
139.9765664116
 20
51.2958260052
 30
0.0
 10
139.9456070308
 20
51.2768260213
 30
0.0
 10
139.9357474203
 20
51.2661199416
 30
0.0
  0
SPLINE
  5
3AF
100
AcDbEntity
  8
0
100
AcDbSpline
 62
7
  6
CONTINUOUS
 70
0
 71
3
 72
9
 73
5
 74
0
 42
0.0000001
 43
0.0000001
 44
0.0000000001
 40
0.0
 40
0.0
 40
0.0
 40
0.0
 40
0.5000015181
 40
1.0
 40
1.0
 40
1.0
 40
1.0
 10
139.9357474203
 20
51.2661199416
 30
0.0
 10
140.0486605109
 20
52.9479516497
 30
0.0
 10
140.2263777979
 20
56.3151000869
 30
0.0
 10
140.2884014591
 20
59.6865938005
 30
0.0
 10
140.2884013817
 20
61.3722013333
 30
0.0
  0
SPLINE
  5
3B0
100
AcDbEntity
  8
0
100
AcDbSpline
 62
7
  6
CONTINUOUS
 70
0
 71
3
 72
11
 73
7
 74
0
 42
0.0000001
 43
0.0000001
 44
0.0000000001
 40
0.0
 40
0.0
 40
0.0
 40
0.0
 40
0.2504242119
 40
0.4999999812
 40
0.7495757699
 40
1.0
 40
1.0
 40
1.0
 40
1.0
 10
140.7341323582
 20
35.5875916425
 30
0.0
 10
140.8435933742
 20
36.4175608549
 30
0.0
 10
141.0159749453
 20
38.0813605637
 30
0.0
 10
141.1063107981
 20
40.5875915143
 30
0.0
 10
141.0159741441
 20
43.0938224548
 30
0.0
 10
140.8435933511
 20
44.7576223655
 30
0.0
 10
140.7341323582
 20
45.5875916425
 30
0.0
  0
SPLINE
  5
3B1
100
AcDbEntity
  8
0
100
AcDbSpline
 62
7
  6
CONTINUOUS
 70
0
 71
3
 72
11
 73
7
 74
0
 42
0.0000001
 43
0.0000001
 44
0.0000000001
 40
0.0
 40
0.0
 40
0.0
 40
0.0
 40
0.2510808328
 40
0.5008819311
 40
0.7501998097
 40
1.0
 40
1.0
 40
1.0
 40
1.0
 10
139.9357474203
 20
34.9530592702
 30
0.0
 10
140.0482960996
 20
35.7939126529
 30
0.0
 10
140.2259467288
 20
37.4782174079
 30
0.0
 10
140.3194925878
 20
40.0134389031
 30
0.0
 10
140.2262687399
 20
42.5443567064
 30
0.0
 10
140.0484201034
 20
44.2226697853
 30
0.0
 10
139.9357474203
 20
45.0591406473
 30
0.0
  0
SPLINE
  5
3B2
100
AcDbEntity
  8
0
100
AcDbSpline
 62
7
  6
CONTINUOUS
 70
0
 71
3
 72
11
 73
7
 74
0
 42
0.0000001
 43
0.0000001
 44
0.0000000001
 40
0.0
 40
0.0
 40
0.0
 40
0.0
 40
0.2762326531
 40
0.5393935026
 40
0.780493024
 40
1.0
 40
1.0
 40
1.0
 40
1.0
 10
140.7235936227
 20
45.5874486591
 30
0.0
 10
140.6304193687
 20
45.5849159133
 30
0.0
 10
140.4481574889
 20
45.555673563
 30
0.0
 10
140.2058936467
 20
45.4436657264
 30
0.0
 10
140.0223440553
 20
45.2758627463
 30
0.0
 10
139.9522357164
 20
45.1313499247
 30
0.0
 10
139.9357474203
 20
45.0591406473
 30
0.0
  0
SPLINE
  5
3B3
100
AcDbEntity
  8
0
100
AcDbSpline
 62
7
  6
CONTINUOUS
 70
0
 71
3
 72
10
 73
6
 74
0
 42
0.0000001
 43
0.0000001
 44
0.0000000001
 40
0.0
 40
0.0
 40
0.0
 40
0.0
 40
0.5085818278
 40
0.7555737096
 40
1.0
 40
1.0
 40
1.0
 40
1.0
 10
154.5686324373
 20
35.5875916425
 30
0.0
 10
154.9240189787
 20
36.3878034524
 30
0.0
 10
155.3637544975
 20
37.6228727647
 30
0.0
 10
155.6714442024
 20
39.3198230517
 30
0.0
 10
155.7233329757
 20
40.1667851818
 30
0.0
 10
155.7233329757
 20
40.5875916442
 30
0.0
  0
SPLINE
  5
3B4
100
AcDbEntity
  8
0
100
AcDbSpline
 62
7
  6
CONTINUOUS
 70
0
 71
3
 72
11
 73
7
 74
0
 42
0.0000001
 43
0.0000001
 44
0.0000000001
 40
0.0
 40
0.0
 40
0.0
 40
0.0
 40
0.2560611046
 40
0.5083700528
 40
0.7559568347
 40
1.0
 40
1.0
 40
1.0
 40
1.0
 10
140.7235936227
 20
35.5876147561
 30
0.0
 10
140.6303260189
 20
35.5880246142
 30
0.0
 10
140.4434517965
 20
35.5570369084
 30
0.0
 10
140.1981466755
 20
35.4206425376
 30
0.0
 10
140.0165131957
 20
35.2122877212
 30
0.0
 10
139.9517464958
 20
35.0404986707
 30
0.0
 10
139.9357474203
 20
34.9530592702
 30
0.0
  0
SPLINE
  5
3B5
100
AcDbEntity
  8
0
100
AcDbSpline
 62
7
  6
CONTINUOUS
 70
0
 71
3
 72
10
 73
6
 74
0
 42
0.0000001
 43
0.0000001
 44
0.0000000001
 40
0.0
 40
0.0
 40
0.0
 40
0.0
 40
0.7143811974
 40
0.9079629918
 40
1.0
 40
1.0
 40
1.0
 40
1.0
 10
129.1965380564
 20
157.9553325977
 30
0.0
 10
129.20326739
 20
157.9565738665
 30
0.0
 10
129.2121514892
 20
157.9584619887
 30
0.0
 10
129.2206272847
 20
157.9614819961
 30
0.0
 10
129.2233329757
 20
157.9634110507
 30
0.0
 10
129.2233329757
 20
157.9642926473
 30
0.0
  0
SPLINE
  5
3B6
100
AcDbEntity
  8
GEOM
100
AcDbSpline
 62
7
  6
CONTINUOUS
 70
0
 71
3
 72
14
 73
10
 74
0
 42
0.0000001
 43
0.0000001
 44
0.0000000001
 40
0.0
 40
0.0
 40
0.0
 40
0.0
 40
0.1872146343
 40
0.3135979503
 40
0.4522236707
 40
0.5966785068
 40
0.7404449142
 40
0.877025977
 40
1.0
 40
1.0
 40
1.0
 40
1.0
 10
102.9659736628
 20
89.0008786213
 30
0.0
 10
104.2310263864
 20
88.5431290914
 30
0.0
 10
106.38400672
 20
87.8634982458
 30
0.0
 10
109.5587948074
 20
87.1575395037
 30
0.0
 10
112.4780956927
 20
86.7577211386
 30
0.0
 10
115.5481472906
 20
86.6352249314
 30
0.0
 10
118.600192694
 20
86.8212286022
 30
0.0
 10
121.4673973804
 20
87.26864728
 30
0.0
 10
123.2834164991
 20
87.7016063111
 30
0.0
 10
124.1357675245
 20
87.9348574727
 30
0.0
  0
SPLINE
  5
3B7
100
AcDbEntity
  8
GEOM
100
AcDbSpline
 62
7
  6
CONTINUOUS
 70
0
 71
3
 72
18
 73
14
 74
0
 42
0.0000001
 43
0.0000001
 44
0.0000000001
 40
0.0
 40
0.0
 40
0.0
 40
0.0
 40
0.131313965
 40
0.2686015981
 40
0.4117230101
 40
0.5605999223
 40
0.713332434
 40
0.7877201366
 40
0.8548723283
 40
0.9085145859
 40
0.9472199274
 40
0.9756513432
 40
1.0
 40
1.0
 40
1.0
 40
1.0
 10
124.3863944586
 20
87.9963369095
 30
0.0
 10
124.4595290827
 20
88.0123061758
 30
0.0
 10
124.6098002025
 20
88.0419421809
 30
0.0
 10
124.8416337988
 20
88.0788649076
 30
0.0
 10
125.0846443789
 20
88.1083676875
 30
0.0
 10
125.3374806653
 20
88.1279059478
 30
0.0
 10
125.5520963703
 20
88.131671873
 30
0.0
 10
125.7195920543
 20
88.1202861017
 30
0.0
 10
125.829727457
 20
88.1028494512
 30
0.0
 10
125.9170258423
 20
88.0758771736
 30
0.0
 10
125.9772444722
 20
88.0403455273
 30
0.0
 10
126.0102016658
 20
87.9978782581
 30
0.0
 10
126.0162021378
 20
87.9672971347
 30
0.0
 10
126.0162147113
 20
87.9534167663
 30
0.0
  0
SPLINE
  5
3B8
100
AcDbEntity
  8
GEOM
100
AcDbSpline
 62
7
  6
CONTINUOUS
 70
0
 71
3
 72
18
 73
14
 74
0
 42
0.0000001
 43
0.0000001
 44
0.0000000001
 40
0.0
 40
0.0
 40
0.0
 40
0.0
 40
0.230290952
 40
0.4318549127
 40
0.603865391
 40
0.7456268917
 40
0.8565445688
 40
0.9002743537
 40
0.9361218428
 40
0.9640454517
 40
0.9840097462
 40
0.9959986771
 40
1.0
 40
1.0
 40
1.0
 40
1.0
 10
128.8446533192
 20
90.1379485982
 30
0.0
 10
128.8930221149
 20
90.1556361585
 30
0.0
 10
128.9836787548
 20
90.1889347131
 30
0.0
 10
129.1103210085
 20
90.2358296042
 30
0.0
 10
129.2183049672
 20
90.2761003084
 30
0.0
 10
129.3072348776
 20
90.3094381319
 30
0.0
 10
129.3692618447
 20
90.3328373717
 30
0.0
 10
129.4091202005
 20
90.3478510713
 30
0.0
 10
129.4315929904
 20
90.3564475475
 30
0.0
 10
129.4491372812
 20
90.3628520834
 30
0.0
 10
129.4615844206
 20
90.3681193898
 30
0.0
 10
129.4692319834
 20
90.3700579374
 30
0.0
 10
129.4724410227
 20
90.3722731573
 30
0.0
 10
129.4733329757
 20
90.3722013333
 30
0.0
  0
SPLINE
  5
3B9
100
AcDbEntity
  8
GEOM
100
AcDbSpline
 62
7
  6
CONTINUOUS
 70
0
 71
3
 72
9
 73
5
 74
0
 42
0.0000001
 43
0.0000001
 44
0.0000000001
 40
0.0
 40
0.0
 40
0.0
 40
0.0
 40
0.3595591356
 40
1.0
 40
1.0
 40
1.0
 40
1.0
 10
127.901845701
 20
88.5863619338
 30
0.0
 10
127.9934216267
 20
88.7840671866
 30
0.0
 10
128.2737333006
 20
89.3222171007
 30
0.0
 10
128.6126241857
 20
89.826857473
 30
0.0
 10
128.8446533192
 20
90.1379485982
 30
0.0
  0
SPLINE
  5
3BA
100
AcDbEntity
  8
GEOM
100
AcDbSpline
 62
7
  6
CONTINUOUS
 70
0
 71
3
 72
18
 73
14
 74
0
 42
0.0000001
 43
0.0000001
 44
0.0000000001
 40
0.0
 40
0.0
 40
0.0
 40
0.0
 40
0.0037374422
 40
0.0149656914
 40
0.0337056735
 40
0.0599950119
 40
0.0938953742
 40
0.1354723052
 40
0.2420289187
 40
0.3805416432
 40
0.552121803
 40
0.7581050597
 40
1.0
 40
1.0
 40
1.0
 40
1.0
 10
102.4696533192
 20
89.3308608468
 30
0.0
 10
102.4697189334
 20
89.3316006495
 30
0.0
 10
102.4736496321
 20
89.3273168339
 30
0.0
 10
102.4780273773
 20
89.326484255
 30
0.0
 10
102.4883378754
 20
89.3191466323
 30
0.0
 10
102.5013723972
 20
89.3116243812
 30
0.0
 10
102.5187198628
 20
89.3007512346
 30
0.0
 10
102.5493930629
 20
89.2818030584
 30
0.0
 10
102.5976463048
 20
89.2513803908
 30
0.0
 10
102.6672603292
 20
89.2066187385
 30
0.0
 10
102.7528085098
 20
89.1500286836
 30
0.0
 10
102.8544452877
 20
89.0805776955
 30
0.0
 10
102.9270355289
 20
89.0290654795
 30
0.0
 10
102.9659736628
 20
89.0008786213
 30
0.0
  0
SPLINE
  5
3BB
100
AcDbEntity
  8
GEOM
100
AcDbSpline
 62
7
  6
CONTINUOUS
 70
0
 71
3
 72
9
 73
5
 74
0
 42
0.0000001
 43
0.0000001
 44
0.0000000001
 40
0.0
 40
0.0
 40
0.0
 40
0.0
 40
0.2527088991
 40
1.0
 40
1.0
 40
1.0
 40
1.0
 10
104.8366074175
 20
138.3293081145
 30
0.0
 10
104.8495716329
 20
138.3155878378
 30
0.0
 10
104.9007739474
 20
138.2612022395
 30
0.0
 10
104.951545784
 20
138.2064085022
 30
0.0
 10
104.9890823797
 20
138.1650945521
 30
0.0
  0
SPLINE
  5
3BC
100
AcDbEntity
  8
GEOM
100
AcDbSpline
 62
7
  6
CONTINUOUS
 70
0
 71
3
 72
18
 73
14
 74
0
 42
0.0000001
 43
0.0000001
 44
0.0000000001
 40
0.0
 40
0.0
 40
0.0
 40
0.0
 40
0.2305037547
 40
0.4321465356
 40
0.6041490175
 40
0.7458506922
 40
0.85668825
 40
0.9003791486
 40
0.9361915991
 40
0.9640858393
 40
0.9840281252
 40
0.9960033507
 40
1.0
 40
1.0
 40
1.0
 40
1.0
 10
125.0211248017
 20
94.1056378761
 30
0.0
 10
125.0560359849
 20
94.1258358469
 30
0.0
 10
125.1214163212
 20
94.1638257336
 30
0.0
 10
125.2126294839
 20
94.2172600515
 30
0.0
 10
125.2902999179
 20
94.2630742968
 30
0.0
 10
125.3541770689
 20
94.3009880828
 30
0.0
 10
125.3987216198
 20
94.327509951
 30
0.0
 10
125.4272763245
 20
94.3446270947
 30
0.0
 10
125.4434704106
 20
94.3542162216
 30
0.0
 10
125.4558442372
 20
94.3619024177
 30
0.0
 10
125.4652295298
 20
94.3669176235
 30
0.0
 10
125.4698989786
 20
94.3707952737
 30
0.0
 10
125.4730400032
 20
94.3715663366
 30
0.0
 10
125.4733329757
 20
94.3722013333
 30
0.0
  0
SPLINE
  5
3BD
100
AcDbEntity
  8
GEOM
100
AcDbSpline
 62
7
  6
CONTINUOUS
 70
0
 71
3
 72
10
 73
6
 74
0
 42
0.0000001
 43
0.0000001
 44
0.0000000001
 40
0.0
 40
0.0
 40
0.0
 40
0.0
 40
0.328977515
 40
0.6149183997
 40
1.0
 40
1.0
 40
1.0
 40
1.0
 10
122.2237111323
 20
90.9851826319
 30
0.0
 10
122.4374111505
 20
91.397902973
 30
0.0
 10
122.8930607306
 20
92.1426702267
 30
0.0
 10
123.8029831172
 20
93.2271859699
 30
0.0
 10
124.5502174243
 20
93.8332228281
 30
0.0
 10
125.0211248017
 20
94.1056378761
 30
0.0
  0
LINE
  5
3BE
100
AcDbEntity
  8
GEOM
100
AcDbLine
 62
7
  6
CONTINUOUS
 10
122.1178578456
 20
90.7808563686
 11
122.2237111323
 21
90.9851826319
  0
SPLINE
  5
3BF
100
AcDbEntity
  8
GEOM
100
AcDbSpline
 62
7
  6
CONTINUOUS
 70
0
 71
3
 72
14
 73
10
 74
0
 42
0.0000001
 43
0.0000001
 44
0.0000000001
 40
0.0
 40
0.0
 40
0.0
 40
0.0
 40
0.1826249552
 40
0.3074783465
 40
0.4466706837
 40
0.5935432837
 40
0.7398450274
 40
0.8774757181
 40
1.0
 40
1.0
 40
1.0
 40
1.0
 10
105.741224828
 20
91.961094045
 30
0.0
 10
106.6590700228
 20
91.4854656951
 30
0.0
 10
108.2468693116
 20
90.7605528443
 30
0.0
 10
110.6523949723
 20
89.9702328364
 30
0.0
 10
112.9362501958
 20
89.4963536982
 30
0.0
 10
115.3875664883
 20
89.336378251
 30
0.0
 10
117.8263038758
 20
89.5436399315
 30
0.0
 10
120.0766521229
 20
90.0497627293
 30
0.0
 10
121.4720823846
 20
90.5278829042
 30
0.0
 10
122.1178578456
 20
90.7808563686
 30
0.0
  0
SPLINE
  5
3C0
100
AcDbEntity
  8
GEOM
100
AcDbSpline
 62
7
  6
CONTINUOUS
 70
0
 71
3
 72
21
 73
17
 74
0
 42
0.0000001
 43
0.0000001
 44
0.0000000001
 40
0.0
 40
0.0
 40
0.0
 40
0.0
 40
0.0009674666
 40
0.0038712481
 40
0.0087119207
 40
0.0154900685
 40
0.0348612556
 40
0.0619931212
 40
0.0968989216
 40
0.1395936039
 40
0.1900959402
 40
0.2484287488
 40
0.388680901
 40
0.5605552877
 40
0.7642820639
 40
1.0
 40
1.0
 40
1.0
 40
1.0
 10
104.9733329757
 20
92.2895203602
 30
0.0
 10
104.9733555437
 20
92.2897890037
 30
0.0
 10
104.9749468567
 20
92.2885857433
 30
0.0
 10
104.9766984042
 20
92.2886420917
 30
0.0
 10
104.9808427966
 20
92.2868743868
 30
0.0
 10
104.9888298759
 20
92.2843826646
 30
0.0
 10
105.003019581
 20
92.2793663842
 30
0.0
 10
105.0243892597
 20
92.2720505943
 30
0.0
 10
105.0519413572
 20
92.2623112327
 30
0.0
 10
105.0855268221
 20
92.2502579593
 30
0.0
 10
105.1251572912
 20
92.2356705033
 30
0.0
 10
105.1900782542
 20
92.2111190646
 30
0.0
 10
105.2860557787
 20
92.1730800789
 30
0.0
 10
105.4183734004
 20
92.1168712219
 30
0.0
 10
105.5732405957
 20
92.0458596509
 30
0.0
 10
105.6829008568
 20
91.9913051428
 30
0.0
 10
105.741224828
 20
91.961094045
 30
0.0
  0
SPLINE
  5
3C1
100
AcDbEntity
  8
GEOM
100
AcDbSpline
 62
7
  6
CONTINUOUS
 70
0
 71
3
 72
13
 73
9
 74
0
 42
0.0000001
 43
0.0000001
 44
0.0000000001
 40
0.0
 40
0.0
 40
0.0
 40
0.0
 40
0.041303714
 40
0.107320843
 40
0.2025034007
 40
0.3250625225
 40
0.636664782
 40
1.0
 40
1.0
 40
1.0
 40
1.0
 10
104.4338204861
 20
144.6722013333
 30
0.0
 10
104.4425181477
 20
144.6721953325
 30
0.0
 10
104.4633661825
 20
144.6580161793
 30
0.0
 10
104.484559023
 20
144.6212669409
 30
0.0
 10
104.5066465116
 20
144.5653570198
 30
0.0
 10
104.535217466
 20
144.4575462782
 30
0.0
 10
104.5596908948
 20
144.2908851962
 30
0.0
 10
104.5663990359
 20
144.1487118226
 30
0.0
 10
104.566374812
 20
144.0722013333
 30
0.0
  0
SPLINE
  5
3C2
100
AcDbEntity
  8
GEOM
100
AcDbSpline
 62
7
  6
CONTINUOUS
 70
0
 71
3
 72
9
 73
5
 74
0
 42
0.0000001
 43
0.0000001
 44
0.0000000001
 40
0.0
 40
0.0
 40
0.0
 40
0.0
 40
0.7463054683
 40
1.0
 40
1.0
 40
1.0
 40
1.0
 10
104.9830899735
 20
138.0241539745
 30
0.0
 10
105.020440118
 20
138.002589895
 30
0.0
 10
105.0641641162
 20
137.9603006738
 30
0.0
 10
105.091146139
 20
137.9090923022
 30
0.0
 10
105.0969820949
 20
137.8956431767
 30
0.0
  0
SPLINE
  5
3C3
100
AcDbEntity
  8
GEOM
100
AcDbSpline
 62
7
  6
CONTINUOUS
 70
0
 71
3
 72
9
 73
5
 74
0
 42
0.0000001
 43
0.0000001
 44
0.0000000001
 40
0.0
 40
0.0
 40
0.0
 40
0.0
 40
0.5826089851
 40
1.0
 40
1.0
 40
1.0
 40
1.0
 10
104.8985651445
 20
138.1528492271
 30
0.0
 10
104.9152636621
 20
138.1595391079
 30
0.0
 10
104.9446543925
 20
138.169052525
 30
0.0
 10
104.9769511785
 20
138.1694443448
 30
0.0
 10
104.9890823466
 20
138.1650945181
 30
0.0
  0
SPLINE
  5
3C4
100
AcDbEntity
  8
GEOM
100
AcDbSpline
 62
7
  6
CONTINUOUS
 70
0
 71
3
 72
9
 73
5
 74
0
 42
0.0000001
 43
0.0000001
 44
0.0000000001
 40
0.0
 40
0.0
 40
0.0
 40
0.0
 40
0.600160552
 40
1.0
 40
1.0
 40
1.0
 40
1.0
 10
104.7297164235
 20
138.2884647554
 30
0.0
 10
104.748072944
 20
138.2999977063
 30
0.0
 10
104.7794034115
 20
138.3175200435
 30
0.0
 10
104.8145996238
 20
138.3297543827
 30
0.0
 10
104.8290418511
 20
138.3298910949
 30
0.0
  0
SPLINE
  5
3C5
100
AcDbEntity
  8
GEOM
100
AcDbSpline
 62
7
  6
CONTINUOUS
 70
0
 71
3
 72
8
 73
4
 74
0
 42
0.0000001
 43
0.0000001
 44
0.0000000001
 40
0.0
 40
0.0
 40
0.0
 40
0.0
 40
1.0
 40
1.0
 40
1.0
 40
1.0
 10
104.8290418511
 20
138.3298910949
 30
0.0
 10
104.8315710974
 20
138.3299150371
 30
0.0
 10
104.8341180248
 20
138.3297555644
 30
0.0
 10
104.8366075094
 20
138.3293082092
 30
0.0
  0
SPLINE
  5
3C6
100
AcDbEntity
  8
GEOM
100
AcDbSpline
 62
7
  6
CONTINUOUS
 70
0
 71
3
 72
13
 73
9
 74
0
 42
0.0000001
 43
0.0000001
 44
0.0000000001
 40
0.0
 40
0.0
 40
0.0
 40
0.0
 40
0.2542891275
 40
0.3777841797
 40
0.5000000118
 40
0.6222158438
 40
0.7457108895
 40
1.0
 40
1.0
 40
1.0
 40
1.0
 10
76.0223710813
 20
35.5875916425
 30
0.0
 10
75.6669877162
 20
36.3877963005
 30
0.0
 10
75.2272912765
 20
37.622792379
 30
0.0
 10
74.9196094461
 20
39.3199355393
 30
0.0
 10
74.8418362549
 20
40.5875917684
 30
0.0
 10
74.9196096004
 20
41.8552479513
 30
0.0
 10
75.2272911494
 20
43.5523910808
 30
0.0
 10
75.6669877398
 20
44.7873870377
 30
0.0
 10
76.0223710813
 20
45.5875916425
 30
0.0
  0
SPLINE
  5
3C7
100
AcDbEntity
  8
GEOM
100
AcDbSpline
 62
7
  6
CONTINUOUS
 70
0
 71
3
 72
11
 73
7
 74
0
 42
0.0000001
 43
0.0000001
 44
0.0000000001
 40
0.0
 40
0.0
 40
0.0
 40
0.0
 40
0.2500145567
 40
0.500000012
 40
0.7499854617
 40
1.0
 40
1.0
 40
1.0
 40
1.0
 10
76.0223710813
 20
51.3722013333
 30
0.0
 10
75.6580995578
 20
53.0126369782
 30
0.0
 10
75.0750587409
 20
56.3289412122
 30
0.0
 10
74.7639824905
 20
61.3722015387
 30
0.0
 10
75.0750586908
 20
66.4154617523
 30
0.0
 10
75.6580995846
 20
69.7317658088
 30
0.0
 10
76.0223710813
 20
71.3722013333
 30
0.0
  0
SPLINE
  5
3C8
100
AcDbEntity
  8
GEOM
100
AcDbSpline
 62
7
  6
CONTINUOUS
 70
0
 71
3
 72
13
 73
9
 74
0
 42
0.0000001
 43
0.0000001
 44
0.0000000001
 40
0.0
 40
0.0
 40
0.0
 40
0.0
 40
0.2542891275
 40
0.3777841797
 40
0.5000000118
 40
0.6222158438
 40
0.7457108895
 40
1.0
 40
1.0
 40
1.0
 40
1.0
 10
76.0223710813
 20
77.1568110241
 30
0.0
 10
75.6669877162
 20
77.9570156822
 30
0.0
 10
75.2272912765
 20
79.1920117606
 30
0.0
 10
74.9196094461
 20
80.889154921
 30
0.0
 10
74.8418362549
 20
82.15681115
 30
0.0
 10
74.9196096004
 20
83.424467333
 30
0.0
 10
75.2272911494
 20
85.1216104625
 30
0.0
 10
75.6669877398
 20
86.3566064193
 30
0.0
 10
76.0223710813
 20
87.1568110241
 30
0.0
  0
SPLINE
  5
3C9
100
AcDbEntity
  8
GEOM
100
AcDbSpline
 62
7
  6
CONTINUOUS
 70
0
 71
3
 72
11
 73
7
 74
0
 42
0.0000001
 43
0.0000001
 44
0.0000000001
 40
0.0
 40
0.0
 40
0.0
 40
0.0
 40
0.2475132914
 40
0.496841434
 40
0.7480320262
 40
1.0
 40
1.0
 40
1.0
 40
1.0
 10
104.1395610545
 20
144.3722013333
 30
0.0
 10
104.1778168366
 20
144.3722013333
 30
0.0
 10
104.2553918811
 20
144.3881035921
 30
0.0
 10
104.3534676569
 20
144.4547807443
 30
0.0
 10
104.4184254282
 20
144.5547373902
 30
0.0
 10
104.4338205475
 20
144.6332570332
 30
0.0
 10
104.4338204861
 20
144.6722013333
 30
0.0
  0
SPLINE
  5
3CA
100
AcDbEntity
  8
GEOM
100
AcDbSpline
 62
7
  6
CONTINUOUS
 70
0
 71
3
 72
11
 73
7
 74
0
 42
0.0000001
 43
0.0000001
 44
0.0000000001
 40
0.0
 40
0.0
 40
0.0
 40
0.0
 40
0.1466176906
 40
0.3641298301
 40
0.6568799066
 40
1.0
 40
1.0
 40
1.0
 40
1.0
 10
104.1395610545
 20
144.3722013333
 30
0.0
 10
104.1566644855
 20
144.3721974505
 30
0.0
 10
104.196910436
 20
144.3479984976
 30
0.0
 10
104.2370435318
 20
144.2821628294
 30
0.0
 10
104.2683880692
 20
144.1866860216
 30
0.0
 10
104.2757419693
 20
144.1122274087
 30
0.0
 10
104.2757304984
 20
144.0722013333
 30
0.0
  0
SPLINE
  5
3CB
100
AcDbEntity
  8
GEOM
100
AcDbSpline
 62
7
  6
CONTINUOUS
 70
0
 71
3
 72
9
 73
5
 74
0
 42
0.0000001
 43
0.0000001
 44
0.0000000001
 40
0.0
 40
0.0
 40
0.0
 40
0.0
 40
0.2519620164
 40
1.0
 40
1.0
 40
1.0
 40
1.0
 10
104.3060968841
 20
138.7614266533
 30
0.0
 10
104.3340104037
 20
138.7158030424
 30
0.0
 10
104.4537491417
 20
138.5402669157
 30
0.0
 10
104.6054292926
 20
138.3872927379
 30
0.0
 10
104.7297164543
 20
138.2884648088
 30
0.0
  0
SPLINE
  5
3CC
100
AcDbEntity
  8
GEOM
100
AcDbSpline
 62
7
  6
CONTINUOUS
 70
0
 71
3
 72
15
 73
11
 74
0
 42
0.0000001
 43
0.0000001
 44
0.0000000001
 40
0.0
 40
0.0
 40
0.0
 40
0.0
 40
0.3579650212
 40
0.6796072931
 40
0.7989938338
 40
0.8639693615
 40
0.8848152976
 40
0.9128962965
 40
0.9516407277
 40
1.0
 40
1.0
 40
1.0
 40
1.0
 10
104.898565167
 20
138.1528492661
 30
0.0
 10
104.9175142762
 20
138.1374461186
 30
0.0
 10
104.9518558679
 20
138.1070978451
 30
0.0
 10
104.9896559896
 20
138.0648004795
 30
0.0
 10
105.0060020791
 20
138.0372718672
 30
0.0
 10
105.0118010009
 20
138.0208294754
 30
0.0
 10
105.0047126043
 20
138.0158285549
 30
0.0
 10
104.9985020206
 20
138.0169574035
 30
0.0
 10
104.9912172286
 20
138.0196574579
 30
0.0
 10
104.9859470395
 20
138.0225045791
 30
0.0
 10
104.9830901358
 20
138.0241542556
 30
0.0
  0
LINE
  5
3CD
100
AcDbEntity
  8
GEOM
100
AcDbLine
 62
7
  6
CONTINUOUS
 10
104.8817324547
 20
138.1665140485
 11
104.898565167
 21
138.1528492661
  0
SPLINE
  5
3CE
100
AcDbEntity
  8
GEOM
100
AcDbSpline
 62
7
  6
CONTINUOUS
 70
0
 71
3
 72
13
 73
9
 74
0
 42
0.0000001
 43
0.0000001
 44
0.0000000001
 40
0.0
 40
0.0
 40
0.0
 40
0.0
 40
0.1220201819
 40
0.2452974308
 40
0.3697363998
 40
0.4953285083
 40
0.7476117301
 40
1.0
 40
1.0
 40
1.0
 40
1.0
 10
128.8446533192
 20
90.1379484689
 30
0.0
 10
128.5996077875
 20
90.1474233286
 30
0.0
 10
128.1076022649
 20
90.2160002314
 30
0.0
 10
127.401288566
 20
90.4605412621
 30
0.0
 10
126.7479726274
 20
90.8388585926
 30
0.0
 10
125.9796929222
 20
91.5014332567
 30
0.0
 10
125.2656068195
 20
92.5832402256
 30
0.0
 10
125.0393251895
 20
93.5987301696
 30
0.0
 10
125.0211235586
 20
94.1056378761
 30
0.0
  0
SPLINE
  5
3CF
100
AcDbEntity
  8
GEOM
100
AcDbSpline
 62
7
  6
CONTINUOUS
 70
0
 71
3
 72
13
 73
9
 74
0
 42
0.0000001
 43
0.0000001
 44
0.0000000001
 40
0.0
 40
0.0
 40
0.0
 40
0.0
 40
0.2792553686
 40
0.5670945389
 40
0.7003000926
 40
0.8194719169
 40
0.9203248264
 40
1.0
 40
1.0
 40
1.0
 40
1.0
 10
122.6788734186
 20
90.4407582764
 30
0.0
 10
123.1279916895
 20
90.1686483855
 30
0.0
 10
124.0480280754
 20
89.6294119107
 30
0.0
 10
125.2376959074
 20
89.0551700441
 30
0.0
 10
126.2017507969
 20
88.730576275
 30
0.0
 10
126.851279267
 20
88.5840909359
 30
0.0
 10
127.413681405
 20
88.5305872471
 30
0.0
 10
127.7554639714
 20
88.5545582513
 30
0.0
 10
127.9018592077
 20
88.586425587
 30
0.0
  0
SPLINE
  5
3D0
100
AcDbEntity
  8
GEOM
100
AcDbSpline
 62
7
  6
CONTINUOUS
 70
0
 71
3
 72
9
 73
5
 74
0
 42
0.0000001
 43
0.0000001
 44
0.0000000001
 40
0.0
 40
0.0
 40
0.0
 40
0.0
 40
0.2568612913
 40
1.0
 40
1.0
 40
1.0
 40
1.0
 10
122.6788734186
 20
90.4407582764
 30
0.0
 10
122.6374095303
 20
90.4851946407
 30
0.0
 10
122.4782629611
 20
90.6602926847
 30
0.0
 10
122.3283738855
 20
90.8438956206
 30
0.0
 10
122.2236997821
 20
90.9851826328
 30
0.0
  0
SPLINE
  5
3D1
100
AcDbEntity
  8
GEOM
100
AcDbSpline
 62
7
  6
CONTINUOUS
 70
0
 71
3
 72
11
 73
7
 74
0
 42
0.0000001
 43
0.0000001
 44
0.0000000001
 40
0.0
 40
0.0
 40
0.0
 40
0.0
 40
0.2410764686
 40
0.4901366195
 40
0.7448373812
 40
1.0
 40
1.0
 40
1.0
 40
1.0
 10
102.9659736623
 20
89.0008620399
 30
0.0
 10
103.3188358994
 20
89.0240554847
 30
0.0
 10
104.032924743
 20
89.2202496405
 30
0.0
 10
104.9242308453
 20
89.8913260566
 30
0.0
 10
105.5428982739
 20
90.8425188256
 30
0.0
 10
105.7196771286
 20
91.5874312835
 30
0.0
 10
105.7412670869
 20
91.9610940463
 30
0.0
  0
SPLINE
  5
3D2
100
AcDbEntity
  8
GEOM
100
AcDbSpline
 62
7
  6
CONTINUOUS
 70
0
 71
3
 72
11
 73
7
 74
0
 42
0.0000001
 43
0.0000001
 44
0.0000000001
 40
0.0
 40
0.0
 40
0.0
 40
0.0
 40
0.2143623423
 40
0.4591499879
 40
0.7260397113
 40
1.0
 40
1.0
 40
1.0
 40
1.0
 10
124.1357675245
 20
87.9348573634
 30
0.0
 10
123.889050543
 20
88.0162936286
 30
0.0
 10
123.398237534
 20
88.3077003734
 30
0.0
 10
122.8051796567
 20
88.9701894737
 30
0.0
 10
122.351944831
 20
89.8165831559
 30
0.0
 10
122.1722118797
 20
90.4532924443
 30
0.0
 10
122.117855715
 20
90.7808563733
 30
0.0
  0
SPLINE
  5
3D3
100
AcDbEntity
  8
GEOM
100
AcDbSpline
 62
7
  6
CONTINUOUS
 70
0
 71
3
 72
11
 73
7
 74
0
 42
0.0000001
 43
0.0000001
 44
0.0000000001
 40
0.0
 40
0.0
 40
0.0
 40
0.0
 40
0.2059109485
 40
0.4463584459
 40
0.7153113496
 40
1.0
 40
1.0
 40
1.0
 40
1.0
 10
124.3863944586
 20
87.9963368163
 30
0.0
 10
124.1900689619
 20
88.0741860218
 30
0.0
 10
123.8000247077
 20
88.3330832161
 30
0.0
 10
123.3195116045
 20
88.8952057172
 30
0.0
 10
122.9272883971
 20
89.614706391
 30
0.0
 10
122.7473933719
 20
90.1567811258
 30
0.0
 10
122.6790289229
 20
90.4406624891
 30
0.0
  0
SPLINE
  5
3D4
100
AcDbEntity
  8
GEOM
100
AcDbSpline
 62
7
  6
CONTINUOUS
 70
0
 71
3
 72
9
 73
5
 74
0
 42
0.0000001
 43
0.0000001
 44
0.0000000001
 40
0.0
 40
0.0
 40
0.0
 40
0.0
 40
0.502620342
 40
1.0
 40
1.0
 40
1.0
 40
1.0
 10
126.0162261945
 20
87.9534167663
 30
0.0
 10
126.3539545429
 20
87.9534221793
 30
0.0
 10
127.0304257675
 20
88.062172605
 30
0.0
 10
127.6366848287
 20
88.3829068303
 30
0.0
 10
127.901845701
 20
88.5863373978
 30
0.0
  0
SPLINE
  5
3D5
100
AcDbEntity
  8
GEOM
100
AcDbSpline
 62
7
  6
CONTINUOUS
 70
0
 71
3
 72
9
 73
5
 74
0
 42
0.0000001
 43
0.0000001
 44
0.0000000001
 40
0.0
 40
0.0
 40
0.0
 40
0.0
 40
0.508050166
 40
1.0
 40
1.0
 40
1.0
 40
1.0
 10
104.5901158226
 20
138.8248854784
 30
0.0
 10
104.6110447471
 20
138.7326683573
 30
0.0
 10
104.6696272309
 20
138.5542853738
 30
0.0
 10
104.7739460613
 20
138.3960748667
 30
0.0
 10
104.8366074175
 20
138.3293081145
 30
0.0
  0
SPLINE
  5
3D6
100
AcDbEntity
  8
GEOM
100
AcDbSpline
 62
7
  6
CONTINUOUS
 70
0
 71
3
 72
9
 73
5
 74
0
 42
0.0000001
 43
0.0000001
 44
0.0000000001
 40
0.0
 40
0.0
 40
0.0
 40
0.0
 40
0.2668436041
 40
1.0
 40
1.0
 40
1.0
 40
1.0
 10
104.997422653
 20
137.9693662177
 30
0.0
 10
104.9757773405
 20
137.9851807215
 30
0.0
 10
104.8944084733
 20
138.0440981293
 30
0.0
 10
104.8120335785
 20
138.1016330448
 30
0.0
 10
104.7509817871
 20
138.1428326161
 30
0.0
  0
SPLINE
  5
3D7
100
AcDbEntity
  8
GEOM
100
AcDbSpline
 62
7
  6
CONTINUOUS
 70
0
 71
3
 72
16
 73
12
 74
0
 42
0.0000001
 43
0.0000001
 44
0.0000000001
 40
0.0
 40
0.0
 40
0.0
 40
0.0
 40
0.373825127
 40
0.5447578756
 40
0.6961331579
 40
0.8174799823
 40
0.8632738521
 40
0.8978510997
 40
0.9221665676
 40
0.9419091654
 40
1.0
 40
1.0
 40
1.0
 40
1.0
 10
104.9890823797
 20
138.1650945521
 30
0.0
 10
105.0180190223
 20
138.1338852759
 30
0.0
 10
105.0565627892
 20
138.0846843141
 30
0.0
 10
105.0955143349
 20
138.0155170342
 30
0.0
 10
105.1152250245
 20
137.968895513
 30
0.0
 10
105.1249312794
 20
137.9337702061
 30
0.0
 10
105.1270227603
 20
137.9107528724
 30
0.0
 10
105.1260285224
 20
137.8989285242
 30
0.0
 10
105.1224606906
 20
137.8900826548
 30
0.0
 10
105.1107218358
 20
137.8852076201
 30
0.0
 10
105.1022727093
 20
137.8916744166
 30
0.0
 10
105.0969823232
 20
137.8956432903
 30
0.0
  0
SPLINE
  5
3D8
100
AcDbEntity
  8
0
100
AcDbSpline
 62
7
  6
CONTINUOUS
 70
0
 71
3
 72
13
 73
9
 74
0
 42
0.0000001
 43
0.0000001
 44
0.0000000001
 40
0.0
 40
0.0
 40
0.0
 40
0.0
 40
0.2545659304
 40
0.3779706779
 40
0.5000001924
 40
0.6220296212
 40
0.7454342226
 40
1.0
 40
1.0
 40
1.0
 40
1.0
 10
88.4303222995
 20
35.5875916425
 30
0.0
 10
88.7965980265
 20
36.3860798461
 30
0.0
 10
89.2521246351
 20
37.6196119735
 30
0.0
 10
89.5722689487
 20
39.3186390365
 30
0.0
 10
89.6532653858
 20
40.5875934623
 30
0.0
 10
89.5722679546
 20
41.8565471962
 30
0.0
 10
89.2521263862
 20
43.5555734298
 30
0.0
 10
88.796598354
 20
44.7891041698
 30
0.0
 10
88.4303222995
 20
45.5875916425
 30
0.0
  0
SPLINE
  5
3D9
100
AcDbEntity
  8
0
100
AcDbSpline
 62
7
  6
CONTINUOUS
 70
0
 71
3
 72
9
 73
5
 74
0
 42
0.0000001
 43
0.0000001
 44
0.0000000001
 40
0.0
 40
0.0
 40
0.0
 40
0.0
 40
0.5226597403
 40
1.0
 40
1.0
 40
1.0
 40
1.0
 10
88.4716669258
 20
45.5895030967
 30
0.0
 10
88.6283302223
 20
45.604173563
 30
0.0
 10
88.9252040398
 20
45.6904204654
 30
0.0
 10
89.1680748043
 20
45.8882392275
 30
0.0
 10
89.2510897892
 20
46.0055408284
 30
0.0
  0
SPLINE
  5
3DA
100
AcDbEntity
  8
0
100
AcDbSpline
 62
7
  6
CONTINUOUS
 70
0
 71
3
 72
13
 73
9
 74
0
 42
0.0000001
 43
0.0000001
 44
0.0000000001
 40
0.0
 40
0.0
 40
0.0
 40
0.0
 40
0.2522416238
 40
0.375122879
 40
0.4971208727
 40
0.6195465807
 40
0.7436455841
 40
1.0
 40
1.0
 40
1.0
 40
1.0
 10
89.2510897892
 20
36.0111681051
 30
0.0
 10
89.6072314724
 20
36.8028225352
 30
0.0
 10
90.0473552896
 20
38.0275232469
 30
0.0
 10
90.3541901109
 20
39.7138915944
 30
0.0
 10
90.4315820515
 20
40.9787892253
 30
0.0
 10
90.3536832437
 20
42.2478125093
 30
0.0
 10
90.0458151169
 20
43.9540452787
 30
0.0
 10
89.6064431194
 20
45.1980438819
 30
0.0
 10
89.2510897892
 20
46.0055408284
 30
0.0
  0
SPLINE
  5
3DB
100
AcDbEntity
  8
0
100
AcDbSpline
 62
7
  6
CONTINUOUS
 70
0
 71
3
 72
9
 73
5
 74
0
 42
0.0000001
 43
0.0000001
 44
0.0000000001
 40
0.0
 40
0.0
 40
0.0
 40
0.0
 40
0.5070720006
 40
1.0
 40
1.0
 40
1.0
 40
1.0
 10
88.4716669258
 20
35.587282768
 30
0.0
 10
88.6268730216
 20
35.5849351636
 30
0.0
 10
88.9399922992
 20
35.6590358842
 30
0.0
 10
89.1733236531
 20
35.8818566111
 30
0.0
 10
89.2510897892
 20
36.0111681051
 30
0.0
  0
SPLINE
  5
3DC
100
AcDbEntity
  8
0
100
AcDbSpline
 62
7
  6
CONTINUOUS
 70
0
 71
3
 72
11
 73
7
 74
0
 42
0.0000001
 43
0.0000001
 44
0.0000000001
 40
0.0
 40
0.0
 40
0.0
 40
0.0
 40
0.2500171766
 40
0.5000000048
 40
0.7499828297
 40
1.0
 40
1.0
 40
1.0
 40
1.0
 10
88.4303222995
 20
51.3722013333
 30
0.0
 10
88.8061980611
 20
53.0110338215
 30
0.0
 10
89.4103522417
 20
56.3258677294
 30
0.0
 10
89.7343674484
 20
61.3722014262
 30
0.0
 10
89.4103530242
 20
66.418535167
 30
0.0
 10
88.8061984329
 20
69.7333689738
 30
0.0
 10
88.4303222995
 20
71.3722013333
 30
0.0
  0
SPLINE
  5
3DD
100
AcDbEntity
  8
0
100
AcDbSpline
 62
7
  6
CONTINUOUS
 70
0
 71
3
 72
10
 73
6
 74
0
 42
0.0000001
 43
0.0000001
 44
0.0000000001
 40
0.0
 40
0.0
 40
0.0
 40
0.0
 40
0.5790449059
 40
0.8163567055
 40
1.0
 40
1.0
 40
1.0
 40
1.0
 10
88.4716669258
 20
71.3744216561
 30
0.0
 10
88.6217449502
 20
71.3907454828
 30
0.0
 10
88.8349041677
 20
71.4043584341
 30
0.0
 10
89.0954588962
 20
71.3933471191
 30
0.0
 10
89.2046394392
 20
71.3781777491
 30
0.0
 10
89.2510897892
 20
71.366574076
 30
0.0
  0
SPLINE
  5
3DE
100
AcDbEntity
  8
0
100
AcDbSpline
 62
7
  6
CONTINUOUS
 70
0
 71
3
 72
11
 73
7
 74
0
 42
0.0000001
 43
0.0000001
 44
0.0000000001
 40
0.0
 40
0.0
 40
0.0
 40
0.0
 40
0.2500133501
 40
0.5000000016
 40
0.7499866511
 40
1.0
 40
1.0
 40
1.0
 40
1.0
 10
89.2510897892
 20
51.3778288311
 30
0.0
 10
89.6157834634
 20
53.0172151863
 30
0.0
 10
90.1988050063
 20
56.3316993373
 30
0.0
 10
90.5092773989
 20
61.372201475
 30
0.0
 10
90.1988052459
 20
66.4127036392
 30
0.0
 10
89.6157834826
 20
69.7271877336
 30
0.0
 10
89.2510897892
 20
71.366574076
 30
0.0
  0
SPLINE
  5
3DF
100
AcDbEntity
  8
0
100
AcDbSpline
 62
7
  6
CONTINUOUS
 70
0
 71
3
 72
10
 73
6
 74
0
 42
0.0000001
 43
0.0000001
 44
0.0000000001
 40
0.0
 40
0.0
 40
0.0
 40
0.0
 40
0.5790445733
 40
0.8163563349
 40
1.0
 40
1.0
 40
1.0
 40
1.0
 10
88.4716669258
 20
51.3699809592
 30
0.0
 10
88.6217448949
 20
51.3536570413
 30
0.0
 10
88.8349039601
 20
51.3400435333
 30
0.0
 10
89.0954589273
 20
51.3510542127
 30
0.0
 10
89.2046393318
 20
51.3662251349
 30
0.0
 10
89.2510897892
 20
51.3778288311
 30
0.0
  0
SPLINE
  5
3E0
100
AcDbEntity
  8
0
100
AcDbSpline
 62
7
  6
CONTINUOUS
 70
0
 71
3
 72
13
 73
9
 74
0
 42
0.0000001
 43
0.0000001
 44
0.0000000001
 40
0.0
 40
0.0
 40
0.0
 40
0.0
 40
0.2545657662
 40
0.3779703708
 40
0.4999998062
 40
0.6220293239
 40
0.745434072
 40
1.0
 40
1.0
 40
1.0
 40
1.0
 10
88.4303222995
 20
77.1568110241
 30
0.0
 10
88.7965980209
 20
77.9552986069
 30
0.0
 10
89.2521257318
 20
79.1888293858
 30
0.0
 10
89.5722675393
 20
80.8878555512
 30
0.0
 10
89.6532654096
 20
82.1568093017
 30
0.0
 10
89.5722692534
 20
83.4257637824
 30
0.0
 10
89.2521253657
 20
85.1247909431
 30
0.0
 10
88.7965983203
 20
86.3583229647
 30
0.0
 10
88.4303222995
 20
87.1568110241
 30
0.0
  0
SPLINE
  5
3E1
100
AcDbEntity
  8
0
100
AcDbSpline
 62
7
  6
CONTINUOUS
 70
0
 71
3
 72
9
 73
5
 74
0
 42
0.0000001
 43
0.0000001
 44
0.0000000001
 40
0.0
 40
0.0
 40
0.0
 40
0.0
 40
0.5070722995
 40
1.0
 40
1.0
 40
1.0
 40
1.0
 10
88.4716669258
 20
87.1571198916
 30
0.0
 10
88.6268730983
 20
87.1594674835
 30
0.0
 10
88.9399922636
 20
87.0853665141
 30
0.0
 10
89.1733237082
 20
86.8625459958
 30
0.0
 10
89.2510897892
 20
86.7332345926
 30
0.0
  0
SPLINE
  5
3E2
100
AcDbEntity
  8
0
100
AcDbSpline
 62
7
  6
CONTINUOUS
 70
0
 71
3
 72
13
 73
9
 74
0
 42
0.0000001
 43
0.0000001
 44
0.0000000001
 40
0.0
 40
0.0
 40
0.0
 40
0.0
 40
0.2563544327
 40
0.3804534315
 40
0.5028791265
 40
0.6248771072
 40
0.7477583603
 40
1.0
 40
1.0
 40
1.0
 40
1.0
 10
89.2510897892
 20
76.7388620432
 30
0.0
 10
89.6064431254
 20
77.546359032
 30
0.0
 10
90.0458149196
 20
78.7903577256
 30
0.0
 10
90.3536830747
 20
80.4965904386
 30
0.0
 10
90.4315820745
 20
81.7656135833
 30
0.0
 10
90.3541901775
 20
83.0305110989
 30
0.0
 10
90.0473554509
 20
84.7168794368
 30
0.0
 10
89.6072315005
 20
85.9415801329
 30
0.0
 10
89.2510897892
 20
86.7332345926
 30
0.0
  0
SPLINE
  5
3E3
100
AcDbEntity
  8
0
100
AcDbSpline
 62
7
  6
CONTINUOUS
 70
0
 71
3
 72
9
 73
5
 74
0
 42
0.0000001
 43
0.0000001
 44
0.0000000001
 40
0.0
 40
0.0
 40
0.0
 40
0.0
 40
0.522659989
 40
1.0
 40
1.0
 40
1.0
 40
1.0
 10
88.4716669258
 20
77.1548995265
 30
0.0
 10
88.6283302158
 20
77.1402289746
 30
0.0
 10
88.9252033702
 20
77.0539810378
 30
0.0
 10
89.1680748892
 20
76.8561635305
 30
0.0
 10
89.2510897892
 20
76.7388620432
 30
0.0
  0
ELLIPSE
  5
3E4
100
AcDbEntity
  8
0
100
AcDbEllipse
 62
7
  6
CONTINUOUS
 10
108.5557139523
 20
154.9722013333
 30
0.0
 11
3.0
 21
0.0
 31
0.0
 40
1.0
 41
-0.0
 42
1.5707963268
  0
ELLIPSE
  5
3E5
100
AcDbEntity
  8
0
100
AcDbEllipse
 62
7
  6
CONTINUOUS
 10
129.3799573027
 20
154.9722013333
 30
0.0
 11
0.0
 21
3.0
 31
0.0
 40
0.5773502692
 41
0.1060960822
 42
1.5707963256
  0
ENDSEC
  0
SECTION
  2
OBJECTS
  0
DICTIONARY
  5
3E6
100
AcDbDictionary
  3
ACAD_GROUP
350
3E7
  3
ACAD_MLINESTYLE
350
3E8
  0
DICTIONARY
  5
3E7
102
{ACAD_REACTORS
330
3E6
102
}
100
AcDbDictionary
  0
DICTIONARY
  5
3E8
102
{ACAD_REACTORS
330
3E6
102
}
100
AcDbDictionary
  3
STANDARD
350
3E9
  0
MLINESTYLE
  5
3E9
102
{ACAD_REACTORS
330
3E8
102
}
100
AcDbMlineStyle
  2
STANDARD
 70
0
  3

 62
256
 51
90.0
 52
90.0
 71
2
 49
0.5
 62
256
  6
BYLAYER
 49
-0.5
 62
256
  6
BYLAYER
  0
ENDSEC
  0
EOF
