999
DXF file: C:\Users\64ciro\Desktop\FILE 3D-2D\ARMATEC\h36lll028_3082.dxf
999
Pro/ENGINEER 2017260 by Parametric Technology Corporation
  0
SECTION
  2
HEADER
  9
$ACADVER
  1
AC1014
  9
$DWGCODEPAGE
  3
ANSI_1252
  9
$EXTMAX
 10
297.0
 20
210.0
 30
0.0
  9
$EXTMIN
 10
0.0
 20
0.0
 30
0.0
  9
$LIMMIN
 10
0.0
 20
0.0
  9
$LIMMAX
 10
297.0
 20
210.0
  9
$VIEWCTR
 10
148.5
 20
105.0
  9
$VIEWSIZE
 40
210.0
  9
$CLAYER
  8
0
  9
$LTSCALE
 40
16.335
  9
$CELTYPE
  6
BYLAYER
  9
$DIMSCALE
 40
1.0
  9
$DIMASZ
 40
1.5
  9
$DIMEXO
 40
0.0625
  9
$DIMDLI
 40
11.286
  9
$DIMEXE
 40
0.125
  9
$DIMCEN
 40
2.673
  9
$DIMLFAC
 40
1.0
  9
$DIMBLK
  1
_CLOSED
  9
$DIMALT
 70
0
  9
$DIMALTF
 40
25.4
  9
$DIMTXT
 40
2.4
  9
$DIMTOL
 70
1
  9
$DIMLIM
 70
0
  9
$DIMTFAC
 40
1.0
  9
$DIMTP
 40
0.01
  9
$DIMTM
 40
0.01
  9
$DIMGAP
 40
0.625
  9
$AUNITS
 70
0
  9
$PDMODE
 70
3
  9
$PDSIZE
 40
0.3125
  9
$HANDSEED
  5
4F7
  9
$TILEMODE
 70
1
  9
$MEASUREMENT
 70
1
  0
ENDSEC
  0
SECTION
  2
CLASSES
  0
ENDSEC
  0
SECTION
  2
TABLES
  0
TABLE
  2
VPORT
  5
8
100
AcDbSymbolTable
 70
2
  0
VPORT
  5
1F4
100
AcDbSymbolTableRecord
100
AcDbViewportTableRecord
  2
*ACTIVE
 70
0
 10
0.0
 20
0.0
 11
1.0
 21
1.0
 12
148.5
 22
105.0
 13
0.0
 23
0.0
 14
1.0
 24
1.0
 15
0.0
 25
0.0
 16
0.0
 26
0.0
 36
1.0
 17
0.0
 27
0.0
 37
0.0
 40
210.0
 41
1.4142857143
 42
50.0
 43
0.0
 44
0.0
 50
0.0
 51
0.0
 71
0
 72
100
 73
1
 74
1
 75
0
 76
0
 77
0
 78
0
  0
ENDTAB
  0
TABLE
  2
LTYPE
  5
5
100
AcDbSymbolTable
 70
6
  0
LTYPE
  5
14
100
AcDbSymbolTableRecord
100
AcDbLinetypeTableRecord
  2
BYBLOCK
 70
0
  3

 72
65
 73
0
 40
0.0
  0
LTYPE
  5
15
100
AcDbSymbolTableRecord
100
AcDbLinetypeTableRecord
  2
BYLAYER
 70
0
  3

 72
65
 73
0
 40
0.0
  0
LTYPE
  5
16
100
AcDbSymbolTableRecord
100
AcDbLinetypeTableRecord
  2
CONTINUOUS
 70
64
  3
Solid line
 72
65
 73
0
 40
0.0
  0
LTYPE
  5
1F5
100
AcDbSymbolTableRecord
100
AcDbLinetypeTableRecord
  2
CENTER
 70
64
  3
____ _ ____ _ ____ _ ____ _ ____ _ ____ _ ____
 72
65
 73
4
 40
0.6
 49
0.375
 74
0
 49
-0.075
 74
0
 49
0.075
 74
0
 49
-0.075
 74
0
  0
LTYPE
  5
1F6
100
AcDbSymbolTableRecord
100
AcDbLinetypeTableRecord
  2
HIDDEN
 70
64
  3
- - - - - - - - - - - - - - - - - - - -
 72
65
 73
2
 40
0.2
 49
0.1
 74
0
 49
-0.1
 74
0
  0
LTYPE
  5
1F7
100
AcDbSymbolTableRecord
100
AcDbLinetypeTableRecord
  2
PHANTOM
 70
64
  3
_____ _ _ _____ _ _ _____ _ _ _____
 72
65
 73
6
 40
0.8
 49
0.45
 74
0
 49
-0.05
 74
0
 49
0.1
 74
0
 49
-0.05
 74
0
 49
0.1
 74
0
 49
-0.05
 74
0
  0
LTYPE
  5
1F8
100
AcDbSymbolTableRecord
100
AcDbLinetypeTableRecord
  2
DOT
 70
64
  3
. . . . . . . . . . . . . . . . . . . .
 72
65
 73
2
 40
0.2
 49
0.1
 74
0
 49
-0.1
 74
0
  0
LTYPE
  5
1F9
100
AcDbSymbolTableRecord
100
AcDbLinetypeTableRecord
  2
DASHED
 70
64
  3
- - - - - - - - - - - - - - - - - - - -
 72
65
 73
2
 40
0.2
 49
0.1
 74
0
 49
-0.1
 74
0
  0
ENDTAB
  0
TABLE
  2
LAYER
  5
2
100
AcDbSymbolTable
 70
36
  0
LAYER
  5
10
100
AcDbSymbolTableRecord
100
AcDbLayerTableRecord
  2
0
 70
0
 62
7
  6
CONTINUOUS
  0
LAYER
  5
1FA
100
AcDbSymbolTableRecord
100
AcDbLayerTableRecord
  2
DEFAULT_1
 70
0
 62
7
  6
CENTER
  0
LAYER
  5
1FB
100
AcDbSymbolTableRecord
100
AcDbLayerTableRecord
  2
DEFAULT_2
 70
0
 62
8
  6
HIDDEN
  0
LAYER
  5
1FC
100
AcDbSymbolTableRecord
100
AcDbLayerTableRecord
  2
DEFAULT_3
 70
0
 62
7
  6
PHANTOM
  0
LAYER
  5
1FD
100
AcDbSymbolTableRecord
100
AcDbLayerTableRecord
  2
ASSI
 70
0
 62
7
  6
CONTINUOUS
  0
LAYER
  5
1FE
100
AcDbSymbolTableRecord
100
AcDbLayerTableRecord
  2
COSMETICA
 70
0
 62
7
  6
CONTINUOUS
  0
LAYER
  5
1FF
100
AcDbSymbolTableRecord
100
AcDbLayerTableRecord
  2
CSYS
 70
0
 62
7
  6
CONTINUOUS
  0
LAYER
  5
200
100
AcDbSymbolTableRecord
100
AcDbLayerTableRecord
  2
CURVE
 70
0
 62
7
  6
CONTINUOUS
  0
LAYER
  5
201
100
AcDbSymbolTableRecord
100
AcDbLayerTableRecord
  2
DETTAGLI
 70
0
 62
7
  6
CONTINUOUS
  0
LAYER
  5
202
100
AcDbSymbolTableRecord
100
AcDbLayerTableRecord
  2
GEOM
 70
0
 62
7
  6
CONTINUOUS
  0
LAYER
  5
203
100
AcDbSymbolTableRecord
100
AcDbLayerTableRecord
  2
GEOMETRIA_SOLIDA
 70
0
 62
7
  6
CONTINUOUS
  0
LAYER
  5
204
100
AcDbSymbolTableRecord
100
AcDbLayerTableRecord
  2
LAY0001
 70
0
 62
7
  6
CONTINUOUS
  0
LAYER
  5
205
100
AcDbSymbolTableRecord
100
AcDbLayerTableRecord
  2
LAY0002
 70
0
 62
7
  6
CONTINUOUS
  0
LAYER
  5
206
100
AcDbSymbolTableRecord
100
AcDbLayerTableRecord
  2
NOGEOM
 70
0
 62
7
  6
CONTINUOUS
  0
LAYER
  5
207
100
AcDbSymbolTableRecord
100
AcDbLayerTableRecord
  2
PIANI
 70
0
 62
7
  6
CONTINUOUS
  0
LAYER
  5
208
100
AcDbSymbolTableRecord
100
AcDbLayerTableRecord
  2
QUOTE
 70
0
 62
7
  6
CONTINUOUS
  0
LAYER
  5
209
100
AcDbSymbolTableRecord
100
AcDbLayerTableRecord
  2
RACCORDI
 70
0
 62
7
  6
CONTINUOUS
  0
LAYER
  5
20A
100
AcDbSymbolTableRecord
100
AcDbLayerTableRecord
  2
RIF
 70
0
 62
7
  6
CONTINUOUS
  0
LAYER
  5
20B
100
AcDbSymbolTableRecord
100
AcDbLayerTableRecord
  2
SMUSSI
 70
0
 62
7
  6
CONTINUOUS
  0
LAYER
  5
20C
100
AcDbSymbolTableRecord
100
AcDbLayerTableRecord
  2
TABELLA
 70
0
 62
7
  6
CONTINUOUS
  0
ENDTAB
  0
TABLE
  2
STYLE
  5
3
100
AcDbSymbolTable
 70
1
  0
STYLE
  5
11
100
AcDbSymbolTableRecord
100
AcDbTextStyleTableRecord
  2
STANDARD
 70
0
 40
0.0
 41
0.8
 50
0.0
 71
0
 42
0.2
  3
txt
  4

  0
STYLE
  5
20D
100
AcDbSymbolTableRecord
100
AcDbTextStyleTableRecord
  2
TEXTSTYLE_1
 70
0
 40
0.0
 41
0.8
 50
0.0
 71
0
 42
0.2
  3
gdt
  4

  0
ENDTAB
  0
TABLE
  2
VIEW
  5
6
100
AcDbSymbolTable
 70
0
  0
ENDTAB
  0
TABLE
  2
UCS
  5
7
100
AcDbSymbolTable
 70
0
  0
ENDTAB
  0
TABLE
  2
APPID
  5
9
100
AcDbSymbolTable
 70
1
  0
APPID
  5
20E
100
AcDbSymbolTableRecord
100
AcDbRegAppTableRecord
  2
ACAD
 70
0
  0
ENDTAB
  0
TABLE
  2
BLOCK_RECORD
  5
1
100
AcDbSymbolTable
 70
0
  0
BLOCK_RECORD
  5
1F
100
AcDbSymbolTableRecord
100
AcDbBlockTableRecord
  2
*MODEL_SPACE
  0
BLOCK_RECORD
  5
1B
100
AcDbSymbolTableRecord
100
AcDbBlockTableRecord
  2
*PAPER_SPACE
  0
ENDTAB
  0
TABLE
  2
DIMSTYLE
  5
A
100
AcDbSymbolTable
 70
1
  0
DIMSTYLE
105
20F
100
AcDbSymbolTableRecord
100
AcDbDimStyleTableRecord
  2
STANDARD
 70
0
  3

  4

  5
_CLOSED
  6
_CLOSED
  7
_CLOSED
 40
1.0
 41
1.5
 42
0.0625
 43
0.38
 44
0.125
 45
0.0
 46
0.0
 47
0.01
 48
0.01
140
2.4
141
0.09
142
0.0
143
25.4
144
1.0
145
0.0
146
1.0
147
0.625
 71
1.0
 72
0.0
 73
0
 74
0
 75
0
 76
0
 77
1
 78
8
 79
2
170
0
171
1
172
0
173
0
174
0
175
0
176
0
177
0
178
0
270
2
179
2
271
2
272
2
273
2
274
2
275
0
280
0
281
0
282
0
283
1
284
8
285
0
286
0
287
3
288
0
340
11
  0
ENDTAB
  0
ENDSEC
  0
SECTION
  2
BLOCKS
  0
BLOCK
  5
20
100
AcDbEntity
  8
0
100
AcDbBlockBegin
  2
*MODEL_SPACE
 70
0
 10
0.0
 20
0.0
 30
0.0
  3
*MODEL_SPACE
  1

  0
ENDBLK
  5
21
100
AcDbEntity
  8
0
100
AcDbBlockEnd
  0
BLOCK
  5
1C
100
AcDbEntity
  8
0
100
AcDbBlockBegin
  2
*PAPER_SPACE
 70
0
 10
0.0
 20
0.0
 30
0.0
  3
*PAPER_SPACE
  1

  0
ENDBLK
  5
1D
100
AcDbEntity
  8
0
100
AcDbBlockEnd
  0
ENDSEC
  0
SECTION
  2
ENTITIES
  0
LINE
  5
210
100
AcDbEntity
  8
0
100
AcDbLine
 62
7
  6
CONTINUOUS
 10
0.0
 20
0.0
 11
0.0
 21
210.0
  0
LINE
  5
211
100
AcDbEntity
  8
0
100
AcDbLine
 62
7
  6
CONTINUOUS
 10
0.0
 20
0.0
 11
297.0
 21
0.0
  0
LINE
  5
212
100
AcDbEntity
  8
0
100
AcDbLine
 62
7
  6
CONTINUOUS
 10
0.0
 20
210.0
 11
297.0
 21
210.0
  0
LINE
  5
213
100
AcDbEntity
  8
0
100
AcDbLine
 62
7
  6
CONTINUOUS
 10
297.0
 20
0.0
 11
297.0
 21
210.0
  0
LINE
  5
214
100
AcDbEntity
  8
0
100
AcDbLine
 62
7
  6
CONTINUOUS
 10
68.8529120375
 20
57.5065005905
 11
70.3540227374
 21
54.9065005905
  0
LINE
  5
215
100
AcDbEntity
  8
0
100
AcDbLine
 62
7
  6
CONTINUOUS
 10
66.2663094972
 20
92.8565005905
 11
66.2663094972
 21
58.6565005905
  0
LINE
  5
216
100
AcDbEntity
  8
0
100
AcDbLine
 62
7
  6
CONTINUOUS
 10
67.2663094972
 20
57.6565005905
 11
67.2663094972
 21
93.8565005905
  0
LINE
  5
217
100
AcDbEntity
  8
0
100
AcDbLine
 62
7
  6
CONTINUOUS
 10
68.5931044164
 20
93.8565005905
 11
68.5931044164
 21
57.6565005905
  0
LINE
  5
218
100
AcDbEntity
  8
0
100
AcDbLine
 62
7
  6
CONTINUOUS
 10
82.9249608284
 20
58.2652820404
 11
82.9341073227
 21
58.2565005905
  0
LINE
  5
219
100
AcDbEntity
  8
0
100
AcDbLine
 62
7
  6
CONTINUOUS
 10
84.7389608284
 20
58.2652820404
 11
84.7481073227
 21
58.2565005905
  0
LINE
  5
21A
100
AcDbEntity
  8
0
100
AcDbLine
 62
7
  6
CONTINUOUS
 10
86.5529608284
 20
58.2652820404
 11
86.5621073226
 21
58.2565005905
  0
LINE
  5
21B
100
AcDbEntity
  8
0
100
AcDbLine
 62
7
  6
CONTINUOUS
 10
82.319411876
 20
59.4279055577
 11
82.9249608284
 21
58.2652820404
  0
LINE
  5
21C
100
AcDbEntity
  8
0
100
AcDbLine
 62
7
  6
CONTINUOUS
 10
84.133411876
 20
59.4279055577
 11
84.7389608284
 21
58.2652820404
  0
LINE
  5
21D
100
AcDbEntity
  8
0
100
AcDbLine
 62
7
  6
CONTINUOUS
 10
85.947411876
 20
59.4279055577
 11
86.5529608284
 21
58.2652820404
  0
LINE
  5
21E
100
AcDbEntity
  8
0
100
AcDbLine
 62
7
  6
CONTINUOUS
 10
68.8529120375
 20
94.0065005905
 11
68.8529120375
 21
57.5065005905
  0
LINE
  5
21F
100
AcDbEntity
  8
0
100
AcDbLine
 62
7
  6
CONTINUOUS
 10
70.3540227374
 20
54.9065005905
 11
70.3540227374
 21
54.9738418235
  0
LINE
  5
220
100
AcDbEntity
  8
0
100
AcDbLine
 62
7
  6
CONTINUOUS
 10
70.3540227374
 20
63.9151036379
 11
70.3540227374
 21
66.8152387639
  0
LINE
  5
221
100
AcDbEntity
  8
0
100
AcDbLine
 62
7
  6
CONTINUOUS
 10
70.3540227374
 20
84.6977624096
 11
70.3540227374
 21
87.5978975352
  0
LINE
  5
222
100
AcDbEntity
  8
0
100
AcDbLine
 62
7
  6
CONTINUOUS
 10
70.3540227374
 20
96.5391593571
 11
70.3540227374
 21
96.6065005905
  0
LINE
  5
223
100
AcDbEntity
  8
0
100
AcDbLine
 62
7
  6
CONTINUOUS
 10
70.6138303586
 20
96.7565005905
 11
70.6138303586
 21
96.6832077984
  0
LINE
  5
224
100
AcDbEntity
  8
0
100
AcDbLine
 62
7
  6
CONTINUOUS
 10
70.6138303586
 20
54.8297933827
 11
70.6138303586
 21
54.7565005905
  0
LINE
  5
225
100
AcDbEntity
  8
0
100
AcDbLine
 62
7
  6
CONTINUOUS
 10
70.6138303586
 20
63.7750250951
 11
70.6138303586
 21
66.8112688789
  0
LINE
  5
226
100
AcDbEntity
  8
0
100
AcDbLine
 62
7
  6
CONTINUOUS
 10
70.6138303586
 20
84.7017323027
 11
70.6138303586
 21
87.7379760864
  0
LINE
  5
227
100
AcDbEntity
  8
0
100
AcDbLine
 62
7
  6
CONTINUOUS
 10
87.761411876
 20
59.4279055577
 11
88.3413094972
 21
58.3145328267
  0
LINE
  5
228
100
AcDbEntity
  8
0
100
AcDbLine
 62
7
  6
CONTINUOUS
 10
80.3229338242
 20
96.7565005905
 11
80.3229338242
 21
96.6831192174
  0
LINE
  5
229
100
AcDbEntity
  8
0
100
AcDbLine
 62
7
  6
CONTINUOUS
 10
80.3229338242
 20
87.7388473074
 11
80.3229338242
 21
84.7007725005
  0
LINE
  5
22A
100
AcDbEntity
  8
0
100
AcDbLine
 62
7
  6
CONTINUOUS
 10
80.3229338242
 20
66.8122286805
 11
80.3229338242
 21
63.7741538736
  0
LINE
  5
22B
100
AcDbEntity
  8
0
100
AcDbLine
 62
7
  6
CONTINUOUS
 10
80.3229338242
 20
54.8298819636
 11
80.3229338242
 21
54.7565005905
  0
LINE
  5
22C
100
AcDbEntity
  8
0
100
AcDbLine
 62
7
  6
CONTINUOUS
 10
81.7663094972
 20
57.2565005905
 11
81.7663094972
 21
94.2565005905
  0
LINE
  5
22D
100
AcDbEntity
  8
0
100
AcDbLine
 62
7
  6
CONTINUOUS
 10
103.934202716
 20
55.9636073717
 11
106.1655735659
 21
53.7322365218
  0
LINE
  5
22E
100
AcDbEntity
  8
0
100
AcDbLine
 62
7
  6
CONTINUOUS
 10
81.7663094972
 20
94.2565005905
 11
80.3229338242
 21
96.7565005905
  0
LINE
  5
22F
100
AcDbEntity
  8
0
100
AcDbLine
 62
7
  6
CONTINUOUS
 10
83.0260049438
 20
92.0850956234
 11
82.4204559914
 21
93.2477191407
  0
LINE
  5
230
100
AcDbEntity
  8
0
100
AcDbLine
 62
7
  6
CONTINUOUS
 10
84.8400049437
 20
92.0850956234
 11
84.2344559914
 21
93.2477191407
  0
LINE
  5
231
100
AcDbEntity
  8
0
100
AcDbLine
 62
7
  6
CONTINUOUS
 10
88.3413094972
 20
56.2565005905
 11
88.3413094972
 21
95.2565005905
  0
LINE
  5
232
100
AcDbEntity
  8
0
100
AcDbLine
 62
7
  6
CONTINUOUS
 10
88.864714612
 20
95.2565005905
 11
88.864714612
 21
94.9636073717
  0
LINE
  5
233
100
AcDbEntity
  8
0
100
AcDbLine
 62
7
  6
CONTINUOUS
 10
88.864714612
 20
84.1265582756
 11
88.864714612
 21
83.4194514944
  0
LINE
  5
234
100
AcDbEntity
  8
0
100
AcDbLine
 62
7
  6
CONTINUOUS
 10
88.864714612
 20
68.0935496866
 11
88.864714612
 21
67.3864429054
  0
LINE
  5
235
100
AcDbEntity
  8
0
100
AcDbLine
 62
7
  6
CONTINUOUS
 10
88.864714612
 20
56.5493938093
 11
88.864714612
 21
56.2565005905
  0
LINE
  5
236
100
AcDbEntity
  8
0
100
AcDbLine
 62
7
  6
CONTINUOUS
 10
102.3413094972
 20
154.4704622465
 11
103.6338111629
 21
155.8565005905
  0
LINE
  5
237
100
AcDbEntity
  8
0
100
AcDbLine
 62
7
  6
CONTINUOUS
 10
82.4204559914
 20
93.2477191407
 11
82.4113094972
 21
93.2565005905
  0
LINE
  5
238
100
AcDbEntity
  8
0
100
AcDbLine
 62
7
  6
CONTINUOUS
 10
84.2344559914
 20
93.2477191407
 11
84.2253094972
 21
93.2565005905
  0
LINE
  5
239
100
AcDbEntity
  8
0
100
AcDbLine
 62
7
  6
CONTINUOUS
 10
123.7170454284
 20
53.3807646592
 11
124.1655735659
 21
52.9322365218
  0
LINE
  5
23A
100
AcDbEntity
  8
0
100
AcDbLine
 62
7
  6
CONTINUOUS
 10
86.6540049437
 20
92.0850956234
 11
86.0484559914
 21
93.2477191407
  0
LINE
  5
23B
100
AcDbEntity
  8
0
100
AcDbLine
 62
7
  6
CONTINUOUS
 10
68.8529120375
 20
94.0065005905
 11
70.3540227374
 21
96.6065005905
  0
LINE
  5
23C
100
AcDbEntity
  8
0
100
AcDbLine
 62
7
  6
CONTINUOUS
 10
102.5413094972
 20
141.6987655636
 11
102.4413094972
 21
141.5255604829
  0
LINE
  5
23D
100
AcDbEntity
  8
0
100
AcDbLine
 62
7
  6
CONTINUOUS
 10
106.0413094972
 20
149.0565005905
 11
106.7413094972
 21
149.7565005905
  0
LINE
  5
23E
100
AcDbEntity
  8
0
100
AcDbLine
 62
7
  6
CONTINUOUS
 10
109.0413094972
 20
151.0565005905
 11
108.9305331951
 21
150.9457242884
  0
LINE
  5
23F
100
AcDbEntity
  8
0
100
AcDbLine
 62
7
  6
CONTINUOUS
 10
113.3413094972
 20
161.2112011289
 11
111.6413094972
 21
160.2297056713
  0
LINE
  5
240
100
AcDbEntity
  8
0
100
AcDbLine
 62
7
  6
CONTINUOUS
 10
136.3739637896
 20
52.0065005905
 11
132.0526343626
 21
52.0065005905
  0
LINE
  5
241
100
AcDbEntity
  8
0
100
AcDbLine
 62
7
  6
CONTINUOUS
 10
124.5898376346
 20
52.7565005905
 11
131.2732114992
 21
52.7565005905
  0
LINE
  5
242
100
AcDbEntity
  8
0
100
AcDbLine
 62
7
  6
CONTINUOUS
 10
106.5898376346
 20
53.5565005905
 11
123.2927813597
 21
53.5565005905
  0
LINE
  5
243
100
AcDbEntity
  8
0
100
AcDbLine
 62
7
  6
CONTINUOUS
 10
164.0687886358
 20
54.7565005905
 11
154.3596851701
 21
54.7565005905
  0
LINE
  5
244
100
AcDbEntity
  8
0
100
AcDbLine
 62
7
  6
CONTINUOUS
 10
70.6138303586
 20
54.7565005905
 11
80.3229338242
 21
54.7565005905
  0
LINE
  5
245
100
AcDbEntity
  8
0
100
AcDbLine
 62
7
  6
CONTINUOUS
 10
164.0520655455
 20
54.8298819636
 11
154.3596851701
 21
54.8298819636
  0
LINE
  5
246
100
AcDbEntity
  8
0
100
AcDbLine
 62
7
  6
CONTINUOUS
 10
70.6305534488
 20
54.8298819636
 11
80.3229338242
 21
54.8298819636
  0
LINE
  5
247
100
AcDbEntity
  8
0
100
AcDbLine
 62
7
  6
CONTINUOUS
 10
137.6413094972
 20
55.7565005905
 11
146.3413094972
 21
55.7565005905
  0
LINE
  5
248
100
AcDbEntity
  8
0
100
AcDbLine
 62
7
  6
CONTINUOUS
 10
137.6413094972
 20
56.2310574333
 11
145.5330191203
 21
56.2310574333
  0
LINE
  5
249
100
AcDbEntity
  8
0
100
AcDbLine
 62
7
  6
CONTINUOUS
 10
88.3413094972
 20
56.2565005905
 11
104.6126033982
 21
56.2565005905
  0
LINE
  5
24A
100
AcDbEntity
  8
0
100
AcDbLine
 62
7
  6
CONTINUOUS
 10
88.863943885
 20
56.5493938093
 11
104.6126893588
 21
56.5493938093
  0
LINE
  5
24B
100
AcDbEntity
  8
0
100
AcDbLine
 62
7
  6
CONTINUOUS
 10
167.4163094972
 20
57.6565005905
 11
166.0895145779
 21
57.6565005905
  0
LINE
  5
24C
100
AcDbEntity
  8
0
100
AcDbLine
 62
7
  6
CONTINUOUS
 10
67.2663094972
 20
57.6565005905
 11
68.5931044164
 21
57.6565005905
  0
LINE
  5
24D
100
AcDbEntity
  8
0
100
AcDbLine
 62
7
  6
CONTINUOUS
 10
152.7377385051
 20
58.2565005905
 11
152.3207573217
 21
58.2565005905
  0
LINE
  5
24E
100
AcDbEntity
  8
0
100
AcDbLine
 62
7
  6
CONTINUOUS
 10
150.9234529575
 20
58.2565005905
 11
150.5064702794
 21
58.2565005905
  0
LINE
  5
24F
100
AcDbEntity
  8
0
100
AcDbLine
 62
7
  6
CONTINUOUS
 10
149.1091659792
 20
58.2565005905
 11
148.6921845832
 21
58.2565005905
  0
LINE
  5
250
100
AcDbEntity
  8
0
100
AcDbLine
 62
7
  6
CONTINUOUS
 10
147.294880362
 20
58.2565005905
 11
146.3413094972
 21
58.2565005905
  0
LINE
  5
251
100
AcDbEntity
  8
0
100
AcDbLine
 62
7
  6
CONTINUOUS
 10
86.9463094972
 20
58.2565005905
 11
86.5621073226
 21
58.2565005905
  0
LINE
  5
252
100
AcDbEntity
  8
0
100
AcDbLine
 62
7
  6
CONTINUOUS
 10
85.1323094972
 20
58.2565005905
 11
84.7481073227
 21
58.2565005905
  0
LINE
  5
253
100
AcDbEntity
  8
0
100
AcDbLine
 62
7
  6
CONTINUOUS
 10
83.3183094972
 20
58.2565005905
 11
82.9341073227
 21
58.2565005905
  0
LWPOLYLINE
  5
254
100
AcDbEntity
  8
0
100
AcDbPolyline
 62
7
  6
CONTINUOUS
 90
8
 70
0
 10
103.2276512355
 20
56.2564986536
 10
103.3390942123
 20
56.2502094824
 10
103.4491688779
 20
56.2315334395
 10
103.5565015789
 20
56.2006942679
 10
103.6597512195
 20
56.1580677248
 10
103.7576259481
 20
56.1041771972
 10
103.8488993949
 20
56.0396874609
 10
103.9342110497
 20
55.9636162811
  0
LINE
  5
255
100
AcDbEntity
  8
0
100
AcDbLine
 62
7
  6
CONTINUOUS
 10
86.0484559914
 20
93.2477191407
 11
86.0393094972
 21
93.2565005905
  0
LINE
  5
256
100
AcDbEntity
  8
0
100
AcDbLine
 62
7
  6
CONTINUOUS
 10
109.1178201407
 20
76.9940005905
 11
110.7019946085
 21
73.8848831374
  0
LINE
  5
257
100
AcDbEntity
  8
0
100
AcDbLine
 62
7
  6
CONTINUOUS
 10
109.9595648189
 20
76.9940005905
 11
111.1228669476
 21
74.7108916117
  0
LINE
  5
258
100
AcDbEntity
  8
0
100
AcDbLine
 62
7
  6
CONTINUOUS
 10
102.0413094972
 20
145.2565005905
 11
102.0413094972
 21
142.0451757251
  0
LINE
  5
259
100
AcDbEntity
  8
0
100
AcDbLine
 62
7
  6
CONTINUOUS
 10
102.3413094972
 20
140.8565005905
 11
102.3413094972
 21
141.5832955098
  0
LINE
  5
25A
100
AcDbEntity
  8
0
100
AcDbLine
 62
7
  6
CONTINUOUS
 10
102.3413094972
 20
145.7141705637
 11
102.3413094972
 21
155.8565005905
  0
LINE
  5
25B
100
AcDbEntity
  8
0
100
AcDbLine
 62
7
  6
CONTINUOUS
 10
102.5413094972
 20
145.2565005905
 11
102.5413094972
 21
141.6987655636
  0
LINE
  5
25C
100
AcDbEntity
  8
0
100
AcDbLine
 62
7
  6
CONTINUOUS
 10
102.8913180689
 20
145.7565005905
 11
102.8913123544
 21
145.6065005905
  0
LINE
  5
25D
100
AcDbEntity
  8
0
100
AcDbLine
 62
7
  6
CONTINUOUS
 10
82.0179608284
 20
93.2477191407
 11
81.7663094972
 21
92.7645510493
  0
LINE
  5
25E
100
AcDbEntity
  8
0
100
AcDbLine
 62
7
  6
CONTINUOUS
 10
83.8319608284
 20
93.2477191407
 11
83.226411876
 21
92.0850956234
  0
LINE
  5
25F
100
AcDbEntity
  8
0
100
AcDbLine
 62
7
  6
CONTINUOUS
 10
85.6459608284
 20
93.2477191407
 11
85.040411876
 21
92.0850956234
  0
LINE
  5
260
100
AcDbEntity
  8
0
100
AcDbLine
 62
7
  6
CONTINUOUS
 10
106.4716268891
 20
139.4295957594
 11
106.3716268891
 21
139.2563906786
  0
LINE
  5
261
100
AcDbEntity
  8
0
100
AcDbLine
 62
7
  6
CONTINUOUS
 10
109.1514789525
 20
150.6465997598
 11
108.3505778968
 21
150.22920535
  0
LINE
  5
262
100
AcDbEntity
  8
0
100
AcDbLine
 62
7
  6
CONTINUOUS
 10
147.8935324722
 20
59.4065005949
 11
148.0837400576
 21
59.4065005949
  0
LINE
  5
263
100
AcDbEntity
  8
0
100
AcDbLine
 62
7
  6
CONTINUOUS
 10
149.707818129
 20
59.4065006658
 11
149.8980256842
 21
59.4065006658
  0
LINE
  5
264
100
AcDbEntity
  8
0
100
AcDbLine
 62
7
  6
CONTINUOUS
 10
151.5221051397
 20
59.4065007233
 11
151.7123126956
 21
59.4065007233
  0
LINE
  5
265
100
AcDbEntity
  8
0
100
AcDbLine
 62
7
  6
CONTINUOUS
 10
82.1092084099
 20
59.4185005905
 11
82.3292084099
 21
59.4185005905
  0
LINE
  5
266
100
AcDbEntity
  8
0
100
AcDbLine
 62
7
  6
CONTINUOUS
 10
83.9232084099
 20
59.4185005905
 11
84.1432084099
 21
59.4185005905
  0
LINE
  5
267
100
AcDbEntity
  8
0
100
AcDbLine
 62
7
  6
CONTINUOUS
 10
85.7372084099
 20
59.4185005905
 11
85.9572084099
 21
59.4185005905
  0
LINE
  5
268
100
AcDbEntity
  8
0
100
AcDbLine
 62
7
  6
CONTINUOUS
 10
87.5512084099
 20
59.4185005905
 11
87.7712084099
 21
59.4185005905
  0
LINE
  5
269
100
AcDbEntity
  8
0
100
AcDbLine
 62
7
  6
CONTINUOUS
 10
164.0520655455
 20
63.7741538736
 11
154.3596851701
 21
63.7741538736
  0
LINE
  5
26A
100
AcDbEntity
  8
0
100
AcDbLine
 62
7
  6
CONTINUOUS
 10
70.6305534488
 20
63.7741538736
 11
80.3229338242
 21
63.7741538736
  0
LINE
  5
26B
100
AcDbEntity
  8
0
100
AcDbLine
 62
7
  6
CONTINUOUS
 10
131.7928267414
 20
52.4565005905
 11
132.0526343626
 21
52.0065005905
  0
LINE
  5
26C
100
AcDbEntity
  8
0
100
AcDbLine
 62
7
  6
CONTINUOUS
 10
105.3413094972
 20
145.7565005905
 11
105.3413094972
 21
155.3565005905
  0
LINE
  5
26D
100
AcDbEntity
  8
0
100
AcDbLine
 62
7
  6
CONTINUOUS
 10
106.0413094972
 20
146.0565005905
 11
106.0413094972
 21
149.0565005905
  0
LINE
  5
26E
100
AcDbEntity
  8
0
100
AcDbLine
 62
7
  6
CONTINUOUS
 10
106.1655735659
 20
53.7322365218
 11
106.1655735659
 21
97.7807646592
  0
LINE
  5
26F
100
AcDbEntity
  8
0
100
AcDbLine
 62
7
  6
CONTINUOUS
 10
106.3413094972
 20
139.1584243792
 11
106.3413094972
 21
139.005028728
  0
LINE
  5
270
100
AcDbEntity
  8
0
100
AcDbLine
 62
7
  6
CONTINUOUS
 10
106.3482637814
 20
145.7565005905
 11
106.3482637815
 21
145.6065005905
  0
LINE
  5
271
100
AcDbEntity
  8
0
100
AcDbLine
 62
7
  6
CONTINUOUS
 10
106.4716561611
 20
145.6375227248
 11
106.4716268891
 21
139.4295957594
  0
LINE
  5
272
100
AcDbEntity
  8
0
100
AcDbLine
 62
7
  6
CONTINUOUS
 10
106.5898376346
 20
53.5565005905
 11
106.5898376346
 21
97.806401668
  0
LINE
  5
273
100
AcDbEntity
  8
0
100
AcDbLine
 62
7
  6
CONTINUOUS
 10
106.6657261156
 20
145.6375420719
 11
106.6657283643
 21
139.2054794714
  0
LINE
  5
274
100
AcDbEntity
  8
0
100
AcDbLine
 62
7
  6
CONTINUOUS
 10
106.8413094972
 20
138.0079724531
 11
106.8413094972
 21
98.4835904789
  0
LINE
  5
275
100
AcDbEntity
  8
0
100
AcDbLine
 62
7
  6
CONTINUOUS
 10
107.3178201407
 20
80.2940005905
 11
107.3178201407
 21
71.2940005905
  0
LINE
  5
276
100
AcDbEntity
  8
0
100
AcDbLine
 62
7
  6
CONTINUOUS
 10
108.0678201407
 20
79.5440005905
 11
108.0678201407
 21
72.0440005905
  0
LINE
  5
277
100
AcDbEntity
  8
0
100
AcDbLine
 62
7
  6
CONTINUOUS
 10
108.3413094972
 20
150.2195474111
 11
108.3413094972
 21
149.9154549711
  0
LINE
  5
278
100
AcDbEntity
  8
0
100
AcDbLine
 62
7
  6
CONTINUOUS
 10
109.1413095322
 20
150.8360010723
 11
109.1413095322
 21
150.6412993656
  0
LINE
  5
279
100
AcDbEntity
  8
0
100
AcDbLine
 62
7
  6
CONTINUOUS
 10
110.3413094972
 20
151.0565005905
 11
110.3413094972
 21
154.5565005887
  0
LINE
  5
27A
100
AcDbEntity
  8
0
100
AcDbLine
 62
7
  6
CONTINUOUS
 10
110.4872075309
 20
153.9791503213
 11
110.4872075309
 21
151.0565005905
  0
LINE
  5
27B
100
AcDbEntity
  8
0
100
AcDbLine
 62
7
  6
CONTINUOUS
 10
111.3413094972
 20
159.710090429
 11
111.3413094972
 21
159.0565005905
  0
LINE
  5
27C
100
AcDbEntity
  8
0
100
AcDbLine
 62
7
  6
CONTINUOUS
 10
111.9413094972
 20
155.8565005905
 11
111.9413094972
 21
154.5565005905
  0
LWPOLYLINE
  5
27D
100
AcDbEntity
  8
0
100
AcDbPolyline
 62
7
  6
CONTINUOUS
 90
12
 70
0
 10
106.8413223385
 20
98.4835881194
 10
106.8404189381
 20
98.4514859118
 10
106.8318694862
 20
98.3800794286
 10
106.8150574764
 20
98.3123183556
 10
106.7909826518
 20
98.2490385177
 10
106.7604993133
 20
98.1905565232
 10
106.7245282742
 20
98.1373420955
 10
106.6840280538
 20
98.0897709077
 10
106.6397325657
 20
98.0478803587
 10
106.5925071664
 20
98.0118177089
 10
106.5431225014
 20
97.9815731415
 10
106.4919977474
 20
97.9569285271
  0
LINE
  5
27E
100
AcDbEntity
  8
0
100
AcDbLine
 62
7
  6
CONTINUOUS
 10
115.4872075309
 20
159.0565005905
 11
115.4692120244
 21
158.8565005905
  0
LINE
  5
27F
100
AcDbEntity
  8
0
100
AcDbLine
 62
7
  6
CONTINUOUS
 10
117.3413094972
 20
159.0565005905
 11
117.2898229377
 21
158.8565005905
  0
LINE
  5
280
100
AcDbEntity
  8
0
100
AcDbLine
 62
7
  6
CONTINUOUS
 10
119.1954114634
 20
159.0565005905
 11
119.1154737142
 21
158.8565005905
  0
LINE
  5
281
100
AcDbEntity
  8
0
100
AcDbLine
 62
7
  6
CONTINUOUS
 10
123.3413094972
 20
159.0565005905
 11
123.2410848432
 21
158.8565005905
  0
LINE
  5
282
100
AcDbEntity
  8
0
100
AcDbLine
 62
7
  6
CONTINUOUS
 10
120.8680210109
 20
159.0565005905
 11
120.7674569359
 21
158.8565005905
  0
LINE
  5
283
100
AcDbEntity
  8
0
100
AcDbLine
 62
7
  6
CONTINUOUS
 10
87.4599608284
 20
93.2477191407
 11
86.854411876
 21
92.0850956234
  0
LINE
  5
284
100
AcDbEntity
  8
0
100
AcDbLine
 62
7
  6
CONTINUOUS
 10
123.0476485949
 20
159.0565005905
 11
122.9364190629
 21
158.8565005905
  0
LINE
  5
285
100
AcDbEntity
  8
0
100
AcDbLine
 62
7
  6
CONTINUOUS
 10
122.1954114634
 20
159.0565005905
 11
122.0840649748
 21
158.8565005905
  0
LINE
  5
286
100
AcDbEntity
  8
0
100
AcDbLine
 62
7
  6
CONTINUOUS
 10
151.1839501843
 20
176.6849277153
 11
133.6484162783
 21
159.1493938093
  0
LINE
  5
287
100
AcDbEntity
  8
0
100
AcDbLine
 62
7
  6
CONTINUOUS
 10
135.7697366219
 20
157.0280734658
 11
153.012377309
 21
174.2707141529
  0
LINE
  5
288
100
AcDbEntity
  8
0
100
AcDbLine
 62
7
  6
CONTINUOUS
 10
164.0520655455
 20
66.8122286805
 11
154.3596851701
 21
66.8122286805
  0
LINE
  5
289
100
AcDbEntity
  8
0
100
AcDbLine
 62
7
  6
CONTINUOUS
 10
70.6305534488
 20
66.8122286805
 11
80.3229338242
 21
66.8122286805
  0
LINE
  5
28A
100
AcDbEntity
  8
0
100
AcDbLine
 62
7
  6
CONTINUOUS
 10
137.6413094972
 20
66.9976725003
 11
145.5330191203
 21
66.9976725003
  0
LINE
  5
28B
100
AcDbEntity
  8
0
100
AcDbLine
 62
7
  6
CONTINUOUS
 10
88.863518488
 20
67.3864429054
 11
104.6132327235
 21
67.3864429054
  0
LINE
  5
28C
100
AcDbEntity
  8
0
100
AcDbLine
 62
7
  6
CONTINUOUS
 10
88.8636169352
 20
68.0935496866
 11
104.6125800447
 21
68.0935496866
  0
LINE
  5
28D
100
AcDbEntity
  8
0
100
AcDbLine
 62
7
  6
CONTINUOUS
 10
137.6413094972
 20
68.1433540663
 11
145.5330191203
 21
68.1433540663
  0
LINE
  5
28E
100
AcDbEntity
  8
0
100
AcDbLine
 62
7
  6
CONTINUOUS
 10
107.3178201407
 20
71.2940005905
 11
122.3178201407
 21
71.2940005905
  0
LINE
  5
28F
100
AcDbEntity
  8
0
100
AcDbLine
 62
7
  6
CONTINUOUS
 10
108.0678201407
 20
72.0440005905
 11
121.5678201407
 21
72.0440005905
  0
LINE
  5
290
100
AcDbEntity
  8
0
100
AcDbLine
 62
7
  6
CONTINUOUS
 10
113.8145979834
 20
159.0565005905
 11
113.8318550553
 21
158.8565005905
  0
LINE
  5
291
100
AcDbEntity
  8
0
100
AcDbLine
 62
7
  6
CONTINUOUS
 10
113.3413094972
 20
160.853935539
 11
113.3413094972
 21
164.0565005905
  0
LINE
  5
292
100
AcDbEntity
  8
0
100
AcDbLine
 62
7
  6
CONTINUOUS
 10
113.6736904738
 20
155.8565005905
 11
113.6736904738
 21
154.4704622465
  0
LINE
  5
293
100
AcDbEntity
  8
0
100
AcDbLine
 62
7
  6
CONTINUOUS
 10
114.5698809257
 20
135.6065005905
 11
114.5698809257
 21
134.4065005905
  0
LINE
  5
294
100
AcDbEntity
  8
0
100
AcDbLine
 62
7
  6
CONTINUOUS
 10
114.8513094972
 20
78.4940005905
 11
114.8513094972
 21
77.7440005905
  0
LINE
  5
295
100
AcDbEntity
  8
0
100
AcDbLine
 62
7
  6
CONTINUOUS
 10
114.8513094972
 20
76.9940005905
 11
114.8513094972
 21
73.1690005905
  0
LINE
  5
296
100
AcDbEntity
  8
0
100
AcDbLine
 62
7
  6
CONTINUOUS
 10
114.8944415735
 20
122.0013307755
 11
114.8944415735
 21
117.8851043619
  0
LINE
  5
297
100
AcDbEntity
  8
0
100
AcDbLine
 62
7
  6
CONTINUOUS
 10
115.0948809257
 20
135.6065005905
 11
115.0948809257
 21
134.4065005905
  0
LINE
  5
298
100
AcDbEntity
  8
0
100
AcDbLine
 62
7
  6
CONTINUOUS
 10
115.5347434601
 20
121.3610288889
 11
115.5347434601
 21
120.00038738
  0
LINE
  5
299
100
AcDbEntity
  8
0
100
AcDbLine
 62
7
  6
CONTINUOUS
 10
115.5347434601
 20
119.3600854934
 11
115.5347434601
 21
117.8851043619
  0
LINE
  5
29A
100
AcDbEntity
  8
0
100
AcDbLine
 62
7
  6
CONTINUOUS
 10
115.6013094972
 20
78.4940005905
 11
115.6013094972
 21
77.7440005905
  0
LINE
  5
29B
100
AcDbEntity
  8
0
100
AcDbLine
 62
7
  6
CONTINUOUS
 10
115.6013094972
 20
76.9940005905
 11
115.6013094972
 21
73.1690005905
  0
LINE
  5
29C
100
AcDbEntity
  8
0
100
AcDbLine
 62
7
  6
CONTINUOUS
 10
115.7862906298
 20
114.8870298551
 11
115.7862906298
 21
111.7565005905
  0
LINE
  5
29D
100
AcDbEntity
  8
0
100
AcDbLine
 62
7
  6
CONTINUOUS
 10
116.4265925164
 20
115.8727270041
 11
116.4265925164
 21
111.7565005905
  0
LINE
  5
29E
100
AcDbEntity
  8
0
100
AcDbLine
 62
7
  6
CONTINUOUS
 10
116.4951962899
 20
121.0408779457
 11
116.4951962899
 21
120.3205383233
  0
LINE
  5
29F
100
AcDbEntity
  8
0
100
AcDbLine
 62
7
  6
CONTINUOUS
 10
116.6513094972
 20
76.9940005905
 11
116.6513094972
 21
75.5523991315
  0
LINE
  5
2A0
100
AcDbEntity
  8
0
100
AcDbLine
 62
7
  6
CONTINUOUS
 10
116.6513094972
 20
73.3565005905
 11
116.6513094972
 21
73.1690005905
  0
LINE
  5
2A1
100
AcDbEntity
  8
0
100
AcDbLine
 62
7
  6
CONTINUOUS
 10
117.0663094972
 20
136.7315005905
 11
117.0663094972
 21
133.2815005905
  0
LINE
  5
2A2
100
AcDbEntity
  8
0
100
AcDbLine
 62
7
  6
CONTINUOUS
 10
117.1354981765
 20
121.0408779457
 11
117.1354981765
 21
120.3205383233
  0
LINE
  5
2A3
100
AcDbEntity
  8
0
100
AcDbLine
 62
7
  6
CONTINUOUS
 10
117.3413094972
 20
114.592123231
 11
117.3413094972
 21
113.0371043637
  0
LINE
  5
2A4
100
AcDbEntity
  8
0
100
AcDbLine
 62
7
  6
CONTINUOUS
 10
117.3413094972
 20
160.853935539
 11
117.3413094972
 21
163.6992350006
  0
LINE
  5
2A5
100
AcDbEntity
  8
0
100
AcDbLine
 62
7
  6
CONTINUOUS
 10
117.4013094972
 20
76.9940005905
 11
117.4013094972
 21
76.2440005905
  0
LINE
  5
2A6
100
AcDbEntity
  8
0
100
AcDbLine
 62
7
  6
CONTINUOUS
 10
117.5585547801
 20
122.0013307755
 11
117.5585547801
 21
117.8851043619
  0
LINE
  5
2A7
100
AcDbEntity
  8
0
100
AcDbLine
 62
7
  6
CONTINUOUS
 10
117.5913094972
 20
136.7315005905
 11
117.5913094972
 21
135.2315005905
  0
LINE
  5
2A8
100
AcDbEntity
  8
0
100
AcDbLine
 62
7
  6
CONTINUOUS
 10
117.5913094972
 20
134.7218028081
 11
117.5913094972
 21
132.7565005905
  0
LINE
  5
2A9
100
AcDbEntity
  8
0
100
AcDbLine
 62
7
  6
CONTINUOUS
 10
117.9816113837
 20
114.592123231
 11
117.9816113837
 21
114.1461397634
  0
LINE
  5
2AA
100
AcDbEntity
  8
0
100
AcDbLine
 62
7
  6
CONTINUOUS
 10
118.1988566667
 20
120.1644531494
 11
118.1988566667
 21
117.8851043619
  0
LINE
  5
2AB
100
AcDbEntity
  8
0
100
AcDbLine
 62
7
  6
CONTINUOUS
 10
119.1593094965
 20
122.0013307755
 11
119.1593094965
 21
119.721981988
  0
LINE
  5
2AC
100
AcDbEntity
  8
0
100
AcDbLine
 62
7
  6
CONTINUOUS
 10
119.5013094972
 20
76.5440005905
 11
119.5013094972
 21
75.7565005905
  0
LINE
  5
2AD
100
AcDbEntity
  8
0
100
AcDbLine
 62
7
  6
CONTINUOUS
 10
116.805356158
 20
151.0565005905
 11
116.7848763167
 21
150.7393411103
  0
LINE
  5
2AE
100
AcDbEntity
  8
0
100
AcDbLine
 62
7
  6
CONTINUOUS
 10
131.3413094972
 20
154.5938876878
 11
126.3413094972
 21
140.8565005905
  0
LINE
  5
2AF
100
AcDbEntity
  8
0
100
AcDbLine
 62
7
  6
CONTINUOUS
 10
81.7663094972
 20
58.7507583374
 11
82.1190049438
 21
59.4279055577
  0
LINE
  5
2B0
100
AcDbEntity
  8
0
100
AcDbLine
 62
7
  6
CONTINUOUS
 10
83.3274559914
 20
58.2652820404
 11
83.9330049438
 21
59.4279055577
  0
LINE
  5
2B1
100
AcDbEntity
  8
0
100
AcDbLine
 62
7
  6
CONTINUOUS
 10
85.1414559914
 20
58.2652820404
 11
85.7470049437
 21
59.4279055577
  0
LINE
  5
2B2
100
AcDbEntity
  8
0
100
AcDbLine
 62
7
  6
CONTINUOUS
 10
128.6413094972
 20
146.0565005905
 11
128.370598819
 21
145.7857899124
  0
LINE
  5
2B3
100
AcDbEntity
  8
0
100
AcDbLine
 62
7
  6
CONTINUOUS
 10
111.0106299746
 20
73.1690005905
 11
111.8523746528
 21
73.1690005905
  0
LINE
  5
2B4
100
AcDbEntity
  8
0
100
AcDbLine
 62
7
  6
CONTINUOUS
 10
114.8513094972
 20
73.1690005905
 11
115.6013094972
 21
73.1690005905
  0
LINE
  5
2B5
100
AcDbEntity
  8
0
100
AcDbLine
 62
7
  6
CONTINUOUS
 10
116.6513094972
 20
73.1690005905
 11
117.4013094972
 21
73.1690005905
  0
LINE
  5
2B6
100
AcDbEntity
  8
0
100
AcDbLine
 62
7
  6
CONTINUOUS
 10
148.2386137134
 20
75.7565005905
 11
146.8413094972
 21
75.7565005905
  0
LINE
  5
2B7
100
AcDbEntity
  8
0
100
AcDbLine
 62
7
  6
CONTINUOUS
 10
119.0513094972
 20
75.7565005905
 11
119.5013094972
 21
75.7565005905
  0
LINE
  5
2B8
100
AcDbEntity
  8
0
100
AcDbLine
 62
7
  6
CONTINUOUS
 10
119.5013094972
 20
76.5440005905
 11
120.2513094972
 21
76.5440005905
  0
LINE
  5
2B9
100
AcDbEntity
  8
0
100
AcDbLine
 62
7
  6
CONTINUOUS
 10
109.1178201407
 20
76.9940005905
 11
109.9595648189
 21
76.9940005905
  0
LINE
  5
2BA
100
AcDbEntity
  8
0
100
AcDbLine
 62
7
  6
CONTINUOUS
 10
112.9595648189
 20
76.9940005905
 11
113.8013094972
 21
76.9940005905
  0
LINE
  5
2BB
100
AcDbEntity
  8
0
100
AcDbLine
 62
7
  6
CONTINUOUS
 10
114.8513094972
 20
76.9940005905
 11
115.6013094972
 21
76.9940005905
  0
LINE
  5
2BC
100
AcDbEntity
  8
0
100
AcDbLine
 62
7
  6
CONTINUOUS
 10
116.6513094972
 20
76.9940005905
 11
117.4013094972
 21
76.9940005905
  0
LINE
  5
2BD
100
AcDbEntity
  8
0
100
AcDbLine
 62
7
  6
CONTINUOUS
 10
114.8513094972
 20
77.7440005905
 11
115.6013094972
 21
77.7440005905
  0
LINE
  5
2BE
100
AcDbEntity
  8
0
100
AcDbLine
 62
7
  6
CONTINUOUS
 10
114.8513094972
 20
78.4940005905
 11
115.6013094972
 21
78.4940005905
  0
LINE
  5
2BF
100
AcDbEntity
  8
0
100
AcDbLine
 62
7
  6
CONTINUOUS
 10
108.0678201407
 20
79.5440005905
 11
121.5678201407
 21
79.5440005905
  0
LINE
  5
2C0
100
AcDbEntity
  8
0
100
AcDbLine
 62
7
  6
CONTINUOUS
 10
119.7996113831
 20
122.0013307755
 11
119.7996113831
 21
117.8851043619
  0
LINE
  5
2C1
100
AcDbEntity
  8
0
100
AcDbLine
 62
7
  6
CONTINUOUS
 10
119.8413094972
 20
140.8565005905
 11
119.8413094972
 21
147.8565005905
  0
LINE
  5
2C2
100
AcDbEntity
  8
0
100
AcDbLine
 62
7
  6
CONTINUOUS
 10
120.2513094972
 20
76.5440005905
 11
120.2513094972
 21
75.5489953384
  0
LINE
  5
2C3
100
AcDbEntity
  8
0
100
AcDbLine
 62
7
  6
CONTINUOUS
 10
121.3413094972
 20
160.853935539
 11
121.3413094972
 21
164.0565005905
  0
LINE
  5
2C4
100
AcDbEntity
  8
0
100
AcDbLine
 62
7
  6
CONTINUOUS
 10
121.5678201407
 20
79.5440005905
 11
121.5678201407
 21
72.0440005905
  0
LINE
  5
2C5
100
AcDbEntity
  8
0
100
AcDbLine
 62
7
  6
CONTINUOUS
 10
122.3178201407
 20
80.2940005905
 11
122.3178201407
 21
71.2940005905
  0
LINE
  5
2C6
100
AcDbEntity
  8
0
100
AcDbLine
 62
7
  6
CONTINUOUS
 10
123.2927813597
 20
96.0049356046
 11
123.2927813597
 21
53.5565005905
  0
LINE
  5
2C7
100
AcDbEntity
  8
0
100
AcDbLine
 62
7
  6
CONTINUOUS
 10
123.3413094972
 20
159.710090429
 11
123.3413094972
 21
159.0565005905
  0
LINE
  5
2C8
100
AcDbEntity
  8
0
100
AcDbLine
 62
7
  6
CONTINUOUS
 10
123.7170454284
 20
96.1723619983
 11
123.7170454284
 21
53.3807646592
  0
LINE
  5
2C9
100
AcDbEntity
  8
0
100
AcDbLine
 62
7
  6
CONTINUOUS
 10
124.1655735659
 20
52.9322365218
 11
124.1655735659
 21
96.7895343886
  0
LINE
  5
2CA
100
AcDbEntity
  8
0
100
AcDbLine
 62
7
  6
CONTINUOUS
 10
124.5898376346
 20
52.7565005905
 11
124.5898376346
 21
97.2580113959
  0
LINE
  5
2CB
100
AcDbEntity
  8
0
100
AcDbLine
 62
7
  6
CONTINUOUS
 10
86.9554559914
 20
58.2652820404
 11
87.5610049437
 21
59.4279055577
  0
LINE
  5
2CC
100
AcDbEntity
  8
0
100
AcDbLine
 62
7
  6
CONTINUOUS
 10
81.7663094972
 20
57.2565005905
 11
80.3229338242
 21
54.7565005905
  0
LINE
  5
2CD
100
AcDbEntity
  8
0
100
AcDbLine
 62
7
  6
CONTINUOUS
 10
115.6948189317
 20
115.8727270041
 11
114.7504307407
 21
114.5240008916
  0
LINE
  5
2CE
100
AcDbEntity
  8
0
100
AcDbLine
 62
7
  6
CONTINUOUS
 10
115.7862906298
 20
114.8870298551
 11
115.27493534
 21
114.1567388173
  0
LINE
  5
2CF
100
AcDbEntity
  8
0
100
AcDbLine
 62
7
  6
CONTINUOUS
 10
128.1655735659
 20
138.5807646592
 11
128.0170454284
 21
138.4322365218
  0
LINE
  5
2D0
100
AcDbEntity
  8
0
100
AcDbLine
 62
7
  6
CONTINUOUS
 10
87.4691075869
 20
93.2565005905
 11
87.4599608284
 21
93.2477191407
  0
LINE
  5
2D1
100
AcDbEntity
  8
0
100
AcDbLine
 62
7
  6
CONTINUOUS
 10
107.3178201407
 20
80.2940005905
 11
122.3178201407
 21
80.2940005905
  0
LINE
  5
2D2
100
AcDbEntity
  8
0
100
AcDbLine
 62
7
  6
CONTINUOUS
 10
137.6413094972
 20
83.3696471148
 11
145.5330191203
 21
83.3696471148
  0
LINE
  5
2D3
100
AcDbEntity
  8
0
100
AcDbLine
 62
7
  6
CONTINUOUS
 10
88.8631882963
 20
83.4194514944
 11
104.6129032188
 21
83.4194514944
  0
LINE
  5
2D4
100
AcDbEntity
  8
0
100
AcDbLine
 62
7
  6
CONTINUOUS
 10
88.8638488712
 20
84.1265582756
 11
104.6132211061
 21
84.1265582756
  0
LINE
  5
2D5
100
AcDbEntity
  8
0
100
AcDbLine
 62
7
  6
CONTINUOUS
 10
137.6413094972
 20
84.5153286808
 11
145.5330191203
 21
84.5153286808
  0
LINE
  5
2D6
100
AcDbEntity
  8
0
100
AcDbLine
 62
7
  6
CONTINUOUS
 10
164.0520655455
 20
84.7007725005
 11
154.3596851701
 21
84.7007725005
  0
LINE
  5
2D7
100
AcDbEntity
  8
0
100
AcDbLine
 62
7
  6
CONTINUOUS
 10
70.6305534488
 20
84.7007725005
 11
80.3229338242
 21
84.7007725005
  0
LINE
  5
2D8
100
AcDbEntity
  8
0
100
AcDbLine
 62
7
  6
CONTINUOUS
 10
152.9163094972
 20
57.2565005905
 11
154.3596851701
 21
54.7565005905
  0
LINE
  5
2D9
100
AcDbEntity
  8
0
100
AcDbLine
 62
7
  6
CONTINUOUS
 10
119.410807915
 20
117.8851043619
 11
118.1988566667
 21
120.1644531494
  0
LINE
  5
2DA
100
AcDbEntity
  8
0
100
AcDbLine
 62
7
  6
CONTINUOUS
 10
119.1593094965
 20
119.721981988
 11
117.9473582482
 21
122.0013307755
  0
LINE
  5
2DB
100
AcDbEntity
  8
0
100
AcDbLine
 62
7
  6
CONTINUOUS
 10
148.0837400576
 20
59.4159016136
 11
148.6830352239
 21
58.2652847908
  0
LINE
  5
2DC
100
AcDbEntity
  8
0
100
AcDbLine
 62
7
  6
CONTINUOUS
 10
149.8980256842
 20
59.4159017134
 11
150.4973208919
 21
58.2652848181
  0
LINE
  5
2DD
100
AcDbEntity
  8
0
100
AcDbLine
 62
7
  6
CONTINUOUS
 10
151.7123126956
 20
59.4159017702
 11
152.3116079356
 21
58.265284817
  0
LINE
  5
2DE
100
AcDbEntity
  8
0
100
AcDbLine
 62
7
  6
CONTINUOUS
 10
112.4872075309
 20
159.0565005905
 11
112.5380279389
 21
158.8565005905
  0
LINE
  5
2DF
100
AcDbEntity
  8
0
100
AcDbLine
 62
7
  6
CONTINUOUS
 10
127.8413094972
 20
138.0079724531
 11
127.8413094972
 21
99.3281987035
  0
LINE
  5
2E0
100
AcDbEntity
  8
0
100
AcDbLine
 62
7
  6
CONTINUOUS
 10
128.3413094972
 20
145.7150792343
 11
128.3413094972
 21
139.005028728
  0
LINE
  5
2E1
100
AcDbEntity
  8
0
100
AcDbLine
 62
7
  6
CONTINUOUS
 10
128.6413094972
 20
146.0565005905
 11
128.6413094972
 21
147.1756986553
  0
LINE
  5
2E2
100
AcDbEntity
  8
0
100
AcDbLine
 62
7
  6
CONTINUOUS
 10
129.7658830166
 20
155.8565005905
 11
129.7658830166
 21
150.2654390065
  0
LINE
  5
2E3
100
AcDbEntity
  8
0
100
AcDbLine
 62
7
  6
CONTINUOUS
 10
131.2732114992
 20
98.7565005905
 11
131.2732114992
 21
52.7565005905
  0
LINE
  5
2E4
100
AcDbEntity
  8
0
100
AcDbLine
 62
7
  6
CONTINUOUS
 10
131.3145145779
 20
158.8396318549
 11
131.3145145779
 21
154.5202692522
  0
LINE
  5
2E5
100
AcDbEntity
  8
0
100
AcDbLine
 62
7
  6
CONTINUOUS
 10
131.3413094972
 20
158.8485919045
 11
131.3413094972
 21
154.5938876878
  0
LINE
  5
2E6
100
AcDbEntity
  8
0
100
AcDbLine
 62
7
  6
CONTINUOUS
 10
131.7928267414
 20
99.0565005905
 11
131.7928267414
 21
52.4565005905
  0
LINE
  5
2E7
100
AcDbEntity
  8
0
100
AcDbLine
 62
7
  6
CONTINUOUS
 10
132.0526343626
 20
52.0065005905
 11
132.0526343626
 21
99.5065005905
  0
LINE
  5
2E8
100
AcDbEntity
  8
0
100
AcDbLine
 62
7
  6
CONTINUOUS
 10
103.934202716
 20
95.5493938093
 11
106.1655735659
 21
97.7807646592
  0
LINE
  5
2E9
100
AcDbEntity
  8
0
100
AcDbLine
 62
7
  6
CONTINUOUS
 10
164.0520655455
 20
87.7388473074
 11
154.3596851701
 21
87.7388473074
  0
LINE
  5
2EA
100
AcDbEntity
  8
0
100
AcDbLine
 62
7
  6
CONTINUOUS
 10
70.6305534488
 20
87.7388473074
 11
80.3229338242
 21
87.7388473074
  0
LINE
  5
2EB
100
AcDbEntity
  8
0
100
AcDbLine
 62
7
  6
CONTINUOUS
 10
86.8642084099
 20
92.0945005905
 11
86.6442084099
 21
92.0945005905
  0
LINE
  5
2EC
100
AcDbEntity
  8
0
100
AcDbLine
 62
7
  6
CONTINUOUS
 10
85.0502084099
 20
92.0945005905
 11
84.8302084099
 21
92.0945005905
  0
LINE
  5
2ED
100
AcDbEntity
  8
0
100
AcDbLine
 62
7
  6
CONTINUOUS
 10
83.2362084099
 20
92.0945005905
 11
83.0162084099
 21
92.0945005905
  0
LINE
  5
2EE
100
AcDbEntity
  8
0
100
AcDbLine
 62
7
  6
CONTINUOUS
 10
152.6292482574
 20
92.1065004752
 11
152.4390406893
 21
92.1065004752
  0
LINE
  5
2EF
100
AcDbEntity
  8
0
100
AcDbLine
 62
7
  6
CONTINUOUS
 10
150.8149616441
 20
92.1065004766
 11
150.6247540925
 21
92.1065004766
  0
LINE
  5
2F0
100
AcDbEntity
  8
0
100
AcDbLine
 62
7
  6
CONTINUOUS
 10
149.0006749523
 20
92.1065005573
 11
148.8104673862
 21
92.1065005573
  0
LINE
  5
2F1
100
AcDbEntity
  8
0
100
AcDbLine
 62
7
  6
CONTINUOUS
 10
151.8305960846
 20
93.2565005905
 11
151.4136138159
 21
93.2565005905
  0
LINE
  5
2F2
100
AcDbEntity
  8
0
100
AcDbLine
 62
7
  6
CONTINUOUS
 10
150.0163094727
 20
93.2565005905
 11
149.5993270794
 21
93.2565005905
  0
LINE
  5
2F3
100
AcDbEntity
  8
0
100
AcDbLine
 62
7
  6
CONTINUOUS
 10
148.202022826
 20
93.2565005905
 11
146.3413094972
 21
93.2565005905
  0
LINE
  5
2F4
100
AcDbEntity
  8
0
100
AcDbLine
 62
7
  6
CONTINUOUS
 10
88.3413094972
 20
93.2565005905
 11
87.4691073226
 21
93.2565005905
  0
LINE
  5
2F5
100
AcDbEntity
  8
0
100
AcDbLine
 62
7
  6
CONTINUOUS
 10
86.0393094972
 20
93.2565005905
 11
85.6551073226
 21
93.2565005905
  0
LINE
  5
2F6
100
AcDbEntity
  8
0
100
AcDbLine
 62
7
  6
CONTINUOUS
 10
84.2253094972
 20
93.2565005905
 11
83.8411073227
 21
93.2565005905
  0
LINE
  5
2F7
100
AcDbEntity
  8
0
100
AcDbLine
 62
7
  6
CONTINUOUS
 10
82.4113094972
 20
93.2565005905
 11
82.0271073226
 21
93.2565005905
  0
LINE
  5
2F8
100
AcDbEntity
  8
0
100
AcDbLine
 62
7
  6
CONTINUOUS
 10
167.4163094972
 20
93.8565005905
 11
166.0895145779
 21
93.8565005905
  0
LINE
  5
2F9
100
AcDbEntity
  8
0
100
AcDbLine
 62
7
  6
CONTINUOUS
 10
67.2663094972
 20
93.8565005905
 11
68.5931044164
 21
93.8565005905
  0
LINE
  5
2FA
100
AcDbEntity
  8
0
100
AcDbLine
 62
7
  6
CONTINUOUS
 10
115.27493534
 20
114.1567388173
 11
114.7504307407
 21
114.5240008916
  0
LINE
  5
2FB
100
AcDbEntity
  8
0
100
AcDbLine
 62
7
  6
CONTINUOUS
 10
119.5972408354
 20
132.7565005905
 11
118.3691837124
 21
134.7218028081
  0
LINE
  5
2FC
100
AcDbEntity
  8
0
100
AcDbLine
 62
7
  6
CONTINUOUS
 10
136.3739637896
 20
99.5065005905
 11
136.4328975633
 21
99.3801167049
  0
LINE
  5
2FD
100
AcDbEntity
  8
0
100
AcDbLine
 62
7
  6
CONTINUOUS
 10
108.9305331951
 20
150.9457242884
 11
108.9336503615
 21
150.9389339385
  0
LINE
  5
2FE
100
AcDbEntity
  8
0
100
AcDbLine
 62
7
  6
CONTINUOUS
 10
111.6349703994
 20
159.0565005905
 11
111.7143794877
 21
158.8565005905
  0
LINE
  5
2FF
100
AcDbEntity
  8
0
100
AcDbLine
 62
7
  6
CONTINUOUS
 10
136.4328975633
 20
99.3801167049
 11
137.7394002036
 21
95.7905302023
  0
LINE
  5
300
100
AcDbEntity
  8
0
100
AcDbLine
 62
7
  6
CONTINUOUS
 10
134.3413094972
 20
99.5065005905
 11
134.3413094972
 21
52.0065005905
  0
LINE
  5
301
100
AcDbEntity
  8
0
100
AcDbLine
 62
7
  6
CONTINUOUS
 10
136.3739637896
 20
52.0065005905
 11
136.3739637896
 21
99.5065005905
  0
LINE
  5
302
100
AcDbEntity
  8
0
100
AcDbLine
 62
7
  6
CONTINUOUS
 10
136.4328975632
 20
52.1328844759
 11
136.4328975632
 21
99.3801167052
  0
LINE
  5
303
100
AcDbEntity
  8
0
100
AcDbLine
 62
7
  6
CONTINUOUS
 10
137.6413094972
 20
55.7565005905
 11
137.6413094972
 21
59.1411690637
  0
LINE
  5
304
100
AcDbEntity
  8
0
100
AcDbLine
 62
7
  6
CONTINUOUS
 10
137.6413094972
 20
64.0875608699
 11
137.6413094972
 21
72.2588734019
  0
LINE
  5
305
100
AcDbEntity
  8
0
100
AcDbLine
 62
7
  6
CONTINUOUS
 10
137.6413094972
 20
79.2541277791
 11
137.6413094972
 21
87.4254403111
  0
LINE
  5
306
100
AcDbEntity
  8
0
100
AcDbLine
 62
7
  6
CONTINUOUS
 10
137.6413094972
 20
92.3718321174
 11
137.6413094972
 21
95.7565005905
  0
LINE
  5
307
100
AcDbEntity
  8
0
100
AcDbLine
 62
7
  6
CONTINUOUS
 10
111.1228669476
 20
74.7108916117
 11
110.7019946085
 21
73.8848831374
  0
LINE
  5
308
100
AcDbEntity
  8
0
100
AcDbLine
 62
7
  6
CONTINUOUS
 10
112.9595648189
 20
76.9940005905
 11
111.0106299746
 21
73.1690005905
  0
LINE
  5
309
100
AcDbEntity
  8
0
100
AcDbLine
 62
7
  6
CONTINUOUS
 10
113.8013094972
 20
76.9940005905
 11
111.8523746528
 21
73.1690005905
  0
LWPOLYLINE
  5
30A
100
AcDbEntity
  8
0
100
AcDbPolyline
 62
7
  6
CONTINUOUS
 90
8
 70
0
 10
103.9342177181
 20
95.5493779539
 10
103.8487450777
 20
95.4731805516
 10
103.7574228762
 20
95.4086887091
 10
103.659511031
 20
95.3548122166
 10
103.5562394798
 20
95.3122115272
 10
103.4489025749
 20
95.281405059
 10
103.3388427445
 20
95.2627631797
 10
103.2274338207
 20
95.2565040603
  0
LINE
  5
30B
100
AcDbEntity
  8
0
100
AcDbLine
 62
7
  6
CONTINUOUS
 10
88.8635782755
 20
94.9636073717
 11
104.6126882654
 21
94.9636073717
  0
LINE
  5
30C
100
AcDbEntity
  8
0
100
AcDbLine
 62
7
  6
CONTINUOUS
 10
88.3413094972
 20
95.2565005905
 11
104.6125966603
 21
95.2565005905
  0
LINE
  5
30D
100
AcDbEntity
  8
0
100
AcDbLine
 62
7
  6
CONTINUOUS
 10
137.6413094972
 20
95.2819437477
 11
145.5330191203
 21
95.2819437477
  0
LINE
  5
30E
100
AcDbEntity
  8
0
100
AcDbLine
 62
7
  6
CONTINUOUS
 10
137.6413094972
 20
95.7565005905
 11
146.3413094972
 21
95.7565005905
  0
LINE
  5
30F
100
AcDbEntity
  8
0
100
AcDbLine
 62
7
  6
CONTINUOUS
 10
164.0520655455
 20
96.6831192174
 11
154.3596851701
 21
96.6831192174
  0
LINE
  5
310
100
AcDbEntity
  8
0
100
AcDbLine
 62
7
  6
CONTINUOUS
 10
70.6305534488
 20
96.6831192174
 11
80.3229338242
 21
96.6831192174
  0
LINE
  5
311
100
AcDbEntity
  8
0
100
AcDbLine
 62
7
  6
CONTINUOUS
 10
164.0687886358
 20
96.7565005905
 11
154.3596851701
 21
96.7565005905
  0
LINE
  5
312
100
AcDbEntity
  8
0
100
AcDbLine
 62
7
  6
CONTINUOUS
 10
70.6138303586
 20
96.7565005905
 11
80.3229338242
 21
96.7565005905
  0
LINE
  5
313
100
AcDbEntity
  8
0
100
AcDbLine
 62
7
  6
CONTINUOUS
 10
128.4130076102
 20
98.7565005905
 11
131.2732114992
 21
98.7565005905
  0
LINE
  5
314
100
AcDbEntity
  8
0
100
AcDbLine
 62
7
  6
CONTINUOUS
 10
136.3739637896
 20
99.5065005905
 11
132.0526343626
 21
99.5065005905
  0
LWPOLYLINE
  5
315
100
AcDbEntity
  8
0
100
AcDbPolyline
 62
7
  6
CONTINUOUS
 90
14
 70
0
 10
128.4130048367
 20
98.7564877257
 10
128.3946675932
 20
98.7567812816
 10
128.3164902069
 20
98.7646902327
 10
128.2401356072
 20
98.7832441055
 10
128.1670462058
 20
98.8120924494
 10
128.0986027652
 20
98.8506903301
 10
128.0360983055
 20
98.8983086078
 10
127.9807136297
 20
98.9540477383
 10
127.9334950318
 20
99.0168547721
 10
127.8953345555
 20
99.0855432202
 10
127.8669531186
 20
99.1588154969
 10
127.8488869123
 20
99.2352873993
 10
127.841477257
 20
99.313514242
 10
127.8412890392
 20
99.3281999431
  0
LINE
  5
316
100
AcDbEntity
  8
0
100
AcDbLine
 62
7
  6
CONTINUOUS
 10
106.5170454284
 20
138.5807646592
 11
106.6655735659
 21
138.4322365218
  0
LINE
  5
317
100
AcDbEntity
  8
0
100
AcDbLine
 62
7
  6
CONTINUOUS
 10
120.2163094972
 20
132.7565005905
 11
118.9882523742
 21
134.7218028081
  0
LINE
  5
318
100
AcDbEntity
  8
0
100
AcDbLine
 62
7
  6
CONTINUOUS
 10
148.8104673862
 20
92.09709952
 11
148.211172202
 21
93.2477163737
  0
LINE
  5
319
100
AcDbEntity
  8
0
100
AcDbLine
 62
7
  6
CONTINUOUS
 10
150.6247540925
 20
92.0970994256
 11
150.0254588625
 21
93.2477163608
  0
LINE
  5
31A
100
AcDbEntity
  8
0
100
AcDbLine
 62
7
  6
CONTINUOUS
 10
111.3413094972
 20
159.0565005905
 11
111.4415341511
 21
158.8565005905
  0
LINE
  5
31B
100
AcDbEntity
  8
0
100
AcDbLine
 62
7
  6
CONTINUOUS
 10
145.5330191203
 20
95.7565005905
 11
145.5330191203
 21
95.2819437477
  0
LINE
  5
31C
100
AcDbEntity
  8
0
100
AcDbLine
 62
7
  6
CONTINUOUS
 10
145.5330191203
 20
84.5153286808
 11
145.5330191203
 21
83.3696471148
  0
LINE
  5
31D
100
AcDbEntity
  8
0
100
AcDbLine
 62
7
  6
CONTINUOUS
 10
145.5330191203
 20
68.1433540663
 11
145.5330191203
 21
66.9976725003
  0
LINE
  5
31E
100
AcDbEntity
  8
0
100
AcDbLine
 62
7
  6
CONTINUOUS
 10
145.5330191203
 20
56.2310574333
 11
145.5330191203
 21
55.7565005905
  0
LINE
  5
31F
100
AcDbEntity
  8
0
100
AcDbLine
 62
7
  6
CONTINUOUS
 10
146.3413094972
 20
55.7565005905
 11
146.3413094972
 21
95.7565005905
  0
LINE
  5
320
100
AcDbEntity
  8
0
100
AcDbLine
 62
7
  6
CONTINUOUS
 10
131.7928267414
 20
99.0565005905
 11
132.0526343626
 21
99.5065005905
  0
LINE
  5
321
100
AcDbEntity
  8
0
100
AcDbLine
 62
7
  6
CONTINUOUS
 10
106.0413094972
 20
146.0565005905
 11
106.170598819
 21
145.9272112687
  0
LINE
  5
322
100
AcDbEntity
  8
0
100
AcDbLine
 62
7
  6
CONTINUOUS
 10
152.4390406893
 20
92.09709944
 11
151.83974546
 21
93.2477163747
  0
LINE
  5
323
100
AcDbEntity
  8
0
100
AcDbLine
 62
7
  6
CONTINUOUS
 10
152.9163094972
 20
57.2565005905
 11
152.9163094972
 21
94.2565005905
  0
LINE
  5
324
100
AcDbEntity
  8
0
100
AcDbLine
 62
7
  6
CONTINUOUS
 10
154.3596851701
 20
54.7565005905
 11
154.3596851701
 21
54.8298819636
  0
LINE
  5
325
100
AcDbEntity
  8
0
100
AcDbLine
 62
7
  6
CONTINUOUS
 10
154.3596851701
 20
63.7741538736
 11
154.3596851701
 21
66.8122286805
  0
LINE
  5
326
100
AcDbEntity
  8
0
100
AcDbLine
 62
7
  6
CONTINUOUS
 10
154.3596851701
 20
84.7007725005
 11
154.3596851701
 21
87.7388473074
  0
LINE
  5
327
100
AcDbEntity
  8
0
100
AcDbLine
 62
7
  6
CONTINUOUS
 10
154.3596851701
 20
96.6831192174
 11
154.3596851701
 21
96.7565005905
  0
LINE
  5
328
100
AcDbEntity
  8
0
100
AcDbLine
 62
7
  6
CONTINUOUS
 10
154.8413094972
 20
174.6565005905
 11
154.8413094972
 21
174.8565005905
  0
LINE
  5
329
100
AcDbEntity
  8
0
100
AcDbLine
 62
7
  6
CONTINUOUS
 10
154.8413094972
 20
175.1931756325
 11
154.8413094972
 21
177.5198255486
  0
LINE
  5
32A
100
AcDbEntity
  8
0
100
AcDbLine
 62
7
  6
CONTINUOUS
 10
154.8413094972
 20
177.8565005905
 11
154.8413094972
 21
178.0565005905
  0
LINE
  5
32B
100
AcDbEntity
  8
0
100
AcDbLine
 62
7
  6
CONTINUOUS
 10
116.4265925164
 20
111.7565005905
 11
115.7862906298
 21
111.7565005905
  0
LINE
  5
32C
100
AcDbEntity
  8
0
100
AcDbLine
 62
7
  6
CONTINUOUS
 10
119.9025170434
 20
114.592123231
 11
119.2622151568
 21
114.592123231
  0
LINE
  5
32D
100
AcDbEntity
  8
0
100
AcDbLine
 62
7
  6
CONTINUOUS
 10
116.4265925164
 20
115.8727270041
 11
115.6948189317
 21
115.8727270041
  0
LINE
  5
32E
100
AcDbEntity
  8
0
100
AcDbLine
 62
7
  6
CONTINUOUS
 10
102.2913094972
 20
141.6121630232
 11
106.4833650164
 21
139.1918786408
  0
LINE
  5
32F
100
AcDbEntity
  8
0
100
AcDbLine
 62
7
  6
CONTINUOUS
 10
102.5413094972
 20
141.6987655636
 11
106.4716268891
 21
139.4295957594
  0
LINE
  5
330
100
AcDbEntity
  8
0
100
AcDbLine
 62
7
  6
CONTINUOUS
 10
119.8413094972
 20
147.8565005905
 11
112.3811888081
 21
155.8565005905
  0
LINE
  5
331
100
AcDbEntity
  8
0
100
AcDbLine
 62
7
  6
CONTINUOUS
 10
165.8297069568
 20
94.0065005905
 11
164.3285962569
 21
96.6065005905
  0
LINE
  5
332
100
AcDbEntity
  8
0
100
AcDbLine
 62
7
  6
CONTINUOUS
 10
156.1413094972
 20
173.3565005905
 11
156.1413094972
 21
179.3565005905
  0
LINE
  5
333
100
AcDbEntity
  8
0
100
AcDbLine
 62
7
  6
CONTINUOUS
 10
162.9980123975
 20
179.3565005905
 11
162.9980123975
 21
179.4065005905
  0
LINE
  5
334
100
AcDbEntity
  8
0
100
AcDbLine
 62
7
  6
CONTINUOUS
 10
136.4328975633
 20
52.1328844762
 11
137.7394002036
 21
55.7224709788
  0
LINE
  5
335
100
AcDbEntity
  8
0
100
AcDbLine
 62
7
  6
CONTINUOUS
 10
149.5901777023
 20
93.2477163731
 11
148.9968239734
 21
92.1085064008
  0
LINE
  5
336
100
AcDbEntity
  8
0
100
AcDbLine
 62
7
  6
CONTINUOUS
 10
151.4044644254
 20
93.24771636
 11
150.8111106595
 21
92.1085063231
  0
LINE
  5
337
100
AcDbEntity
  8
0
100
AcDbLine
 62
7
  6
CONTINUOUS
 10
119.7996113831
 20
117.8851043619
 11
119.410807915
 21
117.8851043619
  0
LINE
  5
338
100
AcDbEntity
  8
0
100
AcDbLine
 62
7
  6
CONTINUOUS
 10
118.1988566667
 20
117.8851043619
 11
117.5585547801
 21
117.8851043619
  0
LINE
  5
339
100
AcDbEntity
  8
0
100
AcDbLine
 62
7
  6
CONTINUOUS
 10
115.5347434601
 20
117.8851043619
 11
114.8944415735
 21
117.8851043619
  0
LINE
  5
33A
100
AcDbEntity
  8
0
100
AcDbLine
 62
7
  6
CONTINUOUS
 10
116.1750453466
 20
119.3600854934
 11
115.5347434601
 21
119.3600854934
  0
LINE
  5
33B
100
AcDbEntity
  8
0
100
AcDbLine
 62
7
  6
CONTINUOUS
 10
116.1750453466
 20
120.00038738
 11
115.5347434601
 21
120.00038738
  0
LINE
  5
33C
100
AcDbEntity
  8
0
100
AcDbLine
 62
7
  6
CONTINUOUS
 10
116.1750453466
 20
121.3610288889
 11
115.5347434601
 21
121.3610288889
  0
LINE
  5
33D
100
AcDbEntity
  8
0
100
AcDbLine
 62
7
  6
CONTINUOUS
 10
119.7996113831
 20
122.0013307755
 11
119.1593094965
 21
122.0013307755
  0
LINE
  5
33E
100
AcDbEntity
  8
0
100
AcDbLine
 62
7
  6
CONTINUOUS
 10
117.9473582482
 20
122.0013307755
 11
117.5585547801
 21
122.0013307755
  0
LINE
  5
33F
100
AcDbEntity
  8
0
100
AcDbLine
 62
7
  6
CONTINUOUS
 10
116.1750453466
 20
122.0013307755
 11
114.8944415735
 21
122.0013307755
  0
LINE
  5
340
100
AcDbEntity
  8
0
100
AcDbLine
 62
7
  6
CONTINUOUS
 10
123.0476485949
 20
159.0565005905
 11
123.2392877145
 21
158.8565005905
  0
LINE
  5
341
100
AcDbEntity
  8
0
100
AcDbLine
 62
7
  6
CONTINUOUS
 10
164.0687886358
 20
87.737976086
 11
164.0687886358
 21
84.7017323022
  0
LINE
  5
342
100
AcDbEntity
  8
0
100
AcDbLine
 62
7
  6
CONTINUOUS
 10
164.0687886358
 20
66.8112688784
 11
164.0687886358
 21
63.7750250946
  0
LINE
  5
343
100
AcDbEntity
  8
0
100
AcDbLine
 62
7
  6
CONTINUOUS
 10
164.0687886358
 20
54.7565005905
 11
164.0687886358
 21
54.8297933827
  0
LINE
  5
344
100
AcDbEntity
  8
0
100
AcDbLine
 62
7
  6
CONTINUOUS
 10
164.0687886358
 20
96.6832077983
 11
164.0687886358
 21
96.7565005905
  0
LINE
  5
345
100
AcDbEntity
  8
0
100
AcDbLine
 62
7
  6
CONTINUOUS
 10
164.3285962569
 20
96.6065005905
 11
164.3285962569
 21
96.5391593576
  0
LINE
  5
346
100
AcDbEntity
  8
0
100
AcDbLine
 62
7
  6
CONTINUOUS
 10
164.3285962569
 20
87.5978975432
 11
164.3285962569
 21
84.6977624172
  0
LINE
  5
347
100
AcDbEntity
  8
0
100
AcDbLine
 62
7
  6
CONTINUOUS
 10
164.3285962569
 20
66.8152387715
 11
164.3285962569
 21
63.9151036458
  0
LINE
  5
348
100
AcDbEntity
  8
0
100
AcDbLine
 62
7
  6
CONTINUOUS
 10
164.3285962569
 20
54.973841824
 11
164.3285962569
 21
54.9065005905
  0
LINE
  5
349
100
AcDbEntity
  8
0
100
AcDbLine
 62
7
  6
CONTINUOUS
 10
164.8820702825
 20
179.3565005905
 11
164.8820702825
 21
179.4065005905
  0
LINE
  5
34A
100
AcDbEntity
  8
0
100
AcDbLine
 62
7
  6
CONTINUOUS
 10
165.8297069568
 20
57.5065005905
 11
165.8297069568
 21
94.0065005905
  0
LINE
  5
34B
100
AcDbEntity
  8
0
100
AcDbLine
 62
7
  6
CONTINUOUS
 10
166.012505183
 20
179.3565005905
 11
166.012505183
 21
179.4065005905
  0
LINE
  5
34C
100
AcDbEntity
  8
0
100
AcDbLine
 62
7
  6
CONTINUOUS
 10
166.0895145779
 20
57.6565005905
 11
166.0895145779
 21
93.8565005905
  0
LINE
  5
34D
100
AcDbEntity
  8
0
100
AcDbLine
 62
7
  6
CONTINUOUS
 10
167.4163094972
 20
93.8565005905
 11
167.4163094972
 21
57.6565005905
  0
LINE
  5
34E
100
AcDbEntity
  8
0
100
AcDbLine
 62
7
  6
CONTINUOUS
 10
168.4163094972
 20
92.8565005905
 11
168.4163094972
 21
58.6565005905
  0
LINE
  5
34F
100
AcDbEntity
  8
0
100
AcDbLine
 62
7
  6
CONTINUOUS
 10
170.5154040549
 20
179.3565005905
 11
170.5154040549
 21
179.4065005905
  0
LINE
  5
350
100
AcDbEntity
  8
0
100
AcDbLine
 62
7
  6
CONTINUOUS
 10
136.3739637896
 20
52.0065005905
 11
136.4328975633
 21
52.1328844762
  0
LINE
  5
351
100
AcDbEntity
  8
0
100
AcDbLine
 62
7
  6
CONTINUOUS
 10
152.9163094972
 20
92.6670333526
 11
152.6253972791
 21
92.1085063184
  0
LINE
  5
352
100
AcDbEntity
  8
0
100
AcDbLine
 62
7
  6
CONTINUOUS
 10
152.9163094972
 20
94.2565005905
 11
154.3596851701
 21
96.7565005905
  0
LINE
  5
353
100
AcDbEntity
  8
0
100
AcDbLine
 62
7
  6
CONTINUOUS
 10
149.5901777023
 20
93.2477163731
 11
149.5993020104
 21
93.2565005246
  0
LINE
  5
354
100
AcDbEntity
  8
0
100
AcDbLine
 62
7
  6
CONTINUOUS
 10
151.4044644254
 20
93.24771636
 11
151.4136128144
 21
93.2565005904
  0
LINE
  5
355
100
AcDbEntity
  8
0
100
AcDbLine
 62
7
  6
CONTINUOUS
 10
108.3505779294
 20
149.9057969986
 11
108.6370684163
 21
149.7565005905
  0
LINE
  5
356
100
AcDbEntity
  8
0
100
AcDbLine
 62
7
  6
CONTINUOUS
 10
108.9336503615
 20
150.9389339385
 11
109.1391379451
 21
150.831834633
  0
LINE
  5
357
100
AcDbEntity
  8
0
100
AcDbLine
 62
7
  6
CONTINUOUS
 10
111.3413094972
 20
159.0565005905
 11
111.6842730614
 21
158.8565005905
  0
LINE
  5
358
100
AcDbEntity
  8
0
100
AcDbLine
 62
7
  6
CONTINUOUS
 10
171.6646792982
 20
179.3565005905
 11
171.6646792982
 21
179.4065005905
  0
LINE
  5
359
100
AcDbEntity
  8
0
100
AcDbLine
 62
7
  6
CONTINUOUS
 10
173.6994618867
 20
179.3565005905
 11
173.6994618867
 21
179.4065005905
  0
LINE
  5
35A
100
AcDbEntity
  8
0
100
AcDbLine
 62
7
  6
CONTINUOUS
 10
174.5826138258
 20
179.3565005905
 11
174.5826138258
 21
179.4065005905
  0
LINE
  5
35B
100
AcDbEntity
  8
0
100
AcDbLine
 62
7
  6
CONTINUOUS
 10
174.738048615
 20
179.3565005905
 11
174.738048615
 21
179.4065005905
  0
LINE
  5
35C
100
AcDbEntity
  8
0
100
AcDbLine
 62
7
  6
CONTINUOUS
 10
175.0053494327
 20
179.3565005905
 11
175.0053494327
 21
179.4065005905
  0
LINE
  5
35D
100
AcDbEntity
  8
0
100
AcDbLine
 62
7
  6
CONTINUOUS
 10
176.1087006945
 20
179.3565005905
 11
176.1087006945
 21
179.4065005905
  0
LINE
  5
35E
100
AcDbEntity
  8
0
100
AcDbLine
 62
7
  6
CONTINUOUS
 10
176.9141355176
 20
179.3565005905
 11
176.9141355176
 21
179.4065005905
  0
LINE
  5
35F
100
AcDbEntity
  8
0
100
AcDbLine
 62
7
  6
CONTINUOUS
 10
177.761961693
 20
179.3565005905
 11
177.761961693
 21
179.4065005905
  0
LINE
  5
360
100
AcDbEntity
  8
0
100
AcDbLine
 62
7
  6
CONTINUOUS
 10
147.3040297205
 20
58.2652847907
 11
147.8984282187
 21
59.4065005949
  0
LINE
  5
361
100
AcDbEntity
  8
0
100
AcDbLine
 62
7
  6
CONTINUOUS
 10
149.1183153656
 20
58.2652848172
 11
149.7127138905
 21
59.4065006658
  0
LINE
  5
362
100
AcDbEntity
  8
0
100
AcDbLine
 62
7
  6
CONTINUOUS
 10
120.2163094972
 20
132.7565005905
 11
119.5972408354
 21
132.7565005905
  0
LINE
  5
363
100
AcDbEntity
  8
0
100
AcDbLine
 62
7
  6
CONTINUOUS
 10
117.5913094972
 20
132.7565005905
 11
116.2198809257
 21
132.7565005905
  0
LINE
  5
364
100
AcDbEntity
  8
0
100
AcDbLine
 62
7
  6
CONTINUOUS
 10
117.0663094972
 20
133.2815005905
 11
116.2198809257
 21
133.2815005905
  0
LINE
  5
365
100
AcDbEntity
  8
0
100
AcDbLine
 62
7
  6
CONTINUOUS
 10
118.3691837124
 20
134.7218028081
 11
117.5913094972
 21
134.7218028081
  0
LINE
  5
366
100
AcDbEntity
  8
0
100
AcDbLine
 62
7
  6
CONTINUOUS
 10
118.7913096606
 20
135.2315005905
 11
117.5913094972
 21
135.2315005905
  0
LINE
  5
367
100
AcDbEntity
  8
0
100
AcDbLine
 62
7
  6
CONTINUOUS
 10
118.7913094972
 20
136.7315005905
 11
117.5913094972
 21
136.7315005905
  0
LINE
  5
368
100
AcDbEntity
  8
0
100
AcDbLine
 62
7
  6
CONTINUOUS
 10
117.0663094972
 20
136.7315005905
 11
116.2198809257
 21
136.7315005905
  0
LINE
  5
369
100
AcDbEntity
  8
0
100
AcDbLine
 62
7
  6
CONTINUOUS
 10
118.7913094972
 20
137.2565005905
 11
116.2198809257
 21
137.2565005905
  0
LINE
  5
36A
100
AcDbEntity
  8
0
100
AcDbLine
 62
7
  6
CONTINUOUS
 10
127.8413094972
 20
138.0079724531
 11
106.8413094972
 21
138.0079724531
  0
LINE
  5
36B
100
AcDbEntity
  8
0
100
AcDbLine
 62
7
  6
CONTINUOUS
 10
128.0170454284
 20
138.4322365218
 11
106.6655735659
 21
138.4322365218
  0
LINE
  5
36C
100
AcDbEntity
  8
0
100
AcDbLine
 62
7
  6
CONTINUOUS
 10
121.3413094972
 20
161.2112011289
 11
123.0413094972
 21
160.2297056713
  0
LINE
  5
36D
100
AcDbEntity
  8
0
100
AcDbLine
 62
7
  6
CONTINUOUS
 10
178.6097875778
 20
179.3565005905
 11
178.6097875778
 21
179.4065005905
  0
LINE
  5
36E
100
AcDbEntity
  8
0
100
AcDbLine
 62
7
  6
CONTINUOUS
 10
179.1305094272
 20
179.3565005905
 11
179.1305094272
 21
179.4065005905
  0
LINE
  5
36F
100
AcDbEntity
  8
0
100
AcDbLine
 62
7
  6
CONTINUOUS
 10
180.3337010239
 20
179.3565005905
 11
180.3337010239
 21
179.4065005905
  0
LINE
  5
370
100
AcDbEntity
  8
0
100
AcDbLine
 62
7
  6
CONTINUOUS
 10
181.6195703987
 20
179.3565005905
 11
181.6195703987
 21
179.4065005905
  0
LINE
  5
371
100
AcDbEntity
  8
0
100
AcDbLine
 62
7
  6
CONTINUOUS
 10
181.6337009464
 20
179.3565005905
 11
181.6337009464
 21
179.4065005905
  0
LINE
  5
372
100
AcDbEntity
  8
0
100
AcDbLine
 62
7
  6
CONTINUOUS
 10
182.3713094972
 20
179.3565005905
 11
182.3713094972
 21
179.4065005905
  0
LINE
  5
373
100
AcDbEntity
  8
0
100
AcDbLine
 62
7
  6
CONTINUOUS
 10
182.8347876165
 20
179.3565005905
 11
182.8347876165
 21
179.4065005905
  0
LINE
  5
374
100
AcDbEntity
  8
0
100
AcDbLine
 62
7
  6
CONTINUOUS
 10
152.7468878628
 20
58.2652847893
 11
152.9163094972
 21
58.5905741509
  0
LINE
  5
375
100
AcDbEntity
  8
0
100
AcDbLine
 62
7
  6
CONTINUOUS
 10
150.9326023436
 20
58.2652848167
 11
151.5270009007
 21
59.4065007233
  0
LINE
  5
376
100
AcDbEntity
  8
0
100
AcDbLine
 62
7
  6
CONTINUOUS
 10
105.3195758376
 20
68.3411258614
 11
104.6125108741
 21
68.0935542514
  0
LINE
  5
377
100
AcDbEntity
  8
0
100
AcDbLine
 62
7
  6
CONTINUOUS
 10
106.5170454284
 20
138.5807646592
 11
128.1655735659
 21
138.5807646592
  0
LINE
  5
378
100
AcDbEntity
  8
0
100
AcDbLine
 62
7
  6
CONTINUOUS
 10
102.3413094972
 20
140.8565005905
 11
103.600155224
 21
140.8565005905
  0
LINE
  5
379
100
AcDbEntity
  8
0
100
AcDbLine
 62
7
  6
CONTINUOUS
 10
119.8413094972
 20
140.8565005905
 11
126.3413094972
 21
140.8565005905
  0
LINE
  5
37A
100
AcDbEntity
  8
0
100
AcDbLine
 62
7
  6
CONTINUOUS
 10
102.5413094972
 20
145.2565005905
 11
102.0413094972
 21
145.2565005905
  0
LINE
  5
37B
100
AcDbEntity
  8
0
100
AcDbLine
 62
7
  6
CONTINUOUS
 10
102.8913123544
 20
145.6065005905
 11
106.3482637814
 21
145.6065005905
  0
LINE
  5
37C
100
AcDbEntity
  8
0
100
AcDbLine
 62
7
  6
CONTINUOUS
 10
128.3413094972
 20
145.7150792343
 11
128.1096875043
 21
145.7150792343
  0
LINE
  5
37D
100
AcDbEntity
  8
0
100
AcDbLine
 62
7
  6
CONTINUOUS
 10
119.8413094972
 20
145.7150792343
 11
106.664147306
 21
145.7150792343
  0
LINE
  5
37E
100
AcDbEntity
  8
0
100
AcDbLine
 62
7
  6
CONTINUOUS
 10
102.5413094972
 20
145.7565005905
 11
106.3482637814
 21
145.7565005905
  0
LINE
  5
37F
100
AcDbEntity
  8
0
100
AcDbLine
 62
7
  6
CONTINUOUS
 10
128.370598819
 20
145.7857899124
 11
128.1354240864
 21
145.7857899124
  0
LINE
  5
380
100
AcDbEntity
  8
0
100
AcDbLine
 62
7
  6
CONTINUOUS
 10
119.8413094972
 20
145.7857899124
 11
106.6077332777
 21
145.7857899124
  0
LINE
  5
381
100
AcDbEntity
  8
0
100
AcDbLine
 62
7
  6
CONTINUOUS
 10
106.4716561613
 20
145.6375603867
 11
106.6657261156
 21
145.6375420719
  0
LINE
  5
382
100
AcDbEntity
  8
0
100
AcDbLine
 62
7
  6
CONTINUOUS
 10
186.0000047181
 20
179.3565005905
 11
186.0000047181
 21
179.4065005905
  0
LINE
  5
383
100
AcDbEntity
  8
0
100
AcDbLine
 62
7
  6
CONTINUOUS
 10
188.4445702825
 20
179.3565005905
 11
188.4445702825
 21
179.4065005905
  0
LINE
  5
384
100
AcDbEntity
  8
0
100
AcDbLine
 62
7
  6
CONTINUOUS
 10
188.6000057254
 20
179.3565005905
 11
188.6000057254
 21
179.4065005905
  0
LINE
  5
385
100
AcDbEntity
  8
0
100
AcDbLine
 62
7
  6
CONTINUOUS
 10
189.9113094972
 20
179.3565005905
 11
189.9113094972
 21
179.4065005905
  0
LINE
  5
386
100
AcDbEntity
  8
0
100
AcDbLine
 62
7
  6
CONTINUOUS
 10
190.1543531809
 20
179.3565005905
 11
190.1543531809
 21
179.4065005905
  0
LINE
  5
387
100
AcDbEntity
  8
0
100
AcDbLine
 62
7
  6
CONTINUOUS
 10
190.8321252523
 20
179.3565005905
 11
190.8321252523
 21
179.4065005905
  0
LINE
  5
388
100
AcDbEntity
  8
0
100
AcDbLine
 62
7
  6
CONTINUOUS
 10
149.1183153656
 20
58.2652848172
 11
149.1091895836
 21
58.256500649
  0
LINE
  5
389
100
AcDbEntity
  8
0
100
AcDbLine
 62
7
  6
CONTINUOUS
 10
106.170598819
 20
145.9272112687
 11
106.4254544286
 21
145.9272112687
  0
LINE
  5
38A
100
AcDbEntity
  8
0
100
AcDbLine
 62
7
  6
CONTINUOUS
 10
106.0413094972
 20
146.0565005905
 11
119.8413094972
 21
146.0565005905
  0
LINE
  5
38B
100
AcDbEntity
  8
0
100
AcDbLine
 62
7
  6
CONTINUOUS
 10
128.2339547153
 20
146.0565005905
 11
128.6413094972
 21
146.0565005905
  0
LINE
  5
38C
100
AcDbEntity
  8
0
100
AcDbLine
 62
7
  6
CONTINUOUS
 10
102.3413094972
 20
147.8565005905
 11
105.3413094972
 21
147.8565005905
  0
LINE
  5
38D
100
AcDbEntity
  8
0
100
AcDbLine
 62
7
  6
CONTINUOUS
 10
118.7222913938
 20
149.0565005905
 11
106.0413094972
 21
149.0565005905
  0
LINE
  5
38E
100
AcDbEntity
  8
0
100
AcDbLine
 62
7
  6
CONTINUOUS
 10
118.0695308335
 20
149.7565005905
 11
106.7413094972
 21
149.7565005905
  0
LINE
  5
38F
100
AcDbEntity
  8
0
100
AcDbLine
 62
7
  6
CONTINUOUS
 10
117.5100217818
 20
150.3565005905
 11
110.1418842761
 21
150.3565005905
  0
LINE
  5
390
100
AcDbEntity
  8
0
100
AcDbLine
 62
7
  6
CONTINUOUS
 10
109.0413094972
 20
151.0565005905
 11
116.805356158
 21
151.0565005905
  0
LINE
  5
391
100
AcDbEntity
  8
0
100
AcDbLine
 62
7
  6
CONTINUOUS
 10
112.4872075309
 20
159.0565005905
 11
113.749617066
 21
158.8565005905
  0
LINE
  5
392
100
AcDbEntity
  8
0
100
AcDbLine
 62
7
  6
CONTINUOUS
 10
120.8680210109
 20
159.0565005905
 11
122.0220942049
 21
158.8565005905
  0
LINE
  5
393
100
AcDbEntity
  8
0
100
AcDbLine
 62
7
  6
CONTINUOUS
 10
111.6349703994
 20
159.0565005905
 11
112.4789649843
 21
158.8565005905
  0
LINE
  5
394
100
AcDbEntity
  8
0
100
AcDbLine
 62
7
  6
CONTINUOUS
 10
122.1954114634
 20
159.0565005905
 11
122.9028942946
 21
158.8565005905
  0
LINE
  5
395
100
AcDbEntity
  8
0
100
AcDbLine
 62
7
  6
CONTINUOUS
 10
193.1076138113
 20
179.3565005905
 11
193.1076138113
 21
179.4065005905
  0
LINE
  5
396
100
AcDbEntity
  8
0
100
AcDbLine
 62
7
  6
CONTINUOUS
 10
195.2837007139
 20
179.3565005905
 11
195.2837007139
 21
179.4065005905
  0
LINE
  5
397
100
AcDbEntity
  8
0
100
AcDbLine
 62
7
  6
CONTINUOUS
 10
195.5013094972
 20
179.3565005905
 11
195.5013094972
 21
179.4065005905
  0
LINE
  5
398
100
AcDbEntity
  8
0
100
AcDbLine
 62
7
  6
CONTINUOUS
 10
196.9652236793
 20
179.3565005905
 11
196.9652236793
 21
179.4065005905
  0
LINE
  5
399
100
AcDbEntity
  8
0
100
AcDbLine
 62
7
  6
CONTINUOUS
 10
197.1206567977
 20
179.3565005905
 11
197.1206567977
 21
179.4065005905
  0
LINE
  5
39A
100
AcDbEntity
  8
0
100
AcDbLine
 62
7
  6
CONTINUOUS
 10
198.4347866867
 20
179.3565005905
 11
198.4347866867
 21
179.4065005905
  0
LINE
  5
39B
100
AcDbEntity
  8
0
100
AcDbLine
 62
7
  6
CONTINUOUS
 10
165.8297069568
 20
57.5065005905
 11
164.3285962569
 21
54.9065005905
  0
LINE
  5
39C
100
AcDbEntity
  8
0
100
AcDbLine
 62
7
  6
CONTINUOUS
 10
152.7468878628
 20
58.2652847893
 11
152.7377592358
 21
58.2565006356
  0
LINE
  5
39D
100
AcDbEntity
  8
0
100
AcDbLine
 62
7
  6
CONTINUOUS
 10
110.3413094972
 20
153.9791503213
 11
110.4872075309
 21
153.9791503213
  0
LINE
  5
39E
100
AcDbEntity
  8
0
100
AcDbLine
 62
7
  6
CONTINUOUS
 10
113.59345842
 20
154.5565005905
 11
110.3413094972
 21
154.5565005905
  0
LINE
  5
39F
100
AcDbEntity
  8
0
100
AcDbLine
 62
7
  6
CONTINUOUS
 10
103.6338111629
 20
155.8565005905
 11
112.3811888081
 21
155.8565005905
  0
LINE
  5
3A0
100
AcDbEntity
  8
0
100
AcDbLine
 62
7
  6
CONTINUOUS
 10
113.6736904738
 20
155.8565005905
 11
129.7658830166
 21
155.8565005905
  0
LINE
  5
3A1
100
AcDbEntity
  8
0
100
AcDbLine
 62
7
  6
CONTINUOUS
 10
131.3413094972
 20
155.8565005905
 11
132.9413094972
 21
155.8565005905
  0
LINE
  5
3A2
100
AcDbEntity
  8
0
100
AcDbLine
 62
7
  6
CONTINUOUS
 10
132.9413094972
 20
158.8565005905
 11
131.3413094972
 21
158.8565005905
  0
LINE
  5
3A3
100
AcDbEntity
  8
0
100
AcDbLine
 62
7
  6
CONTINUOUS
 10
105.3413094972
 20
158.8565005905
 11
131.3145145779
 21
158.8565005905
  0
LINE
  5
3A4
100
AcDbEntity
  8
0
100
AcDbLine
 62
7
  6
CONTINUOUS
 10
123.3413094972
 20
159.0565005905
 11
111.3413094972
 21
159.0565005905
  0
LINE
  5
3A5
100
AcDbEntity
  8
0
100
AcDbLine
 62
7
  6
CONTINUOUS
 10
123.3413094972
 20
159.710090429
 11
111.3413094972
 21
159.710090429
  0
LINE
  5
3A6
100
AcDbEntity
  8
0
100
AcDbLine
 62
7
  6
CONTINUOUS
 10
123.0413094972
 20
160.2297056713
 11
111.6413094972
 21
160.2297056713
  0
LINE
  5
3A7
100
AcDbEntity
  8
0
100
AcDbLine
 62
7
  6
CONTINUOUS
 10
115.4872075309
 20
159.0565005905
 11
117.1868655021
 21
158.8565005905
  0
LINE
  5
3A8
100
AcDbEntity
  8
0
100
AcDbLine
 62
7
  6
CONTINUOUS
 10
117.3413094972
 20
159.0565005905
 11
119.0170000309
 21
158.8565005905
  0
LINE
  5
3A9
100
AcDbEntity
  8
0
100
AcDbLine
 62
7
  6
CONTINUOUS
 10
113.8145979834
 20
159.0565005905
 11
115.3718490277
 21
158.8565005905
  0
LINE
  5
3AA
100
AcDbEntity
  8
0
100
AcDbLine
 62
7
  6
CONTINUOUS
 10
119.1954114634
 20
159.0565005905
 11
120.683106295
 21
158.8565005905
  0
LINE
  5
3AB
100
AcDbEntity
  8
0
100
AcDbLine
 62
7
  6
CONTINUOUS
 10
200.3141361568
 20
179.3565005905
 11
200.3141361568
 21
179.4065005905
  0
LINE
  5
3AC
100
AcDbEntity
  8
0
100
AcDbLine
 62
7
  6
CONTINUOUS
 10
201.0916784975
 20
179.3565005905
 11
201.0916784975
 21
179.4065005905
  0
LINE
  5
3AD
100
AcDbEntity
  8
0
100
AcDbLine
 62
7
  6
CONTINUOUS
 10
201.3315262888
 20
179.3565005905
 11
201.3315262888
 21
179.4065005905
  0
LINE
  5
3AE
100
AcDbEntity
  8
0
100
AcDbLine
 62
7
  6
CONTINUOUS
 10
202.603265116
 20
179.3565005905
 11
202.603265116
 21
179.4065005905
  0
LINE
  5
3AF
100
AcDbEntity
  8
0
100
AcDbLine
 62
7
  6
CONTINUOUS
 10
113.3413094972
 20
164.0565005905
 11
121.3413094972
 21
164.0565005905
  0
LINE
  5
3B0
100
AcDbEntity
  8
0
100
AcDbLine
 62
7
  6
CONTINUOUS
 10
213.4525111259
 20
179.3565005905
 11
213.4525111259
 21
179.4065005905
  0
LINE
  5
3B1
100
AcDbEntity
  8
0
100
AcDbLine
 62
7
  6
CONTINUOUS
 10
213.6657410537
 20
179.3565005905
 11
213.6657410537
 21
179.4065005905
  0
LINE
  5
3B2
100
AcDbEntity
  8
0
100
AcDbLine
 62
7
  6
CONTINUOUS
 10
214.2298104938
 20
179.3565005905
 11
214.2298104938
 21
179.4065005905
  0
LINE
  5
3B3
100
AcDbEntity
  8
0
100
AcDbLine
 62
7
  6
CONTINUOUS
 10
156.1413094972
 20
173.3565005905
 11
241.3413094972
 21
173.3565005905
  0
LINE
  5
3B4
100
AcDbEntity
  8
0
100
AcDbLine
 62
7
  6
CONTINUOUS
 10
154.4265908714
 20
174.8565005905
 11
154.8590799741
 21
174.8565005905
  0
LINE
  5
3B5
100
AcDbEntity
  8
0
100
AcDbLine
 62
7
  6
CONTINUOUS
 10
214.7902667257
 20
179.3565005905
 11
214.7902667257
 21
179.4065005905
  0
LINE
  5
3B6
100
AcDbEntity
  8
0
100
AcDbLine
 62
7
  6
CONTINUOUS
 10
214.9993257029
 20
179.3565005905
 11
214.9993257029
 21
179.4065005905
  0
LINE
  5
3B7
100
AcDbEntity
  8
0
100
AcDbLine
 62
7
  6
CONTINUOUS
 10
215.2650977154
 20
179.3565005905
 11
215.2650977154
 21
179.4065005905
  0
LINE
  5
3B8
100
AcDbEntity
  8
0
100
AcDbLine
 62
7
  6
CONTINUOUS
 10
215.2784419177
 20
179.3565005905
 11
215.2784419177
 21
179.4065005905
  0
LINE
  5
3B9
100
AcDbEntity
  8
0
100
AcDbLine
 62
7
  6
CONTINUOUS
 10
215.6120467794
 20
179.3565005905
 11
215.6120467794
 21
179.4065005905
  0
LINE
  5
3BA
100
AcDbEntity
  8
0
100
AcDbLine
 62
7
  6
CONTINUOUS
 10
216.3270733417
 20
179.3565005905
 11
216.3270733417
 21
179.4065005905
  0
LINE
  5
3BB
100
AcDbEntity
  8
0
100
AcDbLine
 62
7
  6
CONTINUOUS
 10
216.4293788274
 20
179.3565005905
 11
216.4293788274
 21
179.4065005905
  0
LINE
  5
3BC
100
AcDbEntity
  8
0
100
AcDbLine
 62
7
  6
CONTINUOUS
 10
216.5839490891
 20
179.3565005905
 11
216.5839490891
 21
179.4065005905
  0
LINE
  5
3BD
100
AcDbEntity
  8
0
100
AcDbLine
 62
7
  6
CONTINUOUS
 10
216.6640141075
 20
179.3565005905
 11
216.6640141075
 21
179.4065005905
  0
LINE
  5
3BE
100
AcDbEntity
  8
0
100
AcDbLine
 62
7
  6
CONTINUOUS
 10
216.9976189692
 20
179.3565005905
 11
216.9976189692
 21
179.4065005905
  0
LINE
  5
3BF
100
AcDbEntity
  8
0
100
AcDbLine
 62
7
  6
CONTINUOUS
 10
217.7126455315
 20
179.3565005905
 11
217.7126455315
 21
179.4065005905
  0
LINE
  5
3C0
100
AcDbEntity
  8
0
100
AcDbLine
 62
7
  6
CONTINUOUS
 10
217.8149510172
 20
179.3565005905
 11
217.8149510172
 21
179.4065005905
  0
LINE
  5
3C1
100
AcDbEntity
  8
0
100
AcDbLine
 62
7
  6
CONTINUOUS
 10
219.3002062207
 20
179.3565005905
 11
219.3002062207
 21
179.4065005905
  0
LINE
  5
3C2
100
AcDbEntity
  8
0
100
AcDbLine
 62
7
  6
CONTINUOUS
 10
221.1332062207
 20
179.3565005905
 11
221.1332062207
 21
179.4065005905
  0
LINE
  5
3C3
100
AcDbEntity
  8
0
100
AcDbLine
 62
7
  6
CONTINUOUS
 10
154.8413094972
 20
175.8565005905
 11
243.8413094972
 21
175.8565005905
  0
LINE
  5
3C4
100
AcDbEntity
  8
0
100
AcDbLine
 62
7
  6
CONTINUOUS
 10
154.8413094972
 20
176.8565005905
 11
243.8413094972
 21
176.8565005905
  0
LINE
  5
3C5
100
AcDbEntity
  8
0
100
AcDbLine
 62
7
  6
CONTINUOUS
 10
154.8590799741
 20
177.8565005905
 11
154.012377309
 21
177.8565005905
  0
LINE
  5
3C6
100
AcDbEntity
  8
0
100
AcDbLine
 62
7
  6
CONTINUOUS
 10
156.1413094972
 20
179.3565005905
 11
241.3413094972
 21
179.3565005905
  0
LINE
  5
3C7
100
AcDbEntity
  8
0
100
AcDbLine
 62
7
  6
CONTINUOUS
 10
162.9980123975
 20
179.4065005905
 11
174.4808233089
 21
179.4065005905
  0
LINE
  5
3C8
100
AcDbEntity
  8
0
100
AcDbLine
 62
7
  6
CONTINUOUS
 10
174.5826138258
 20
179.4065005905
 11
176.9141355176
 21
179.4065005905
  0
LINE
  5
3C9
100
AcDbEntity
  8
0
100
AcDbLine
 62
7
  6
CONTINUOUS
 10
177.0017956854
 20
179.4065005905
 11
181.6195703987
 21
179.4065005905
  0
LINE
  5
3CA
100
AcDbEntity
  8
0
100
AcDbLine
 62
7
  6
CONTINUOUS
 10
181.7309854402
 20
179.4065005905
 11
182.3713094972
 21
179.4065005905
  0
LINE
  5
3CB
100
AcDbEntity
  8
0
100
AcDbLine
 62
7
  6
CONTINUOUS
 10
182.8347876165
 20
179.4065005905
 11
188.6000057254
 21
179.4065005905
  0
LINE
  5
3CC
100
AcDbEntity
  8
0
100
AcDbLine
 62
7
  6
CONTINUOUS
 10
188.6016335541
 20
179.4065005905
 11
189.9113094972
 21
179.4065005905
  0
LINE
  5
3CD
100
AcDbEntity
  8
0
100
AcDbLine
 62
7
  6
CONTINUOUS
 10
190.1543531809
 20
179.4065005905
 11
195.2837007139
 21
179.4065005905
  0
LINE
  5
3CE
100
AcDbEntity
  8
0
100
AcDbLine
 62
7
  6
CONTINUOUS
 10
195.5013094972
 20
179.4065005905
 11
196.9638094972
 21
179.4065005905
  0
LINE
  5
3CF
100
AcDbEntity
  8
0
100
AcDbLine
 62
7
  6
CONTINUOUS
 10
196.9652236793
 20
179.4065005905
 11
202.603265116
 21
179.4065005905
  0
LINE
  5
3D0
100
AcDbEntity
  8
0
100
AcDbLine
 62
7
  6
CONTINUOUS
 10
213.4525111259
 20
179.4065005905
 11
214.9993257029
 21
179.4065005905
  0
LINE
  5
3D1
100
AcDbEntity
  8
0
100
AcDbLine
 62
7
  6
CONTINUOUS
 10
215.2784419177
 20
179.4065005905
 11
216.5839490891
 21
179.4065005905
  0
LINE
  5
3D2
100
AcDbEntity
  8
0
100
AcDbLine
 62
7
  6
CONTINUOUS
 10
216.6640141075
 20
179.4065005905
 11
217.8149510172
 21
179.4065005905
  0
LINE
  5
3D3
100
AcDbEntity
  8
0
100
AcDbLine
 62
7
  6
CONTINUOUS
 10
219.3002062207
 20
179.4065005905
 11
223.6113094972
 21
179.4065005905
  0
LINE
  5
3D4
100
AcDbEntity
  8
0
100
AcDbLine
 62
7
  6
CONTINUOUS
 10
223.6113094972
 20
179.3565005905
 11
223.6113094972
 21
179.4065005905
  0
LINE
  5
3D5
100
AcDbEntity
  8
0
100
AcDbLine
 62
7
  6
CONTINUOUS
 10
232.8413094972
 20
173.3565005905
 11
232.8413094972
 21
179.3565005905
  0
LINE
  5
3D6
100
AcDbEntity
  8
0
100
AcDbLine
 62
7
  6
CONTINUOUS
 10
243.8413094972
 20
175.8565005905
 11
243.8413094972
 21
176.8565005905
  0
ARC
  5
3D7
100
AcDbEntity
  8
0
100
AcDbCircle
 62
7
  6
CONTINUOUS
 10
81.8445866581
 20
75.7718337427
 40
55.9072014139
100
AcDbArc
 50
356.3974142323
 51
359.9842860151
  0
ARC
  5
3D8
100
AcDbEntity
  8
0
100
AcDbCircle
 62
7
  6
CONTINUOUS
 10
81.8445866581
 20
75.7411674383
 40
55.9072014139
100
AcDbArc
 50
0.0157139849
 51
3.6025857677
  0
ARC
  5
3D9
100
AcDbEntity
  8
0
100
AcDbCircle
 62
7
  6
CONTINUOUS
 10
70.6304308546
 20
98.2385851859
 40
1.5554659733
100
AcDbArc
 50
269.3885070892
 51
270.0045181317
  0
ARC
  5
3DA
100
AcDbEntity
  8
0
100
AcDbCircle
 62
7
  6
CONTINUOUS
 10
70.6304308508
 20
53.2744161148
 40
1.5554658537
100
AcDbArc
 50
89.9954817974
 51
90.6114928199
  0
ARC
  5
3DB
100
AcDbEntity
  8
0
100
AcDbCircle
 62
7
  6
CONTINUOUS
 10
67.2663094972
 20
92.8565005905
 40
1.0
100
AcDbArc
 50
90.0
 51
180.0
  0
ARC
  5
3DC
100
AcDbEntity
  8
0
100
AcDbCircle
 62
7
  6
CONTINUOUS
 10
67.2663094972
 20
58.6565005905
 40
1.0
100
AcDbArc
 50
180.0
 51
270.0
  0
ARC
  5
3DD
100
AcDbEntity
  8
0
100
AcDbCircle
 62
7
  6
CONTINUOUS
 10
88.8657096964
 20
94.2959511335
 40
0.9605499725
100
AcDbArc
 50
90.0593557309
 51
123.0883829945
  0
ARC
  5
3DE
100
AcDbEntity
  8
0
100
AcDbCircle
 62
7
  6
CONTINUOUS
 10
88.865709733
 20
57.2170499504
 40
0.9605498753
100
AcDbArc
 50
236.9116106152
 51
269.9406420781
  0
ARC
  5
3DF
100
AcDbEntity
  8
0
100
AcDbCircle
 62
7
  6
CONTINUOUS
 10
70.6138303586
 20
96.4565005905
 40
0.3
100
AcDbArc
 50
90.0
 51
150.0
  0
ARC
  5
3E0
100
AcDbEntity
  8
0
100
AcDbCircle
 62
7
  6
CONTINUOUS
 10
70.6138303586
 20
55.0565005905
 40
0.3
100
AcDbArc
 50
210.0
 51
270.0
  0
ARC
  5
3E1
100
AcDbEntity
  8
0
100
AcDbCircle
 62
7
  6
CONTINUOUS
 10
68.5931044164
 20
94.1565005905
 40
0.3
100
AcDbArc
 50
270.0
 51
330.0000000004
  0
ARC
  5
3E2
100
AcDbEntity
  8
0
100
AcDbCircle
 62
7
  6
CONTINUOUS
 10
68.5931044164
 20
57.3565005905
 40
0.3
100
AcDbArc
 50
29.9999999996
 51
90.0
  0
ARC
  5
3E3
100
AcDbEntity
  8
0
100
AcDbCircle
 62
7
  6
CONTINUOUS
 10
70.6304566526
 20
63.9332312744
 40
0.1590774303
100
AcDbArc
 50
264.0006610491
 51
270.0348869544
  0
ARC
  5
3E4
100
AcDbEntity
  8
0
100
AcDbCircle
 62
7
  6
CONTINUOUS
 10
70.6304566472
 20
87.5797699247
 40
0.1590774122
100
AcDbArc
 50
89.9651120405
 51
95.9993376826
  0
ARC
  5
3E5
100
AcDbEntity
  8
0
100
AcDbCircle
 62
7
  6
CONTINUOUS
 10
70.6304630074
 20
84.8453637814
 40
0.1445913092
100
AcDbArc
 50
263.3945207209
 51
270.0358634133
  0
ARC
  5
3E6
100
AcDbEntity
  8
0
100
AcDbCircle
 62
7
  6
CONTINUOUS
 10
70.6304630028
 20
66.6676374139
 40
0.144591295
100
AcDbArc
 50
89.9641356367
 51
96.6054780806
  0
ARC
  5
3E7
100
AcDbEntity
  8
0
100
AcDbCircle
 62
7
  6
CONTINUOUS
 10
62.0751383373
 20
164.983838265
 40
55.5831179998
100
AcDbArc
 50
353.6709999501
 51
353.8783855052
  0
ARC
  5
3E8
100
AcDbEntity
  8
0
100
AcDbCircle
 62
7
  6
CONTINUOUS
 10
105.3413094972
 20
155.8565005905
 40
3.0
100
AcDbArc
 50
90.0
 51
180.0
  0
ARC
  5
3E9
100
AcDbEntity
  8
0
100
AcDbCircle
 62
7
  6
CONTINUOUS
 10
104.6840412855
 20
145.6359757063
 40
1.9816854494
100
AcDbArc
 50
0.0452877848
 51
2.2877004939
  0
ARC
  5
3EA
100
AcDbEntity
  8
0
100
AcDbCircle
 62
7
  6
CONTINUOUS
 10
105.7965643539
 20
144.9792334629
 40
1.1375268963
100
AcDbArc
 50
48.9446970452
 51
52.497907249
  0
ARC
  5
3EB
100
AcDbEntity
  8
0
100
AcDbCircle
 62
7
  6
CONTINUOUS
 10
105.8413094972
 20
155.3565005905
 40
0.5
100
AcDbArc
 50
90.0
 51
180.0
  0
ARC
  5
3EC
100
AcDbEntity
  8
0
100
AcDbCircle
 62
7
  6
CONTINUOUS
 10
102.5413094972
 20
142.0451757251
 40
0.5
100
AcDbArc
 50
180.0
 51
240.0
  0
ARC
  5
3ED
100
AcDbEntity
  8
0
100
AcDbCircle
 62
7
  6
CONTINUOUS
 10
102.5413094972
 20
145.2565005905
 40
0.5
100
AcDbArc
 50
90.0
 51
180.0
  0
ARC
  5
3EE
100
AcDbEntity
  8
0
100
AcDbCircle
 62
7
  6
CONTINUOUS
 10
128.3228939134
 20
76.8124887354
 40
40.4110682583
100
AcDbArc
 50
188.3607698154
 51
192.4598964275
  0
ARC
  5
3EF
100
AcDbEntity
  8
0
100
AcDbCircle
 62
7
  6
CONTINUOUS
 10
110.0099885715
 20
89.8986362143
 40
27.7417842626
100
AcDbArc
 50
354.8852580518
 51
5.1147419482
  0
ARC
  5
3F0
100
AcDbEntity
  8
0
100
AcDbCircle
 62
7
  6
CONTINUOUS
 10
110.0099885715
 20
61.6143649668
 40
27.7417842626
100
AcDbArc
 50
354.8852580518
 51
5.1147419482
  0
ARC
  5
3F1
100
AcDbEntity
  8
0
100
AcDbCircle
 62
7
  6
CONTINUOUS
 10
119.8200594972
 20
73.1690005905
 40
2.41875
100
AcDbArc
 50
79.7295607216
 51
180.0
  0
ARC
  5
3F2
100
AcDbEntity
  8
0
100
AcDbCircle
 62
7
  6
CONTINUOUS
 10
119.0513094972
 20
73.3565005905
 40
2.4
100
AcDbArc
 50
90.0
 51
180.0
  0
ARC
  5
3F3
100
AcDbEntity
  8
0
100
AcDbCircle
 62
7
  6
CONTINUOUS
 10
118.0364630172
 20
74.8027493959
 40
1.575
100
AcDbArc
 50
113.7828917797
 51
151.5775992543
  0
ARC
  5
3F4
100
AcDbEntity
  8
0
100
AcDbCircle
 62
7
  6
CONTINUOUS
 10
106.5898376346
 20
97.3565005905
 40
0.6
100
AcDbArc
 50
105.8607896212
 51
135.0000000002
  0
ARC
  5
3F5
100
AcDbEntity
  8
0
100
AcDbCircle
 62
7
  6
CONTINUOUS
 10
106.5898376346
 20
54.1565005905
 40
0.6
100
AcDbArc
 50
224.9999999884
 51
270.0
  0
ARC
  5
3F6
100
AcDbEntity
  8
0
100
AcDbCircle
 62
7
  6
CONTINUOUS
 10
124.5898376346
 20
53.3565005905
 40
0.6
100
AcDbArc
 50
225.0
 51
270.0
  0
ARC
  5
3F7
100
AcDbEntity
  8
0
100
AcDbCircle
 62
7
  6
CONTINUOUS
 10
123.2927813597
 20
52.9565005905
 40
0.6
100
AcDbArc
 50
45.0
 51
90.0
  0
ARC
  5
3F8
100
AcDbEntity
  8
0
100
AcDbCircle
 62
7
  6
CONTINUOUS
 10
131.2732114992
 20
99.3565005905
 40
0.6
100
AcDbArc
 50
270.0
 51
330.0000000084
  0
ARC
  5
3F9
100
AcDbEntity
  8
0
100
AcDbCircle
 62
7
  6
CONTINUOUS
 10
131.2732114992
 20
52.1565005905
 40
0.6
100
AcDbArc
 50
29.9999999913
 51
90.0
  0
ARC
  5
3FA
100
AcDbEntity
  8
0
100
AcDbCircle
 62
7
  6
CONTINUOUS
 10
150.1107454216
 20
91.9376282966
 40
0.5400448973
100
AcDbArc
 50
11.805918318
 51
12.6239254602
  0
ARC
  5
3FB
100
AcDbEntity
  8
0
100
AcDbCircle
 62
7
  6
CONTINUOUS
 10
116.2198809257
 20
135.6065005905
 40
1.65
100
AcDbArc
 50
90.0
 51
180.0
  0
ARC
  5
3FC
100
AcDbEntity
  8
0
100
AcDbCircle
 62
7
  6
CONTINUOUS
 10
116.2198809257
 20
134.4065005905
 40
1.65
100
AcDbArc
 50
180.0
 51
270.0
  0
ARC
  5
3FD
100
AcDbEntity
  8
0
100
AcDbCircle
 62
7
  6
CONTINUOUS
 10
118.6219132703
 20
114.592123231
 40
1.2806037731
100
AcDbArc
 50
0.0
 51
180.0
  0
ARC
  5
3FE
100
AcDbEntity
  8
0
100
AcDbCircle
 62
7
  6
CONTINUOUS
 10
118.6219132703
 20
113.0371043637
 40
1.2806037731
100
AcDbArc
 50
180.0
 51
120.0
  0
ARC
  5
3FF
100
AcDbEntity
  8
0
100
AcDbCircle
 62
7
  6
CONTINUOUS
 10
118.7913094972
 20
135.9815005905
 40
1.275
100
AcDbArc
 50
278.8857694273
 51
90.0
  0
ARC
  5
400
100
AcDbEntity
  8
0
100
AcDbCircle
 62
7
  6
CONTINUOUS
 10
116.2198809257
 20
134.4065005905
 40
1.125
100
AcDbArc
 50
180.0
 51
270.0
  0
ARC
  5
401
100
AcDbEntity
  8
0
100
AcDbCircle
 62
7
  6
CONTINUOUS
 10
116.2198809257
 20
135.6065005905
 40
1.125
100
AcDbArc
 50
90.0
 51
180.0
  0
ARC
  5
402
100
AcDbEntity
  8
0
100
AcDbCircle
 62
7
  6
CONTINUOUS
 10
116.1750453466
 20
121.0408779457
 40
0.9604528298
100
AcDbArc
 50
0.0
 51
90.0
  0
ARC
  5
403
100
AcDbEntity
  8
0
100
AcDbCircle
 62
7
  6
CONTINUOUS
 10
116.1750453466
 20
120.3205383233
 40
0.9604528298
100
AcDbArc
 50
270.0
 51
360.0
  0
ARC
  5
404
100
AcDbEntity
  8
0
100
AcDbCircle
 62
7
  6
CONTINUOUS
 10
118.7913094972
 20
135.9815005905
 40
0.75
100
AcDbArc
 50
270.0000124894
 51
90.0
  0
CIRCLE
  5
405
100
AcDbEntity
  8
0
100
AcDbCircle
 62
7
  6
CONTINUOUS
 10
118.6219132703
 20
113.0371043637
 40
0.6403018866
  0
ARC
  5
406
100
AcDbEntity
  8
0
100
AcDbCircle
 62
7
  6
CONTINUOUS
 10
118.6219132703
 20
114.592123231
 40
0.6403018866
100
AcDbArc
 50
0.0
 51
180.0
  0
ARC
  5
407
100
AcDbEntity
  8
0
100
AcDbCircle
 62
7
  6
CONTINUOUS
 10
116.1750453466
 20
120.3205383233
 40
0.3201509433
100
AcDbArc
 50
270.0
 51
360.0
  0
ARC
  5
408
100
AcDbEntity
  8
0
100
AcDbCircle
 62
7
  6
CONTINUOUS
 10
116.1750453466
 20
121.0408779457
 40
0.3201509433
100
AcDbArc
 50
0.0
 51
90.0
  0
ARC
  5
409
100
AcDbEntity
  8
0
100
AcDbCircle
 62
7
  6
CONTINUOUS
 10
108.5588531915
 20
144.7371796773
 40
2.2730983041
100
AcDbArc
 50
156.2426276971
 51
156.6652262307
  0
ARC
  5
40A
100
AcDbEntity
  8
0
100
AcDbCircle
 62
7
  6
CONTINUOUS
 10
111.9413094972
 20
159.710090429
 40
0.6
100
AcDbArc
 50
120.0
 51
180.0
  0
ARC
  5
40B
100
AcDbEntity
  8
0
100
AcDbCircle
 62
7
  6
CONTINUOUS
 10
106.9413094972
 20
139.005028728
 40
0.6
100
AcDbArc
 50
180.0
 51
225.0000000016
  0
ARC
  5
40C
100
AcDbEntity
  8
0
100
AcDbCircle
 62
7
  6
CONTINUOUS
 10
106.2413094972
 20
138.0079724531
 40
0.6
100
AcDbArc
 50
0.0
 51
45.0000000011
  0
ARC
  5
40D
100
AcDbEntity
  8
0
100
AcDbCircle
 62
7
  6
CONTINUOUS
 10
106.3492705568
 20
145.8650455962
 40
0.2583503302
100
AcDbArc
 50
293.4666205199
 51
298.2760132802
  0
ARC
  5
40E
100
AcDbEntity
  8
0
100
AcDbCircle
 62
7
  6
CONTINUOUS
 10
106.3781592716
 20
139.0234962005
 40
0.2009480572
100
AcDbArc
 50
358.6242631915
 51
11.919722858
  0
ARC
  5
40F
100
AcDbEntity
  8
0
100
AcDbCircle
 62
7
  6
CONTINUOUS
 10
106.141312798
 20
139.1584224734
 40
0.1999999411
100
AcDbArc
 50
0.0005481361
 51
60.0010815331
  0
ARC
  5
410
100
AcDbEntity
  8
0
100
AcDbCircle
 62
7
  6
CONTINUOUS
 10
106.3881048234
 20
139.0273229812
 40
0.1901394004
100
AcDbArc
 50
46.1401401848
 51
59.9337398125
  0
ARC
  5
411
100
AcDbEntity
  8
0
100
AcDbCircle
 62
7
  6
CONTINUOUS
 10
106.0998881409
 20
145.8565005905
 40
0.1
100
AcDbArc
 50
270.0
 51
45.0
  0
ARC
  5
412
100
AcDbEntity
  8
0
100
AcDbCircle
 62
7
  6
CONTINUOUS
 10
132.9413094972
 20
159.8565005905
 40
4.0
100
AcDbArc
 50
270.0
 51
315.0
  0
ARC
  5
413
100
AcDbEntity
  8
0
100
AcDbCircle
 62
7
  6
CONTINUOUS
 10
132.9413094972
 20
159.8565005905
 40
1.0
100
AcDbArc
 50
270.0
 51
315.0
  0
ARC
  5
414
100
AcDbEntity
  8
0
100
AcDbCircle
 62
7
  6
CONTINUOUS
 10
122.7413094972
 20
159.710090429
 40
0.6
100
AcDbArc
 50
0.0
 51
60.0
  0
ARC
  5
415
100
AcDbEntity
  8
0
100
AcDbCircle
 62
7
  6
CONTINUOUS
 10
127.7413094972
 20
139.005028728
 40
0.6
100
AcDbArc
 50
314.9999999984
 51
359.9999999999
  0
ARC
  5
416
100
AcDbEntity
  8
0
100
AcDbCircle
 62
7
  6
CONTINUOUS
 10
128.4413094972
 20
138.0079724531
 40
0.6
100
AcDbArc
 50
134.9999999989
 51
180.0
  0
ARC
  5
417
100
AcDbEntity
  8
0
100
AcDbCircle
 62
7
  6
CONTINUOUS
 10
128.4413094972
 20
145.7150792343
 40
0.1
100
AcDbArc
 50
135.0
 51
180.0
  0
ARC
  5
418
100
AcDbEntity
  8
0
100
AcDbCircle
 62
7
  6
CONTINUOUS
 10
160.2509424287
 20
-1516.8035660453
 40
1667.1893778485
100
AcDbArc
 50
91.4527830806
 51
91.5743142997
  0
ARC
  5
419
100
AcDbEntity
  8
0
100
AcDbCircle
 62
7
  6
CONTINUOUS
 10
154.012377309
 20
173.8565005905
 40
4.0
100
AcDbArc
 50
90.0
 51
135.0
  0
ARC
  5
41A
100
AcDbEntity
  8
0
100
AcDbCircle
 62
7
  6
CONTINUOUS
 10
241.3413094972
 20
176.8565005905
 40
2.5
100
AcDbArc
 50
0.0
 51
90.0
  0
ARC
  5
41B
100
AcDbEntity
  8
0
100
AcDbCircle
 62
7
  6
CONTINUOUS
 10
241.3413094972
 20
175.8565005905
 40
2.5
100
AcDbArc
 50
270.0
 51
360.0
  0
ARC
  5
41C
100
AcDbEntity
  8
0
100
AcDbCircle
 62
7
  6
CONTINUOUS
 10
154.4265908714
 20
172.8565005905
 40
2.0
100
AcDbArc
 50
90.0
 51
135.0
  0
ARC
  5
41D
100
AcDbEntity
  8
0
100
AcDbCircle
 62
7
  6
CONTINUOUS
 10
164.0521881397
 20
53.274415994
 40
1.5554659744
100
AcDbArc
 50
89.3885070894
 51
90.0045181315
  0
ARC
  5
41E
100
AcDbEntity
  8
0
100
AcDbCircle
 62
7
  6
CONTINUOUS
 10
164.0521881435
 20
98.2385850658
 40
1.5554658532
100
AcDbArc
 50
269.9954817972
 51
270.61149282
  0
ARC
  5
41F
100
AcDbEntity
  8
0
100
AcDbCircle
 62
7
  6
CONTINUOUS
 10
156.1413094972
 20
174.6565005905
 40
1.3
100
AcDbArc
 50
180.0
 51
270.0
  0
ARC
  5
420
100
AcDbEntity
  8
0
100
AcDbCircle
 62
7
  6
CONTINUOUS
 10
156.1413094972
 20
178.0565005905
 40
1.3
100
AcDbArc
 50
90.0
 51
180.0
  0
ARC
  5
421
100
AcDbEntity
  8
0
100
AcDbCircle
 62
7
  6
CONTINUOUS
 10
167.4163094972
 20
58.6565005905
 40
1.0
100
AcDbArc
 50
270.0
 51
360.0
  0
ARC
  5
422
100
AcDbEntity
  8
0
100
AcDbCircle
 62
7
  6
CONTINUOUS
 10
167.4163094972
 20
92.8565005905
 40
1.0
100
AcDbArc
 50
0.0
 51
90.0
  0
ARC
  5
423
100
AcDbEntity
  8
0
100
AcDbCircle
 62
7
  6
CONTINUOUS
 10
164.0687886358
 20
96.4565005905
 40
0.3
100
AcDbArc
 50
30.0
 51
90.0
  0
ARC
  5
424
100
AcDbEntity
  8
0
100
AcDbCircle
 62
7
  6
CONTINUOUS
 10
164.0687886358
 20
55.0565005905
 40
0.3
100
AcDbArc
 50
270.0
 51
330.0
  0
ARC
  5
425
100
AcDbEntity
  8
0
100
AcDbCircle
 62
7
  6
CONTINUOUS
 10
166.0895145779
 20
57.3565005905
 40
0.3
100
AcDbArc
 50
90.0
 51
150.0000000004
  0
ARC
  5
426
100
AcDbEntity
  8
0
100
AcDbCircle
 62
7
  6
CONTINUOUS
 10
166.0895145779
 20
94.1565005905
 40
0.3
100
AcDbArc
 50
209.9999999996
 51
270.0
  0
ARC
  5
427
100
AcDbEntity
  8
0
100
AcDbCircle
 62
7
  6
CONTINUOUS
 10
164.0521623417
 20
87.5797699067
 40
0.1590774303
100
AcDbArc
 50
84.0006610492
 51
90.0348869543
  0
ARC
  5
428
100
AcDbEntity
  8
0
100
AcDbCircle
 62
7
  6
CONTINUOUS
 10
164.0521623471
 20
63.9332312564
 40
0.1590774123
100
AcDbArc
 50
269.9651120407
 51
275.9993376825
  0
ARC
  5
429
100
AcDbEntity
  8
0
100
AcDbCircle
 62
7
  6
CONTINUOUS
 10
164.0521559869
 20
66.6676373997
 40
0.1445913092
100
AcDbArc
 50
83.394520721
 51
90.0358634131
  0
ARC
  5
42A
100
AcDbEntity
  8
0
100
AcDbCircle
 62
7
  6
CONTINUOUS
 10
164.0521559916
 20
84.8453637672
 40
0.1445912949
100
AcDbArc
 50
269.9641356366
 51
276.6054780807
  0
SPLINE
  5
42B
100
AcDbEntity
  8
0
100
AcDbSpline
 62
7
  6
CONTINUOUS
 70
0
 71
3
 72
10
 73
6
 74
0
 42
0.0000001
 43
0.0000001
 44
0.0000000001
 40
0.0
 40
0.0
 40
0.0
 40
0.0
 40
0.1783392081
 40
0.5181011522
 40
1.0
 40
1.0
 40
1.0
 40
1.0
 10
108.3413106906
 20
149.9154550758
 30
0.0
 10
108.341311237
 20
149.9146272429
 30
0.0
 10
108.341968681
 20
149.9122126749
 30
0.0
 10
108.3453244593
 20
149.9087835105
 30
0.0
 10
108.3486021995
 20
149.9068306094
 30
0.0
 10
108.3505860051
 20
149.9057969955
 30
0.0
  0
SPLINE
  5
42C
100
AcDbEntity
  8
0
100
AcDbSpline
 62
7
  6
CONTINUOUS
 70
0
 71
3
 72
10
 73
6
 74
0
 42
0.0000001
 43
0.0000001
 44
0.0000000001
 40
0.0
 40
0.0
 40
0.0
 40
0.0
 40
0.1784034218
 40
0.5181509981
 40
1.0
 40
1.0
 40
1.0
 40
1.0
 10
108.3413184339
 20
150.2195475732
 30
0.0
 10
108.341318838
 20
150.2203752888
 30
0.0
 10
108.341974514
 20
150.2227891153
 30
0.0
 10
108.3453262515
 20
150.226219022
 30
0.0
 10
108.3486016066
 20
150.2281718464
 30
0.0
 10
108.3505839467
 20
150.2292053442
 30
0.0
  0
SPLINE
  5
42D
100
AcDbEntity
  8
0
100
AcDbSpline
 62
7
  6
CONTINUOUS
 70
0
 71
3
 72
25
 73
21
 74
0
 42
0.0000001
 43
0.0000001
 44
0.0000000001
 40
0.0
 40
0.0
 40
0.0
 40
0.0
 40
0.0020117722
 40
0.0035934297
 40
0.0056435716
 40
0.0112323637
 40
0.0188661754
 40
0.0285694721
 40
0.0403496855
 40
0.0701161809
 40
0.1080714473
 40
0.1540804937
 40
0.2079510418
 40
0.2694697452
 40
0.3383775824
 40
0.4143936232
 40
0.4971960697
 40
0.5864334245
 40
0.7827394381
 40
1.0
 40
1.0
 40
1.0
 40
1.0
 10
109.141314434
 20
150.8360010617
 30
0.0
 10
109.1413120246
 20
150.8387074201
 30
0.0
 10
109.1450639131
 20
150.8429666382
 30
0.0
 10
109.1514348446
 20
150.8467256894
 30
0.0
 10
109.1628624601
 20
150.8518410879
 30
0.0
 10
109.1825613519
 20
150.8576596444
 30
0.0
 10
109.2126916247
 20
150.8643786552
 30
0.0
 10
109.2512841641
 20
150.8711049471
 30
0.0
 10
109.319531888
 20
150.8809438452
 30
0.0
 10
109.42585253
 20
150.8927282211
 30
0.0
 10
109.578259784
 20
150.9062094004
 30
0.0
 10
109.7631941602
 20
150.9197555982
 30
0.0
 10
109.9798918259
 20
150.9333743644
 30
0.0
 10
110.2274454896
 20
150.9470245562
 30
0.0
 10
110.504828781
 20
150.9607035514
 30
0.0
 10
110.8108747822
 20
150.974398823
 30
0.0
 10
111.1442935705
 20
150.988108349
 30
0.0
 10
111.6394550332
 20
151.007006492
 30
0.0
 10
112.3154580964
 20
151.0303150007
 30
0.0
 10
112.8715424658
 20
151.0476904839
 30
0.0
 10
113.1636818924
 20
151.0565005905
 30
0.0
  0
SPLINE
  5
42E
100
AcDbEntity
  8
0
100
AcDbSpline
 62
7
  6
CONTINUOUS
 70
0
 71
3
 72
31
 73
27
 74
0
 42
0.0000001
 43
0.0000001
 44
0.0000000001
 40
0.0
 40
0.0
 40
0.0
 40
0.0
 40
0.1932790323
 40
0.287928397
 40
0.3799853868
 40
0.4685312386
 40
0.5526812588
 40
0.6315955175
 40
0.7044873997
 40
0.7706297019
 40
0.8293621431
 40
0.8801013325
 40
0.9023136484
 40
0.922345104
 40
0.940146804
 40
0.9556773006
 40
0.9688973907
 40
0.9797791226
 40
0.9883020905
 40
0.9916751694
 40
0.9944572203
 40
0.9966528118
 40
0.9982728923
 40
0.9988760373
 40
0.9993513685
 40
1.0
 40
1.0
 40
1.0
 40
1.0
 10
117.6038814401
 20
150.2559140822
 30
0.0
 10
117.0063914666
 20
150.2417814125
 30
0.0
 10
116.1163071574
 20
150.2207928161
 30
0.0
 10
114.9416607097
 20
150.1923720448
 30
0.0
 10
114.0907893195
 20
150.171210683
 30
0.0
 10
113.2723940873
 20
150.1500589797
 30
0.0
 10
112.4946525857
 20
150.1289204505
 30
0.0
 10
111.7653345626
 20
150.1078008057
 30
0.0
 10
111.0917241722
 20
150.0867073749
 30
0.0
 10
110.4805515763
 20
150.0656549293
 30
0.0
 10
109.9379229421
 20
150.0446537559
 30
0.0
 10
109.5311297377
 20
150.0265213717
 30
0.0
 10
109.2439862302
 20
150.0117556045
 30
0.0
 10
109.058613356
 20
150.0011916975
 30
0.0
 10
108.8939376476
 20
149.9906483197
 30
0.0
 10
108.7503711787
 20
149.9801331762
 30
0.0
 10
108.62826205
 20
149.969668676
 30
0.0
 10
108.5279146143
 20
149.9592572861
 30
0.0
 10
108.4580517302
 20
149.9501515401
 30
0.0
 10
108.4132987832
 20
149.9425538226
 30
0.0
 10
108.387997585
 20
149.9373528565
 30
0.0
 10
108.3682523789
 20
149.9321666533
 30
0.0
 10
108.3553348729
 20
149.9276433155
 30
0.0
 10
108.3479029835
 20
149.9237199558
 30
0.0
 10
108.3435993637
 20
149.9206992751
 30
0.0
 10
108.3413093669
 20
149.9174607726
 30
0.0
 10
108.3413106906
 20
149.9154550758
 30
0.0
  0
SPLINE
  5
42F
100
AcDbEntity
  8
0
100
AcDbSpline
 62
7
  6
CONTINUOUS
 70
0
 71
3
 72
11
 73
7
 74
0
 42
0.0000001
 43
0.0000001
 44
0.0000000001
 40
0.0
 40
0.0
 40
0.0
 40
0.0
 40
0.2834545585
 40
0.5526009197
 40
0.7950391835
 40
1.0
 40
1.0
 40
1.0
 40
1.0
 10
116.7848763167
 20
150.7393411103
 30
0.0
 10
116.1569898205
 20
150.7070411349
 30
0.0
 10
114.9328983218
 20
150.6443353071
 30
0.0
 10
113.1719503559
 20
150.5505609738
 30
0.0
 10
111.5853007981
 20
150.4581523868
 30
0.0
 10
110.595152278
 20
150.3914525787
 30
0.0
 10
110.1418842761
 20
150.3565005905
 30
0.0
  0
SPLINE
  5
430
100
AcDbEntity
  8
0
100
AcDbSpline
 62
7
  6
CONTINUOUS
 70
0
 71
3
 72
10
 73
6
 74
0
 42
0.0000001
 43
0.0000001
 44
0.0000000001
 40
0.0
 40
0.0
 40
0.0
 40
0.0
 40
0.2489854757
 40
0.4985223433
 40
1.0
 40
1.0
 40
1.0
 40
1.0
 10
113.5968327085
 20
154.5532092742
 30
0.0
 10
113.3336925644
 20
154.5461345982
 30
0.0
 10
112.807165912
 20
154.509017267
 30
0.0
 10
111.7613522419
 20
154.3482309669
 30
0.0
 10
110.9917576011
 20
154.1419931563
 30
0.0
 10
110.4872075309
 20
153.9791503213
 30
0.0
  0
SPLINE
  5
431
100
AcDbEntity
  8
0
100
AcDbSpline
 62
7
  6
CONTINUOUS
 70
0
 71
3
 72
9
 73
5
 74
0
 42
0.0000001
 43
0.0000001
 44
0.0000000001
 40
0.0
 40
0.0
 40
0.0
 40
0.0
 40
0.3814901326
 40
1.0
 40
1.0
 40
1.0
 40
1.0
 10
108.9305331951
 20
150.9457242884
 30
0.0
 10
108.9319327833
 20
150.9471238766
 30
0.0
 10
108.936747034
 20
150.9494561914
 30
0.0
 10
108.9416505525
 20
150.9510046114
 30
0.0
 10
108.9447444858
 20
150.9518564793
 30
0.0
  0
SPLINE
  5
432
100
AcDbEntity
  8
0
100
AcDbSpline
 62
7
  6
CONTINUOUS
 70
0
 71
3
 72
18
 73
14
 74
0
 42
0.0000001
 43
0.0000001
 44
0.0000000001
 40
0.0
 40
0.0
 40
0.0
 40
0.0
 40
0.012965812
 40
0.0328713254
 40
0.0597299996
 40
0.0934996019
 40
0.1341238302
 40
0.1815284123
 40
0.296270292
 40
0.4367814013
 40
0.6018694564
 40
0.7901822735
 40
1.0
 40
1.0
 40
1.0
 40
1.0
 10
108.9447444858
 20
150.9518564793
 30
0.0
 10
108.9554412947
 20
150.9548016847
 30
0.0
 10
108.9832402554
 20
150.959574625
 30
0.0
 10
109.0339432414
 20
150.9658210593
 30
0.0
 10
109.1025919407
 20
150.9720936199
 30
0.0
 10
109.1889939224
 20
150.9784898502
 30
0.0
 10
109.2930228568
 20
150.9849138372
 30
0.0
 10
109.4662900466
 20
150.9941209313
 30
0.0
 10
109.7250391714
 20
151.0052951677
 30
0.0
 10
110.0844972687
 20
151.0181412054
 30
0.0
 10
110.5069424105
 20
151.0310629593
 30
0.0
 10
110.9887148909
 20
151.0440497536
 30
0.0
 10
111.3292957628
 20
151.0523166791
 30
0.0
 10
111.5087882998
 20
151.0565005905
 30
0.0
  0
SPLINE
  5
433
100
AcDbEntity
  8
0
100
AcDbSpline
 62
7
  6
CONTINUOUS
 70
0
 71
3
 72
18
 73
14
 74
0
 42
0.0000001
 43
0.0000001
 44
0.0000000001
 40
0.0
 40
0.0
 40
0.0
 40
0.0
 40
0.0127722521
 40
0.0322417304
 40
0.0585223132
 40
0.0916307955
 40
0.131554849
 40
0.1782581639
 40
0.2917329002
 40
0.4314674854
 40
0.5967279894
 40
0.7866482645
 40
1.0
 40
1.0
 40
1.0
 40
1.0
 10
108.3505839467
 20
150.2292053442
 30
0.0
 10
108.3573713858
 20
150.2327439919
 30
0.0
 10
108.3759406538
 20
150.2386604968
 30
0.0
 10
108.410128635
 20
150.2462737975
 30
0.0
 10
108.4568058248
 20
150.2539578377
 30
0.0
 10
108.5158049374
 20
150.2617613063
 30
0.0
 10
108.5871425368
 20
150.2696003555
 30
0.0
 10
108.7065389671
 20
150.2808370854
 30
0.0
 10
108.8857750713
 20
150.2944568759
 30
0.0
 10
109.1360829286
 20
150.3100768695
 30
0.0
 10
109.4322776515
 20
150.32576661
 30
0.0
 10
109.7726407732
 20
150.3415094746
 30
0.0
 10
110.0141202338
 20
150.351466695
 30
0.0
 10
110.1418842761
 20
150.3565005905
 30
0.0
  0
SPLINE
  5
434
100
AcDbEntity
  8
0
100
AcDbSpline
 62
7
  6
CONTINUOUS
 70
0
 71
3
 72
25
 73
21
 74
0
 42
0.0000001
 43
0.0000001
 44
0.0000000001
 40
0.0
 40
0.0
 40
0.0
 40
0.0
 40
0.0016162819
 40
0.0037520593
 40
0.0096215263
 40
0.0176431184
 40
0.0278180834
 40
0.0401344785
 40
0.0545685362
 40
0.0896799645
 40
0.132874684
 40
0.1838050936
 40
0.2420513269
 40
0.3071359458
 40
0.3785242799
 40
0.4556252077
 40
0.5378051526
 40
0.6243873812
 40
0.807853082
 40
1.0
 40
1.0
 40
1.0
 40
1.0
 10
109.1514821443
 20
150.6465997501
 30
0.0
 10
109.1551401098
 20
150.6485072217
 30
0.0
 10
109.1640619585
 20
150.6520865658
 30
0.0
 10
109.1875958365
 20
150.6591328994
 30
0.0
 10
109.2277322416
 20
150.667356872
 30
0.0
 10
109.2884338483
 20
150.6767458766
 30
0.0
 10
109.3657554031
 20
150.6861958287
 30
0.0
 10
109.4595231645
 20
150.6957272931
 30
0.0
 10
109.616833812
 20
150.7093873376
 30
0.0
 10
109.8529795754
 20
150.7259287609
 30
0.0
 10
110.1823030481
 20
150.7449055041
 30
0.0
 10
110.5707550577
 20
150.7639646466
 30
0.0
 10
111.0151328501
 20
150.783096297
 30
0.0
 10
111.5117691366
 20
150.8022677795
 30
0.0
 10
112.0565616249
 20
150.8214684603
 30
0.0
 10
112.6450126948
 20
150.8406901303
 30
0.0
 10
113.2722636997
 20
150.8599270024
 30
0.0
 10
114.1709160557
 20
150.8860966661
 30
0.0
 10
115.3501907931
 20
150.918343735
 30
0.0
 10
116.3085836917
 20
150.9434131372
 30
0.0
 10
116.7988573246
 20
150.9561636594
 30
0.0
  0
SPLINE
  5
435
100
AcDbEntity
  8
0
100
AcDbSpline
 62
7
  6
CONTINUOUS
 70
0
 71
3
 72
15
 73
11
 74
0
 42
0.0000001
 43
0.0000001
 44
0.0000000001
 40
0.0
 40
0.0
 40
0.0
 40
0.0
 40
0.1257074555
 40
0.2508731029
 40
0.375574375
 40
0.5000000233
 40
0.6244256674
 40
0.7491269306
 40
0.874292556
 40
1.0
 40
1.0
 40
1.0
 40
1.0
 10
121.3413094972
 20
160.853935539
 30
0.0
 10
121.1791113314
 20
160.9080015942
 30
0.0
 10
120.8523569997
 20
161.0071013786
 30
0.0
 10
120.3540777201
 20
161.1216782648
 30
0.0
 10
119.8495601245
 20
161.1944861321
 30
0.0
 10
119.3413094084
 20
161.219538618
 30
0.0
 10
118.8330587065
 20
161.1944860996
 30
0.0
 10
118.3285411601
 20
161.1216782306
 30
0.0
 10
117.8302619356
 20
161.0071013627
 30
0.0
 10
117.5035076481
 20
160.9080015893
 30
0.0
 10
117.3413094972
 20
160.853935539
 30
0.0
  0
LINE
  5
436
100
AcDbEntity
  8
0
100
AcDbLine
 62
7
  6
CONTINUOUS
 10
116.5480478561
 20
158.8565005905
 11
116.5558149326
 21
158.9307567661
  0
SPLINE
  5
437
100
AcDbEntity
  8
0
100
AcDbSpline
 62
7
  6
CONTINUOUS
 70
0
 71
3
 72
9
 73
5
 74
0
 42
0.0000001
 43
0.0000001
 44
0.0000000001
 40
0.0
 40
0.0
 40
0.0
 40
0.0
 40
0.253023751
 40
1.0
 40
1.0
 40
1.0
 40
1.0
 10
117.3413094972
 20
159.0565005905
 30
0.0
 10
117.4011199335
 20
159.0393679465
 30
0.0
 10
117.6377614503
 20
158.9725646494
 30
0.0
 10
117.8748894293
 20
158.9074752566
 30
0.0
 10
118.0513478589
 20
158.8565005905
 30
0.0
  0
SPLINE
  5
438
100
AcDbEntity
  8
0
100
AcDbSpline
 62
7
  6
CONTINUOUS
 70
0
 71
3
 72
11
 73
7
 74
0
 42
0.0000001
 43
0.0000001
 44
0.0000000001
 40
0.0
 40
0.0
 40
0.0
 40
0.0
 40
0.2514178059
 40
0.5017501979
 40
0.7511495642
 40
1.0
 40
1.0
 40
1.0
 40
1.0
 10
113.3413094972
 20
163.6992350006
 30
0.0
 10
113.5035095808
 20
163.7533016952
 30
0.0
 10
113.8302643211
 20
163.8524024085
 30
0.0
 10
114.3285549593
 20
163.9669776511
 30
0.0
 10
114.8330325479
 20
164.0397885698
 30
0.0
 10
115.1720815092
 20
164.0565005906
 30
0.0
 10
115.3413094978
 20
164.0565005905
 30
0.0
  0
SPLINE
  5
439
100
AcDbEntity
  8
0
100
AcDbSpline
 62
7
  6
CONTINUOUS
 70
0
 71
3
 72
11
 73
7
 74
0
 42
0.0000001
 43
0.0000001
 44
0.0000000001
 40
0.0
 40
0.0
 40
0.0
 40
0.0
 40
0.2488504827
 40
0.4982499007
 40
0.7485823605
 40
1.0
 40
1.0
 40
1.0
 40
1.0
 10
115.3413094978
 20
164.0565005905
 30
0.0
 10
115.5105375182
 20
164.0565005905
 30
0.0
 10
115.8495865483
 20
164.0397885814
 30
0.0
 10
116.3540642394
 20
163.9669775838
 30
0.0
 10
116.8523548502
 20
163.8524023705
 30
0.0
 10
117.1791095211
 20
163.7533016593
 30
0.0
 10
117.3413094972
 20
163.6992350006
 30
0.0
  0
SPLINE
  5
43A
100
AcDbEntity
  8
0
100
AcDbSpline
 62
7
  6
CONTINUOUS
 70
0
 71
3
 72
15
 73
11
 74
0
 42
0.0000001
 43
0.0000001
 44
0.0000000001
 40
0.0
 40
0.0
 40
0.0
 40
0.0
 40
0.1257074555
 40
0.2508731029
 40
0.375574375
 40
0.5000000233
 40
0.6244256674
 40
0.7491269306
 40
0.874292556
 40
1.0
 40
1.0
 40
1.0
 40
1.0
 10
117.3413094972
 20
160.853935539
 30
0.0
 10
117.1791113314
 20
160.9080015942
 30
0.0
 10
116.8523569997
 20
161.0071013786
 30
0.0
 10
116.3540777201
 20
161.1216782648
 30
0.0
 10
115.8495601245
 20
161.1944861321
 30
0.0
 10
115.3413094084
 20
161.219538618
 30
0.0
 10
114.8330587065
 20
161.1944860996
 30
0.0
 10
114.3285411601
 20
161.1216782306
 30
0.0
 10
113.8302619356
 20
161.0071013627
 30
0.0
 10
113.5035076481
 20
160.9080015893
 30
0.0
 10
113.3413094972
 20
160.853935539
 30
0.0
  0
SPLINE
  5
43B
100
AcDbEntity
  8
0
100
AcDbSpline
 62
7
  6
CONTINUOUS
 70
0
 71
3
 72
11
 73
7
 74
0
 42
0.0000001
 43
0.0000001
 44
0.0000000001
 40
0.0
 40
0.0
 40
0.0
 40
0.0
 40
0.2514175677
 40
0.5017500004
 40
0.7511494403
 40
1.0
 40
1.0
 40
1.0
 40
1.0
 10
117.3413094972
 20
163.6992350006
 30
0.0
 10
117.503509427
 20
163.7533016439
 30
0.0
 10
117.8302640317
 20
163.8524023425
 30
0.0
 10
118.3285545901
 20
163.9669775475
 30
0.0
 10
118.8330323247
 20
164.03978859
 30
0.0
 10
119.1720814236
 20
164.0565005905
 30
0.0
 10
119.3413094964
 20
164.0565005905
 30
0.0
  0
SPLINE
  5
43C
100
AcDbEntity
  8
0
100
AcDbSpline
 62
7
  6
CONTINUOUS
 70
0
 71
3
 72
11
 73
7
 74
0
 42
0.0000001
 43
0.0000001
 44
0.0000000001
 40
0.0
 40
0.0
 40
0.0
 40
0.0
 40
0.2488505601
 40
0.4982499613
 40
0.7485822917
 40
1.0
 40
1.0
 40
1.0
 40
1.0
 10
119.3413094964
 20
164.0565005905
 30
0.0
 10
119.5105375697
 20
164.0565005906
 30
0.0
 10
119.8495866421
 20
164.0397885872
 30
0.0
 10
120.3540642878
 20
163.9669775908
 30
0.0
 10
120.852354843
 20
163.8524023688
 30
0.0
 10
121.1791094763
 20
163.7533016742
 30
0.0
 10
121.3413094972
 20
163.6992350006
 30
0.0
  0
SPLINE
  5
43D
100
AcDbEntity
  8
0
100
AcDbSpline
 62
7
  6
CONTINUOUS
 70
0
 71
3
 72
8
 73
4
 74
0
 42
0.0000001
 43
0.0000001
 44
0.0000000001
 40
0.0
 40
0.0
 40
0.0
 40
0.0
 40
1.0
 40
1.0
 40
1.0
 40
1.0
 10
154.8413094972
 20
175.1931756325
 30
0.0
 10
154.8413094972
 20
175.0807943995
 30
0.0
 10
154.8458958699
 20
174.9681057917
 30
0.0
 10
154.8590799741
 20
174.8565005905
 30
0.0
  0
SPLINE
  5
43E
100
AcDbEntity
  8
0
100
AcDbSpline
 62
7
  6
CONTINUOUS
 70
0
 71
3
 72
8
 73
4
 74
0
 42
0.0000001
 43
0.0000001
 44
0.0000000001
 40
0.0
 40
0.0
 40
0.0
 40
0.0
 40
1.0
 40
1.0
 40
1.0
 40
1.0
 10
154.8590799741
 20
177.8565005905
 30
0.0
 10
154.8458958699
 20
177.7448953894
 30
0.0
 10
154.8413094972
 20
177.6322067816
 30
0.0
 10
154.8413094972
 20
177.5198255486
 30
0.0
  0
SPLINE
  5
43F
100
AcDbEntity
  8
0
100
AcDbSpline
 62
7
  6
CONTINUOUS
 70
0
 71
3
 72
13
 73
9
 74
0
 42
0.0000001
 43
0.0000001
 44
0.0000000001
 40
0.0
 40
0.0
 40
0.0
 40
0.0
 40
0.2499550496
 40
0.3749776732
 40
0.5000000082
 40
0.625022342
 40
0.7500449632
 40
1.0
 40
1.0
 40
1.0
 40
1.0
 10
80.3229338242
 20
66.8122286805
 30
0.0
 10
80.6825575246
 20
68.2746861135
 30
0.0
 10
81.1200662195
 20
70.4973343016
 30
0.0
 10
81.4255926328
 20
73.496172333
 30
0.0
 10
81.5036552022
 20
75.7565007319
 30
0.0
 10
81.4255926137
 20
78.0168291161
 30
0.0
 10
81.1200661845
 20
81.0156670457
 30
0.0
 10
80.6825575062
 20
83.2383151428
 30
0.0
 10
80.3229338242
 20
84.7007725005
 30
0.0
  0
SPLINE
  5
440
100
AcDbEntity
  8
0
100
AcDbSpline
 62
7
  6
CONTINUOUS
 70
0
 71
3
 72
15
 73
11
 74
0
 42
0.0000001
 43
0.0000001
 44
0.0000000001
 40
0.0
 40
0.0
 40
0.0
 40
0.0
 40
0.1294224346
 40
0.2553714476
 40
0.378492081
 40
0.500000008
 40
0.6215079338
 40
0.7446285653
 40
0.8705775688
 40
1.0
 40
1.0
 40
1.0
 40
1.0
 10
80.3229338242
 20
54.8298819636
 30
0.0
 10
80.5002908858
 20
55.1905049603
 30
0.0
 10
80.8226875693
 20
55.9162725011
 30
0.0
 10
81.1929313595
 20
57.0340388452
 30
0.0
 10
81.4247744122
 20
58.1642717397
 30
0.0
 10
81.5038901038
 20
59.3020179898
 30
0.0
 10
81.4247743926
 20
60.4397642323
 30
0.0
 10
81.1929313296
 20
61.5699970845
 30
0.0
 10
80.8226875457
 20
62.6877633812
 30
0.0
 10
80.5002908811
 20
63.4135308866
 30
0.0
 10
80.3229338242
 20
63.7741538736
 30
0.0
  0
SPLINE
  5
441
100
AcDbEntity
  8
0
100
AcDbSpline
 62
7
  6
CONTINUOUS
 70
0
 71
3
 72
15
 73
11
 74
0
 42
0.0000001
 43
0.0000001
 44
0.0000000001
 40
0.0
 40
0.0
 40
0.0
 40
0.0
 40
0.1294224346
 40
0.2553714476
 40
0.378492081
 40
0.500000008
 40
0.6215079338
 40
0.7446285653
 40
0.8705775688
 40
1.0
 40
1.0
 40
1.0
 40
1.0
 10
80.3229338242
 20
87.7388473074
 30
0.0
 10
80.5002908858
 20
88.0994703041
 30
0.0
 10
80.8226875693
 20
88.8252378449
 30
0.0
 10
81.1929313595
 20
89.943004189
 30
0.0
 10
81.4247744122
 20
91.0732370835
 30
0.0
 10
81.5038901038
 20
92.2109833336
 30
0.0
 10
81.4247743926
 20
93.3487295761
 30
0.0
 10
81.1929313296
 20
94.4789624283
 30
0.0
 10
80.8226875457
 20
95.596728725
 30
0.0
 10
80.5002908811
 20
96.3224962304
 30
0.0
 10
80.3229338242
 20
96.6831192174
 30
0.0
  0
SPLINE
  5
442
100
AcDbEntity
  8
0
100
AcDbSpline
 62
7
  6
CONTINUOUS
 70
0
 71
3
 72
15
 73
11
 74
0
 42
0.0000001
 43
0.0000001
 44
0.0000000001
 40
0.0
 40
0.0
 40
0.0
 40
0.0
 40
0.1295246657
 40
0.2555052635
 40
0.3785833317
 40
0.4999998334
 40
0.6214166057
 40
0.7444946539
 40
0.8704751604
 40
1.0
 40
1.0
 40
1.0
 40
1.0
 10
70.6305534488
 20
96.6831192174
 30
0.0
 10
70.450998416
 20
96.3227345068
 30
0.0
 10
70.1243499006
 20
95.5974430992
 30
0.0
 10
69.748555741
 20
94.4798171081
 30
0.0
 10
69.5129075083
 20
93.3493117123
 30
0.0
 10
69.4324237989
 20
92.2109839806
 30
0.0
 10
69.5129071761
 20
91.0726562571
 30
0.0
 10
69.7485555492
 20
89.9421503887
 30
0.0
 10
70.1243494947
 20
88.8245241294
 30
0.0
 10
70.4509981027
 20
88.0992324659
 30
0.0
 10
70.6305534488
 20
87.7388473074
 30
0.0
  0
SPLINE
  5
443
100
AcDbEntity
  8
0
100
AcDbSpline
 62
7
  6
CONTINUOUS
 70
0
 71
3
 72
9
 73
5
 74
0
 42
0.0000001
 43
0.0000001
 44
0.0000000001
 40
0.0
 40
0.0
 40
0.0
 40
0.0
 40
0.5238034733
 40
1.0
 40
1.0
 40
1.0
 40
1.0
 10
70.6138303586
 20
87.7379760864
 30
0.0
 10
70.5614832348
 20
87.732438674
 30
0.0
 10
70.4627565757
 20
87.702821316
 30
0.0
 10
70.3817663689
 20
87.6368897017
 30
0.0
 10
70.3540227374
 20
87.5978975352
 30
0.0
  0
SPLINE
  5
444
100
AcDbEntity
  8
0
100
AcDbSpline
 62
7
  6
CONTINUOUS
 70
0
 71
3
 72
15
 73
11
 74
0
 42
0.0000001
 43
0.0000001
 44
0.0000000001
 40
0.0
 40
0.0
 40
0.0
 40
0.0
 40
0.1289414705
 40
0.2544797382
 40
0.3773190323
 40
0.4987246033
 40
0.6203279775
 40
0.7437226155
 40
0.8700812608
 40
1.0
 40
1.0
 40
1.0
 40
1.0
 10
70.3540227374
 20
96.5391593571
 30
0.0
 10
70.1765555461
 20
96.1803903969
 30
0.0
 10
69.8539583742
 20
95.4579862824
 30
0.0
 10
69.4837038533
 20
94.3444046624
 30
0.0
 10
69.2520199468
 20
93.2169857363
 30
0.0
 10
69.1730873123
 20
92.0804608175
 30
0.0
 10
69.252260591
 20
90.9422446903
 30
0.0
 10
69.4840228347
 20
89.80990209
 30
0.0
 10
69.8541896173
 20
88.6886408667
 30
0.0
 10
70.1765968077
 20
87.9600681108
 30
0.0
 10
70.3540227374
 20
87.5978975352
 30
0.0
  0
SPLINE
  5
445
100
AcDbEntity
  8
0
100
AcDbSpline
 62
7
  6
CONTINUOUS
 70
0
 71
3
 72
9
 73
5
 74
0
 42
0.0000001
 43
0.0000001
 44
0.0000000001
 40
0.0
 40
0.0
 40
0.0
 40
0.0
 40
0.5062017603
 40
1.0
 40
1.0
 40
1.0
 40
1.0
 10
70.6138303586
 20
96.6832077984
 30
0.0
 10
70.5619431583
 20
96.6837656871
 30
0.0
 10
70.4572040234
 20
96.6580177774
 30
0.0
 10
70.3798531208
 20
96.5826914934
 30
0.0
 10
70.3540227374
 20
96.5391593571
 30
0.0
  0
SPLINE
  5
446
100
AcDbEntity
  8
0
100
AcDbSpline
 62
7
  6
CONTINUOUS
 70
0
 71
3
 72
13
 73
9
 74
0
 42
0.0000001
 43
0.0000001
 44
0.0000000001
 40
0.0
 40
0.0
 40
0.0
 40
0.0
 40
0.2499547248
 40
0.3749776107
 40
0.5
 40
0.6250223893
 40
0.7500452751
 40
1.0
 40
1.0
 40
1.0
 40
1.0
 10
70.6305534488
 20
84.7007725005
 30
0.0
 10
70.2663979535
 20
83.2389806161
 30
0.0
 10
69.8225064097
 20
81.0167978027
 30
0.0
 10
69.5120471979
 20
78.0175127202
 30
0.0
 10
69.4326711855
 20
75.756500591
 30
0.0
 10
69.5120471915
 20
73.4954884591
 30
0.0
 10
69.8225064446
 20
70.496203387
 30
0.0
 10
70.2663978049
 20
68.274020528
 30
0.0
 10
70.6305534488
 20
66.8122286805
 30
0.0
  0
SPLINE
  5
447
100
AcDbEntity
  8
0
100
AcDbSpline
 62
7
  6
CONTINUOUS
 70
0
 71
3
 72
10
 73
6
 74
0
 42
0.0000001
 43
0.0000001
 44
0.0000000001
 40
0.0
 40
0.0
 40
0.0
 40
0.0
 40
0.5792380886
 40
0.8161885597
 40
1.0
 40
1.0
 40
1.0
 40
1.0
 10
70.6138303586
 20
66.8112688789
 30
0.0
 10
70.5637901896
 20
66.8054374731
 30
0.0
 10
70.4926468285
 20
66.8007242634
 30
0.0
 10
70.4057530614
 20
66.8051819212
 30
0.0
 10
70.3694180647
 20
66.8109302017
 30
0.0
 10
70.3540227374
 20
66.8152387639
 30
0.0
  0
SPLINE
  5
448
100
AcDbEntity
  8
0
100
AcDbSpline
 62
7
  6
CONTINUOUS
 70
0
 71
3
 72
13
 73
9
 74
0
 42
0.0000001
 43
0.0000001
 44
0.0000000001
 40
0.0
 40
0.0
 40
0.0
 40
0.0
 40
0.2499550138
 40
0.3749776804
 40
0.5
 40
0.6250223196
 40
0.7500449862
 40
1.0
 40
1.0
 40
1.0
 40
1.0
 10
70.3540227374
 20
84.6977624096
 30
0.0
 10
69.9942019237
 20
83.2358619739
 30
0.0
 10
69.5566834696
 20
81.0139497668
 30
0.0
 10
69.251324027
 20
78.0160884172
 30
0.0
 10
69.1733213219
 20
75.7565005871
 30
0.0
 10
69.2513240241
 20
73.4969127555
 30
0.0
 10
69.5566834899
 20
70.4990514116
 30
0.0
 10
69.9942018438
 20
68.27713918
 30
0.0
 10
70.3540227374
 20
66.8152387639
 30
0.0
  0
SPLINE
  5
449
100
AcDbEntity
  8
0
100
AcDbSpline
 62
7
  6
CONTINUOUS
 70
0
 71
3
 72
10
 73
6
 74
0
 42
0.0000001
 43
0.0000001
 44
0.0000000001
 40
0.0
 40
0.0
 40
0.0
 40
0.0
 40
0.579238062
 40
0.8161885294
 40
1.0
 40
1.0
 40
1.0
 40
1.0
 10
70.6138303586
 20
84.7017323027
 30
0.0
 10
70.5637901909
 20
84.7075637093
 30
0.0
 10
70.492646834
 20
84.7122769308
 30
0.0
 10
70.4057530605
 20
84.7078192907
 30
0.0
 10
70.3694180674
 20
84.7020709733
 30
0.0
 10
70.3540227374
 20
84.6977624096
 30
0.0
  0
SPLINE
  5
44A
100
AcDbEntity
  8
0
100
AcDbSpline
 62
7
  6
CONTINUOUS
 70
0
 71
3
 72
15
 73
11
 74
0
 42
0.0000001
 43
0.0000001
 44
0.0000000001
 40
0.0
 40
0.0
 40
0.0
 40
0.0
 40
0.1295248395
 40
0.2555053461
 40
0.3785833943
 40
0.5000001665
 40
0.6214166683
 40
0.7444947365
 40
0.8704753342
 40
1.0
 40
1.0
 40
1.0
 40
1.0
 10
70.6305534488
 20
63.7741538736
 30
0.0
 10
70.4509981743
 20
63.4137686799
 30
0.0
 10
70.1243494683
 20
62.6884770657
 30
0.0
 10
69.7485555544
 20
61.5708507893
 30
0.0
 10
69.5129071751
 20
60.4403449248
 30
0.0
 10
69.432423799
 20
59.3020172001
 30
0.0
 10
69.5129075091
 20
58.1636894694
 30
0.0
 10
69.7485557371
 20
57.0331840707
 30
0.0
 10
70.12434992
 20
55.9155580921
 30
0.0
 10
70.450998365
 20
55.190266649
 30
0.0
 10
70.6305534488
 20
54.8298819636
 30
0.0
  0
SPLINE
  5
44B
100
AcDbEntity
  8
0
100
AcDbSpline
 62
7
  6
CONTINUOUS
 70
0
 71
3
 72
9
 73
5
 74
0
 42
0.0000001
 43
0.0000001
 44
0.0000000001
 40
0.0
 40
0.0
 40
0.0
 40
0.0
 40
0.5062017777
 40
1.0
 40
1.0
 40
1.0
 40
1.0
 10
70.6138303586
 20
54.8297933827
 30
0.0
 10
70.5619431567
 20
54.8292354941
 30
0.0
 10
70.4572040232
 20
54.8549834076
 30
0.0
 10
70.3798531202
 20
54.9303096891
 30
0.0
 10
70.3540227374
 20
54.9738418235
 30
0.0
  0
SPLINE
  5
44C
100
AcDbEntity
  8
0
100
AcDbSpline
 62
7
  6
CONTINUOUS
 70
0
 71
3
 72
15
 73
11
 74
0
 42
0.0000001
 43
0.0000001
 44
0.0000000001
 40
0.0
 40
0.0
 40
0.0
 40
0.0
 40
0.129918739
 40
0.2562773844
 40
0.3796720224
 40
0.5012753966
 40
0.6226809678
 40
0.7455202619
 40
0.8710585296
 40
1.0
 40
1.0
 40
1.0
 40
1.0
 10
70.3540227374
 20
63.9151036379
 30
0.0
 10
70.1765968522
 20
63.5529330417
 30
0.0
 10
69.8541895974
 20
62.8243603187
 30
0.0
 10
69.4840228373
 20
61.7030990851
 30
0.0
 10
69.2522605898
 20
60.5707564876
 30
0.0
 10
69.1730873125
 20
59.4325403597
 30
0.0
 10
69.2520199476
 20
58.2960154416
 30
0.0
 10
69.4837038524
 20
57.1685965144
 30
0.0
 10
69.8539583842
 20
56.0550149012
 30
0.0
 10
70.1765555229
 20
55.3326107712
 30
0.0
 10
70.3540227374
 20
54.9738418235
 30
0.0
  0
SPLINE
  5
44D
100
AcDbEntity
  8
0
100
AcDbSpline
 62
7
  6
CONTINUOUS
 70
0
 71
3
 72
9
 73
5
 74
0
 42
0.0000001
 43
0.0000001
 44
0.0000000001
 40
0.0
 40
0.0
 40
0.0
 40
0.0
 40
0.5238034934
 40
1.0
 40
1.0
 40
1.0
 40
1.0
 10
70.6138303586
 20
63.7750250951
 30
0.0
 10
70.561483235
 20
63.7805625086
 30
0.0
 10
70.462756595
 20
63.8101798966
 30
0.0
 10
70.3817663666
 20
63.8761114747
 30
0.0
 10
70.3540227374
 20
63.9151036379
 30
0.0
  0
SPLINE
  5
44E
100
AcDbEntity
  8
0
100
AcDbSpline
 62
7
  6
CONTINUOUS
 70
0
 71
3
 72
15
 73
11
 74
0
 42
0.0000001
 43
0.0000001
 44
0.0000000001
 40
0.0
 40
0.0
 40
0.0
 40
0.0
 40
0.1294224346
 40
0.2553714476
 40
0.378492081
 40
0.500000008
 40
0.6215079338
 40
0.7446285653
 40
0.8705775688
 40
1.0
 40
1.0
 40
1.0
 40
1.0
 10
154.3596851701
 20
63.7741538736
 30
0.0
 10
154.1823281085
 20
63.413530877
 30
0.0
 10
153.859931425
 20
62.6877633361
 30
0.0
 10
153.4896876348
 20
61.5699969921
 30
0.0
 10
153.2578445821
 20
60.4397640976
 30
0.0
 10
153.1787288905
 20
59.3020178474
 30
0.0
 10
153.2578446017
 20
58.164271605
 30
0.0
 10
153.4896876647
 20
57.0340387527
 30
0.0
 10
153.8599314487
 20
55.9162724561
 30
0.0
 10
154.1823281132
 20
55.1905049507
 30
0.0
 10
154.3596851701
 20
54.8298819636
 30
0.0
  0
SPLINE
  5
44F
100
AcDbEntity
  8
0
100
AcDbSpline
 62
7
  6
CONTINUOUS
 70
0
 71
3
 72
13
 73
9
 74
0
 42
0.0000001
 43
0.0000001
 44
0.0000000001
 40
0.0
 40
0.0
 40
0.0
 40
0.0
 40
0.2499550496
 40
0.3749776732
 40
0.5000000082
 40
0.625022342
 40
0.7500449632
 40
1.0
 40
1.0
 40
1.0
 40
1.0
 10
154.3596851701
 20
84.7007725005
 30
0.0
 10
154.0000614697
 20
83.2383150676
 30
0.0
 10
153.5625527748
 20
81.0156668794
 30
0.0
 10
153.2570263615
 20
78.0168288481
 30
0.0
 10
153.1789637921
 20
75.7565004492
 30
0.0
 10
153.2570263807
 20
73.4961720649
 30
0.0
 10
153.5625528098
 20
70.4973341353
 30
0.0
 10
154.0000614882
 20
68.2746860382
 30
0.0
 10
154.3596851701
 20
66.8122286805
 30
0.0
  0
SPLINE
  5
450
100
AcDbEntity
  8
0
100
AcDbSpline
 62
7
  6
CONTINUOUS
 70
0
 71
3
 72
15
 73
11
 74
0
 42
0.0000001
 43
0.0000001
 44
0.0000000001
 40
0.0
 40
0.0
 40
0.0
 40
0.0
 40
0.1294224346
 40
0.2553714476
 40
0.378492081
 40
0.500000008
 40
0.6215079338
 40
0.7446285653
 40
0.8705775688
 40
1.0
 40
1.0
 40
1.0
 40
1.0
 10
154.3596851701
 20
96.6831192174
 30
0.0
 10
154.1823281085
 20
96.3224962208
 30
0.0
 10
153.859931425
 20
95.5967286799
 30
0.0
 10
153.4896876348
 20
94.4789623359
 30
0.0
 10
153.2578445821
 20
93.3487294414
 30
0.0
 10
153.1787288905
 20
92.2109831913
 30
0.0
 10
153.2578446017
 20
91.0732369488
 30
0.0
 10
153.4896876647
 20
89.9430040966
 30
0.0
 10
153.8599314487
 20
88.8252377999
 30
0.0
 10
154.1823281132
 20
88.0994702945
 30
0.0
 10
154.3596851701
 20
87.7388473074
 30
0.0
  0
SPLINE
  5
451
100
AcDbEntity
  8
0
100
AcDbSpline
 62
7
  6
CONTINUOUS
 70
0
 71
3
 72
15
 73
11
 74
0
 42
0.0000001
 43
0.0000001
 44
0.0000000001
 40
0.0
 40
0.0
 40
0.0
 40
0.0
 40
0.1295246657
 40
0.2555052635
 40
0.3785833317
 40
0.4999998334
 40
0.6214166057
 40
0.7444946539
 40
0.8704751604
 40
1.0
 40
1.0
 40
1.0
 40
1.0
 10
164.0520655455
 20
54.8298819636
 30
0.0
 10
164.2316205783
 20
55.1902666742
 30
0.0
 10
164.5582690937
 20
55.9155580819
 30
0.0
 10
164.9340632533
 20
57.0331840729
 30
0.0
 10
165.169711486
 20
58.1636894687
 30
0.0
 10
165.2501951954
 20
59.3020172005
 30
0.0
 10
165.1697118182
 20
60.440344924
 30
0.0
 10
164.9340634452
 20
61.5708507924
 30
0.0
 10
164.5582694996
 20
62.6884770516
 30
0.0
 10
164.2316208916
 20
63.4137687152
 30
0.0
 10
164.0520655455
 20
63.7741538736
 30
0.0
  0
SPLINE
  5
452
100
AcDbEntity
  8
0
100
AcDbSpline
 62
7
  6
CONTINUOUS
 70
0
 71
3
 72
9
 73
5
 74
0
 42
0.0000001
 43
0.0000001
 44
0.0000000001
 40
0.0
 40
0.0
 40
0.0
 40
0.0
 40
0.5238034733
 40
1.0
 40
1.0
 40
1.0
 40
1.0
 10
164.0687886358
 20
63.7750250946
 30
0.0
 10
164.1211357595
 20
63.7805625071
 30
0.0
 10
164.2198624186
 20
63.8101798651
 30
0.0
 10
164.3008526255
 20
63.8761114794
 30
0.0
 10
164.3285962569
 20
63.9151036458
 30
0.0
  0
SPLINE
  5
453
100
AcDbEntity
  8
0
100
AcDbSpline
 62
7
  6
CONTINUOUS
 70
0
 71
3
 72
15
 73
11
 74
0
 42
0.0000001
 43
0.0000001
 44
0.0000000001
 40
0.0
 40
0.0
 40
0.0
 40
0.0
 40
0.1289414705
 40
0.2544797382
 40
0.3773190323
 40
0.4987246033
 40
0.6203279775
 40
0.7437226155
 40
0.8700812608
 40
1.0
 40
1.0
 40
1.0
 40
1.0
 10
164.3285962569
 20
54.973841824
 30
0.0
 10
164.5060634482
 20
55.3326107841
 30
0.0
 10
164.8286606202
 20
56.0550148986
 30
0.0
 10
165.198915141
 20
57.1685965187
 30
0.0
 10
165.4305990475
 20
58.2960154448
 30
0.0
 10
165.509531682
 20
59.4325403636
 30
0.0
 10
165.4303584033
 20
60.5707564908
 30
0.0
 10
165.1985961597
 20
61.7030990911
 30
0.0
 10
164.828429377
 20
62.8243603143
 30
0.0
 10
164.5060221866
 20
63.5529330703
 30
0.0
 10
164.3285962569
 20
63.9151036458
 30
0.0
  0
SPLINE
  5
454
100
AcDbEntity
  8
0
100
AcDbSpline
 62
7
  6
CONTINUOUS
 70
0
 71
3
 72
9
 73
5
 74
0
 42
0.0000001
 43
0.0000001
 44
0.0000000001
 40
0.0
 40
0.0
 40
0.0
 40
0.0
 40
0.5062017603
 40
1.0
 40
1.0
 40
1.0
 40
1.0
 10
164.0687886358
 20
54.8297933827
 30
0.0
 10
164.120675836
 20
54.829235494
 30
0.0
 10
164.2254149709
 20
54.8549834037
 30
0.0
 10
164.3027658735
 20
54.9303096877
 30
0.0
 10
164.3285962569
 20
54.973841824
 30
0.0
  0
SPLINE
  5
455
100
AcDbEntity
  8
0
100
AcDbSpline
 62
7
  6
CONTINUOUS
 70
0
 71
3
 72
13
 73
9
 74
0
 42
0.0000001
 43
0.0000001
 44
0.0000000001
 40
0.0
 40
0.0
 40
0.0
 40
0.0
 40
0.2499547248
 40
0.3749776107
 40
0.5
 40
0.6250223893
 40
0.7500452751
 40
1.0
 40
1.0
 40
1.0
 40
1.0
 10
164.0520655455
 20
66.8122286805
 30
0.0
 10
164.4162210408
 20
68.274020565
 30
0.0
 10
164.8601125847
 20
70.4962033784
 30
0.0
 10
165.1705717964
 20
73.4954884608
 30
0.0
 10
165.2499478088
 20
75.7565005901
 30
0.0
 10
165.1705718028
 20
78.0175127219
 30
0.0
 10
164.8601125497
 20
81.016797794
 30
0.0
 10
164.4162211895
 20
83.2389806531
 30
0.0
 10
164.0520655455
 20
84.7007725005
 30
0.0
  0
SPLINE
  5
456
100
AcDbEntity
  8
0
100
AcDbSpline
 62
7
  6
CONTINUOUS
 70
0
 71
3
 72
10
 73
6
 74
0
 42
0.0000001
 43
0.0000001
 44
0.0000000001
 40
0.0
 40
0.0
 40
0.0
 40
0.0
 40
0.5792380886
 40
0.8161885597
 40
1.0
 40
1.0
 40
1.0
 40
1.0
 10
164.0687886358
 20
84.7017323022
 30
0.0
 10
164.1188288047
 20
84.707563708
 30
0.0
 10
164.1899721658
 20
84.7122769176
 30
0.0
 10
164.2768659329
 20
84.7078192599
 30
0.0
 10
164.3132009296
 20
84.7020709794
 30
0.0
 10
164.3285962569
 20
84.6977624172
 30
0.0
  0
SPLINE
  5
457
100
AcDbEntity
  8
0
100
AcDbSpline
 62
7
  6
CONTINUOUS
 70
0
 71
3
 72
13
 73
9
 74
0
 42
0.0000001
 43
0.0000001
 44
0.0000000001
 40
0.0
 40
0.0
 40
0.0
 40
0.0
 40
0.2499550138
 40
0.3749776804
 40
0.5
 40
0.6250223196
 40
0.7500449862
 40
1.0
 40
1.0
 40
1.0
 40
1.0
 10
164.3285962569
 20
66.8152387715
 30
0.0
 10
164.6884170706
 20
68.2771392072
 30
0.0
 10
165.1259355247
 20
70.4990514143
 30
0.0
 10
165.4312949673
 20
73.4969127638
 30
0.0
 10
165.5092976724
 20
75.756500594
 30
0.0
 10
165.4312949703
 20
78.0160884255
 30
0.0
 10
165.1259355044
 20
81.0139497695
 30
0.0
 10
164.6884171505
 20
83.2358620011
 30
0.0
 10
164.3285962569
 20
84.6977624172
 30
0.0
  0
SPLINE
  5
458
100
AcDbEntity
  8
0
100
AcDbSpline
 62
7
  6
CONTINUOUS
 70
0
 71
3
 72
10
 73
6
 74
0
 42
0.0000001
 43
0.0000001
 44
0.0000000001
 40
0.0
 40
0.0
 40
0.0
 40
0.0
 40
0.579238062
 40
0.8161885294
 40
1.0
 40
1.0
 40
1.0
 40
1.0
 10
164.0687886358
 20
66.8112688784
 30
0.0
 10
164.1188288034
 20
66.8054374718
 30
0.0
 10
164.1899721603
 20
66.8007242502
 30
0.0
 10
164.2768659338
 20
66.8051818903
 30
0.0
 10
164.3132009269
 20
66.8109302078
 30
0.0
 10
164.3285962569
 20
66.8152387715
 30
0.0
  0
SPLINE
  5
459
100
AcDbEntity
  8
0
100
AcDbSpline
 62
7
  6
CONTINUOUS
 70
0
 71
3
 72
15
 73
11
 74
0
 42
0.0000001
 43
0.0000001
 44
0.0000000001
 40
0.0
 40
0.0
 40
0.0
 40
0.0
 40
0.1295248395
 40
0.2555053461
 40
0.3785833943
 40
0.5000001665
 40
0.6214166683
 40
0.7444947365
 40
0.8704753342
 40
1.0
 40
1.0
 40
1.0
 40
1.0
 10
164.0520655455
 20
87.7388473074
 30
0.0
 10
164.23162082
 20
88.0992325012
 30
0.0
 10
164.558269526
 20
88.8245241154
 30
0.0
 10
164.9340634399
 20
89.9421503917
 30
0.0
 10
165.1697118192
 20
91.0726562563
 30
0.0
 10
165.2501951954
 20
92.210983981
 30
0.0
 10
165.1697114852
 20
93.3493117117
 30
0.0
 10
164.9340632572
 20
94.4798171104
 30
0.0
 10
164.5582690743
 20
95.597443089
 30
0.0
 10
164.2316206293
 20
96.3227345321
 30
0.0
 10
164.0520655455
 20
96.6831192174
 30
0.0
  0
SPLINE
  5
45A
100
AcDbEntity
  8
0
100
AcDbSpline
 62
7
  6
CONTINUOUS
 70
0
 71
3
 72
9
 73
5
 74
0
 42
0.0000001
 43
0.0000001
 44
0.0000000001
 40
0.0
 40
0.0
 40
0.0
 40
0.0
 40
0.5062017777
 40
1.0
 40
1.0
 40
1.0
 40
1.0
 10
164.0687886358
 20
96.6832077983
 30
0.0
 10
164.1206758376
 20
96.683765687
 30
0.0
 10
164.2254149711
 20
96.6580177735
 30
0.0
 10
164.3027658741
 20
96.582691492
 30
0.0
 10
164.3285962569
 20
96.5391593576
 30
0.0
  0
SPLINE
  5
45B
100
AcDbEntity
  8
0
100
AcDbSpline
 62
7
  6
CONTINUOUS
 70
0
 71
3
 72
15
 73
11
 74
0
 42
0.0000001
 43
0.0000001
 44
0.0000000001
 40
0.0
 40
0.0
 40
0.0
 40
0.0
 40
0.129918739
 40
0.2562773844
 40
0.3796720224
 40
0.5012753966
 40
0.6226809678
 40
0.7455202619
 40
0.8710585296
 40
1.0
 40
1.0
 40
1.0
 40
1.0
 10
164.3285962569
 20
87.5978975432
 30
0.0
 10
164.5060221421
 20
87.9600681394
 30
0.0
 10
164.8284293969
 20
88.6886408624
 30
0.0
 10
165.198596157
 20
89.809902096
 30
0.0
 10
165.4303584046
 20
90.9422446935
 30
0.0
 10
165.5095316819
 20
92.0804608214
 30
0.0
 10
165.4305990467
 20
93.2169857395
 30
0.0
 10
165.1989151419
 20
94.3444046667
 30
0.0
 10
164.8286606101
 20
95.4579862799
 30
0.0
 10
164.5060634715
 20
96.1803904099
 30
0.0
 10
164.3285962569
 20
96.5391593576
 30
0.0
  0
SPLINE
  5
45C
100
AcDbEntity
  8
0
100
AcDbSpline
 62
7
  6
CONTINUOUS
 70
0
 71
3
 72
9
 73
5
 74
0
 42
0.0000001
 43
0.0000001
 44
0.0000000001
 40
0.0
 40
0.0
 40
0.0
 40
0.0
 40
0.5238034934
 40
1.0
 40
1.0
 40
1.0
 40
1.0
 10
164.0687886358
 20
87.737976086
 30
0.0
 10
164.1211357593
 20
87.7324386725
 30
0.0
 10
164.2198623993
 20
87.7028212845
 30
0.0
 10
164.3008526277
 20
87.6368897063
 30
0.0
 10
164.3285962569
 20
87.5978975432
 30
0.0
  0
SPLINE
  5
45D
100
AcDbEntity
  8
0
100
AcDbSpline
 62
7
  6
CONTINUOUS
 70
0
 71
3
 72
9
 73
5
 74
0
 42
0.0000001
 43
0.0000001
 44
0.0000000001
 40
0.0
 40
0.0
 40
0.0
 40
0.0
 40
0.345863447
 40
1.0
 40
1.0
 40
1.0
 40
1.0
 10
152.3116079521
 20
58.2652989291
 30
0.0
 10
152.3122965757
 20
58.2639777601
 30
0.0
 10
152.3143380435
 20
58.2603822782
 30
0.0
 10
152.3179397507
 20
58.2565221039
 30
0.0
 10
152.3207575491
 20
58.256522393
 30
0.0
  0
SPLINE
  5
45E
100
AcDbEntity
  8
0
100
AcDbSpline
 62
7
  6
CONTINUOUS
 70
0
 71
3
 72
9
 73
5
 74
0
 42
0.0000001
 43
0.0000001
 44
0.0000000001
 40
0.0
 40
0.0
 40
0.0
 40
0.0
 40
0.3461338347
 40
1.0
 40
1.0
 40
1.0
 40
1.0
 10
150.4973209112
 20
58.2652990305
 30
0.0
 10
150.4980111032
 20
58.2639749343
 30
0.0
 10
150.5000539246
 20
58.2603750315
 30
0.0
 10
150.5036732189
 20
58.2565093409
 30
0.0
 10
150.5064938879
 20
58.2565238487
 30
0.0
  0
SPLINE
  5
45F
100
AcDbEntity
  8
0
100
AcDbSpline
 62
7
  6
CONTINUOUS
 70
0
 71
3
 72
9
 73
5
 74
0
 42
0.0000001
 43
0.0000001
 44
0.0000000001
 40
0.0
 40
0.0
 40
0.0
 40
0.0
 40
0.3458646495
 40
1.0
 40
1.0
 40
1.0
 40
1.0
 10
148.6830352405
 20
58.2652987662
 30
0.0
 10
148.6837238648
 20
58.2639775988
 30
0.0
 10
148.6857653195
 20
58.2603821362
 30
0.0
 10
148.6893670784
 20
58.2565219918
 30
0.0
 10
148.6921848596
 20
58.2565223487
 30
0.0
  0
SPLINE
  5
460
100
AcDbEntity
  8
0
100
AcDbSpline
 62
7
  6
CONTINUOUS
 70
0
 71
3
 72
9
 73
5
 74
0
 42
0.0000001
 43
0.0000001
 44
0.0000000001
 40
0.0
 40
0.0
 40
0.0
 40
0.0
 40
0.346133926
 40
1.0
 40
1.0
 40
1.0
 40
1.0
 10
151.8397454405
 20
93.2477003635
 30
0.0
 10
151.8390551976
 20
93.2490245705
 30
0.0
 10
151.837012229
 20
93.2526247636
 30
0.0
 10
151.8333927096
 20
93.2564908781
 30
0.0
 10
151.8305718117
 20
93.2564763699
 30
0.0
  0
SPLINE
  5
461
100
AcDbEntity
  8
0
100
AcDbSpline
 62
7
  6
CONTINUOUS
 70
0
 71
3
 72
9
 73
5
 74
0
 42
0.0000001
 43
0.0000001
 44
0.0000000001
 40
0.0
 40
0.0
 40
0.0
 40
0.0
 40
0.3458816702
 40
1.0
 40
1.0
 40
1.0
 40
1.0
 10
150.0254588456
 20
93.2477040471
 30
0.0
 10
150.0247701793
 20
93.2490252587
 30
0.0
 10
150.0227288084
 20
93.2526206307
 30
0.0
 10
150.0191261481
 20
93.2564805558
 30
0.0
 10
150.0163084683
 20
93.2564792463
 30
0.0
  0
SPLINE
  5
462
100
AcDbEntity
  8
0
100
AcDbSpline
 62
7
  6
CONTINUOUS
 70
0
 71
3
 72
9
 73
5
 74
0
 42
0.0000001
 43
0.0000001
 44
0.0000000001
 40
0.0
 40
0.0
 40
0.0
 40
0.0
 40
0.3461518562
 40
1.0
 40
1.0
 40
1.0
 40
1.0
 10
148.2111721823
 20
93.247702212
 30
0.0
 10
148.2104818948
 20
93.249026466
 30
0.0
 10
148.2084390164
 20
93.2526265649
 30
0.0
 10
148.2048185389
 20
93.2564924499
 30
0.0
 10
148.2019977522
 20
93.2564769322
 30
0.0
  0
SPLINE
  5
463
100
AcDbEntity
  8
0
100
AcDbSpline
 62
7
  6
CONTINUOUS
 70
0
 71
3
 72
9
 73
5
 74
0
 42
0.0000001
 43
0.0000001
 44
0.0000000001
 40
0.0
 40
0.0
 40
0.0
 40
0.0
 40
0.3458539783
 40
1.0
 40
1.0
 40
1.0
 40
1.0
 10
150.9326023267
 20
58.2652997493
 30
0.0
 10
150.9319137285
 20
58.2639785951
 30
0.0
 10
150.9298722155
 20
58.2603830361
 30
0.0
 10
150.9262710543
 20
58.2565226822
 30
0.0
 10
150.9234531849
 20
58.256522393
 30
0.0
  0
SPLINE
  5
464
100
AcDbEntity
  8
0
100
AcDbSpline
 62
7
  6
CONTINUOUS
 70
0
 71
3
 72
9
 73
5
 74
0
 42
0.0000001
 43
0.0000001
 44
0.0000000001
 40
0.0
 40
0.0
 40
0.0
 40
0.0
 40
0.3458529815
 40
1.0
 40
1.0
 40
1.0
 40
1.0
 10
147.3040297038
 20
58.2652997914
 30
0.0
 10
147.3033411104
 20
58.2639786405
 30
0.0
 10
147.3012995981
 20
58.2603830784
 30
0.0
 10
147.2976985104
 20
58.2565227056
 30
0.0
 10
147.2948806384
 20
58.2565223487
 30
0.0
  0
SPLINE
  5
465
100
AcDbEntity
  8
0
100
AcDbSpline
 62
7
  6
CONTINUOUS
 70
0
 71
3
 72
26
 73
22
 74
0
 42
0.0000001
 43
0.0000001
 44
0.0000000001
 40
0.0
 40
0.0
 40
0.0
 40
0.0
 40
0.1912254762
 40
0.3753836221
 40
0.4626831375
 40
0.5457042413
 40
0.6236804169
 40
0.6958941393
 40
0.7616762617
 40
0.8204186791
 40
0.8715809202
 40
0.91468811
 40
0.9330963607
 40
0.9493475283
 40
0.963407692
 40
0.9752453718
 40
0.9848324765
 40
0.9921536331
 40
0.9972017852
 40
0.9988773932
 40
1.0
 40
1.0
 40
1.0
 40
1.0
 10
148.2386137134
 20
75.7565005905
 30
0.0
 10
148.2570177706
 20
74.6411112553
 30
0.0
 10
148.2931444914
 20
72.4515552691
 30
0.0
 10
148.3393033507
 20
69.7528212146
 30
0.0
 10
148.3768008669
 20
67.6852584329
 30
0.0
 10
148.4044065529
 20
66.23704639
 30
0.0
 10
148.4319897147
 20
64.8768558871
 30
0.0
 10
148.4595404036
 20
63.6172527786
 30
0.0
 10
148.4870479894
 20
62.4698806534
 30
0.0
 10
148.5144858885
 20
61.4453520401
 30
0.0
 10
148.5418321026
 20
60.5531521064
 30
0.0
 10
148.5655508914
 20
59.8962527478
 30
0.0
 10
148.5849595616
 20
59.4430032118
 30
0.0
 10
148.5987159564
 20
59.1591229453
 30
0.0
 10
148.6124160032
 20
58.9136161683
 30
0.0
 10
148.6260704004
 20
58.7070655183
 30
0.0
 10
148.6395323672
 20
58.539877986
 30
0.0
 10
148.6529542316
 20
58.4125416913
 30
0.0
 10
148.6645064186
 20
58.3312745741
 30
0.0
 10
148.6748247667
 20
58.2867177923
 30
0.0
 10
148.6800082993
 20
58.2711061366
 30
0.0
 10
148.6830352405
 20
58.2652987662
 30
0.0
  0
SPLINE
  5
466
100
AcDbEntity
  8
0
100
AcDbSpline
 62
7
  6
CONTINUOUS
 70
0
 71
3
 72
26
 73
22
 74
0
 42
0.0000001
 43
0.0000001
 44
0.0000000001
 40
0.0
 40
0.0
 40
0.0
 40
0.0
 40
0.1912256467
 40
0.3753839328
 40
0.4626835171
 40
0.5457046709
 40
0.6236808635
 40
0.6958945431
 40
0.7616765316
 40
0.8204187659
 40
0.8715808257
 40
0.9146879854
 40
0.9330962355
 40
0.949347422
 40
0.9634076292
 40
0.9752453326
 40
0.9848324501
 40
0.9921536311
 40
0.9972017901
 40
0.9988773923
 40
1.0
 40
1.0
 40
1.0
 40
1.0
 10
151.8671855957
 20
75.7565005905
 30
0.0
 10
151.8855887324
 20
74.6411102535
 30
0.0
 10
151.9217172012
 20
72.4515524991
 30
0.0
 10
151.967875417
 20
69.7528162388
 30
0.0
 10
152.005373198
 20
67.6852519652
 30
0.0
 10
152.0329789306
 20
66.2370391408
 30
0.0
 10
152.0605621615
 20
64.8768485078
 30
0.0
 10
152.0881128929
 20
63.617246341
 30
0.0
 10
152.1156205055
 20
62.4698763247
 30
0.0
 10
152.1430583643
 20
61.4453506255
 30
0.0
 10
152.1704045856
 20
60.5531530009
 30
0.0
 10
152.1941233318
 20
59.8962548828
 30
0.0
 10
152.2135320319
 20
59.4430054206
 30
0.0
 10
152.227288469
 20
59.1591247979
 30
0.0
 10
152.240988529
 20
58.9136175209
 30
0.0
 10
152.2546429675
 20
58.7070664082
 30
0.0
 10
152.2681049912
 20
58.5398785245
 30
0.0
 10
152.2815268762
 20
58.4125419768
 30
0.0
 10
152.2930790445
 20
58.331274704
 30
0.0
 10
152.3033974719
 20
58.2867179262
 30
0.0
 10
152.3085810133
 20
58.271106307
 30
0.0
 10
152.3116079521
 20
58.2652989291
 30
0.0
  0
SPLINE
  5
467
100
AcDbEntity
  8
0
100
AcDbSpline
 62
7
  6
CONTINUOUS
 70
0
 71
3
 72
9
 73
5
 74
0
 42
0.0000001
 43
0.0000001
 44
0.0000000001
 40
0.0
 40
0.0
 40
0.0
 40
0.0
 40
0.186012066
 40
1.0
 40
1.0
 40
1.0
 40
1.0
 10
152.4390406864
 20
92.0970992805
 30
0.0
 10
152.4401741742
 20
92.0949235141
 30
0.0
 10
152.4454503315
 20
92.0828081553
 30
0.0
 10
152.4487109042
 20
92.0699453706
 30
0.0
 10
152.451147108
 20
92.0594897475
 30
0.0
  0
LINE
  5
468
100
AcDbEntity
  8
0
100
AcDbLine
 62
7
  6
CONTINUOUS
 10
152.451147108
 20
92.0594897475
 11
152.4548425752
 21
92.0422955086
  0
SPLINE
  5
469
100
AcDbEntity
  8
0
100
AcDbSpline
 62
7
  6
CONTINUOUS
 70
0
 71
3
 72
21
 73
17
 74
0
 42
0.0000001
 43
0.0000001
 44
0.0000000001
 40
0.0
 40
0.0
 40
0.0
 40
0.0
 40
0.0051509481
 40
0.0125026874
 40
0.0220487111
 40
0.0337664017
 40
0.0636028448
 40
0.1017247926
 40
0.1477578937
 40
0.2012421614
 40
0.2616479675
 40
0.3283742809
 40
0.478070134
 40
0.6443808281
 40
0.8206944375
 40
1.0
 40
1.0
 40
1.0
 40
1.0
 10
152.4548425752
 20
92.0422955086
 30
0.0
 10
152.4609503002
 20
92.011673586
 30
0.0
 10
152.4716108334
 20
91.9365588432
 30
0.0
 10
152.4855183514
 20
91.8036349069
 30
0.0
 10
152.4995418701
 20
91.630715162
 30
0.0
 10
152.5201427242
 20
91.3216299505
 30
0.0
 10
152.5447339878
 20
90.8392334018
 30
0.0
 10
152.5728753542
 20
90.1487874228
 30
0.0
 10
152.6011718945
 20
89.3148903558
 30
0.0
 10
152.6296254813
 20
88.3458506948
 30
0.0
 10
152.6581557005
 20
87.2513226434
 30
0.0
 10
152.6978039469
 20
85.5736563344
 30
0.0
 10
152.7462066474
 20
83.2540276328
 30
0.0
 10
152.8025945271
 20
80.2701106282
 30
0.0
 10
152.8591015268
 20
77.1066714551
 30
0.0
 10
152.8969863579
 20
74.9512378028
 30
0.0
 10
152.9163094118
 20
73.8644576471
 30
0.0
  0
SPLINE
  5
46A
100
AcDbEntity
  8
0
100
AcDbSpline
 62
7
  6
CONTINUOUS
 70
0
 71
3
 72
26
 73
22
 74
0
 42
0.0000001
 43
0.0000001
 44
0.0000000001
 40
0.0
 40
0.0
 40
0.0
 40
0.0
 40
0.1912271117
 40
0.3753893875
 40
0.4626898079
 40
0.5457099633
 40
0.6236851825
 40
0.6958978667
 40
0.7616781782
 40
0.8204189907
 40
0.8715801673
 40
0.9146874549
 40
0.9330959258
 40
0.9493471948
 40
0.9634073555
 40
0.9752450705
 40
0.9848322572
 40
0.9921534789
 40
0.9972017361
 40
0.9988774005
 40
1.0
 40
1.0
 40
1.0
 40
1.0
 10
150.0528986142
 20
75.7565005905
 30
0.0
 10
150.0713047314
 20
74.6411017609
 30
0.0
 10
150.107428923
 20
72.4515121223
 30
0.0
 10
150.1535901791
 20
69.7527392237
 30
0.0
 10
150.1910878817
 20
67.6851526284
 30
0.0
 10
150.2186937588
 20
66.2369464405
 30
0.0
 10
150.2462767547
 20
64.8767731229
 30
0.0
 10
150.2738270328
 20
63.6171922263
 30
0.0
 10
150.3013343207
 20
62.4698460989
 30
0.0
 10
150.3287714642
 20
61.4453436245
 30
0.0
 10
150.3561173513
 20
60.5531587007
 30
0.0
 10
150.379836052
 20
59.8962637055
 30
0.0
 10
150.3992446916
 20
59.4430117256
 30
0.0
 10
150.4130010968
 20
59.1591296021
 30
0.0
 10
150.4267012079
 20
58.9136220512
 30
0.0
 10
150.4403556194
 20
58.7070707372
 30
0.0
 10
150.4538175898
 20
58.539882141
 30
0.0
 10
150.4672395655
 20
58.4125443776
 30
0.0
 10
150.4787919988
 20
58.3312759606
 30
0.0
 10
150.4891102038
 20
58.2867182473
 30
0.0
 10
150.4942938479
 20
58.271106289
 30
0.0
 10
150.4973209112
 20
58.2652990305
 30
0.0
  0
SPLINE
  5
46B
100
AcDbEntity
  8
0
100
AcDbSpline
 62
7
  6
CONTINUOUS
 70
0
 71
3
 72
9
 73
5
 74
0
 42
0.0000001
 43
0.0000001
 44
0.0000000001
 40
0.0
 40
0.0
 40
0.0
 40
0.0
 40
0.1830288099
 40
1.0
 40
1.0
 40
1.0
 40
1.0
 10
150.6247541096
 20
92.0970797601
 30
0.0
 10
150.6259788071
 20
92.0947269424
 30
0.0
 10
150.6317083949
 20
92.0813819399
 30
0.0
 10
150.6351447624
 20
92.0672083359
 30
0.0
 10
150.6377350494
 20
92.0556555106
 30
0.0
  0
SPLINE
  5
46C
100
AcDbEntity
  8
0
100
AcDbSpline
 62
7
  6
CONTINUOUS
 70
0
 71
3
 72
42
 73
38
 74
0
 42
0.0000001
 43
0.0000001
 44
0.0000000001
 40
0.0
 40
0.0
 40
0.0
 40
0.0
 40
0.0026201624
 40
0.0063629194
 40
0.0112232894
 40
0.0171918077
 40
0.0324044145
 40
0.0518648212
 40
0.0753996105
 40
0.1027944643
 40
0.1337997281
 40
0.1681347541
 40
0.2455113206
 40
0.3321106403
 40
0.424782308
 40
0.5201543845
 40
0.6147569986
 40
0.6606893727
 40
0.7051481581
 40
0.7477271218
 40
0.7880389479
 40
0.8257161604
 40
0.8604145319
 40
0.8918195689
 40
0.9196437721
 40
0.9436348355
 40
0.9541235907
 40
0.9635758193
 40
0.9719687496
 40
0.9792848747
 40
0.9855086369
 40
0.9906252652
 40
0.9946255017
 40
0.9975052665
 40
0.9992681726
 40
0.9997452668
 40
1.0
 40
1.0
 40
1.0
 40
1.0
 10
150.6393663497
 20
92.0481199499
 30
0.0
 10
150.6452097883
 20
92.0201962431
 30
0.0
 10
150.65541039
 20
91.9515937838
 30
0.0
 10
150.6687054584
 20
91.8301291373
 30
0.0
 10
150.6821224344
 20
91.6720196129
 30
0.0
 10
150.7018343831
 20
91.3891620194
 30
0.0
 10
150.7253579473
 20
90.9472529501
 30
0.0
 10
150.7522799484
 20
90.3140513275
 30
0.0
 10
150.7793480628
 20
89.5481098139
 30
0.0
 10
150.806565904
 20
88.6564087212
 30
0.0
 10
150.8338593806
 20
87.6470672279
 30
0.0
 10
150.8718483239
 20
86.0936163258
 30
0.0
 10
150.9182408233
 20
83.9348835138
 30
0.0
 10
150.9722282697
 20
81.1410023229
 30
0.0
 10
151.0263411173
 20
78.1511527406
 30
0.0
 10
151.0805179291
 20
75.0741503493
 30
0.0
 10
151.12608254
 20
72.5059767066
 30
0.0
 10
151.1630448973
 20
70.4920866744
 30
0.0
 10
151.1904855882
 20
69.0445557726
 30
0.0
 10
151.2179137306
 20
67.6582330522
 30
0.0
 10
151.2453238418
 20
66.3457634756
 30
0.0
 10
151.2727080919
 20
65.1191177285
 30
0.0
 10
151.3000597033
 20
63.9894750933
 30
0.0
 10
151.3273559093
 20
62.9671455125
 30
0.0
 10
151.3545866623
 20
62.061442569
 30
0.0
 10
151.3781038058
 20
61.3834742757
 30
0.0
 10
151.3972571881
 20
60.9055201832
 30
0.0
 10
151.4109501971
 20
60.5973217805
 30
0.0
 10
151.4246210616
 20
60.3236997395
 30
0.0
 10
151.438247194
 20
60.0852894215
 30
0.0
 10
151.4518320443
 20
59.8825770128
 30
0.0
 10
151.4652613942
 20
59.7161611091
 30
0.0
 10
151.4786680578
 20
59.5860034331
 30
0.0
 10
151.4913239512
 20
59.4932151156
 30
0.0
 10
151.5032926487
 20
59.4377859102
 30
0.0
 10
151.5127457239
 20
59.4130959139
 30
0.0
 10
151.519331589
 20
59.4065230564
 30
0.0
 10
151.522105147
 20
59.406524496
 30
0.0
  0
SPLINE
  5
46D
100
AcDbEntity
  8
0
100
AcDbSpline
 62
7
  6
CONTINUOUS
 70
0
 71
3
 72
10
 73
6
 74
0
 42
0.0000001
 43
0.0000001
 44
0.0000000001
 40
0.0
 40
0.0
 40
0.0
 40
0.0
 40
0.5024765372
 40
0.7516090604
 40
1.0
 40
1.0
 40
1.0
 40
1.0
 10
145.5330191203
 20
56.2310574333
 30
0.0
 10
145.78809239
 20
57.1091901618
 30
0.0
 10
146.0945409554
 20
58.4476134965
 30
0.0
 10
146.3056329122
 20
60.2564791583
 30
0.0
 10
146.3413095042
 20
61.1623326843
 30
0.0
 10
146.3413094972
 20
61.6143652367
 30
0.0
  0
SPLINE
  5
46E
100
AcDbEntity
  8
0
100
AcDbSpline
 62
7
  6
CONTINUOUS
 70
0
 71
3
 72
9
 73
5
 74
0
 42
0.0000001
 43
0.0000001
 44
0.0000000001
 40
0.0
 40
0.0
 40
0.0
 40
0.0
 40
0.4075411154
 40
1.0
 40
1.0
 40
1.0
 40
1.0
 10
148.8104673667
 20
92.0970822233
 30
0.0
 10
148.8133245573
 20
92.091600969
 30
0.0
 10
148.8183357367
 20
92.0771761081
 30
0.0
 10
148.8219602629
 20
92.0624629164
 30
0.0
 10
148.8238901767
 20
92.0536866958
 30
0.0
  0
SPLINE
  5
46F
100
AcDbEntity
  8
0
100
AcDbSpline
 62
7
  6
CONTINUOUS
 70
0
 71
3
 72
42
 73
38
 74
0
 42
0.0000001
 43
0.0000001
 44
0.0000000001
 40
0.0
 40
0.0
 40
0.0
 40
0.0
 40
0.0025283892
 40
0.0061806635
 40
0.0109534674
 40
0.0168398016
 40
0.0318972873
 40
0.0512211683
 40
0.0746351702
 40
0.1019284334
 40
0.1328508076
 40
0.1671200403
 40
0.2444212102
 40
0.3310126841
 40
0.4237356799
 40
0.5192078333
 40
0.6139461368
 40
0.6599555101
 40
0.7044942268
 40
0.7471558352
 40
0.7875492661
 40
0.8253065086
 40
0.8600821703
 40
0.891557933
 40
0.919448057
 40
0.9434963582
 40
0.9540109671
 40
0.9634852272
 40
0.9718992128
 40
0.9792342138
 40
0.9854724708
 40
0.9906017864
 40
0.9946129872
 40
0.99749931
 40
0.9992659627
 40
0.9997445517
 40
1.0
 40
1.0
 40
1.0
 40
1.0
 10
148.8238901767
 20
92.0536866958
 30
0.0
 10
148.829803711
 20
92.0267950897
 30
0.0
 10
148.840008779
 20
91.9601771007
 30
0.0
 10
148.8533123678
 20
91.8416528502
 30
0.0
 10
148.8667306213
 20
91.6863568682
 30
0.0
 10
148.8864826106
 20
91.4070000649
 30
0.0
 10
148.9100373649
 20
90.9690904344
 30
0.0
 10
148.9369798241
 20
90.3402750118
 30
0.0
 10
148.9640797509
 20
89.5781115489
 30
0.0
 10
148.9913286602
 20
88.6895817793
 30
0.0
 10
149.0186552867
 20
87.6827915586
 30
0.0
 10
149.056706517
 20
86.1315122075
 30
0.0
 10
149.1031630659
 20
83.9740276421
 30
0.0
 10
149.1572178052
 20
81.1800082251
 30
0.0
 10
149.2113995265
 20
78.188074986
 30
0.0
 10
149.2656463166
 20
75.107410426
 30
0.0
 10
149.3112672995
 20
72.5353834852
 30
0.0
 10
149.3482756436
 20
70.5179560116
 30
0.0
 10
149.3757538674
 20
69.0675640001
 30
0.0
 10
149.4032178761
 20
67.6783406261
 30
0.0
 10
149.4306652089
 20
66.3629821947
 30
0.0
 10
149.4580866892
 20
65.1335208424
 30
0.0
 10
149.485473396
 20
64.0011979072
 30
0.0
 10
149.512808588
 20
62.9763604647
 30
0.0
 10
149.5400734884
 20
62.0683881936
 30
0.0
 10
149.563624346
 20
61.3886790596
 30
0.0
 10
149.5828005765
 20
60.9094967318
 30
0.0
 10
149.5965147859
 20
60.6004939547
 30
0.0
 10
149.6102035238
 20
60.3261493628
 30
0.0
 10
149.6238449644
 20
60.0871046632
 30
0.0
 10
149.6374511191
 20
59.8838551749
 30
0.0
 10
149.65090036
 20
59.7169958071
 30
0.0
 10
149.664319712
 20
59.586483627
 30
0.0
 10
149.6769924283
 20
59.4934521068
 30
0.0
 10
149.6889842548
 20
59.437877555
 30
0.0
 10
149.6984483335
 20
59.4131277773
 30
0.0
 10
149.7050362839
 20
59.4065153681
 30
0.0
 10
149.7078181088
 20
59.4065106838
 30
0.0
  0
SPLINE
  5
470
100
AcDbEntity
  8
0
100
AcDbSpline
 62
7
  6
CONTINUOUS
 70
0
 71
3
 72
10
 73
6
 74
0
 42
0.0000001
 43
0.0000001
 44
0.0000000001
 40
0.0
 40
0.0
 40
0.0
 40
0.0
 40
0.2483909463
 40
0.4975234731
 40
1.0
 40
1.0
 40
1.0
 40
1.0
 10
146.3413094972
 20
61.6143652367
 30
0.0
 10
146.3413094901
 20
62.0663977567
 30
0.0
 10
146.3056328346
 20
62.9722512082
 30
0.0
 10
146.094540949
 20
64.7811166961
 30
0.0
 10
145.7880923597
 20
66.1195398764
 30
0.0
 10
145.5330191203
 20
66.9976725003
 30
0.0
  0
SPLINE
  5
471
100
AcDbEntity
  8
0
100
AcDbSpline
 62
7
  6
CONTINUOUS
 70
0
 71
3
 72
9
 73
5
 74
0
 42
0.0000001
 43
0.0000001
 44
0.0000000001
 40
0.0
 40
0.0
 40
0.0
 40
0.0
 40
0.4999819887
 40
1.0
 40
1.0
 40
1.0
 40
1.0
 10
146.3413094972
 20
75.7565005905
 30
0.0
 10
146.3413094972
 20
77.0341099954
 30
0.0
 10
146.1978462635
 20
79.5912864897
 30
0.0
 10
145.7900861219
 20
82.1180730812
 30
0.0
 10
145.5330191203
 20
83.3696471148
 30
0.0
  0
SPLINE
  5
472
100
AcDbEntity
  8
0
100
AcDbSpline
 62
7
  6
CONTINUOUS
 70
0
 71
3
 72
9
 73
5
 74
0
 42
0.0000001
 43
0.0000001
 44
0.0000000001
 40
0.0
 40
0.0
 40
0.0
 40
0.0
 40
0.5000182965
 40
1.0
 40
1.0
 40
1.0
 40
1.0
 10
145.5330191203
 20
68.1433540663
 30
0.0
 10
145.7900862684
 20
69.3949288132
 30
0.0
 10
146.1978462629
 20
71.9217154321
 30
0.0
 10
146.3413094972
 20
74.4788919152
 30
0.0
 10
146.3413094972
 20
75.7565005905
 30
0.0
  0
SPLINE
  5
473
100
AcDbEntity
  8
0
100
AcDbSpline
 62
7
  6
CONTINUOUS
 70
0
 71
3
 72
29
 73
25
 74
0
 42
0.0000001
 43
0.0000001
 44
0.0000000001
 40
0.0
 40
0.0
 40
0.0
 40
0.0
 40
0.1949523368
 40
0.2900720035
 40
0.3824007336
 40
0.4710536582
 40
0.5551693285
 40
0.6339397125
 40
0.7066095974
 40
0.7724763273
 40
0.8309083548
 40
0.8813455682
 40
0.903409817
 40
0.923300859
 40
0.9409719217
 40
0.9563779641
 40
0.9694852478
 40
0.9802656439
 40
0.9886935334
 40
0.994757701
 40
0.9969060125
 40
0.9984714492
 40
0.9994728982
 40
1.0
 40
1.0
 40
1.0
 40
1.0
 10
147.4399616053
 20
75.7565005905
 30
0.0
 10
147.4587398247
 20
74.6932220893
 30
0.0
 10
147.4866730892
 20
73.1111566175
 30
0.0
 10
147.5245862745
 20
71.0255457054
 30
0.0
 10
147.5527811596
 20
69.5197061304
 30
0.0
 10
147.5809627479
 20
68.0739027978
 30
0.0
 10
147.6091268111
 20
66.7020731252
 30
0.0
 10
147.6372658847
 20
65.4174480886
 30
0.0
 10
147.6653685422
 20
64.232393853
 30
0.0
 10
147.6934177283
 20
63.1583154901
 30
0.0
 10
147.7213984695
 20
62.2055583115
 30
0.0
 10
147.7455575769
 20
61.4917343038
 30
0.0
 10
147.7652352456
 20
60.9881262552
 30
0.0
 10
147.7793092901
 20
60.6631739478
 30
0.0
 10
147.7933527991
 20
60.3745790495
 30
0.0
 10
147.8073613748
 20
60.1230321718
 30
0.0
 10
147.8213063864
 20
59.9091476701
 30
0.0
 10
147.8351556202
 20
59.7333822062
 30
0.0
 10
147.8487946455
 20
59.5962493062
 30
0.0
 10
147.8609662213
 20
59.5061316228
 30
0.0
 10
147.8710745291
 20
59.4538978825
 30
0.0
 10
147.8782037413
 20
59.4288442161
 30
0.0
 10
147.8838602257
 20
59.4135523475
 30
0.0
 10
147.89065721
 20
59.4065030532
 30
0.0
 10
147.8935324904
 20
59.4065076611
 30
0.0
  0
SPLINE
  5
474
100
AcDbEntity
  8
0
100
AcDbSpline
 62
7
  6
CONTINUOUS
 70
0
 71
3
 72
26
 73
22
 74
0
 42
0.0000001
 43
0.0000001
 44
0.0000000001
 40
0.0
 40
0.0
 40
0.0
 40
0.0
 40
0.1909572224
 40
0.3748767138
 40
0.4620783014
 40
0.5450185662
 40
0.6229355488
 40
0.695113585
 40
0.7608842499
 40
0.8196453794
 40
0.870854865
 40
0.9140414228
 40
0.9325012554
 40
0.9488136178
 40
0.962940142
 40
0.9748528568
 40
0.9845258917
 40
0.9919385528
 40
0.9970871967
 40
0.9988184344
 40
1.0
 40
1.0
 40
1.0
 40
1.0
 10
147.6399616053
 20
75.7565005905
 30
0.0
 10
147.6583394513
 20
74.7158924208
 30
0.0
 10
147.6944165425
 20
72.673027722
 30
0.0
 10
147.7405096524
 20
70.1549926058
 30
0.0
 10
147.777951278
 20
68.225621974
 30
0.0
 10
147.8055181281
 20
66.8739125081
 30
0.0
 10
147.8330621599
 20
65.604103078
 30
0.0
 10
147.860573408
 20
64.4278954775
 30
0.0
 10
147.8880434487
 20
63.3561225963
 30
0.0
 10
147.9154419708
 20
62.3986731319
 30
0.0
 10
147.9427526786
 20
61.5643679089
 30
0.0
 10
147.9664353186
 20
60.9497213585
 30
0.0
 10
147.9858128321
 20
60.5252640806
 30
0.0
 10
147.9995482982
 20
60.2591055495
 30
0.0
 10
148.0132337396
 20
60.0286773274
 30
0.0
 10
148.0268732334
 20
59.8345174905
 30
0.0
 10
148.0403263982
 20
59.6770094232
 30
0.0
 10
148.0537302503
 20
59.5566057061
 30
0.0
 10
148.0653157631
 20
59.479433759
 30
0.0
 10
148.0755872019
 20
59.4367397595
 30
0.0
 10
148.0807661478
 20
59.4216149031
 30
0.0
 10
148.0837400494
 20
59.4159028316
 30
0.0
  0
SPLINE
  5
475
100
AcDbEntity
  8
0
100
AcDbSpline
 62
7
  6
CONTINUOUS
 70
0
 71
3
 72
29
 73
25
 74
0
 42
0.0000001
 43
0.0000001
 44
0.0000000001
 40
0.0
 40
0.0
 40
0.0
 40
0.0
 40
0.0005041064
 40
0.0014927279
 40
0.0030496464
 40
0.0051926473
 40
0.0112512759
 40
0.0196739294
 40
0.0304496476
 40
0.043556009
 40
0.0589604546
 40
0.0766290869
 40
0.0965207006
 40
0.1185852969
 40
0.1690238922
 40
0.2274593177
 40
0.2933326421
 40
0.3660075948
 40
0.44478414
 40
0.5289068732
 40
0.6175663773
 40
0.7099040961
 40
0.8050313364
 40
1.0
 40
1.0
 40
1.0
 40
1.0
 10
147.2948806384
 20
58.2565223487
 30
0.0
 10
147.2919376963
 20
58.256521976
 30
0.0
 10
147.2851071304
 20
58.264298792
 30
0.0
 10
147.2795613777
 20
58.2804200396
 30
0.0
 10
147.272400791
 20
58.3072737408
 30
0.0
 10
147.2623192018
 20
58.3631488569
 30
0.0
 10
147.2501366943
 20
58.4596367775
 30
0.0
 10
147.2365045683
 20
58.6063847678
 30
0.0
 10
147.2226510452
 20
58.794507503
 30
0.0
 10
147.2087107723
 20
59.0234284096
 30
0.0
 10
147.1947014292
 20
59.2926633195
 30
0.0
 10
147.1806565083
 20
59.6015491672
 30
0.0
 10
147.1665843549
 20
59.9493523125
 30
0.0
 10
147.1469060924
 20
60.4883893744
 30
0.0
 10
147.1227467581
 20
61.2524232969
 30
0.0
 10
147.0947650184
 20
62.2722054352
 30
0.0
 10
147.0667166272
 20
63.4218435374
 30
0.0
 10
147.0386129669
 20
64.6902619785
 30
0.0
 10
147.0104741365
 20
66.0652425191
 30
0.0
 10
146.9823103883
 20
67.5335575041
 30
0.0
 10
146.9541285094
 20
69.08105516
 30
0.0
 10
146.9259338873
 20
70.6928063769
 30
0.0
 10
146.8880206887
 20
72.9251085789
 30
0.0
 10
146.8600876264
 20
74.6184403812
 30
0.0
 10
146.8413094972
 20
75.7565005905
 30
0.0
  0
SPLINE
  5
476
100
AcDbEntity
  8
0
100
AcDbSpline
 62
7
  6
CONTINUOUS
 70
0
 71
3
 72
10
 73
6
 74
0
 42
0.0000001
 43
0.0000001
 44
0.0000000001
 40
0.0
 40
0.0
 40
0.0
 40
0.0
 40
0.5024765372
 40
0.7516090604
 40
1.0
 40
1.0
 40
1.0
 40
1.0
 10
145.5330191203
 20
84.5153286808
 30
0.0
 10
145.788092392
 20
85.3934614161
 30
0.0
 10
146.0945409592
 20
86.7318847615
 30
0.0
 10
146.305632915
 20
88.5407504376
 30
0.0
 10
146.3413095053
 20
89.4466039708
 30
0.0
 10
146.3413094972
 20
89.8986365267
 30
0.0
  0
SPLINE
  5
477
100
AcDbEntity
  8
0
100
AcDbSpline
 62
7
  6
CONTINUOUS
 70
0
 71
3
 72
29
 73
25
 74
0
 42
0.0000001
 43
0.0000001
 44
0.0000000001
 40
0.0
 40
0.0
 40
0.0
 40
0.0
 40
0.0005029388
 40
0.0014898325
 40
0.0030450395
 40
0.005186388
 40
0.0112418274
 40
0.0196615239
 40
0.0304345601
 40
0.0435384355
 40
0.0589407016
 40
0.0766075857
 40
0.0964977512
 40
0.118561035
 40
0.1689968986
 40
0.227429913
 40
0.2933015212
 40
0.3659765177
 40
0.444754099
 40
0.5288786122
 40
0.6175423612
 40
0.7098858778
 40
0.8050199689
 40
1.0
 40
1.0
 40
1.0
 40
1.0
 10
149.1091895877
 20
58.2565238487
 30
0.0
 10
149.1062534976
 20
58.2565087472
 30
0.0
 10
149.0994060823
 20
58.2642560103
 30
0.0
 10
149.0938716325
 20
58.2803544886
 30
0.0
 10
149.0867054225
 20
58.3071750777
 30
0.0
 10
149.0766264861
 20
58.3630126925
 30
0.0
 10
149.0644409088
 20
58.4594538633
 30
0.0
 10
149.0508096112
 20
58.6061506767
 30
0.0
 10
149.036955178
 20
58.7942258739
 30
0.0
 10
149.023014415
 20
59.0231040865
 30
0.0
 10
149.009004335
 20
59.2923017546
 30
0.0
 10
148.9949587767
 20
59.6011565119
 30
0.0
 10
148.9808858704
 20
59.9489336741
 30
0.0
 10
148.9612065746
 20
60.4879392227
 30
0.0
 10
148.9370462479
 20
61.2519362724
 30
0.0
 10
148.9090639259
 20
62.2716794879
 30
0.0
 10
148.8810145003
 20
63.4212950147
 30
0.0
 10
148.8529098361
 20
64.6897111489
 30
0.0
 10
148.8247697723
 20
66.0647099138
 30
0.0
 10
148.7966048877
 20
67.5330677619
 30
0.0
 10
148.7684205285
 20
69.0806361479
 30
0.0
 10
148.7402232568
 20
70.6924877757
 30
0.0
 10
148.702317107
 20
72.9249328353
 30
0.0
 10
148.674352984
 20
74.6183724052
 30
0.0
 10
148.6555943382
 20
75.7565005905
 30
0.0
  0
SPLINE
  5
478
100
AcDbEntity
  8
0
100
AcDbSpline
 62
7
  6
CONTINUOUS
 70
0
 71
3
 72
29
 73
25
 74
0
 42
0.0000001
 43
0.0000001
 44
0.0000000001
 40
0.0
 40
0.0
 40
0.0
 40
0.0
 40
0.0005041126
 40
0.0014927398
 40
0.0030496573
 40
0.0051926582
 40
0.0112513105
 40
0.0196739932
 40
0.0304497259
 40
0.0435561308
 40
0.0589606185
 40
0.0766292547
 40
0.0965208785
 40
0.1185854658
 40
0.1690238999
 40
0.2274591363
 40
0.2933323091
 40
0.3660072052
 40
0.4447837537
 40
0.5289065307
 40
0.6175660978
 40
0.7099038668
 40
0.8050311809
 40
1.0
 40
1.0
 40
1.0
 40
1.0
 10
150.9234531849
 20
58.256522393
 30
0.0
 10
150.9205102064
 20
58.2565220911
 30
0.0
 10
150.9136797158
 20
58.2642990166
 30
0.0
 10
150.9081338852
 20
58.2804203048
 30
0.0
 10
150.9009732902
 20
58.3072740311
 30
0.0
 10
150.8908916431
 20
58.3631492712
 30
0.0
 10
150.8787091571
 20
58.459637508
 30
0.0
 10
150.8650769956
 20
58.6063858877
 30
0.0
 10
150.8512234023
 20
58.7945091282
 30
0.0
 10
150.8372831159
 20
59.0234306181
 30
0.0
 10
150.8232737499
 20
59.2926660485
 30
0.0
 10
150.8092287766
 20
59.6015522203
 30
0.0
 10
150.7951566242
 20
59.9493553943
 30
0.0
 10
150.7754783891
 20
60.4883915199
 30
0.0
 10
150.7513190563
 20
61.2524233407
 30
0.0
 10
150.7233373654
 20
62.2722025442
 30
0.0
 10
150.6952889512
 20
63.4218383208
 30
0.0
 10
150.6671852655
 20
64.6902555598
 30
0.0
 10
150.6390463676
 20
66.0652360381
 30
0.0
 10
150.6108825172
 20
67.533551658
 30
0.0
 10
150.5827006161
 20
69.0810502237
 30
0.0
 10
150.554505962
 20
70.6928025252
 30
0.0
 10
150.5165919759
 20
72.9251063364
 30
0.0
 10
150.488660853
 20
74.6184395024
 30
0.0
 10
150.4698812381
 20
75.7565005905
 30
0.0
  0
SPLINE
  5
479
100
AcDbEntity
  8
0
100
AcDbSpline
 62
7
  6
CONTINUOUS
 70
0
 71
3
 72
10
 73
6
 74
0
 42
0.0000001
 43
0.0000001
 44
0.0000000001
 40
0.0
 40
0.0
 40
0.0
 40
0.0
 40
0.2483909463
 40
0.4975234731
 40
1.0
 40
1.0
 40
1.0
 40
1.0
 10
146.3413094972
 20
89.8986365267
 30
0.0
 10
146.341309489
 20
90.3506690432
 30
0.0
 10
146.3056328318
 20
91.2565224875
 30
0.0
 10
146.0945409453
 20
93.065387961
 30
0.0
 10
145.7880923577
 20
94.4038111307
 30
0.0
 10
145.5330191203
 20
95.2819437477
 30
0.0
  0
SPLINE
  5
47A
100
AcDbEntity
  8
0
100
AcDbSpline
 62
7
  6
CONTINUOUS
 70
0
 71
3
 72
24
 73
20
 74
0
 42
0.0000001
 43
0.0000001
 44
0.0000000001
 40
0.0
 40
0.0
 40
0.0
 40
0.0
 40
0.0016027514
 40
0.0050007947
 40
0.0104288108
 40
0.0179266443
 40
0.0275033844
 40
0.0391591948
 40
0.0686823289
 40
0.1063915485
 40
0.1521536341
 40
0.2057986772
 40
0.2671149884
 40
0.3358777338
 40
0.4118142356
 40
0.4946362677
 40
0.5840265325
 40
0.7811001412
 40
1.0
 40
1.0
 40
1.0
 40
1.0
 10
152.6292482366
 20
92.1064874565
 30
0.0
 10
152.6332276323
 20
92.1064940789
 30
0.0
 10
152.6418849243
 20
92.0939729054
 30
0.0
 10
152.6486098065
 20
92.0707518006
 30
0.0
 10
152.657748269
 20
92.0303006668
 30
0.0
 10
152.6661077586
 20
91.9754266362
 30
0.0
 10
152.6749960156
 20
91.9044980314
 30
0.0
 10
152.6877463207
 20
91.7791857542
 30
0.0
 10
152.7031257203
 20
91.5838595233
 30
0.0
 10
152.720655027
 20
91.3038730162
 30
0.0
 10
152.7382981918
 20
90.9638782119
 30
0.0
 10
152.7560221671
 20
90.5652189153
 30
0.0
 10
152.7737978162
 20
90.1094023282
 30
0.0
 10
152.7916035717
 20
89.5982044974
 30
0.0
 10
152.8094354243
 20
89.0335825485
 30
0.0
 10
152.8272846817
 20
88.4177228604
 30
0.0
 10
152.8519077863
 20
87.5011692367
 30
0.0
 10
152.8822826101
 20
86.246789518
 30
0.0
 10
152.9048623873
 20
85.2142334825
 30
0.0
 10
152.9163097476
 20
84.6708572001
 30
0.0
  0
SPLINE
  5
47B
100
AcDbEntity
  8
0
100
AcDbSpline
 62
7
  6
CONTINUOUS
 70
0
 71
3
 72
29
 73
25
 74
0
 42
0.0000001
 43
0.0000001
 44
0.0000000001
 40
0.0
 40
0.0
 40
0.0
 40
0.0
 40
0.0005034201
 40
0.0014908506
 40
0.0030460249
 40
0.0051867807
 40
0.0112426907
 40
0.019663641
 40
0.0304361993
 40
0.0435403965
 40
0.0589436844
 40
0.0766100961
 40
0.0965004655
 40
0.1185646374
 40
0.1690002692
 40
0.2274335816
 40
0.2933056463
 40
0.3659803291
 40
0.4447580074
 40
0.5288821702
 40
0.6175448564
 40
0.7098882297
 40
0.8050213699
 40
1.0
 40
1.0
 40
1.0
 40
1.0
 10
152.7377592236
 20
58.2565182065
 30
0.0
 10
152.7348202997
 20
58.256508865
 30
0.0
 10
152.7279805279
 20
58.2642678345
 30
0.0
 10
152.7224412616
 20
58.2803696446
 30
0.0
 10
152.715276903
 20
58.3071905833
 30
0.0
 10
152.7051927406
 20
58.3630259983
 30
0.0
 10
152.6930119018
 20
58.4594749572
 30
0.0
 10
152.6793810372
 20
58.606178772
 30
0.0
 10
152.6655246776
 20
58.7942603556
 30
0.0
 10
152.6515844869
 20
59.0231436187
 30
0.0
 10
152.6375756099
 20
59.2923464313
 30
0.0
 10
152.6235288788
 20
59.6012055091
 30
0.0
 10
152.6094563231
 20
59.9489862853
 30
0.0
 10
152.589777979
 20
60.4879968524
 30
0.0
 10
152.5656167394
 20
61.2519993911
 30
0.0
 10
152.5376350313
 20
62.2717456051
 30
0.0
 10
152.5095858832
 20
63.4213636298
 30
0.0
 10
152.4814811354
 20
64.6897810715
 30
0.0
 10
152.4533414062
 20
66.0647764337
 30
0.0
 10
152.425176435
 20
67.5331264892
 30
0.0
 10
152.3969930762
 20
69.0806856952
 30
0.0
 10
152.3687967078
 20
70.6925246271
 30
0.0
 10
152.3308812274
 20
72.9249548024
 30
0.0
 10
152.3029464183
 20
74.6183810028
 30
0.0
 10
152.2841674052
 20
75.7565005905
 30
0.0
  0
SPLINE
  5
47C
100
AcDbEntity
  8
0
100
AcDbSpline
 62
7
  6
CONTINUOUS
 70
0
 71
3
 72
26
 73
22
 74
0
 42
0.0000001
 43
0.0000001
 44
0.0000000001
 40
0.0
 40
0.0
 40
0.0
 40
0.0
 40
0.191227023
 40
0.3753898052
 40
0.4626906851
 40
0.5457111908
 40
0.6236863269
 40
0.6958986723
 40
0.7616787203
 40
0.8204193779
 40
0.8715803799
 40
0.9146875133
 40
0.9330959503
 40
0.9493471931
 40
0.9634073092
 40
0.9752450219
 40
0.9848322257
 40
0.9921534394
 40
0.997201715
 40
0.9988774021
 40
1.0
 40
1.0
 40
1.0
 40
1.0
 10
148.6555943382
 20
75.7565005905
 30
0.0
 10
148.6372103203
 20
76.8718992703
 30
0.0
 10
148.6010490791
 20
79.06149074
 30
0.0
 10
148.5549055561
 20
81.7602690619
 30
0.0
 10
148.5174041576
 20
83.8278632788
 30
0.0
 10
148.4897988856
 20
85.2760737212
 30
0.0
 10
148.4622159073
 20
86.636246626
 30
0.0
 10
148.434665617
 20
87.8958235273
 30
0.0
 10
148.4071583999
 20
89.0431652415
 30
0.0
 10
148.3797213718
 20
90.0676642618
 30
0.0
 10
148.3523755538
 20
90.9598463671
 30
0.0
 10
148.328656896
 20
91.6167392485
 30
0.0
 10
148.309248328
 20
92.0699899815
 30
0.0
 10
148.2954919821
 20
92.3538714972
 30
0.0
 10
148.281791866
 20
92.5993786215
 30
0.0
 10
148.2681374875
 20
92.805929764
 30
0.0
 10
148.2546755711
 20
92.9731184041
 30
0.0
 10
148.2412535851
 20
93.1004563317
 30
0.0
 10
148.2297010454
 20
93.1817249251
 30
0.0
 10
148.2193829562
 20
93.2262828916
 30
0.0
 10
148.2141992871
 20
93.2418949853
 30
0.0
 10
148.2111721823
 20
93.247702212
 30
0.0
  0
SPLINE
  5
47D
100
AcDbEntity
  8
0
100
AcDbSpline
 62
7
  6
CONTINUOUS
 70
0
 71
3
 72
45
 73
41
 74
0
 42
0.0000001
 43
0.0000001
 44
0.0000000001
 40
0.0
 40
0.0
 40
0.0
 40
0.0
 40
0.0002566971
 40
0.0007386634
 40
0.0014898297
 40
0.0025199114
 40
0.0054276338
 40
0.0094690947
 40
0.0146372689
 40
0.0209221931
 40
0.0283119199
 40
0.0367886747
 40
0.0463328837
 40
0.0569243548
 40
0.0811467685
 40
0.1092340925
 40
0.1409266755
 40
0.1759346192
 40
0.2139343781
 40
0.2545760406
 40
0.2974860133
 40
0.3422678342
 40
0.3885096619
 40
0.4836583462
 40
0.5794327566
 40
0.6723106177
 40
0.7588765982
 40
0.798785137
 40
0.8359474516
 40
0.8700197207
 40
0.9006895518
 40
0.9276745754
 40
0.9507256492
 40
0.9696335734
 40
0.9774773757
 40
0.9842247698
 40
0.9898601561
 40
0.9943709899
 40
0.9977513081
 40
1.0
 40
1.0
 40
1.0
 40
1.0
 10
150.8149616592
 20
92.1064961151
 30
0.0
 10
150.8177584073
 20
92.1064921805
 30
0.0
 10
150.8243798059
 20
92.0998043582
 30
0.0
 10
150.8299648362
 20
92.0851064411
 30
0.0
 10
150.8369254367
 20
92.0611442297
 30
0.0
 10
150.846829149
 20
92.0111447352
 30
0.0
 10
150.8587284017
 20
91.9248749127
 30
0.0
 10
150.8720732369
 20
91.7935739584
 30
0.0
 10
150.885625435
 20
91.62527346
 30
0.0
 10
150.8992695445
 20
91.4204357353
 30
0.0
 10
150.912972229
 20
91.1794769497
 30
0.0
 10
150.9267136629
 20
90.9029642879
 30
0.0
 10
150.9404840337
 20
90.5915305882
 30
0.0
 10
150.9597372852
 20
90.1086255444
 30
0.0
 10
150.9833816754
 20
89.4237116078
 30
0.0
 10
151.0107567702
 20
88.5089022257
 30
0.0
 10
151.0382019972
 20
87.4765385238
 30
0.0
 10
151.0656986643
 20
86.3361448647
 30
0.0
 10
151.0932307537
 20
85.0982246698
 30
0.0
 10
151.1207882966
 20
83.7741916071
 30
0.0
 10
151.1483627662
 20
82.3762523322
 30
0.0
 10
151.1759514597
 20
80.9172874598
 30
0.0
 10
151.2130992218
 20
78.8892538957
 30
0.0
 10
151.258889312
 20
76.3057144685
 30
0.0
 10
151.3133433254
 20
73.2141427865
 30
0.0
 10
151.3677428138
 20
70.2160946592
 30
0.0
 10
151.4141056524
 20
67.8266679488
 30
0.0
 10
151.4518700691
 20
66.0442211712
 30
0.0
 10
151.479393772
 20
64.8336135115
 30
0.0
 10
151.506877387
 20
63.7236897838
 30
0.0
 10
151.5343068348
 20
62.7246850438
 30
0.0
 10
151.5616394742
 20
61.8458042281
 30
0.0
 10
151.5888637163
 20
61.0951402646
 30
0.0
 10
151.6125582234
 20
60.5530375445
 30
0.0
 10
151.6320963994
 20
60.1885817132
 30
0.0
 10
151.6457633037
 20
59.9686272194
 30
0.0
 10
151.6593753467
 20
59.7850772645
 30
0.0
 10
151.6727748154
 20
59.6382763824
 30
0.0
 10
151.6860932269
 20
59.5286444604
 30
0.0
 10
151.6963009056
 20
59.4680320783
 30
0.0
 10
151.7024616053
 20
59.4443194939
 30
0.0
  0
SPLINE
  5
47E
100
AcDbEntity
  8
0
100
AcDbSpline
 62
7
  6
CONTINUOUS
 70
0
 71
3
 72
9
 73
5
 74
0
 42
0.0000001
 43
0.0000001
 44
0.0000000001
 40
0.0
 40
0.0
 40
0.0
 40
0.0
 40
0.3063812391
 40
1.0
 40
1.0
 40
1.0
 40
1.0
 10
151.7024616053
 20
59.4443194939
 30
0.0
 10
151.7032344052
 20
59.4413449807
 30
0.0
 10
151.7059159436
 20
59.4316934215
 30
0.0
 10
151.7090963851
 20
59.4220828737
 30
0.0
 10
151.7123127163
 20
59.4159133367
 30
0.0
  0
SPLINE
  5
47F
100
AcDbEntity
  8
0
100
AcDbSpline
 62
7
  6
CONTINUOUS
 70
0
 71
3
 72
26
 73
22
 74
0
 42
0.0000001
 43
0.0000001
 44
0.0000000001
 40
0.0
 40
0.0
 40
0.0
 40
0.0
 40
0.1912251121
 40
0.3753872378
 40
0.4626882689
 40
0.5457092528
 40
0.6236846721
 40
0.695897522
 40
0.7616787855
 40
0.8204208205
 40
0.8715826348
 40
0.9146892554
 40
0.9330973775
 40
0.9493483711
 40
0.9634081311
 40
0.9752456453
 40
0.9848326973
 40
0.9921535912
 40
0.9972016767
 40
0.998877383
 40
1.0
 40
1.0
 40
1.0
 40
1.0
 10
150.4698812381
 20
75.7565005905
 30
0.0
 10
150.4514757728
 20
76.8718878796
 30
0.0
 10
150.4153509868
 20
79.0614651921
 30
0.0
 10
150.3691902852
 20
81.7602293994
 30
0.0
 10
150.3316923728
 20
83.8278237259
 30
0.0
 10
150.3040863332
 20
85.2760396253
 30
0.0
 10
150.2765032357
 20
86.6362200493
 30
0.0
 10
150.2489527669
 20
87.8958087614
 30
0.0
 10
150.2214451339
 20
89.0431686544
 30
0.0
 10
150.1940074075
 20
90.0676876304
 30
0.0
 10
150.1666612867
 20
90.9598796031
 30
0.0
 10
150.1429423257
 20
91.6167724507
 30
0.0
 10
150.1235338042
 20
92.0700169426
 30
0.0
 10
150.109777657
 20
92.3538931226
 30
0.0
 10
150.0960774382
 20
92.5993955681
 30
0.0
 10
150.0824231734
 20
92.8059426113
 30
0.0
 10
150.0689616136
 20
92.9731273665
 30
0.0
 10
150.0555397213
 20
93.100461465
 30
0.0
 10
150.04398693
 20
93.1817270977
 30
0.0
 10
150.0336694039
 20
93.2262842887
 30
0.0
 10
150.0284858799
 20
93.2418966576
 30
0.0
 10
150.0254588456
 20
93.2477040471
 30
0.0
  0
SPLINE
  5
480
100
AcDbEntity
  8
0
100
AcDbSpline
 62
7
  6
CONTINUOUS
 70
0
 71
3
 72
26
 73
22
 74
0
 42
0.0000001
 43
0.0000001
 44
0.0000000001
 40
0.0
 40
0.0
 40
0.0
 40
0.0
 40
0.1912257236
 40
0.3753840971
 40
0.4626837337
 40
0.5457048676
 40
0.6236809481
 40
0.6958941766
 40
0.7616753285
 40
0.8204166685
 40
0.8715783908
 40
0.9146863379
 40
0.9330949287
 40
0.9493463729
 40
0.963406864
 40
0.9752446912
 40
0.9848319703
 40
0.9921534684
 40
0.9972018134
 40
0.9988774062
 40
1.0
 40
1.0
 40
1.0
 40
1.0
 10
152.2841674052
 20
75.7565005905
 30
0.0
 10
152.2657634203
 20
76.8718912469
 30
0.0
 10
152.2296364287
 20
79.0614497573
 30
0.0
 10
152.183477551
 20
81.7601869906
 30
0.0
 10
152.1459799353
 20
83.8277517518
 30
0.0
 10
152.1183742112
 20
85.2759639614
 30
0.0
 10
152.0907910758
 20
86.6361510532
 30
0.0
 10
152.063240558
 20
87.8957449262
 30
0.0
 10
152.0357333093
 20
89.0431020997
 30
0.0
 10
152.0082959753
 20
90.0676156364
 30
0.0
 10
151.9809498715
 20
90.959810578
 30
0.0
 10
151.9572312922
 20
91.6167132485
 30
0.0
 10
151.9378224378
 20
92.0699707492
 30
0.0
 10
151.9240658686
 20
92.3538564886
 30
0.0
 10
151.9103659329
 20
92.5993676358
 30
0.0
 10
151.8967113453
 20
92.8059220438
 30
0.0
 10
151.8832490593
 20
92.9731134225
 30
0.0
 10
151.8698271041
 20
93.1004538221
 30
0.0
 10
151.8582751068
 20
93.1817240606
 30
0.0
 10
151.8479561499
 20
93.2262816829
 30
0.0
 10
151.8427724647
 20
93.241893123
 30
0.0
 10
151.8397454405
 20
93.2477003635
 30
0.0
  0
SPLINE
  5
481
100
AcDbEntity
  8
0
100
AcDbSpline
 62
7
  6
CONTINUOUS
 70
0
 71
3
 72
44
 73
40
 74
0
 42
0.0000001
 43
0.0000001
 44
0.0000000001
 40
0.0
 40
0.0
 40
0.0
 40
0.0
 40
0.0002560327
 40
0.0007364062
 40
0.0014854819
 40
0.0025133372
 40
0.0054148077
 40
0.00944536
 40
0.014600199
 40
0.0208705907
 40
0.0282415363
 40
0.0366966402
 40
0.046218416
 40
0.0567841133
 40
0.0809481328
 40
0.108969081
 40
0.1405899978
 40
0.1755195453
 40
0.2134385794
 40
0.2539974961
 40
0.2968239979
 40
0.341525032
 40
0.3876889788
 40
0.4827007155
 40
0.578374307
 40
0.6712007927
 40
0.7577753331
 40
0.7977137077
 40
0.8349229179
 40
0.86906197
 40
0.8998157252
 40
0.9269036646
 40
0.9500768208
 40
0.9691226925
 40
0.983870367
 40
0.9895886388
 40
0.9941877315
 40
0.9976591726
 40
1.0
 40
1.0
 40
1.0
 40
1.0
 10
149.0006749548
 20
92.106476163
 30
0.0
 10
149.0034640497
 20
92.1064756735
 30
0.0
 10
149.0100802501
 20
92.0998283957
 30
0.0
 10
149.0156597408
 20
92.0851733282
 30
0.0
 10
149.0226115527
 20
92.061283237
 30
0.0
 10
149.0324987106
 20
92.0114033343
 30
0.0
 10
149.0443787998
 20
91.9253590669
 30
0.0
 10
149.0577117745
 20
91.7944098727
 30
0.0
 10
149.0712458873
 20
91.6265573006
 30
0.0
 10
149.0848676252
 20
91.422258082
 30
0.0
 10
149.0985542999
 20
91.181934345
 30
0.0
 10
149.1122788456
 20
90.9061479779
 30
0.0
 10
149.1260280934
 20
90.595521795
 30
0.0
 10
149.1452572167
 20
90.1138503706
 30
0.0
 10
149.1688696006
 20
89.4306788874
 30
0.0
 10
149.1962092944
 20
88.5181463309
 30
0.0
 10
149.2236159725
 20
87.4882948351
 30
0.0
 10
149.2510777201
 20
86.3505859361
 30
0.0
 10
149.2785721315
 20
85.1154857085
 30
0.0
 10
149.3060928397
 20
83.7943407817
 30
0.0
 10
149.3336312207
 20
82.3993013711
 30
0.0
 10
149.3611824013
 20
80.943192449
 30
0.0
 10
149.3982842999
 20
78.9186825228
 30
0.0
 10
149.4440179718
 20
76.3389679547
 30
0.0
 10
149.4984022278
 20
73.2510081794
 30
0.0
 10
149.5527324429
 20
70.2549726256
 30
0.0
 10
149.5990303284
 20
67.866043869
 30
0.0
 10
149.6367365782
 20
66.0829334708
 30
0.0
 10
149.6642259358
 20
64.8709424978
 30
0.0
 10
149.6916746409
 20
63.7590311015
 30
0.0
 10
149.7190667755
 20
62.7574105302
 30
0.0
 10
149.7463825964
 20
61.8752958446
 30
0.0
 10
149.7735338101
 20
61.120780487
 30
0.0
 10
149.8005350864
 20
60.5008008077
 30
0.0
 10
149.8241271987
 20
60.0709928343
 30
0.0
 10
149.8439813494
 20
59.7986718157
 30
0.0
 10
149.8573911369
 20
59.6490314114
 30
0.0
 10
149.8706960404
 20
59.5364257456
 30
0.0
 10
149.8809156291
 20
59.4738210978
 30
0.0
 10
149.8869854324
 20
59.4490542127
 30
0.0
  0
SPLINE
  5
482
100
AcDbEntity
  8
0
100
AcDbSpline
 62
7
  6
CONTINUOUS
 70
0
 71
3
 72
9
 73
5
 74
0
 42
0.0000001
 43
0.0000001
 44
0.0000000001
 40
0.0
 40
0.0
 40
0.0
 40
0.0
 40
0.3110831794
 40
1.0
 40
1.0
 40
1.0
 40
1.0
 10
149.8869854324
 20
59.4490542127
 30
0.0
 10
149.8878481865
 20
59.4455338791
 30
0.0
 10
149.8908138298
 20
59.4342868581
 30
0.0
 10
149.8943187044
 20
59.4230444052
 30
0.0
 10
149.8980256745
 20
59.4159249152
 30
0.0
  0
SPLINE
  5
483
100
AcDbEntity
  8
0
100
AcDbSpline
 62
7
  6
CONTINUOUS
 70
0
 71
3
 72
29
 73
25
 74
0
 42
0.0000001
 43
0.0000001
 44
0.0000000001
 40
0.0
 40
0.0
 40
0.0
 40
0.0
 40
0.0005028574
 40
0.0014896394
 40
0.0030447565
 40
0.0051860198
 40
0.0112412607
 40
0.019660768
 40
0.0304336589
 40
0.0435373527
 40
0.0589394392
 40
0.0766061909
 40
0.0964961857
 40
0.1185592991
 40
0.1689948957
 40
0.2274276861
 40
0.2932990572
 40
0.3659737995
 40
0.4447513423
 40
0.5288763558
 40
0.6175407961
 40
0.70988487
 40
0.8050194582
 40
1.0
 40
1.0
 40
1.0
 40
1.0
 10
149.5993020055
 20
93.2564769322
 30
0.0
 10
149.602237615
 20
93.2564930816
 30
0.0
 10
149.6090862804
 20
93.2487478432
 30
0.0
 10
149.6146199126
 20
93.2326507102
 30
0.0
 10
149.6217864871
 20
93.2058320073
 30
0.0
 10
149.6318652008
 20
93.1499965111
 30
0.0
 10
149.6440510522
 20
93.053558194
 30
0.0
 10
149.6576822791
 20
92.9068644642
 30
0.0
 10
149.6715366921
 20
92.7187922852
 30
0.0
 10
149.6854774908
 20
92.4899170204
 30
0.0
 10
149.6994875954
 20
92.2207222243
 30
0.0
 10
149.7135331119
 20
91.9118702668
 30
0.0
 10
149.727606049
 20
91.5640958513
 30
0.0
 10
149.7472853693
 20
91.0250938238
 30
0.0
 10
149.7714456846
 20
90.2611005902
 30
0.0
 10
149.7994280133
 20
89.2413615667
 30
0.0
 10
149.827477494
 20
88.0917501491
 30
0.0
 10
149.8555820749
 20
86.8233370309
 30
0.0
 10
149.8837222518
 20
85.4483369733
 30
0.0
 10
149.9118877233
 20
83.9799723152
 30
0.0
 10
149.9400713356
 20
82.4323936103
 30
0.0
 10
149.9682682164
 20
80.8205316879
 30
0.0
 10
150.0061850571
 20
78.5880775343
 30
0.0
 10
150.034117377
 20
76.8946314533
 30
0.0
 10
150.0528986142
 20
75.7565005905
 30
0.0
  0
SPLINE
  5
484
100
AcDbEntity
  8
0
100
AcDbSpline
 62
7
  6
CONTINUOUS
 70
0
 71
3
 72
29
 73
25
 74
0
 42
0.0000001
 43
0.0000001
 44
0.0000000001
 40
0.0
 40
0.0
 40
0.0
 40
0.0
 40
0.0005040282
 40
0.0014925784
 40
0.0030495183
 40
0.0051925074
 40
0.0112508251
 40
0.0196731437
 40
0.0304487681
 40
0.0435547045
 40
0.0589587132
 40
0.0766272384
 40
0.0965184785
 40
0.1185826895
 40
0.1690209153
 40
0.2274558555
 40
0.2933283765
 40
0.3660025494
 40
0.444778287
 40
0.5289009023
 40
0.6175619524
 40
0.7099018426
 40
0.805031289
 40
1.0
 40
1.0
 40
1.0
 40
1.0
 10
151.4136128115
 20
93.2564792463
 30
0.0
 10
151.416555297
 20
93.2564806138
 30
0.0
 10
151.4233870909
 20
93.2487053692
 30
0.0
 10
151.428931928
 20
93.232584562
 30
0.0
 10
151.4360925465
 20
93.2057312509
 30
0.0
 10
151.4461737111
 20
93.1498578263
 30
0.0
 10
151.4583567646
 20
93.0533738713
 30
0.0
 10
151.471988775
 20
92.9066301653
 30
0.0
 10
151.4858417693
 20
92.7185123823
 30
0.0
 10
151.4997822562
 20
92.4895970574
 30
0.0
 10
151.5137916405
 20
92.220367791
 30
0.0
 10
151.5278361981
 20
91.9114872625
 30
0.0
 10
151.5419085159
 20
91.5636891545
 30
0.0
 10
151.5615868862
 20
91.0246586412
 30
0.0
 10
151.5857461022
 20
90.260631893
 30
0.0
 10
151.6137278405
 20
89.2408593528
 30
0.0
 10
151.6417762912
 20
88.0912332337
 30
0.0
 10
151.6698797649
 20
86.8228286407
 30
0.0
 10
151.6980186067
 20
85.447857941
 30
0.0
 10
151.7261826395
 20
83.979539214
 30
0.0
 10
151.7543649916
 20
82.4320204185
 30
0.0
 10
151.7825604108
 20
80.8202344918
 30
0.0
 10
151.82047364
 20
78.5879062646
 30
0.0
 10
151.848408416
 20
76.8945611891
 30
0.0
 10
151.8671855957
 20
75.7565005905
 30
0.0
  0
SPLINE
  5
485
100
AcDbEntity
  8
0
100
AcDbSpline
 62
7
  6
CONTINUOUS
 70
0
 71
3
 72
10
 73
6
 74
0
 42
0.0000001
 43
0.0000001
 44
0.0000000001
 40
0.0
 40
0.0
 40
0.0
 40
0.0
 40
0.7143811974
 40
0.9079629918
 40
1.0
 40
1.0
 40
1.0
 40
1.0
 10
131.3145145779
 20
158.8396318549
 30
0.0
 10
131.3212439115
 20
158.8408731237
 30
0.0
 10
131.3301280106
 20
158.842761246
 30
0.0
 10
131.3386038062
 20
158.8457812533
 30
0.0
 10
131.3413094972
 20
158.8477103079
 30
0.0
 10
131.3413094972
 20
158.8485919045
 30
0.0
  0
SPLINE
  5
486
100
AcDbEntity
  8
0
100
AcDbSpline
 62
7
  6
CONTINUOUS
 70
0
 71
3
 72
9
 73
5
 74
0
 42
0.0000001
 43
0.0000001
 44
0.0000000001
 40
0.0
 40
0.0
 40
0.0
 40
0.0
 40
0.3644890994
 40
1.0
 40
1.0
 40
1.0
 40
1.0
 10
84.8400049314
 20
92.0850353633
 30
0.0
 10
84.8467704949
 20
92.0720500387
 30
0.0
 10
84.8559031312
 20
92.0322687807
 30
0.0
 10
84.8626171643
 20
91.9929245384
 30
0.0
 10
84.8662084099
 20
91.9676488955
 30
0.0
  0
SPLINE
  5
487
100
AcDbEntity
  8
0
100
AcDbSpline
 62
7
  6
CONTINUOUS
 70
0
 71
3
 72
38
 73
34
 74
0
 42
0.0000001
 43
0.0000001
 44
0.0000000001
 40
0.0
 40
0.0
 40
0.0
 40
0.0
 40
0.0081281709
 40
0.0205865696
 40
0.0372797099
 40
0.0580558609
 40
0.0827382736
 40
0.1111030811
 40
0.1778544609
 40
0.2559470005
 40
0.3426143446
 40
0.434785656
 40
0.5291947594
 40
0.6224960788
 40
0.711383352
 40
0.7531782958
 40
0.7927069825
 40
0.8296190784
 40
0.8635858927
 40
0.8943078852
 40
0.9215101792
 40
0.9449550985
 40
0.9552001517
 40
0.9644316149
 40
0.9726293336
 40
0.9797733737
 40
0.9858479933
 40
0.9908431106
 40
0.9947498292
 40
0.9975614156
 40
0.9992820754
 40
0.9997488992
 40
1.0
 40
1.0
 40
1.0
 40
1.0
 10
84.8662084099
 20
91.9676488955
 30
0.0
 10
84.8786221489
 20
91.8802794221
 30
0.0
 10
84.898434473
 20
91.6574791238
 30
0.0
 10
84.9245550274
 20
91.2536378915
 30
0.0
 10
84.9507042555
 20
90.7121595351
 30
0.0
 10
84.9773961473
 20
90.0379196397
 30
0.0
 10
85.0041625975
 20
89.236863381
 30
0.0
 10
85.0421189154
 20
87.9367721319
 30
0.0
 10
85.0880730968
 20
86.056809534
 30
0.0
 10
85.1411738877
 20
83.543868603
 30
0.0
 10
85.1944741393
 20
80.7548930665
 30
0.0
 10
85.2479131923
 20
77.7887433541
 30
0.0
 10
85.3013917309
 20
74.7505583538
 30
0.0
 10
85.3548544047
 20
71.7480332622
 30
0.0
 10
85.4002021657
 20
69.316682402
 30
0.0
 10
85.437047404
 20
67.4690820792
 30
0.0
 10
85.4640957967
 20
66.1856900679
 30
0.0
 10
85.4911169593
 20
64.9873068634
 30
0.0
 10
85.5181067456
 20
63.8845626712
 30
0.0
 10
85.5450400899
 20
62.8872697856
 30
0.0
 10
85.5719127826
 20
62.0042571248
 30
0.0
 10
85.5951162351
 20
61.3435573424
 30
0.0
 10
85.6140196374
 20
60.877944463
 30
0.0
 10
85.6275326495
 20
60.5777910836
 30
0.0
 10
85.641018969
 20
60.3113377052
 30
0.0
 10
85.6544620301
 20
60.0792170844
 30
0.0
 10
85.6678706215
 20
59.881895013
 30
0.0
 10
85.6811251954
 20
59.7199063869
 30
0.0
 10
85.6943437787
 20
59.5932094551
 30
0.0
 10
85.7068412522
 20
59.5028756436
 30
0.0
 10
85.7186377652
 20
59.4489680623
 30
0.0
 10
85.7280002196
 20
59.4249181555
 30
0.0
 10
85.7344822074
 20
59.4185625072
 30
0.0
 10
85.7372083895
 20
59.4185599957
 30
0.0
  0
SPLINE
  5
488
100
AcDbEntity
  8
0
100
AcDbSpline
 62
7
  6
CONTINUOUS
 70
0
 71
3
 72
11
 73
7
 74
0
 42
0.0000001
 43
0.0000001
 44
0.0000000001
 40
0.0
 40
0.0
 40
0.0
 40
0.0
 40
0.2459387243
 40
0.4955273251
 40
0.7487348035
 40
1.0
 40
1.0
 40
1.0
 40
1.0
 10
106.3482637814
 20
145.7565005905
 30
0.0
 10
106.3679890025
 20
145.7565012772
 30
0.0
 10
106.4084638284
 20
145.7666471001
 30
0.0
 10
106.453497441
 20
145.8114918367
 30
0.0
 10
106.462886927
 20
145.8761025751
 30
0.0
 10
106.4403355187
 20
145.9136162284
 30
0.0
 10
106.4254595283
 20
145.9272112687
 30
0.0
  0
SPLINE
  5
489
100
AcDbEntity
  8
0
100
AcDbSpline
 62
7
  6
CONTINUOUS
 70
0
 71
3
 72
15
 73
11
 74
0
 42
0.0000001
 43
0.0000001
 44
0.0000000001
 40
0.0
 40
0.0
 40
0.0
 40
0.0
 40
0.1278029498
 40
0.2330024225
 40
0.318416743
 40
0.4016935821
 40
0.5078427875
 40
0.6456614718
 40
0.8120324502
 40
1.0
 40
1.0
 40
1.0
 40
1.0
 10
104.6124978403
 20
95.2565005905
 30
0.0
 10
104.6311466422
 20
95.2565005905
 30
0.0
 10
104.6652324751
 20
95.2546144373
 30
0.0
 10
104.7107355101
 20
95.2433125518
 30
0.0
 10
104.7445160656
 20
95.2181156769
 30
0.0
 10
104.7552479335
 20
95.1766516239
 30
0.0
 10
104.7411567169
 20
95.1297496029
 30
0.0
 10
104.7115681821
 20
95.0775928078
 30
0.0
 10
104.6671124881
 20
95.0208912319
 30
0.0
 10
104.6317987274
 20
94.9830949772
 30
0.0
 10
104.6124978401
 20
94.9636073717
 30
0.0
  0
SPLINE
  5
48A
100
AcDbEntity
  8
0
100
AcDbSpline
 62
7
  6
CONTINUOUS
 70
0
 71
3
 72
9
 73
5
 74
0
 42
0.0000001
 43
0.0000001
 44
0.0000000001
 40
0.0
 40
0.0
 40
0.0
 40
0.0
 40
0.1907588566
 40
1.0
 40
1.0
 40
1.0
 40
1.0
 10
83.0260049957
 20
92.085081684
 30
0.0
 10
83.0270109089
 20
92.0831474485
 30
0.0
 10
83.0316534836
 20
92.0726838493
 30
0.0
 10
83.0346580941
 20
92.0615900726
 30
0.0
 10
83.0368751312
 20
92.0526109795
 30
0.0
  0
SPLINE
  5
48B
100
AcDbEntity
  8
0
100
AcDbSpline
 62
7
  6
CONTINUOUS
 70
0
 71
3
 72
40
 73
36
 74
0
 42
0.0000001
 43
0.0000001
 44
0.0000000001
 40
0.0
 40
0.0
 40
0.0
 40
0.0
 40
0.0023289949
 40
0.0057864495
 40
0.01608118
 40
0.0308063254
 40
0.0498343323
 40
0.0729902842
 40
0.1000643431
 40
0.1308068237
 40
0.1649366094
 40
0.2420739129
 40
0.3286472941
 40
0.4214807391
 40
0.5171681722
 40
0.6121986564
 40
0.7030853898
 40
0.7459234796
 40
0.78649384
 40
0.8244235302
 40
0.8593643462
 40
0.8909946038
 40
0.9190249468
 40
0.9431968454
 40
0.953766952
 40
0.9632909824
 40
0.9717484889
 40
0.9791223058
 40
0.9853955039
 40
0.9905521252
 40
0.9945831555
 40
0.997485356
 40
0.9992630488
 40
0.9997440349
 40
1.0
 40
1.0
 40
1.0
 40
1.0
 10
83.0368751312
 20
92.0526109795
 30
0.0
 10
83.0429525025
 20
92.0279973708
 30
0.0
 10
83.0531775922
 20
91.9657226507
 30
0.0
 10
83.0737126826
 20
91.7919121507
 30
0.0
 10
83.0966884705
 20
91.4826231092
 30
0.0
 10
83.1234605631
 20
91.0039193644
 30
0.0
 10
83.1502855516
 20
90.3849708486
 30
0.0
 10
83.1775009566
 20
89.6315431818
 30
0.0
 10
83.2047942614
 20
88.7505159509
 30
0.0
 10
83.2321957184
 20
87.7499882901
 30
0.0
 10
83.2703672516
 20
86.2045809628
 30
0.0
 10
83.3169588228
 20
84.0514444762
 30
0.0
 10
83.3711473145
 20
81.2593009052
 30
0.0
 10
83.4254683631
 20
78.2651931321
 30
0.0
 10
83.4798538714
 20
75.1790105845
 30
0.0
 10
83.5342292264
 20
72.1140225121
 30
0.0
 10
83.5803226153
 20
69.6242813962
 30
0.0
 10
83.6177822082
 20
67.7273217556
 30
0.0
 10
83.6453040462
 20
66.4067547274
 30
0.0
 10
83.6728000018
 20
65.1721744136
 30
0.0
 10
83.7002609401
 20
64.0349386653
 30
0.0
 10
83.7276699908
 20
63.0054971293
 30
0.0
 10
83.7550086556
 20
62.0933273664
 30
0.0
 10
83.7786241605
 20
61.4104089884
 30
0.0
 10
83.7978506053
 20
60.9289233058
 30
0.0
 10
83.8116016023
 20
60.6184221705
 30
0.0
 10
83.8253288604
 20
60.3427473351
 30
0.0
 10
83.8390093903
 20
60.1025201366
 30
0.0
 10
83.8526487719
 20
59.8982501024
 30
0.0
 10
83.8661310665
 20
59.730563204
 30
0.0
 10
83.8795979453
 20
59.5994167557
 30
0.0
 10
83.8922976731
 20
59.5059159225
 30
0.0
 10
83.9043336387
 20
59.450039835
 30
0.0
 10
83.9137958961
 20
59.425149202
 30
0.0
 10
83.9204221153
 20
59.4185094084
 30
0.0
 10
83.9232084668
 20
59.418518263
 30
0.0
  0
SPLINE
  5
48C
100
AcDbEntity
  8
0
100
AcDbSpline
 62
7
  6
CONTINUOUS
 70
0
 71
3
 72
9
 73
5
 74
0
 42
0.0000001
 43
0.0000001
 44
0.0000000001
 40
0.0
 40
0.0
 40
0.0
 40
0.0
 40
0.2498027657
 40
1.0
 40
1.0
 40
1.0
 40
1.0
 10
106.3413094972
 20
139.005028728
 30
0.0
 10
106.3496661263
 20
139.0046211192
 30
0.0
 10
106.3831197947
 20
139.0039262821
 30
0.0
 10
106.416566867
 20
139.0059324584
 30
0.0
 10
106.4416387665
 20
139.0071837985
 30
0.0
  0
SPLINE
  5
48D
100
AcDbEntity
  8
0
100
AcDbSpline
 62
7
  6
CONTINUOUS
 70
0
 71
3
 72
9
 73
5
 74
0
 42
0.0000001
 43
0.0000001
 44
0.0000000001
 40
0.0
 40
0.0
 40
0.0
 40
0.0
 40
0.2102904303
 40
1.0
 40
1.0
 40
1.0
 40
1.0
 10
106.4416387665
 20
139.0071837985
 30
0.0
 10
106.4514898228
 20
139.0076754654
 30
0.0
 10
106.4983370064
 20
139.0099460102
 30
0.0
 10
106.5452453425
 20
139.0111755363
 30
0.0
 10
106.582285339
 20
139.0111751541
 30
0.0
  0
SPLINE
  5
48E
100
AcDbEntity
  8
0
100
AcDbSpline
 62
7
  6
CONTINUOUS
 70
0
 71
3
 72
25
 73
21
 74
0
 42
0.0000001
 43
0.0000001
 44
0.0000000001
 40
0.0
 40
0.0
 40
0.0
 40
0.0
 40
0.2122879152
 40
0.4067973253
 40
0.4960266358
 40
0.5792490226
 40
0.6559932404
 40
0.7258489241
 40
0.7884301074
 40
0.8433842804
 40
0.8904268629
 40
0.9292874484
 40
0.9455833053
 40
0.9597640679
 40
0.9718116917
 40
0.9817093624
 40
0.9894455865
 40
0.9950258721
 40
0.9984813176
 40
1.0
 40
1.0
 40
1.0
 40
1.0
 10
81.766310142
 20
69.6495149122
 30
0.0
 10
81.7801183506
 20
68.9247344767
 30
0.0
 10
81.8073299922
 20
67.5358860276
 30
0.0
 10
81.8434349815
 20
65.8424581218
 30
0.0
 10
81.8727229087
 20
64.5897164364
 30
0.0
 10
81.894033977
 20
63.7390389651
 30
0.0
 10
81.915328343
 20
62.9545396552
 30
0.0
 10
81.936592415
 20
62.2405521345
 30
0.0
 10
81.9578148213
 20
61.6010079639
 30
0.0
 10
81.9789813883
 20
61.0394086342
 30
0.0
 10
82.0000591969
 20
60.5588775998
 30
0.0
 10
82.01840334
 20
60.2103567997
 30
0.0
 10
82.0334579572
 20
59.974078829
 30
0.0
 10
82.0440679929
 20
59.8292181163
 30
0.0
 10
82.0545645127
 20
59.7064060486
 30
0.0
 10
82.065169043
 20
59.6052998655
 30
0.0
 10
82.0751544193
 20
59.5274281477
 30
0.0
 10
82.0860253551
 20
59.4693198284
 30
0.0
 10
82.0940135937
 20
59.4376234456
 30
0.0
 10
82.1040224401
 20
59.4185486778
 30
0.0
 10
82.1092083451
 20
59.4185314703
 30
0.0
  0
SPLINE
  5
48F
100
AcDbEntity
  8
0
100
AcDbSpline
 62
7
  6
CONTINUOUS
 70
0
 71
3
 72
42
 73
38
 74
0
 42
0.0000001
 43
0.0000001
 44
0.0000000001
 40
0.0
 40
0.0
 40
0.0
 40
0.0
 40
0.0002576202
 40
0.0007427886
 40
0.0025387235
 40
0.0054721899
 40
0.0095464448
 40
0.0147572182
 40
0.0210965124
 40
0.0285484834
 40
0.0370949944
 40
0.0467177012
 40
0.0573967187
 40
0.0818156802
 40
0.1101249268
 40
0.142062985
 40
0.1773320599
 40
0.2156057856
 40
0.2565271022
 40
0.2997170116
 40
0.3912763994
 40
0.4868868369
 40
0.5830006702
 40
0.6760515427
 40
0.7625869064
 40
0.8023954566
 40
0.8393963943
 40
0.8732469657
 40
0.9036313362
 40
0.9302691966
 40
0.9529115958
 40
0.9713516952
 40
0.9854179925
 40
0.990772428
 40
0.9949894239
 40
0.9980636854
 40
1.0
 40
1.0
 40
1.0
 40
1.0
 10
86.8642083451
 20
92.0944664197
 30
0.0
 10
86.8670142973
 20
92.0944755619
 30
0.0
 10
86.8736815951
 20
92.0877541724
 30
0.0
 10
86.8831938241
 20
92.0626076326
 30
0.0
 10
86.895296421
 20
92.0060930735
 30
0.0
 10
86.9080638452
 20
91.9115408573
 30
0.0
 10
86.9216062005
 20
91.7789133794
 30
0.0
 10
86.9351666061
 20
91.6093532204
 30
0.0
 10
86.9488828224
 20
91.4028058389
 30
0.0
 10
86.9626395351
 20
91.1599023573
 30
0.0
 10
86.9764435796
 20
90.8811760757
 30
0.0
 10
86.990273098
 20
90.5672690359
 30
0.0
 10
87.0096073642
 20
90.0805591898
 30
0.0
 10
87.0333528673
 20
89.3903398107
 30
0.0
 10
87.0608473169
 20
88.4685734278
 30
0.0
 10
87.0884086
 20
87.4285846007
 30
0.0
 10
87.1160252369
 20
86.2800314
 30
0.0
 10
87.1436745088
 20
85.0336086054
 30
0.0
 10
87.1713516861
 20
83.7008940178
 30
0.0
 10
87.2090104729
 20
81.7878819723
 30
0.0
 10
87.2553464553
 20
79.2792596872
 30
0.0
 10
87.3100198176
 20
76.1942539053
 30
0.0
 10
87.3646964611
 20
73.093000478
 30
0.0
 10
87.4193176013
 20
70.0906063531
 30
0.0
 10
87.4658927509
 20
67.7014380076
 30
0.0
 10
87.5038422684
 20
65.9227105168
 30
0.0
 10
87.5314805601
 20
64.7177311559
 30
0.0
 10
87.5590753344
 20
63.6154271129
 30
0.0
 10
87.5866082854
 20
62.6260324966
 30
0.0
 10
87.614058177
 20
61.7587689008
 30
0.0
 10
87.641324181
 20
61.0216601746
 30
0.0
 10
87.6684289665
 20
60.4216050083
 30
0.0
 10
87.6921061405
 20
60.0098576564
 30
0.0
 10
87.7121762299
 20
59.7532022269
 30
0.0
 10
87.7255242184
 20
59.6160433749
 30
0.0
 10
87.738885379
 20
59.5165276663
 30
0.0
 10
87.7490134546
 20
59.4626519465
 30
0.0
 10
87.7555416874
 20
59.4425976612
 30
0.0
  0
SPLINE
  5
490
100
AcDbEntity
  8
0
100
AcDbSpline
 62
7
  6
CONTINUOUS
 70
0
 71
3
 72
9
 73
5
 74
0
 42
0.0000001
 43
0.0000001
 44
0.0000000001
 40
0.0
 40
0.0
 40
0.0
 40
0.0
 40
0.287384699
 40
1.0
 40
1.0
 40
1.0
 40
1.0
 10
87.7555416874
 20
59.4425976612
 30
0.0
 10
87.7560102529
 20
59.44115826
 30
0.0
 10
87.75770919
 20
59.4361747924
 30
0.0
 10
87.7596801716
 20
59.4312659478
 30
0.0
 10
87.7614118103
 20
59.4279356732
 30
0.0
  0
SPLINE
  5
491
100
AcDbEntity
  8
0
100
AcDbSpline
 62
7
  6
CONTINUOUS
 70
0
 71
3
 72
18
 73
14
 74
0
 42
0.0000001
 43
0.0000001
 44
0.0000000001
 40
0.0
 40
0.0
 40
0.0
 40
0.0
 40
0.0037980031
 40
0.0150992685
 40
0.0339603362
 40
0.0604319567
 40
0.0945673994
 40
0.1364231738
 40
0.2435362234
 40
0.3823229074
 40
0.5536953287
 40
0.7590055994
 40
1.0
 40
1.0
 40
1.0
 40
1.0
 10
106.8413094972
 20
98.4835904789
 30
0.0
 10
106.8414203252
 20
98.483984955
 30
0.0
 10
106.8437655793
 20
98.482809606
 30
0.0
 10
106.8466630339
 20
98.4830459952
 30
0.0
 10
106.8530473298
 20
98.4812825531
 30
0.0
 10
106.861229833
 20
98.4796132157
 30
0.0
 10
106.8720404523
 20
98.4769102421
 30
0.0
 10
106.8911323772
 20
98.4720051018
 30
0.0
 10
106.921033134
 20
98.4635357041
 30
0.0
 10
106.9640345575
 20
98.4502350398
 30
0.0
 10
107.0164865912
 20
98.4316838455
 30
0.0
 10
107.0781895253
 20
98.4064490655
 30
0.0
 10
107.1217674248
 20
98.3859053165
 30
0.0
 10
107.1450005475
 20
98.3742344084
 30
0.0
  0
SPLINE
  5
492
100
AcDbEntity
  8
0
100
AcDbSpline
 62
7
  6
CONTINUOUS
 70
0
 71
3
 72
43
 73
39
 74
0
 42
0.0000001
 43
0.0000001
 44
0.0000000001
 40
0.0
 40
0.0
 40
0.0
 40
0.0
 40
0.0002593664
 40
0.000747862
 40
0.0025541394
 40
0.0055074128
 40
0.0096126997
 40
0.0148617585
 40
0.0212438734
 40
0.0287473794
 40
0.0373557695
 40
0.0470468167
 40
0.0577978303
 40
0.0823841148
 40
0.1108820428
 40
0.1430283222
 40
0.1785195058
 40
0.2170257307
 40
0.2581844816
 40
0.3016118871
 40
0.3936254555
 40
0.4896269624
 40
0.5860276309
 40
0.6792237427
 40
0.7657315396
 40
0.8054544729
 40
0.8423177278
 40
0.8759792394
 40
0.9061207621
 40
0.9324638552
 40
0.9547590322
 40
0.972802506
 40
0.9801754651
 40
0.9864246111
 40
0.991538934
 40
0.9955088294
 40
0.9983271765
 40
1.0
 40
1.0
 40
1.0
 40
1.0
 10
85.0502084589
 20
92.094449329
 30
0.0
 10
85.0530342746
 20
92.0944428818
 30
0.0
 10
85.0597094435
 20
92.0876411205
 30
0.0
 10
85.0692671961
 20
92.062340937
 30
0.0
 10
85.0814189691
 20
92.0054289636
 30
0.0
 10
85.0942336585
 20
91.910192012
 30
0.0
 10
85.1078178742
 20
91.7765484432
 30
0.0
 10
85.1214278225
 20
91.6057179613
 30
0.0
 10
85.1352014259
 20
91.397664033
 30
0.0
 10
85.1490101176
 20
91.1529866298
 30
0.0
 10
85.1628621923
 20
90.872197285
 30
0.0
 10
85.1767418077
 20
90.5559940893
 30
0.0
 10
85.1961537439
 20
90.0657883934
 30
0.0
 10
85.2199816253
 20
89.370701413
 30
0.0
 10
85.247581419
 20
88.4425150527
 30
0.0
 10
85.2752437677
 20
87.3954742623
 30
0.0
 10
85.3029641585
 20
86.2393596879
 30
0.0
 10
85.3307158913
 20
84.9850282868
 30
0.0
 10
85.3584962512
 20
83.6442119749
 30
0.0
 10
85.3962881018
 20
81.720511305
 30
0.0
 10
85.44278547
 20
79.1993504962
 30
0.0
 10
85.4976568708
 20
76.1010985724
 30
0.0
 10
85.5525294523
 20
72.9899606167
 30
0.0
 10
85.6073428922
 20
69.982272992
 30
0.0
 10
85.6541025774
 20
67.5920513369
 30
0.0
 10
85.6922123644
 20
65.8155342429
 30
0.0
 10
85.7199511623
 20
64.6146942718
 30
0.0
 10
85.7476392559
 20
63.5182733067
 30
0.0
 10
85.7752731745
 20
62.5365098213
 30
0.0
 10
85.8027904414
 20
61.6786327931
 30
0.0
 10
85.8301905544
 20
60.9526443289
 30
0.0
 10
85.8540709448
 20
60.4333516247
 30
0.0
 10
85.8738467701
 20
60.0889237088
 30
0.0
 10
85.8875701743
 20
59.8852267269
 30
0.0
 10
85.9012866467
 20
59.7187753876
 30
0.0
 10
85.914526977
 20
59.5896302189
 30
0.0
 10
85.9279800706
 20
59.4986628343
 30
0.0
 10
85.9379004273
 20
59.4502923557
 30
0.0
 10
85.9448751311
 20
59.4334541487
 30
0.0
  0
LINE
  5
493
100
AcDbEntity
  8
0
100
AcDbLine
 62
7
  6
CONTINUOUS
 10
85.9448751311
 20
59.4334541487
 11
85.9474119191
 21
59.4279593591
  0
SPLINE
  5
494
100
AcDbEntity
  8
0
100
AcDbSpline
 62
7
  6
CONTINUOUS
 70
0
 71
3
 72
11
 73
7
 74
0
 42
0.0000001
 43
0.0000001
 44
0.0000000001
 40
0.0
 40
0.0
 40
0.0
 40
0.0
 40
0.0872972459
 40
0.2766953537
 40
0.5802444174
 40
1.0
 40
1.0
 40
1.0
 40
1.0
 10
83.3183094972
 20
58.2565005905
 30
0.0
 10
83.3142828839
 20
58.2565005905
 30
0.0
 10
83.3058170331
 20
58.2698625694
 30
0.0
 10
83.2992212301
 20
58.2937206098
 30
0.0
 10
83.2901898063
 20
58.3359891531
 30
0.0
 10
83.2855164199
 20
58.3686847003
 30
0.0
 10
83.2829257668
 20
58.3878719558
 30
0.0
  0
SPLINE
  5
495
100
AcDbEntity
  8
0
100
AcDbSpline
 62
7
  6
CONTINUOUS
 70
0
 71
3
 72
34
 73
30
 74
0
 42
0.0000001
 43
0.0000001
 44
0.0000000001
 40
0.0
 40
0.0
 40
0.0
 40
0.0
 40
0.0079250751
 40
0.0201063518
 40
0.0364421978
 40
0.056795602
 40
0.0809889706
 40
0.108814117
 40
0.1743577458
 40
0.2511549258
 40
0.3365397962
 40
0.4275421568
 40
0.520995318
 40
0.6136584274
 40
0.7023118779
 40
0.7838703121
 40
0.8210905812
 40
0.8555000307
 40
0.8867993437
 40
0.9147175193
 40
0.9390101314
 40
0.9594677198
 40
0.9759121572
 40
0.9825844034
 40
0.9882051946
 40
0.9927616379
 40
0.996244769
 40
0.9986538758
 40
1.0
 40
1.0
 40
1.0
 40
1.0
 10
83.2829257668
 20
58.3878719558
 30
0.0
 10
83.2705980483
 20
58.4791752209
 30
0.0
 10
83.2509768664
 20
58.71225927
 30
0.0
 10
83.2251334105
 20
59.1350671669
 30
0.0
 10
83.1992375155
 20
59.7026595198
 30
0.0
 10
83.1728177387
 20
60.4099395744
 30
0.0
 10
83.146306583
 20
61.2508784057
 30
0.0
 10
83.1087159598
 20
62.6170625456
 30
0.0
 10
83.0631927013
 20
64.5947860767
 30
0.0
 10
83.010606293
 20
67.2416547518
 30
0.0
 10
82.9578171242
 20
70.1845394355
 30
0.0
 10
82.9048887697
 20
73.3210811615
 30
0.0
 10
82.8519154542
 20
76.5422458543
 30
0.0
 10
82.7989591764
 20
79.7361003063
 30
0.0
 10
82.7460761876
 20
82.7916560632
 30
0.0
 10
82.7008972231
 20
85.202705426
 30
0.0
 10
82.6640767105
 20
86.9831908157
 30
0.0
 10
82.6373392066
 20
88.179478391
 30
0.0
 10
82.610647375
 20
89.2675980858
 30
0.0
 10
82.5840164739
 20
90.238067644
 30
0.0
 10
82.5574964407
 20
91.0824518551
 30
0.0
 10
82.5310984247
 20
91.7933693064
 30
0.0
 10
82.5080839083
 20
92.2994372156
 30
0.0
 10
82.4889717383
 20
92.6329598202
 30
0.0
 10
82.4757852574
 20
92.8284397963
 30
0.0
 10
82.462534007
 20
92.9865979795
 30
0.0
 10
82.4499617466
 20
93.1076838375
 30
0.0
 10
82.4368189294
 20
93.1903340779
 30
0.0
 10
82.4276666588
 20
93.2337954045
 30
0.0
 10
82.4204559892
 20
93.2476843381
 30
0.0
  0
SPLINE
  5
496
100
AcDbEntity
  8
0
100
AcDbSpline
 62
7
  6
CONTINUOUS
 70
0
 71
3
 72
11
 73
7
 74
0
 42
0.0000001
 43
0.0000001
 44
0.0000000001
 40
0.0
 40
0.0
 40
0.0
 40
0.0
 40
0.0872852156
 40
0.276681491
 40
0.580234765
 40
1.0
 40
1.0
 40
1.0
 40
1.0
 10
85.1323094972
 20
58.2565005905
 30
0.0
 10
85.1282810907
 20
58.2565005905
 30
0.0
 10
85.1198129533
 20
58.2698722054
 30
0.0
 10
85.1132153393
 20
58.2937430322
 30
0.0
 10
85.1041811342
 20
58.3360380126
 30
0.0
 10
85.0995063525
 20
58.3687532226
 30
0.0
 10
85.0969149077
 20
58.387952215
 30
0.0
  0
SPLINE
  5
497
100
AcDbEntity
  8
0
100
AcDbSpline
 62
7
  6
CONTINUOUS
 70
0
 71
3
 72
34
 73
30
 74
0
 42
0.0000001
 43
0.0000001
 44
0.0000000001
 40
0.0
 40
0.0
 40
0.0
 40
0.0
 40
0.0079267636
 40
0.0201096811
 40
0.0364469065
 40
0.0568014622
 40
0.0809956824
 40
0.1088215103
 40
0.1743668607
 40
0.2511636513
 40
0.3365425599
 40
0.4275392882
 40
0.5209901838
 40
0.6136484219
 40
0.7022983724
 40
0.7838581528
 40
0.8210792011
 40
0.8554901341
 40
0.8867903166
 40
0.9147105561
 40
0.9390047515
 40
0.9594650264
 40
0.9759108724
 40
0.9825836982
 40
0.9882049364
 40
0.9927616017
 40
0.9962447991
 40
0.9986539015
 40
1.0
 40
1.0
 40
1.0
 40
1.0
 10
85.0969149077
 20
58.387952215
 30
0.0
 10
85.0845882956
 20
58.4792752218
 30
0.0
 10
85.0649668226
 20
58.7123974052
 30
0.0
 10
85.0391236332
 20
59.1352592544
 30
0.0
 10
85.0132275599
 20
59.7028987855
 30
0.0
 10
84.9868083449
 20
60.4102165862
 30
0.0
 10
84.9602975963
 20
61.2511846974
 30
0.0
 10
84.9227075178
 20
62.6174035389
 30
0.0
 10
84.8771851616
 20
64.5951459192
 30
0.0
 10
84.8246007618
 20
67.241954668
 30
0.0
 10
84.7718144403
 20
70.1846932468
 30
0.0
 10
84.7188890375
 20
73.3210666074
 30
0.0
 10
84.6659182275
 20
76.5420754121
 30
0.0
 10
84.6129642841
 20
79.7357988277
 30
0.0
 10
84.5600831259
 20
82.7912658538
 30
0.0
 10
84.514905724
 20
85.2022936758
 30
0.0
 10
84.4780843167
 20
86.9828168828
 30
0.0
 10
84.45134767
 20
88.179138128
 30
0.0
 10
84.4246543536
 20
89.2673066252
 30
0.0
 10
84.3980243951
 20
90.23782649
 30
0.0
 10
84.3715011304
 20
91.0822823061
 30
0.0
 10
84.3451033825
 20
91.7932641762
 30
0.0
 10
84.3220864421
 20
92.299385209
 30
0.0
 10
84.3029730524
 20
92.6329353204
 30
0.0
 10
84.2897859857
 20
92.828429358
 30
0.0
 10
84.2765341384
 20
92.9865956902
 30
0.0
 10
84.2639616029
 20
93.1076845707
 30
0.0
 10
84.2508188006
 20
93.1903350226
 30
0.0
 10
84.2416665813
 20
93.233795916
 30
0.0
 10
84.2344559882
 20
93.247684512
 30
0.0
  0
SPLINE
  5
498
100
AcDbEntity
  8
0
100
AcDbSpline
 62
7
  6
CONTINUOUS
 70
0
 71
3
 72
40
 73
36
 74
0
 42
0.0000001
 43
0.0000001
 44
0.0000000001
 40
0.0
 40
0.0
 40
0.0
 40
0.0
 40
0.0002558893
 40
0.0007361378
 40
0.0025088788
 40
0.0054024553
 40
0.0094225362
 40
0.0145663815
 40
0.0208225479
 40
0.0281758514
 40
0.0366107056
 40
0.046110609
 40
0.0566528957
 40
0.0807613179
 40
0.108721583
 40
0.1402729548
 40
0.1751310742
 40
0.2129727236
 40
0.2534544761
 40
0.2962026249
 40
0.3869183612
 40
0.4818012786
 40
0.5773800341
 40
0.6701577949
 40
0.7567403456
 40
0.8339604915
 40
0.8681602218
 40
0.8989943834
 40
0.9261782623
 40
0.9494656958
 40
0.968642185
 40
0.9835360867
 40
0.9940141446
 40
0.997569856
 40
1.0
 40
1.0
 40
1.0
 40
1.0
 10
83.2362083943
 20
92.0944994399
 30
0.0
 10
83.2389934652
 20
92.0945025264
 30
0.0
 10
83.2455988823
 20
92.0878631146
 30
0.0
 10
83.255056412
 20
92.0630448265
 30
0.0
 10
83.267071459
 20
92.007331156
 30
0.0
 10
83.2797588963
 20
91.9141154245
 30
0.0
 10
83.293204361
 20
91.783342146
 30
0.0
 10
83.3066638117
 20
91.6161270855
 30
0.0
 10
83.3202853334
 20
91.412439098
 30
0.0
 10
83.3339469735
 20
91.1729075253
 30
0.0
 10
83.3476548037
 20
90.8980113816
 30
0.0
 10
83.3613837142
 20
90.5883741876
 30
0.0
 10
83.3805837034
 20
90.1082256111
 30
0.0
 10
83.4041666393
 20
89.4271782298
 30
0.0
 10
83.4314632577
 20
88.5174735826
 30
0.0
 10
83.4588352823
 20
87.4907261403
 30
0.0
 10
83.4862543966
 20
86.3563979349
 30
0.0
 10
83.5137125797
 20
85.1248473806
 30
0.0
 10
83.5411932276
 20
83.807403288
 30
0.0
 10
83.5786027802
 20
81.9145661762
 30
0.0
 10
83.6246330688
 20
79.4296885869
 30
0.0
 10
83.6789322916
 20
76.3698642816
 30
0.0
 10
83.7332421384
 20
73.2875938182
 30
0.0
 10
83.7874888814
 20
70.2956765276
 30
0.0
 10
83.8416057662
 20
67.5036047173
 30
0.0
 10
83.8881249877
 20
65.3490649459
 30
0.0
 10
83.9262335971
 20
63.8012540061
 30
0.0
 10
83.9535952959
 20
62.7979376
 30
0.0
 10
83.9808593976
 20
61.9134321105
 30
0.0
 10
84.0080345221
 20
61.1558830846
 30
0.0
 10
84.0348532478
 20
60.5321540913
 30
0.0
 10
84.0615807594
 20
60.0480634514
 30
0.0
 10
84.0846019415
 20
59.733933107
 30
0.0
 10
84.1050476169
 20
59.5559369784
 30
0.0
 10
84.1152691494
 20
59.4914918088
 30
0.0
 10
84.1212580748
 20
59.4657293254
 30
0.0
  0
SPLINE
  5
499
100
AcDbEntity
  8
0
100
AcDbSpline
 62
7
  6
CONTINUOUS
 70
0
 71
3
 72
9
 73
5
 74
0
 42
0.0000001
 43
0.0000001
 44
0.0000000001
 40
0.0
 40
0.0
 40
0.0
 40
0.0
 40
0.3153673226
 40
1.0
 40
1.0
 40
1.0
 40
1.0
 10
84.1212580748
 20
59.4657293254
 30
0.0
 10
84.1222046742
 20
59.461657351
 30
0.0
 10
84.1254331324
 20
59.4488283854
 30
0.0
 10
84.129220115
 20
59.435955311
 30
0.0
 10
84.1334118698
 20
59.4279057483
 30
0.0
  0
SPLINE
  5
49A
100
AcDbEntity
  8
0
100
AcDbSpline
 62
7
  6
CONTINUOUS
 70
0
 71
3
 72
11
 73
7
 74
0
 42
0.0000001
 43
0.0000001
 44
0.0000000001
 40
0.0
 40
0.0
 40
0.0
 40
0.0
 40
0.0871423888
 40
0.27652586
 40
0.5801331171
 40
1.0
 40
1.0
 40
1.0
 40
1.0
 10
86.9463094972
 20
58.2565005905
 30
0.0
 10
86.9422590151
 20
58.2565005905
 30
0.0
 10
86.9337635429
 20
58.2699917345
 30
0.0
 10
86.927143756
 20
58.2940189836
 30
0.0
 10
86.9180759112
 20
58.3366374944
 30
0.0
 10
86.9133840196
 20
58.3695924634
 30
0.0
 10
86.9107829351
 20
58.3889342633
 30
0.0
  0
SPLINE
  5
49B
100
AcDbEntity
  8
0
100
AcDbSpline
 62
7
  6
CONTINUOUS
 70
0
 71
3
 72
34
 73
30
 74
0
 42
0.0000001
 43
0.0000001
 44
0.0000000001
 40
0.0
 40
0.0
 40
0.0
 40
0.0
 40
0.0079464848
 40
0.0201476613
 40
0.0365015952
 40
0.0568713263
 40
0.0810788335
 40
0.1089162722
 40
0.1744790282
 40
0.2512869578
 40
0.3366708091
 40
0.4276628272
 40
0.5211038568
 40
0.6137504024
 40
0.7023817357
 40
0.7839208496
 40
0.8211328745
 40
0.855534861
 40
0.8868266106
 40
0.9147378173
 40
0.9390240539
 40
0.9594767997
 40
0.9759172367
 40
0.982588065
 40
0.9882077049
 40
0.9927631386
 40
0.996245487
 40
0.9986540946
 40
1.0
 40
1.0
 40
1.0
 40
1.0
 10
86.9107829351
 20
58.3889342633
 30
0.0
 10
86.8984708042
 20
58.4804879097
 30
0.0
 10
86.8788463655
 20
58.7140445331
 30
0.0
 10
86.8530070702
 20
59.137532464
 30
0.0
 10
86.8271105369
 20
59.7057387856
 30
0.0
 10
86.8006947936
 20
60.4135622495
 30
0.0
 10
86.7741863867
 20
61.2549725155
 30
0.0
 10
86.7366032578
 20
62.6216446863
 30
0.0
 10
86.691086657
 20
64.5997978613
 30
0.0
 10
86.6385079916
 20
67.2469208569
 30
0.0
 10
86.5857279106
 20
70.1897081094
 30
0.0
 10
86.5328093571
 20
73.3258804344
 30
0.0
 10
86.4798457123
 20
76.5464923894
 30
0.0
 10
86.4268990965
 20
79.7396580434
 30
0.0
 10
86.3740260075
 20
82.7944456744
 30
0.0
 10
86.3288555153
 20
85.2048434228
 30
0.0
 10
86.2920404517
 20
86.9848669021
 30
0.0
 10
86.2653072529
 20
88.1808472033
 30
0.0
 10
86.2386191234
 20
89.2686777559
 30
0.0
 10
86.211992967
 20
90.2388744547
 30
0.0
 10
86.1854764612
 20
91.0830212702
 30
0.0
 10
86.1590834269
 20
91.793739996
 30
0.0
 10
86.1360716668
 20
92.2996730348
 30
0.0
 10
86.1169622512
 20
92.6331090241
 30
0.0
 10
86.1037775808
 20
92.8285413708
 30
0.0
 10
86.090527895
 20
92.9866605069
 30
0.0
 10
86.077957018
 20
93.1077158291
 30
0.0
 10
86.064816358
 20
93.1903463953
 30
0.0
 10
86.0556650684
 20
93.2337976646
 30
0.0
 10
86.0484559886
 20
93.2476840155
 30
0.0
  0
SPLINE
  5
49C
100
AcDbEntity
  8
0
100
AcDbSpline
 62
7
  6
CONTINUOUS
 70
0
 71
3
 72
21
 73
17
 74
0
 42
0.0000001
 43
0.0000001
 44
0.0000000001
 40
0.0
 40
0.0
 40
0.0
 40
0.0
 40
0.1644050365
 40
0.3345605475
 40
0.5012586471
 40
0.6554798911
 40
0.7252664666
 40
0.7888816374
 40
0.8454642081
 40
0.8942494045
 40
0.9345706252
 40
0.9658920852
 40
0.978037963
 40
0.9877901196
 40
0.9951171601
 40
1.0
 40
1.0
 40
1.0
 40
1.0
 10
81.7663082753
 20
81.8003622267
 30
0.0
 10
81.7895829102
 20
80.5767077082
 30
0.0
 10
81.8347526587
 20
78.0865568563
 30
0.0
 10
81.9002748386
 20
74.3556264472
 30
0.0
 10
81.9657411587
 20
70.7005178152
 30
0.0
 10
82.0217362622
 20
67.7925329283
 30
0.0
 10
82.067710444
 20
65.6518818211
 30
0.0
 10
82.1009673354
 20
64.2379762015
 30
0.0
 10
82.1341323099
 20
62.9804573265
 30
0.0
 10
82.1670904863
 20
61.8964021189
 30
0.0
 10
82.1998716551
 20
61.0005046788
 30
0.0
 10
82.2284850693
 20
60.377382175
 30
0.0
 10
82.2526034857
 20
59.981941024
 30
0.0
 10
82.268868128
 20
59.764954256
 30
0.0
 10
82.2850225531
 20
59.602298539
 30
0.0
 10
82.2974040373
 20
59.5121178361
 30
0.0
 10
82.3048751312
 20
59.4765447237
 30
0.0
  0
SPLINE
  5
49D
100
AcDbEntity
  8
0
100
AcDbSpline
 62
7
  6
CONTINUOUS
 70
0
 71
3
 72
9
 73
5
 74
0
 42
0.0000001
 43
0.0000001
 44
0.0000000001
 40
0.0
 40
0.0
 40
0.0
 40
0.0
 40
0.3234898231
 40
1.0
 40
1.0
 40
1.0
 40
1.0
 10
82.3048751312
 20
59.4765447237
 30
0.0
 10
82.3060002623
 20
59.4711874873
 30
0.0
 10
82.3097898164
 20
59.4547436571
 30
0.0
 10
82.3141267624
 20
59.4381171511
 30
0.0
 10
82.3194118419
 20
59.4279621874
 30
0.0
  0
SPLINE
  5
49E
100
AcDbEntity
  8
0
100
AcDbSpline
 62
7
  6
CONTINUOUS
 70
0
 71
3
 72
11
 73
7
 74
0
 42
0.0000001
 43
0.0000001
 44
0.0000000001
 40
0.0
 40
0.0
 40
0.0
 40
0.0
 40
0.0872393281
 40
0.2766287354
 40
0.5801981242
 40
1.0
 40
1.0
 40
1.0
 40
1.0
 10
85.6551073226
 20
93.2565005905
 30
0.0
 10
85.6591425447
 20
93.2565005905
 30
0.0
 10
85.6676193114
 20
93.2430922291
 30
0.0
 10
85.674223779
 20
93.2191727602
 30
0.0
 10
85.683268523
 20
93.1767771023
 30
0.0
 10
85.6879486116
 20
93.1439870451
 30
0.0
 10
85.6905430705
 20
93.1247433753
 30
0.0
  0
SPLINE
  5
49F
100
AcDbEntity
  8
0
100
AcDbSpline
 62
7
  6
CONTINUOUS
 70
0
 71
3
 72
34
 73
30
 74
0
 42
0.0000001
 43
0.0000001
 44
0.0000000001
 40
0.0
 40
0.0
 40
0.0
 40
0.0
 40
0.0079332573
 40
0.0201229321
 40
0.0364669842
 40
0.0568292438
 40
0.0810297246
 40
0.1088617323
 40
0.1744152512
 40
0.2512184651
 40
0.3366031809
 40
0.4275987838
 40
0.5210457312
 40
0.6137005318
 40
0.7023415384
 40
0.7838907044
 40
0.821107821
 40
0.8555143656
 40
0.8868107637
 40
0.9147260085
 40
0.9390160041
 40
0.959471474
 40
0.9759142642
 40
0.9825859096
 40
0.9882062173
 40
0.9927622637
 40
0.996245083
 40
0.9986539776
 40
1.0
 40
1.0
 40
1.0
 40
1.0
 10
85.6905430705
 20
93.1247433753
 30
0.0
 10
85.7028656014
 20
93.0333444652
 30
0.0
 10
85.7224890085
 20
92.8000704543
 30
0.0
 10
85.7483323149
 20
92.3769782291
 30
0.0
 10
85.774231318
 20
91.8090962889
 30
0.0
 10
85.8006497034
 20
91.1015427914
 30
0.0
 10
85.8271631088
 20
90.2603479362
 30
0.0
 10
85.8647503482
 20
88.8939014189
 30
0.0
 10
85.910272535
 20
86.9159350111
 30
0.0
 10
85.9628558125
 20
84.2689124536
 30
0.0
 10
86.0156409523
 20
81.3260707604
 30
0.0
 10
86.0685645114
 20
78.1897165748
 30
0.0
 10
86.1215328902
 20
74.9688351713
 30
0.0
 10
86.1744842449
 20
71.7753298177
 30
0.0
 10
86.2273619855
 20
68.7201571226
 30
0.0
 10
86.2725367034
 20
66.3094236991
 30
0.0
 10
86.3093546238
 20
64.5291363317
 30
0.0
 10
86.336090682
 20
63.3329664092
 30
0.0
 10
86.362780925
 20
62.2449605811
 30
0.0
 10
86.3894101645
 20
61.2746002247
 30
0.0
 10
86.4159284715
 20
60.4303145522
 30
0.0
 10
86.44232464
 20
59.7194792197
 30
0.0
 10
86.4653378949
 20
59.2134677275
 30
0.0
 10
86.4844489652
 20
58.8799805972
 30
0.0
 10
86.4976347389
 20
58.6845200284
 30
0.0
 10
86.5108852577
 20
58.5263774528
 30
0.0
 10
86.5234568887
 20
58.4053036993
 30
0.0
 10
86.5365988505
 20
58.3226615544
 30
0.0
 10
86.545750755
 20
58.2792044936
 30
0.0
 10
86.5529608309
 20
58.2653167818
 30
0.0
  0
SPLINE
  5
4A0
100
AcDbEntity
  8
0
100
AcDbSpline
 62
7
  6
CONTINUOUS
 70
0
 71
3
 72
11
 73
7
 74
0
 42
0.0000001
 43
0.0000001
 44
0.0000000001
 40
0.0
 40
0.0
 40
0.0
 40
0.0
 40
0.0870953865
 40
0.27647323
 40
0.5800976093
 40
1.0
 40
1.0
 40
1.0
 40
1.0
 10
82.0271073226
 20
93.2565005905
 30
0.0
 10
82.031165018
 20
93.2565005905
 30
0.0
 10
82.0396694829
 20
93.2429704718
 30
0.0
 10
82.0462965459
 20
93.2188919706
 30
0.0
 10
82.0553754293
 20
93.1761673461
 30
0.0
 10
82.0600729128
 20
93.1431336303
 30
0.0
 10
82.0626771553
 20
93.123744873
 30
0.0
  0
SPLINE
  5
4A1
100
AcDbEntity
  8
0
100
AcDbSpline
 62
7
  6
CONTINUOUS
 70
0
 71
3
 72
34
 73
30
 74
0
 42
0.0000001
 43
0.0000001
 44
0.0000000001
 40
0.0
 40
0.0
 40
0.0
 40
0.0
 40
0.0079530773
 40
0.0201605123
 40
0.0365199514
 40
0.0568945322
 40
0.0811060886
 40
0.1089469221
 40
0.1745145921
 40
0.2513236576
 40
0.3367054154
 40
0.4276964791
 40
0.5211347549
 40
0.6137748492
 40
0.7024025409
 40
0.7839387045
 40
0.8211484914
 40
0.8555478564
 40
0.8868371953
 40
0.9147461985
 40
0.9390304756
 40
0.9594811875
 40
0.9759199566
 40
0.9825899644
 40
0.9882088879
 40
0.9927637993
 40
0.9962457965
 40
0.9986541882
 40
1.0
 40
1.0
 40
1.0
 40
1.0
 10
82.0626771553
 20
93.123744873
 30
0.0
 10
82.0749847315
 20
93.0321141567
 30
0.0
 10
82.0946102122
 20
92.798410444
 30
0.0
 10
82.1204483541
 20
92.3747123098
 30
0.0
 10
82.1463453478
 20
91.8063181557
 30
0.0
 10
82.1727595165
 20
91.0983336107
 30
0.0
 10
82.1992668121
 20
90.256788196
 30
0.0
 10
82.2368472809
 20
88.8899849653
 30
0.0
 10
82.2823610613
 20
86.9117403456
 30
0.0
 10
82.3349365506
 20
84.2645959419
 30
0.0
 10
82.387713702
 20
81.3218582793
 30
0.0
 10
82.4406295756
 20
78.1857825754
 30
0.0
 10
82.4935906879
 20
74.9653186957
 30
0.0
 10
82.5465347513
 20
71.7723321027
 30
0.0
 10
82.5994057091
 20
68.717724537
 30
0.0
 10
82.6445751674
 20
66.3074518859
 30
0.0
 10
82.6813891883
 20
64.5275357756
 30
0.0
 10
82.7081213837
 20
63.3316511301
 30
0.0
 10
82.7348082698
 20
62.2439148227
 30
0.0
 10
82.7614334796
 20
61.2738035864
 30
0.0
 10
82.7879485161
 20
60.4297366649
 30
0.0
 10
82.8143407513
 20
59.7190903941
 30
0.0
 10
82.8373508052
 20
59.2132146265
 30
0.0
 10
82.8564590105
 20
58.8798189955
 30
0.0
 10
82.8696428069
 20
58.6844124185
 30
0.0
 10
82.8828914589
 20
58.5263132064
 30
0.0
 10
82.8954615268
 20
58.4052717183
 30
0.0
 10
82.9086013343
 20
58.3226494997
 30
0.0
 10
82.9177522868
 20
58.2792023638
 30
0.0
 10
82.9249608306
 20
58.2653171238
 30
0.0
  0
SPLINE
  5
4A2
100
AcDbEntity
  8
0
100
AcDbSpline
 62
7
  6
CONTINUOUS
 70
0
 71
3
 72
11
 73
7
 74
0
 42
0.0000001
 43
0.0000001
 44
0.0000000001
 40
0.0
 40
0.0
 40
0.0
 40
0.0
 40
0.0872976716
 40
0.2766958242
 40
0.5802447299
 40
1.0
 40
1.0
 40
1.0
 40
1.0
 10
83.8411073227
 20
93.2565005905
 30
0.0
 10
83.8451338709
 20
93.2565005905
 30
0.0
 10
83.8535996402
 20
93.2431389626
 30
0.0
 10
83.8601953778
 20
93.2192813835
 30
0.0
 10
83.8692267018
 20
93.1770137936
 30
0.0
 10
83.8739000377
 20
93.1443189536
 30
0.0
 10
83.8764906623
 20
93.1251321196
 30
0.0
  0
SPLINE
  5
4A3
100
AcDbEntity
  8
0
100
AcDbSpline
 62
7
  6
CONTINUOUS
 70
0
 71
3
 72
34
 73
30
 74
0
 42
0.0000001
 43
0.0000001
 44
0.0000000001
 40
0.0
 40
0.0
 40
0.0
 40
0.0
 40
0.0079250163
 40
0.0201062391
 40
0.0364420389
 40
0.0567954019
 40
0.0809887216
 40
0.1088138281
 40
0.1743574697
 40
0.2511538045
 40
0.336537776
 40
0.4275396647
 40
0.5209927381
 40
0.6136562259
 40
0.7023103905
 40
0.7838699097
 40
0.821090491
 40
0.8554999566
 40
0.8867992437
 40
0.9147174472
 40
0.9390100891
 40
0.9594676913
 40
0.9759121387
 40
0.9825843899
 40
0.9882051857
 40
0.9927616327
 40
0.9962447665
 40
0.998653875
 40
1.0
 40
1.0
 40
1.0
 40
1.0
 10
83.8764906623
 20
93.1251321196
 30
0.0
 10
83.8888184234
 20
93.0338295413
 30
0.0
 10
83.9084395981
 20
92.8007467824
 30
0.0
 10
83.9342830682
 20
92.377940704
 30
0.0
 10
83.9601789613
 20
91.8103499471
 30
0.0
 10
83.9865987432
 20
91.1030714189
 30
0.0
 10
84.0131099106
 20
90.2621340294
 30
0.0
 10
84.0507005741
 20
88.8959506592
 30
0.0
 10
84.0962236113
 20
86.9182371015
 30
0.0
 10
84.1488097625
 20
84.2713883318
 30
0.0
 10
84.2015985202
 20
81.3285291611
 30
0.0
 10
84.254526664
 20
78.1920041276
 30
0.0
 10
84.307499949
 20
74.9708412717
 30
0.0
 10
84.3604563967
 20
71.7769748732
 30
0.0
 10
84.4133397256
 20
68.7213935483
 30
0.0
 10
84.4585191521
 20
66.3103194436
 30
0.0
 10
84.4953399388
 20
64.5298174769
 30
0.0
 10
84.5220775228
 20
63.3335262863
 30
0.0
 10
84.5487693707
 20
62.2454062906
 30
0.0
 10
84.5754002689
 20
61.2749362811
 30
0.0
 10
84.6019203117
 20
60.4305511684
 30
0.0
 10
84.6283183451
 20
59.719633035
 30
0.0
 10
84.651332873
 20
59.2135647489
 30
0.0
 10
84.6704450496
 20
58.8800418881
 30
0.0
 10
84.683631536
 20
58.6845617393
 30
0.0
 10
84.6968827927
 20
58.526403415
 30
0.0
 10
84.7094550586
 20
58.4053174524
 30
0.0
 10
84.7225978828
 20
58.322667146
 30
0.0
 10
84.7317501564
 20
58.2792057858
 30
0.0
 10
84.7389608306
 20
58.2653168431
 30
0.0
  0
LINE
  5
4A4
100
AcDbEntity
  8
0
100
AcDbLine
 62
7
  6
CONTINUOUS
 10
88.3233398421
 20
58.5480783061
 11
88.3225469561
 21
58.5568828669
  0
SPLINE
  5
4A5
100
AcDbEntity
  8
0
100
AcDbSpline
 62
7
  6
CONTINUOUS
 70
0
 71
3
 72
9
 73
5
 74
0
 42
0.0000001
 43
0.0000001
 44
0.0000000001
 40
0.0
 40
0.0
 40
0.0
 40
0.0
 40
0.2246354442
 40
1.0
 40
1.0
 40
1.0
 40
1.0
 10
88.3225469561
 20
58.5568828669
 30
0.0
 10
88.3210598407
 20
58.5735179181
 30
0.0
 10
88.3147104649
 20
58.6475956788
 30
0.0
 10
88.3092829478
 20
58.7217501005
 30
0.0
 10
88.3053701833
 20
58.7792646347
 30
0.0
  0
SPLINE
  5
4A6
100
AcDbEntity
  8
0
100
AcDbSpline
 62
7
  6
CONTINUOUS
 70
0
 71
3
 72
35
 73
31
 74
0
 42
0.0000001
 43
0.0000001
 44
0.0000000001
 40
0.0
 40
0.0
 40
0.0
 40
0.0
 40
0.0302418676
 40
0.0755661884
 40
0.134503228
 40
0.2051287995
 40
0.2851367693
 40
0.3719133272
 40
0.4626232863
 40
0.5543027486
 40
0.6439561066
 40
0.7286540248
 40
0.7682717017
 40
0.8056293117
 40
0.8404235611
 40
0.8723675316
 40
0.9012020161
 40
0.92668965
 40
0.9486236181
 40
0.9582014648
 40
0.9668245968
 40
0.974477324
 40
0.9811454586
 40
0.9868149955
 40
0.9914731854
 40
0.9951135553
 40
0.9977335849
 40
0.9993374073
 40
0.9997706158
 40
1.0
 40
1.0
 40
1.0
 40
1.0
 10
88.3053701833
 20
58.7792646347
 30
0.0
 10
88.281767592
 20
59.1262040001
 30
0.0
 10
88.2439900167
 20
59.9944400416
 30
0.0
 10
88.1941149698
 20
61.5401953648
 30
0.0
 10
88.1440672227
 20
63.5505770254
 30
0.0
 10
88.0930940145
 20
65.9598138974
 30
0.0
 10
88.0419588871
 20
68.689240589
 30
0.0
 10
87.9906254312
 20
71.6496394042
 30
0.0
 10
87.9392273136
 20
74.744264071
 30
0.0
 10
87.8878095481
 20
77.8719718438
 30
0.0
 10
87.8364251176
 20
80.9305403424
 30
0.0
 10
87.7927786486
 20
83.3905126778
 30
0.0
 10
87.7573335453
 20
85.2492020721
 30
0.0
 10
87.7313587081
 20
86.5341410573
 30
0.0
 10
87.7054119351
 20
87.7308240768
 30
0.0
 10
87.6794949877
 20
88.8294783513
 30
0.0
 10
87.6536313361
 20
89.8210879517
 30
0.0
 10
87.6278299615
 20
90.6975537998
 30
0.0
 10
87.6055380343
 20
91.3525964467
 30
0.0
 10
87.5873876717
 20
91.8137394561
 30
0.0
 10
87.5744123671
 20
92.1107395491
 30
0.0
 10
87.561460614
 20
92.3742517595
 30
0.0
 10
87.5485531088
 20
92.6037448016
 30
0.0
 10
87.5356833149
 20
92.7987833972
 30
0.0
 10
87.5229626646
 20
92.9588196767
 30
0.0
 10
87.5102533877
 20
93.083949447
 30
0.0
 10
87.4982805043
 20
93.1731195781
 30
0.0
 10
87.4869123496
 20
93.2264247681
 30
0.0
 10
87.4780041563
 20
93.2501286119
 30
0.0
 10
87.471745138
 20
93.2564895424
 30
0.0
 10
87.4691075373
 20
93.2564814404
 30
0.0
  0
SPLINE
  5
4A7
100
AcDbEntity
  8
0
100
AcDbSpline
 62
7
  6
CONTINUOUS
 70
0
 71
3
 72
21
 73
17
 74
0
 42
0.0000001
 43
0.0000001
 44
0.0000000001
 40
0.0
 40
0.0
 40
0.0
 40
0.0
 40
0.0116500399
 40
0.0273497719
 40
0.0469673427
 40
0.0703448542
 40
0.097284887
 40
0.1275669577
 40
0.1609316639
 40
0.1971024891
 40
0.276613216
 40
0.3634292772
 40
0.5471913577
 40
0.7239500103
 40
0.8701947352
 40
1.0
 40
1.0
 40
1.0
 40
1.0
 10
106.5795763029
 20
139.0172493899
 30
0.0
 10
106.6640853508
 20
139.0172496042
 30
0.0
 10
106.862317983
 20
139.0069869981
 30
0.0
 10
107.20300031
 20
139.0013270588
 30
0.0
 10
107.6287734633
 20
139.0054542861
 30
0.0
 10
108.1360781838
 20
139.0058712368
 30
0.0
 10
108.7207458292
 20
139.0048988508
 30
0.0
 10
109.3778597006
 20
139.0047745382
 30
0.0
 10
110.10193369
 20
139.0050432018
 30
0.0
 10
111.1831108575
 20
139.0051198392
 30
0.0
 10
112.6520226156
 20
139.0049698669
 30
0.0
 10
115.1915570001
 20
139.0050723289
 30
0.0
 10
118.436524992
 20
139.0050145307
 30
0.0
 10
122.1125867657
 20
139.005031552
 30
0.0
 10
125.3972473804
 20
139.0050287265
 30
0.0
 10
127.3997059122
 20
139.0050273695
 30
0.0
 10
128.3413094972
 20
139.005028728
 30
0.0
  0
SPLINE
  5
4A8
100
AcDbEntity
  8
0
100
AcDbSpline
 62
7
  6
CONTINUOUS
 70
0
 71
3
 72
11
 73
7
 74
0
 42
0.0000001
 43
0.0000001
 44
0.0000000001
 40
0.0
 40
0.0
 40
0.0
 40
0.0
 40
0.2071176541
 40
0.4753695652
 40
0.7383971779
 40
1.0
 40
1.0
 40
1.0
 40
1.0
 10
106.6657252309
 20
139.2054755732
 30
0.0
 10
106.6529511472
 20
139.2029352413
 30
0.0
 10
106.6250082193
 20
139.1917825926
 30
0.0
 10
106.5806438472
 20
139.1780196241
 30
0.0
 10
106.5302265464
 20
139.1733403659
 30
0.0
 10
106.497609101
 20
139.183653667
 30
0.0
 10
106.4833628053
 20
139.1918792207
 30
0.0
  0
SPLINE
  5
4A9
100
AcDbEntity
  8
0
100
AcDbSpline
 62
7
  6
CONTINUOUS
 70
0
 71
3
 72
9
 73
5
 74
0
 42
0.0000001
 43
0.0000001
 44
0.0000000001
 40
0.0
 40
0.0
 40
0.0
 40
0.0
 40
0.6006466317
 40
1.0
 40
1.0
 40
1.0
 40
1.0
 10
106.6657283643
 20
139.2054707105
 30
0.0
 10
106.6629823148
 20
139.1716550135
 30
0.0
 10
106.6530120157
 20
139.1158891561
 30
0.0
 10
106.6342950418
 20
139.061809719
 30
0.0
 10
106.6227663708
 20
139.0424212162
 30
0.0
  0
SPLINE
  5
4AA
100
AcDbEntity
  8
0
100
AcDbSpline
 62
7
  6
CONTINUOUS
 70
0
 71
3
 72
9
 73
5
 74
0
 42
0.0000001
 43
0.0000001
 44
0.0000000001
 40
0.0
 40
0.0
 40
0.0
 40
0.0
 40
0.5995076369
 40
1.0
 40
1.0
 40
1.0
 40
1.0
 10
106.6227663708
 20
139.0424212162
 30
0.0
 10
106.6172803546
 20
139.0331950322
 30
0.0
 10
106.6070589002
 20
139.0175603026
 30
0.0
 10
106.5857582862
 20
139.0136159405
 30
0.0
 10
106.5795763029
 20
139.0172493899
 30
0.0
  0
SPLINE
  5
4AB
100
AcDbEntity
  8
0
100
AcDbSpline
 62
7
  6
CONTINUOUS
 70
0
 71
3
 72
10
 73
6
 74
0
 42
0.0000001
 43
0.0000001
 44
0.0000000001
 40
0.0
 40
0.0
 40
0.0
 40
0.0
 40
0.3692088637
 40
0.6630676707
 40
1.0
 40
1.0
 40
1.0
 40
1.0
 10
106.582285339
 20
139.0111751541
 30
0.0
 10
106.5537380764
 20
139.0279006867
 30
0.0
 10
106.5034366034
 20
139.0595578703
 30
0.0
 10
106.4286723479
 20
139.1090336392
 30
0.0
 10
106.3789966819
 20
139.136108555
 30
0.0
 10
106.3529673676
 20
139.1514099668
 30
0.0
  0
LINE
  5
4AC
100
AcDbEntity
  8
0
100
AcDbLine
 62
7
  6
CONTINUOUS
 10
106.3529673676
 20
139.1514099668
 11
106.3442200982
 21
139.1566325575
  0
LINE
  5
4AD
100
AcDbEntity
  8
0
100
AcDbLine
 62
7
  6
CONTINUOUS
 10
106.3442200982
 20
139.1566325575
 11
106.3413094968
 21
139.1584243799
  0
SPLINE
  5
4AE
100
AcDbEntity
  8
0
100
AcDbSpline
 62
7
  6
CONTINUOUS
 70
0
 71
3
 72
8
 73
4
 74
0
 42
0.0000001
 43
0.0000001
 44
0.0000000001
 40
0.0
 40
0.0
 40
0.0
 40
0.0
 40
1.0
 40
1.0
 40
1.0
 40
1.0
 10
106.519851816
 20
139.1644204702
 30
0.0
 10
106.5471591322
 20
139.1381956298
 30
0.0
 10
106.5669499462
 20
139.1020435468
 30
0.0
 10
106.5747744758
 20
139.065000214
 30
0.0
  0
SPLINE
  5
4AF
100
AcDbEntity
  8
0
100
AcDbSpline
 62
7
  6
CONTINUOUS
 70
0
 71
3
 72
11
 73
7
 74
0
 42
0.0000001
 43
0.0000001
 44
0.0000000001
 40
0.0
 40
0.0
 40
0.0
 40
0.0
 40
0.2469999167
 40
0.5032599013
 40
0.7568238001
 40
1.0
 40
1.0
 40
1.0
 40
1.0
 10
102.5413094972
 20
145.2565005905
 30
0.0
 10
102.5435894569
 20
145.3005555612
 30
0.0
 10
102.5691924311
 20
145.3896182032
 30
0.0
 10
102.6490958267
 20
145.5011381795
 30
0.0
 10
102.7586633768
 20
145.5830547596
 30
0.0
 10
102.8478813381
 20
145.6065005905
 30
0.0
 10
102.8913123544
 20
145.6065005905
 30
0.0
  0
SPLINE
  5
4B0
100
AcDbEntity
  8
0
100
AcDbSpline
 62
7
  6
CONTINUOUS
 70
0
 71
3
 72
9
 73
5
 74
0
 42
0.0000001
 43
0.0000001
 44
0.0000000001
 40
0.0
 40
0.0
 40
0.0
 40
0.0
 40
0.5043936656
 40
1.0
 40
1.0
 40
1.0
 40
1.0
 10
123.2927813597
 20
96.0049356046
 30
0.0
 10
123.3707702389
 20
96.0062722826
 30
0.0
 10
123.52627713
 20
96.0358545027
 30
0.0
 10
123.661212155
 20
96.1198590782
 30
0.0
 10
123.7170454284
 20
96.1723619983
 30
0.0
  0
SPLINE
  5
4B1
100
AcDbEntity
  8
0
100
AcDbSpline
 62
7
  6
CONTINUOUS
 70
0
 71
3
 72
10
 73
6
 74
0
 42
0.0000001
 43
0.0000001
 44
0.0000000001
 40
0.0
 40
0.0
 40
0.0
 40
0.0
 40
0.2062726318
 40
0.4506785078
 40
1.0
 40
1.0
 40
1.0
 40
1.0
 10
123.2927813588
 20
96.004934565
 30
0.0
 10
123.256100739
 20
96.0264519777
 30
0.0
 10
123.1851067974
 20
96.0889359779
 30
0.0
 10
123.0653549966
 20
96.2577412656
 30
0.0
 10
123.0080815919
 20
96.4154061783
 30
0.0
 10
122.9854712075
 20
96.5263766897
 30
0.0
  0
SPLINE
  5
4B2
100
AcDbEntity
  8
0
100
AcDbSpline
 62
7
  6
CONTINUOUS
 70
0
 71
3
 72
8
 73
4
 74
0
 42
0.0000001
 43
0.0000001
 44
0.0000000001
 40
0.0
 40
0.0
 40
0.0
 40
0.0
 40
1.0
 40
1.0
 40
1.0
 40
1.0
 10
122.9854712074
 20
96.5263766897
 30
0.0
 10
122.9931577233
 20
96.5286946626
 30
0.0
 10
122.9999137244
 20
96.5345816837
 30
0.0
 10
123.0044503006
 20
96.5412055045
 30
0.0
  0
LINE
  5
4B3
100
AcDbEntity
  8
0
100
AcDbLine
 62
7
  6
CONTINUOUS
 10
123.7170454284
 20
96.1723619983
 11
124.1655735659
 21
96.7895343886
  0
SPLINE
  5
4B4
100
AcDbEntity
  8
0
100
AcDbSpline
 62
7
  6
CONTINUOUS
 70
0
 71
3
 72
12
 73
8
 74
0
 42
0.0000001
 43
0.0000001
 44
0.0000000001
 40
0.0
 40
0.0
 40
0.0
 40
0.0
 40
0.0768808413
 40
0.1743686565
 40
0.4223352554
 40
0.7125404586
 40
1.0
 40
1.0
 40
1.0
 40
1.0
 10
123.7170454263
 20
96.1723620002
 30
0.0
 10
123.6963856476
 20
96.168210178
 30
0.0
 10
123.6478300181
 20
96.168055896
 30
0.0
 10
123.5340275361
 20
96.1908485442
 30
0.0
 10
123.3726139348
 20
96.2608221838
 30
0.0
 10
123.1809167296
 20
96.3818549136
 30
0.0
 10
123.0596249592
 20
96.484956783
 30
0.0
 10
123.0044503213
 20
96.5412055045
 30
0.0
  0
LINE
  5
4B5
100
AcDbEntity
  8
0
100
AcDbLine
 62
7
  6
CONTINUOUS
 10
123.0044503006
 20
96.5412055045
 11
123.4298182428
 21
97.1620606529
  0
SPLINE
  5
4B6
100
AcDbEntity
  8
0
100
AcDbSpline
 62
7
  6
CONTINUOUS
 70
0
 71
3
 72
9
 73
5
 74
0
 42
0.0000001
 43
0.0000001
 44
0.0000000001
 40
0.0
 40
0.0
 40
0.0
 40
0.0
 40
0.5348255146
 40
1.0
 40
1.0
 40
1.0
 40
1.0
 10
124.1655735659
 20
96.7895343886
 30
0.0
 10
124.2204557246
 20
96.8889284384
 30
0.0
 10
124.3441651084
 20
97.063936607
 30
0.0
 10
124.506158986
 20
97.205570317
 30
0.0
 10
124.5898376346
 20
97.2580113959
 30
0.0
  0
SPLINE
  5
4B7
100
AcDbEntity
  8
0
100
AcDbSpline
 62
7
  6
CONTINUOUS
 70
0
 71
3
 72
12
 73
8
 74
0
 42
0.0000001
 43
0.0000001
 44
0.0000000001
 40
0.0
 40
0.0
 40
0.0
 40
0.0
 40
0.0785481852
 40
0.177078885
 40
0.4260650667
 40
0.715738975
 40
1.0
 40
1.0
 40
1.0
 40
1.0
 10
124.1655735771
 20
96.7895343783
 30
0.0
 10
124.1440930524
 20
96.7837150284
 30
0.0
 10
124.0931076176
 20
96.7806449406
 30
0.0
 10
123.9735163276
 20
96.7998815497
 30
0.0
 10
123.8047060624
 20
96.8696299497
 30
0.0
 10
123.6071603718
 20
96.9944938742
 30
0.0
 10
123.484327241
 20
97.1027709984
 30
0.0
 10
123.4298180865
 20
97.1620606529
 30
0.0
  0
SPLINE
  5
4B8
100
AcDbEntity
  8
0
100
AcDbSpline
 62
7
  6
CONTINUOUS
 70
0
 71
3
 72
9
 73
5
 74
0
 42
0.0000001
 43
0.0000001
 44
0.0000000001
 40
0.0
 40
0.0
 40
0.0
 40
0.0
 40
0.5232249109
 40
1.0
 40
1.0
 40
1.0
 40
1.0
 10
123.4298182428
 20
97.1620606529
 30
0.0
 10
123.5303037902
 20
97.3088192283
 30
0.0
 10
123.7623272228
 20
97.5642974317
 30
0.0
 10
124.0624324661
 20
97.7393398006
 30
0.0
 10
124.2155526951
 20
97.7924624026
 30
0.0
  0
SPLINE
  5
4B9
100
AcDbEntity
  8
0
100
AcDbSpline
 62
7
  6
CONTINUOUS
 70
0
 71
3
 72
19
 73
15
 74
0
 42
0.0000001
 43
0.0000001
 44
0.0000000001
 40
0.0
 40
0.0
 40
0.0
 40
0.0
 40
0.2146974501
 40
0.4092722539
 40
0.5808017208
 40
0.7265578864
 40
0.8437652894
 40
0.89080172
 40
0.9297396324
 40
0.9603141531
 40
0.982289477
 40
0.9900137621
 40
0.995547677
 40
1.0
 40
1.0
 40
1.0
 40
1.0
 10
124.5898376346
 20
97.2580113959
 30
0.0
 10
124.8698119917
 20
97.347875556
 30
0.0
 10
125.4009747322
 20
97.5272160377
 30
0.0
 10
126.1476265799
 20
97.8017444823
 30
0.0
 10
126.8000281291
 20
98.0584195477
 30
0.0
 10
127.3497305715
 20
98.2863769067
 30
0.0
 10
127.7395196311
 20
98.4546931323
 30
0.0
 10
127.9940417773
 20
98.5671856103
 30
0.0
 10
128.1397679795
 20
98.632317489
 30
0.0
 10
128.2538985464
 20
98.6840490951
 30
0.0
 10
128.3291484782
 20
98.7179454353
 30
0.0
 10
128.3729101779
 20
98.7383417434
 30
0.0
 10
128.3952045144
 20
98.7478060016
 30
0.0
 10
128.4071715147
 20
98.7547334791
 30
0.0
 10
128.4130076102
 20
98.7565005905
 30
0.0
  0
SPLINE
  5
4BA
100
AcDbEntity
  8
0
100
AcDbSpline
 62
7
  6
CONTINUOUS
 70
0
 71
3
 72
10
 73
6
 74
0
 42
0.0000001
 43
0.0000001
 44
0.0000000001
 40
0.0
 40
0.0
 40
0.0
 40
0.0
 40
0.4573269794
 40
0.7257683321
 40
1.0
 40
1.0
 40
1.0
 40
1.0
 10
124.5898376345
 20
97.2580046277
 30
0.0
 10
124.4940093716
 20
97.2947253108
 30
0.0
 10
124.3679856078
 20
97.4166621838
 30
0.0
 10
124.2624636501
 20
97.6140867481
 30
0.0
 10
124.2269096704
 20
97.7319844625
 30
0.0
 10
124.2155430073
 20
97.7924624025
 30
0.0
  0
SPLINE
  5
4BB
100
AcDbEntity
  8
0
100
AcDbSpline
 62
7
  6
CONTINUOUS
 70
0
 71
3
 72
24
 73
20
 74
0
 42
0.0000001
 43
0.0000001
 44
0.0000000001
 40
0.0
 40
0.0
 40
0.0
 40
0.0
 40
0.215276667
 40
0.4101000158
 40
0.5816348889
 40
0.6578458321
 40
0.72724032
 40
0.7894786973
 40
0.8442185142
 40
0.8911355427
 40
0.9299631139
 40
0.9604441039
 40
0.9724778971
 40
0.9823500735
 40
0.9900495062
 40
0.9955650632
 40
0.9975004081
 40
0.9988856074
 40
1.0
 40
1.0
 40
1.0
 40
1.0
 10
124.2155526951
 20
97.7924624026
 30
0.0
 10
124.4826801456
 20
97.8851128029
 30
0.0
 10
124.9887474363
 20
98.0698153823
 30
0.0
 10
125.6986712023
 20
98.352086703
 30
0.0
 10
126.2335963045
 20
98.5796263781
 30
0.0
 10
126.6143719219
 20
98.7484618585
 30
0.0
 10
126.8629739997
 20
98.8612226039
 30
0.0
 10
127.0851067872
 20
98.9640514859
 30
0.0
 10
127.2798416019
 20
99.0557794304
 30
0.0
 10
127.4463323304
 20
99.1353045808
 30
0.0
 10
127.5837623645
 20
99.2017505037
 30
0.0
 10
127.6797465661
 20
99.2486477215
 30
0.0
 10
127.7415351943
 20
99.278931088
 30
0.0
 10
127.7763926353
 20
99.296126743
 30
0.0
 10
127.8036798284
 20
99.3094377339
 30
0.0
 10
127.8213280957
 20
99.3184589479
 30
0.0
 10
127.8319803748
 20
99.3233401899
 30
0.0
 10
127.8367478867
 20
99.326413744
 30
0.0
 10
127.8405575077
 20
99.3269430453
 30
0.0
 10
127.8413094972
 20
99.3281987035
 30
0.0
  0
SPLINE
  5
4BC
100
AcDbEntity
  8
0
100
AcDbSpline
 62
7
  6
CONTINUOUS
 70
0
 71
3
 72
11
 73
7
 74
0
 42
0.0000001
 43
0.0000001
 44
0.0000000001
 40
0.0
 40
0.0
 40
0.0
 40
0.0
 40
0.1997710779
 40
0.4232993627
 40
0.6875001738
 40
1.0
 40
1.0
 40
1.0
 40
1.0
 10
102.0413094972
 20
142.0451757251
 30
0.0
 10
102.0413123835
 20
142.0197171506
 30
0.0
 10
102.0534256931
 20
141.96529914
 30
0.0
 10
102.1046387238
 20
141.8921622085
 30
0.0
 10
102.1861128444
 20
141.828941922
 30
0.0
 10
102.2536734012
 20
141.7983881582
 30
0.0
 10
102.2913094972
 20
141.785368104
 30
0.0
  0
SPLINE
  5
4BD
100
AcDbEntity
  8
0
100
AcDbSpline
 62
7
  6
CONTINUOUS
 70
0
 71
3
 72
10
 73
6
 74
0
 42
0.0000001
 43
0.0000001
 44
0.0000000001
 40
0.0
 40
0.0
 40
0.0
 40
0.0
 40
0.3352545383
 40
0.6215763799
 40
1.0
 40
1.0
 40
1.0
 40
1.0
 10
102.2913092455
 20
141.785368104
 30
0.0
 10
102.283218431
 20
141.7666834137
 30
0.0
 10
102.2709151623
 20
141.7302752305
 30
0.0
 10
102.2605698488
 20
141.6723855568
 30
0.0
 10
102.2714057949
 20
141.623654849
 30
0.0
 10
102.2913094972
 20
141.6121630232
 30
0.0
  0
LINE
  5
4BE
100
AcDbEntity
  8
0
100
AcDbLine
 62
7
  6
CONTINUOUS
 10
102.2913094972
 20
141.785368104
 11
102.4277456958
 21
141.7381044052
  0
LINE
  5
4BF
100
AcDbEntity
  8
0
100
AcDbLine
 62
7
  6
CONTINUOUS
 10
102.4277456958
 20
141.7381044052
 11
102.512979115
 21
141.708580491
  0
LINE
  5
4C0
100
AcDbEntity
  8
0
100
AcDbLine
 62
7
  6
CONTINUOUS
 10
102.512979115
 20
141.708580491
 11
102.5413094972
 21
141.6987655636
  0
LINE
  5
4C1
100
AcDbEntity
  8
0
100
AcDbLine
 62
7
  6
CONTINUOUS
 10
106.4716268891
 20
139.4295957594
 11
106.5145970486
 21
139.3799784723
  0
LINE
  5
4C2
100
AcDbEntity
  8
0
100
AcDbLine
 62
7
  6
CONTINUOUS
 10
106.5145970486
 20
139.3799784723
 11
106.6268837041
 21
139.2503254427
  0
LINE
  5
4C3
100
AcDbEntity
  8
0
100
AcDbLine
 62
7
  6
CONTINUOUS
 10
106.6268837041
 20
139.2503254427
 11
106.6657283643
 21
139.2054794714
  0
SPLINE
  5
4C4
100
AcDbEntity
  8
0
100
AcDbSpline
 62
7
  6
CONTINUOUS
 70
0
 71
3
 72
15
 73
11
 74
0
 42
0.0000001
 43
0.0000001
 44
0.0000000001
 40
0.0
 40
0.0
 40
0.0
 40
0.0
 40
0.1434370449
 40
0.2777785658
 40
0.39501626
 40
0.4986654043
 40
0.6038438017
 40
0.721896328
 40
0.8559166364
 40
1.0
 40
1.0
 40
1.0
 40
1.0
 10
102.5413094972
 20
145.7565005905
 30
0.0
 10
102.4963339778
 20
145.7565005905
 30
0.0
 10
102.4086617903
 20
145.744676271
 30
0.0
 10
102.294114367
 20
145.6930709011
 30
0.0
 10
102.2118714546
 20
145.6125901022
 30
0.0
 10
102.182537157
 20
145.5091374605
 30
0.0
 10
102.2131274515
 20
145.4061620253
 30
0.0
 10
102.2938817888
 20
145.3236204841
 30
0.0
 10
102.4089920652
 20
145.2714978054
 30
0.0
 10
102.4961917006
 20
145.2588355543
 30
0.0
 10
102.5413094972
 20
145.2565005905
 30
0.0
  0
SPLINE
  5
4C5
100
AcDbEntity
  8
0
100
AcDbSpline
 62
7
  6
CONTINUOUS
 70
0
 71
3
 72
9
 73
5
 74
0
 42
0.0000001
 43
0.0000001
 44
0.0000000001
 40
0.0
 40
0.0
 40
0.0
 40
0.0
 40
0.2775114354
 40
1.0
 40
1.0
 40
1.0
 40
1.0
 10
106.6077332777
 20
145.7857899124
 30
0.0
 10
106.6145907346
 20
145.7808734588
 30
0.0
 10
106.6380007906
 20
145.7614607912
 30
0.0
 10
106.6563426568
 20
145.7355884656
 30
0.0
 10
106.6642127234
 20
145.7150792343
 30
0.0
  0
SPLINE
  5
4C6
100
AcDbEntity
  8
0
100
AcDbSpline
 62
7
  6
CONTINUOUS
 70
0
 71
3
 72
9
 73
5
 74
0
 42
0.0000001
 43
0.0000001
 44
0.0000000001
 40
0.0
 40
0.0
 40
0.0
 40
0.0
 40
0.2708333119
 40
1.0
 40
1.0
 40
1.0
 40
1.0
 10
106.5436774398
 20
145.8370151815
 30
0.0
 10
106.5492674451
 20
145.8321573124
 30
0.0
 10
106.5700744521
 20
145.8144175735
 30
0.0
 10
106.5915287654
 20
145.7974077373
 30
0.0
 10
106.6077332777
 20
145.7857899124
 30
0.0
  0
SPLINE
  5
4C7
100
AcDbEntity
  8
0
100
AcDbSpline
 62
7
  6
CONTINUOUS
 70
0
 71
3
 72
16
 73
12
 74
0
 42
0.0000001
 43
0.0000001
 44
0.0000000001
 40
0.0
 40
0.0
 40
0.0
 40
0.0
 40
0.0035522691
 40
0.0143479561
 40
0.0324918156
 40
0.0580888383
 40
0.1320690298
 40
0.2371594901
 40
0.374360599
 40
0.5455781374
 40
1.0
 40
1.0
 40
1.0
 40
1.0
 10
106.4258570426
 20
97.9336577316
 30
0.0
 10
106.4259304858
 20
97.9338925484
 30
0.0
 10
106.4271434511
 20
97.9325341925
 30
0.0
 10
106.4287036947
 20
97.9321732059
 30
0.0
 10
106.4320861567
 20
97.9296639794
 30
0.0
 10
106.4387830265
 20
97.9254886671
 30
0.0
 10
106.450609632
 20
97.917311793
 30
0.0
 10
106.468478646
 20
97.9048130128
 30
0.0
 10
106.4916501127
 20
97.887908579
 30
0.0
 10
106.5335306129
 20
97.8557214496
 30
0.0
 10
106.5665055583
 20
97.8275254235
 30
0.0
 10
106.5898376346
 20
97.806401668
 30
0.0
  0
SPLINE
  5
4C8
100
AcDbEntity
  8
0
100
AcDbSpline
 62
7
  6
CONTINUOUS
 70
0
 71
3
 72
9
 73
5
 74
0
 42
0.0000001
 43
0.0000001
 44
0.0000000001
 40
0.0
 40
0.0
 40
0.0
 40
0.0
 40
0.5002373974
 40
1.0
 40
1.0
 40
1.0
 40
1.0
 10
106.5435960276
 20
145.8370843691
 30
0.0
 10
106.5410256109
 20
145.8044719077
 30
0.0
 10
106.5226389152
 20
145.7403213172
 30
0.0
 10
106.4915516832
 20
145.6828401326
 30
0.0
 10
106.4783780338
 20
145.6529301993
 30
0.0
  0
SPLINE
  5
4C9
100
AcDbEntity
  8
0
100
AcDbSpline
 62
7
  6
CONTINUOUS
 70
0
 71
3
 72
14
 73
10
 74
0
 42
0.0000001
 43
0.0000001
 44
0.0000000001
 40
0.0
 40
0.0
 40
0.0
 40
0.0
 40
0.1528603528
 40
0.2709028804
 40
0.4074753241
 40
0.5561922774
 40
0.7097983114
 40
0.8602159614
 40
1.0
 40
1.0
 40
1.0
 40
1.0
 10
106.5898376346
 20
97.806401668
 30
0.0
 10
107.3843517484
 20
97.4382071273
 30
0.0
 10
108.8145467309
 20
96.8312308636
 30
0.0
 10
111.0258796235
 20
96.0784436196
 30
0.0
 10
113.2698093687
 20
95.513181372
 30
0.0
 10
115.7653868015
 20
95.1618529917
 30
0.0
 10
118.3662283868
 20
95.125599371
 30
0.0
 10
120.8982945818
 20
95.4161064251
 30
0.0
 10
122.5215275273
 20
95.7895176447
 30
0.0
 10
123.2927813597
 20
96.0049356046
 30
0.0
  0
SPLINE
  5
4CA
100
AcDbEntity
  8
0
100
AcDbSpline
 62
7
  6
CONTINUOUS
 70
0
 71
3
 72
11
 73
7
 74
0
 42
0.0000001
 43
0.0000001
 44
0.0000000001
 40
0.0
 40
0.0
 40
0.0
 40
0.0
 40
0.2463180015
 40
0.4964140545
 40
0.7486017162
 40
1.0
 40
1.0
 40
1.0
 40
1.0
 10
106.5898376346
 20
97.806401672
 30
0.0
 10
106.6611760002
 20
97.8084241721
 30
0.0
 10
106.8054210158
 20
97.841934757
 30
0.0
 10
106.9875743196
 20
97.9687992011
 30
0.0
 10
107.1107362312
 20
98.155079065
 30
0.0
 10
107.1430273431
 20
98.3014221731
 30
0.0
 10
107.145000536
 20
98.3742344084
 30
0.0
  0
SPLINE
  5
4CB
100
AcDbEntity
  8
0
100
AcDbSpline
 62
7
  6
CONTINUOUS
 70
0
 71
3
 72
14
 73
10
 74
0
 42
0.0000001
 43
0.0000001
 44
0.0000000001
 40
0.0
 40
0.0
 40
0.0
 40
0.0
 40
0.1515983342
 40
0.2689304649
 40
0.4052358867
 40
0.5543336564
 40
0.7087744741
 40
0.8599256397
 40
1.0
 40
1.0
 40
1.0
 40
1.0
 10
107.1450005475
 20
98.3742344084
 30
0.0
 10
107.8846984194
 20
98.0034710147
 30
0.0
 10
109.2198582584
 20
97.3894239671
 30
0.0
 10
111.2954748186
 20
96.6204140705
 30
0.0
 10
113.418108167
 20
96.0351347825
 30
0.0
 10
115.7967157727
 20
95.6649026868
 30
0.0
 10
118.2866085228
 20
95.6217555694
 30
0.0
 10
120.7077920726
 20
95.9205417348
 30
0.0
 10
122.2536197472
 20
96.3052808693
 30
0.0
 10
122.9854712074
 20
96.5263766897
 30
0.0
  0
SPLINE
  5
4CC
100
AcDbEntity
  8
0
100
AcDbSpline
 62
7
  6
CONTINUOUS
 70
0
 71
3
 72
9
 73
5
 74
0
 42
0.0000001
 43
0.0000001
 44
0.0000000001
 40
0.0
 40
0.0
 40
0.0
 40
0.0
 40
0.231937708
 40
1.0
 40
1.0
 40
1.0
 40
1.0
 10
106.4254544286
 20
145.9272112687
 30
0.0
 10
106.4304595532
 20
145.9238130089
 30
0.0
 10
106.4520079029
 20
145.9091169612
 30
0.0
 10
106.4731828776
 20
145.8938606763
 30
0.0
 10
106.4890798151
 20
145.881668932
 30
0.0
  0
SPLINE
  5
4CD
100
AcDbEntity
  8
0
100
AcDbSpline
 62
7
  6
CONTINUOUS
 70
0
 71
3
 72
8
 73
4
 74
0
 42
0.0000001
 43
0.0000001
 44
0.0000000001
 40
0.0
 40
0.0
 40
0.0
 40
0.0
 40
1.0
 40
1.0
 40
1.0
 40
1.0
 10
106.3482637814
 20
145.6065005905
 30
0.0
 10
106.3836303796
 20
145.6065022959
 30
0.0
 10
106.4197090834
 20
145.6139767609
 30
0.0
 10
106.4521494661
 20
145.6280628475
 30
0.0
  0
SPLINE
  5
4CE
100
AcDbEntity
  8
0
100
AcDbSpline
 62
7
  6
CONTINUOUS
 70
0
 71
3
 72
9
 73
5
 74
0
 42
0.0000001
 43
0.0000001
 44
0.0000000001
 40
0.0
 40
0.0
 40
0.0
 40
0.0
 40
0.3733495845
 40
1.0
 40
1.0
 40
1.0
 40
1.0
 10
86.6540049122
 20
92.0850909479
 30
0.0
 10
86.6596446966
 20
92.0742748708
 30
0.0
 10
86.6678398852
 20
92.042184585
 30
0.0
 10
86.673710548
 20
92.0102087649
 30
0.0
 10
86.6768751311
 20
91.9899807794
 30
0.0
  0
SPLINE
  5
4CF
100
AcDbEntity
  8
0
100
AcDbSpline
 62
7
  6
CONTINUOUS
 70
0
 71
3
 72
38
 73
34
 74
0
 42
0.0000001
 43
0.0000001
 44
0.0000000001
 40
0.0
 40
0.0
 40
0.0
 40
0.0
 40
0.0076224678
 40
0.0196192038
 40
0.0358897584
 40
0.0562939446
 40
0.0806496132
 40
0.1087404572
 40
0.1750925064
 40
0.2529834326
 40
0.339632999
 40
0.4319475617
 40
0.5266308733
 40
0.6203019847
 40
0.7096161331
 40
0.7516328169
 40
0.7913843671
 40
0.8285119959
 40
0.8626876641
 40
0.893601201
 40
0.9209817238
 40
0.9445790122
 40
0.954894632
 40
0.9641893834
 40
0.9724407172
 40
0.9796325786
 40
0.9857508163
 40
0.9907816684
 40
0.9947133521
 40
0.9975427976
 40
0.999276792
 40
0.9997474988
 40
1.0
 40
1.0
 40
1.0
 40
1.0
 10
86.6768751311
 20
91.9899807794
 30
0.0
 10
86.6896753388
 20
91.9081619725
 30
0.0
 10
86.7094172336
 20
91.6956994127
 30
0.0
 10
86.7356235016
 20
91.3067467708
 30
0.0
 10
86.7617768761
 20
90.7785394314
 30
0.0
 10
86.7885529267
 20
90.1160319357
 30
0.0
 10
86.81540447
 20
89.3249929323
 30
0.0
 10
86.8535403534
 20
88.0348740775
 30
0.0
 10
86.8996751896
 20
86.1631173176
 30
0.0
 10
86.9529556497
 20
83.6551588021
 30
0.0
 10
87.0064436574
 20
80.8650773624
 30
0.0
 10
87.0600767777
 20
77.8925284726
 30
0.0
 10
87.1137521713
 20
74.843682892
 30
0.0
 10
87.1674138927
 20
71.827440127
 30
0.0
 10
87.212922936
 20
69.3833375794
 30
0.0
 10
87.2499035958
 20
67.5249868904
 30
0.0
 10
87.2770526943
 20
66.2335321059
 30
0.0
 10
87.3041802746
 20
65.027285203
 30
0.0
 10
87.3312681604
 20
63.9170837042
 30
0.0
 10
87.3583106203
 20
62.9128122351
 30
0.0
 10
87.3852773971
 20
62.0235134868
 30
0.0
 10
87.4085775362
 20
61.3579968029
 30
0.0
 10
87.4275481687
 20
60.8889506867
 30
0.0
 10
87.4411103064
 20
60.586551941
 30
0.0
 10
87.4546517485
 20
60.3181238957
 30
0.0
 10
87.4681489332
 20
60.0842664328
 30
0.0
 10
87.4816060039
 20
59.8854244823
 30
0.0
 10
87.4949045861
 20
59.7221911955
 30
0.0
 10
87.5081788729
 20
59.5945475877
 30
0.0
 10
87.520730525
 20
59.5035537317
 30
0.0
 10
87.5325773441
 20
59.4492056143
 30
0.0
 10
87.5419574194
 20
59.4249545635
 30
0.0
 10
87.5484651002
 20
59.4185073471
 30
0.0
 10
87.5512083865
 20
59.4185030615
 30
0.0
  0
SPLINE
  5
4D0
100
AcDbEntity
  8
0
100
AcDbSpline
 62
7
  6
CONTINUOUS
 70
0
 71
3
 72
14
 73
10
 74
0
 42
0.0000001
 43
0.0000001
 44
0.0000000001
 40
0.0
 40
0.0
 40
0.0
 40
0.0
 40
0.2051795067
 40
0.3868995615
 40
0.5410362572
 40
0.6658103029
 40
0.837500604
 40
0.9125671113
 40
1.0
 40
1.0
 40
1.0
 40
1.0
 10
105.3156958929
 20
56.4950500115
 30
0.0
 10
105.3368125531
 20
56.453093261
 30
0.0
 10
105.374690511
 20
56.3729159585
 30
0.0
 10
105.4202541076
 20
56.2578210196
 30
0.0
 10
105.4491768765
 20
56.1555467427
 30
0.0
 10
105.464353683
 20
56.0551979113
 30
0.0
 10
105.446265317
 20
55.9597687251
 30
0.0
 10
105.375958455
 20
55.9206037072
 30
0.0
 10
105.3381750939
 20
55.9178201436
 30
0.0
 10
105.3181680775
 20
55.9184106049
 30
0.0
  0
SPLINE
  5
4D1
100
AcDbEntity
  8
0
100
AcDbSpline
 62
7
  6
CONTINUOUS
 70
0
 71
3
 72
10
 73
6
 74
0
 42
0.0000001
 43
0.0000001
 44
0.0000000001
 40
0.0
 40
0.0
 40
0.0
 40
0.0
 40
0.2762504337
 40
0.5419176342
 40
1.0
 40
1.0
 40
1.0
 40
1.0
 10
105.316475881
 20
68.352633796
 30
0.0
 10
105.3608447214
 20
68.229298949
 30
0.0
 10
105.4309433174
 20
67.9803190304
 30
0.0
 10
105.4823485091
 20
67.5080806966
 30
0.0
 10
105.4156273821
 20
67.1542771707
 30
0.0
 10
105.316242995
 20
66.9609837176
 30
0.0
  0
SPLINE
  5
4D2
100
AcDbEntity
  8
0
100
AcDbSpline
 62
7
  6
CONTINUOUS
 70
0
 71
3
 72
10
 73
6
 74
0
 42
0.0000001
 43
0.0000001
 44
0.0000000001
 40
0.0
 40
0.0
 40
0.0
 40
0.0
 40
0.4581135436
 40
0.7238065154
 40
1.0
 40
1.0
 40
1.0
 40
1.0
 10
105.316240932
 20
84.552015307
 30
0.0
 10
105.4158593752
 20
84.3583068602
 30
0.0
 10
105.4825694036
 20
84.0035947156
 30
0.0
 10
105.4304029827
 20
83.5304749705
 30
0.0
 10
105.3605222603
 20
83.2808931159
 30
0.0
 10
105.316078281
 20
83.1573184528
 30
0.0
  0
SPLINE
  5
4D3
100
AcDbEntity
  8
0
100
AcDbSpline
 62
7
  6
CONTINUOUS
 70
0
 71
3
 72
14
 73
10
 74
0
 42
0.0000001
 43
0.0000001
 44
0.0000000001
 40
0.0
 40
0.0
 40
0.0
 40
0.0
 40
0.0874224951
 40
0.1624684796
 40
0.3341604917
 40
0.4589079206
 40
0.6130449702
 40
0.7948038318
 40
1.0
 40
1.0
 40
1.0
 40
1.0
 10
105.3182328881
 20
95.594567881
 30
0.0
 10
105.3382343274
 20
95.5951616242
 30
0.0
 10
105.376012938
 20
95.5923720712
 30
0.0
 10
105.4462451027
 20
95.5531276133
 30
0.0
 10
105.4643464449
 20
95.4577666939
 30
0.0
 10
105.4491988439
 20
95.357424394
 30
0.0
 10
105.4202712616
 20
95.2551671488
 30
0.0
 10
105.3746881781
 20
95.1400861125
 30
0.0
 10
105.3368106824
 20
95.0599105359
 30
0.0
 10
105.3157006384
 20
95.0179543269
 30
0.0
  0
SPLINE
  5
4D4
100
AcDbEntity
  8
0
100
AcDbSpline
 62
7
  6
CONTINUOUS
 70
0
 71
3
 72
15
 73
11
 74
0
 42
0.0000001
 43
0.0000001
 44
0.0000000001
 40
0.0
 40
0.0
 40
0.0
 40
0.0
 40
0.1879326686
 40
0.3542794989
 40
0.492107823
 40
0.5982602175
 40
0.6815140973
 40
0.7669092455
 40
0.8721434258
 40
1.0
 40
1.0
 40
1.0
 40
1.0
 10
104.6124978403
 20
56.5493938093
 30
0.0
 10
104.6317896033
 20
56.5299036012
 30
0.0
 10
104.6670839325
 20
56.4920992648
 30
0.0
 10
104.7115155296
 20
56.4353873824
 30
0.0
 10
104.7411139752
 20
56.3832395924
 30
0.0
 10
104.7552455871
 20
56.3363535082
 30
0.0
 10
104.7445531096
 20
56.2948806865
 30
0.0
 10
104.7107705571
 20
56.269677494
 30
0.0
 10
104.6652536861
 20
56.2583869785
 30
0.0
 10
104.6311548203
 20
56.2565005905
 30
0.0
 10
104.6124978401
 20
56.2565005905
 30
0.0
  0
SPLINE
  5
4D5
100
AcDbEntity
  8
0
100
AcDbSpline
 62
7
  6
CONTINUOUS
 70
0
 71
3
 72
11
 73
7
 74
0
 42
0.0000001
 43
0.0000001
 44
0.0000000001
 40
0.0
 40
0.0
 40
0.0
 40
0.0
 40
0.2256576733
 40
0.4664974308
 40
0.7280738818
 40
1.0
 40
1.0
 40
1.0
 40
1.0
 10
104.6124978403
 20
84.1265582756
 30
0.0
 10
104.6533413138
 20
84.0852946648
 30
0.0
 10
104.7258325545
 20
83.9857801706
 30
0.0
 10
104.7653716766
 20
83.7963629847
 30
0.0
 10
104.7209333892
 20
83.5973897811
 30
0.0
 10
104.6526353791
 20
83.4767566687
 30
0.0
 10
104.6124978401
 20
83.4194514944
 30
0.0
  0
SPLINE
  5
4D6
100
AcDbEntity
  8
0
100
AcDbSpline
 62
7
  6
CONTINUOUS
 70
0
 71
3
 72
9
 73
5
 74
0
 42
0.0000001
 43
0.0000001
 44
0.0000000001
 40
0.0
 40
0.0
 40
0.0
 40
0.0
 40
0.2626452117
 40
1.0
 40
1.0
 40
1.0
 40
1.0
 10
88.8647146112
 20
68.0935496768
 30
0.0
 10
88.8188847718
 20
68.0835010841
 30
0.0
 10
88.6443943512
 20
68.045228644
 30
0.0
 10
88.4699246864
 20
68.0068612147
 30
0.0
 10
88.3413095142
 20
67.9784311112
 30
0.0
  0
SPLINE
  5
4D7
100
AcDbEntity
  8
0
100
AcDbSpline
 62
7
  6
CONTINUOUS
 70
0
 71
3
 72
9
 73
5
 74
0
 42
0.0000001
 43
0.0000001
 44
0.0000000001
 40
0.0
 40
0.0
 40
0.0
 40
0.0
 40
0.262640187
 40
1.0
 40
1.0
 40
1.0
 40
1.0
 10
88.864714612
 20
83.419451504
 30
0.0
 10
88.8190257958
 20
83.4301145871
 30
0.0
 10
88.6447720397
 20
83.4694536668
 30
0.0
 10
88.4697388697
 20
83.5052626235
 30
0.0
 10
88.3413695707
 20
83.5347743972
 30
0.0
  0
SPLINE
  5
4D8
100
AcDbEntity
  8
0
100
AcDbSpline
 62
7
  6
CONTINUOUS
 70
0
 71
3
 72
9
 73
5
 74
0
 42
0.0000001
 43
0.0000001
 44
0.0000000001
 40
0.0
 40
0.0
 40
0.0
 40
0.0
 40
0.500000251
 40
1.0
 40
1.0
 40
1.0
 40
1.0
 10
88.8631882963
 20
83.4194514944
 30
0.0
 10
88.7592366699
 20
82.9489815315
 30
0.0
 10
88.5690757698
 20
82.0040786848
 30
0.0
 10
88.4107145548
 20
81.0532995678
 30
0.0
 10
88.3413094972
 20
80.5765077909
 30
0.0
  0
SPLINE
  5
4D9
100
AcDbEntity
  8
0
100
AcDbSpline
 62
7
  6
CONTINUOUS
 70
0
 71
3
 72
11
 73
7
 74
0
 42
0.0000001
 43
0.0000001
 44
0.0000000001
 40
0.0
 40
0.0
 40
0.0
 40
0.0
 40
0.2719263564
 40
0.533504482
 40
0.7743362059
 40
1.0
 40
1.0
 40
1.0
 40
1.0
 10
104.6124978403
 20
68.0935496866
 30
0.0
 10
104.6526163753
 20
68.0362308027
 30
0.0
 10
104.7208892741
 20
67.915588373
 30
0.0
 10
104.765369232
 20
67.7166325147
 30
0.0
 10
104.7258755098
 20
67.5271977734
 30
0.0
 10
104.6533573534
 20
67.4276931649
 30
0.0
 10
104.6124978401
 20
67.3864429054
 30
0.0
  0
SPLINE
  5
4DA
100
AcDbEntity
  8
0
100
AcDbSpline
 62
7
  6
CONTINUOUS
 70
0
 71
3
 72
9
 73
5
 74
0
 42
0.0000001
 43
0.0000001
 44
0.0000000001
 40
0.0
 40
0.0
 40
0.0
 40
0.0
 40
0.2488892521
 40
1.0
 40
1.0
 40
1.0
 40
1.0
 10
88.3413094972
 20
58.5596506554
 30
0.0
 10
88.3760635284
 20
58.3908289016
 30
0.0
 10
88.5252700453
 20
57.7145220109
 30
0.0
 10
88.7088042192
 20
57.0458822969
 30
0.0
 10
88.863943885
 20
56.5493938093
 30
0.0
  0
SPLINE
  5
4DB
100
AcDbEntity
  8
0
100
AcDbSpline
 62
7
  6
CONTINUOUS
 70
0
 71
3
 72
9
 73
5
 74
0
 42
0.0000001
 43
0.0000001
 44
0.0000000001
 40
0.0
 40
0.0
 40
0.0
 40
0.0
 40
0.2622193064
 40
1.0
 40
1.0
 40
1.0
 40
1.0
 10
88.864714612
 20
56.5493938029
 30
0.0
 10
88.8193009482
 20
56.5419000323
 30
0.0
 10
88.6447610418
 20
56.5228707939
 30
0.0
 10
88.465481916
 20
56.5409841027
 30
0.0
 10
88.3413695943
 20
56.577962256
 30
0.0
  0
SPLINE
  5
4DC
100
AcDbEntity
  8
0
100
AcDbSpline
 62
7
  6
CONTINUOUS
 70
0
 71
3
 72
9
 73
5
 74
0
 42
0.0000001
 43
0.0000001
 44
0.0000000001
 40
0.0
 40
0.0
 40
0.0
 40
0.0
 40
0.251084537
 40
1.0
 40
1.0
 40
1.0
 40
1.0
 10
88.8647146116
 20
67.3864429117
 30
0.0
 10
88.8182924848
 20
67.3926224076
 30
0.0
 10
88.6349927607
 20
67.4289167871
 30
0.0
 10
88.4609491191
 20
67.5055549615
 30
0.0
 10
88.341303346
 20
67.5776450718
 30
0.0
  0
SPLINE
  5
4DD
100
AcDbEntity
  8
0
100
AcDbSpline
 62
7
  6
CONTINUOUS
 70
0
 71
3
 72
9
 73
5
 74
0
 42
0.0000001
 43
0.0000001
 44
0.0000000001
 40
0.0
 40
0.0
 40
0.0
 40
0.0
 40
0.5015356033
 40
1.0
 40
1.0
 40
1.0
 40
1.0
 10
88.863518488
 20
67.3864429054
 30
0.0
 10
88.7599263475
 20
67.0549206833
 30
0.0
 10
88.5697175563
 20
66.3887270128
 30
0.0
 10
88.4109142749
 20
65.7142965045
 30
0.0
 10
88.3413094972
 20
65.3761833121
 30
0.0
  0
SPLINE
  5
4DE
100
AcDbEntity
  8
0
100
AcDbSpline
 62
7
  6
CONTINUOUS
 70
0
 71
3
 72
9
 73
5
 74
0
 42
0.0000001
 43
0.0000001
 44
0.0000000001
 40
0.0
 40
0.0
 40
0.0
 40
0.0
 40
0.5015374564
 40
1.0
 40
1.0
 40
1.0
 40
1.0
 10
88.8635782755
 20
94.9636073717
 30
0.0
 10
88.7599851255
 20
94.6320817575
 30
0.0
 10
88.5696931878
 20
93.9659072138
 30
0.0
 10
88.4109146114
 20
93.2914648872
 30
0.0
 10
88.3413094972
 20
92.9533507857
 30
0.0
  0
SPLINE
  5
4DF
100
AcDbEntity
  8
0
100
AcDbSpline
 62
7
  6
CONTINUOUS
 70
0
 71
3
 72
9
 73
5
 74
0
 42
0.0000001
 43
0.0000001
 44
0.0000000001
 40
0.0
 40
0.0
 40
0.0
 40
0.0
 40
0.2622191394
 40
1.0
 40
1.0
 40
1.0
 40
1.0
 10
88.864714612
 20
94.963607378
 30
0.0
 10
88.8193009846
 20
94.9711011668
 30
0.0
 10
88.6447612879
 20
94.9901311592
 30
0.0
 10
88.4654815452
 20
94.9720191741
 30
0.0
 10
88.3413696791
 20
94.9350394248
 30
0.0
  0
SPLINE
  5
4E0
100
AcDbEntity
  8
0
100
AcDbSpline
 62
7
  6
CONTINUOUS
 70
0
 71
3
 72
9
 73
5
 74
0
 42
0.0000001
 43
0.0000001
 44
0.0000000001
 40
0.0
 40
0.0
 40
0.0
 40
0.0
 40
0.7528938241
 40
1.0
 40
1.0
 40
1.0
 40
1.0
 10
88.864714612
 20
84.126558269
 30
0.0
 10
88.7261976452
 20
84.1037006632
 30
0.0
 10
88.5444137661
 20
84.0486508969
 30
0.0
 10
88.3804763095
 20
83.9592740773
 30
0.0
 10
88.3413694873
 20
83.9349066451
 30
0.0
  0
SPLINE
  5
4E1
100
AcDbEntity
  8
0
100
AcDbSpline
 62
7
  6
CONTINUOUS
 70
0
 71
3
 72
9
 73
5
 74
0
 42
0.0000001
 43
0.0000001
 44
0.0000000001
 40
0.0
 40
0.0
 40
0.0
 40
0.0
 40
0.2488909818
 40
1.0
 40
1.0
 40
1.0
 40
1.0
 10
88.3413094972
 20
86.1368188913
 30
0.0
 10
88.3760633545
 20
85.9679977272
 30
0.0
 10
88.5253043218
 20
85.2917067249
 30
0.0
 10
88.708711104
 20
84.6230403774
 30
0.0
 10
88.8638488712
 20
84.1265582756
 30
0.0
  0
SPLINE
  5
4E2
100
AcDbEntity
  8
0
100
AcDbSpline
 62
7
  6
CONTINUOUS
 70
0
 71
3
 72
9
 73
5
 74
0
 42
0.0000001
 43
0.0000001
 44
0.0000000001
 40
0.0
 40
0.0
 40
0.0
 40
0.0
 40
0.2214628045
 40
1.0
 40
1.0
 40
1.0
 40
1.0
 10
105.3195758052
 20
95.0273016554
 30
0.0
 10
105.2737911712
 20
95.0002943594
 30
0.0
 10
105.0500775782
 20
94.9071853262
 30
0.0
 10
104.7940335487
 20
94.9192177455
 30
0.0
 10
104.612512024
 20
94.9635996239
 30
0.0
  0
SPLINE
  5
4E3
100
AcDbEntity
  8
0
100
AcDbSpline
 62
7
  6
CONTINUOUS
 70
0
 71
3
 72
13
 73
9
 74
0
 42
0.0000001
 43
0.0000001
 44
0.0000000001
 40
0.0
 40
0.0
 40
0.0
 40
0.0
 40
0.2533608421
 40
0.3772073914
 40
0.5000026975
 40
0.6227986325
 40
0.7466456887
 40
1.0
 40
1.0
 40
1.0
 40
1.0
 10
104.6132211061
 20
84.1265582756
 30
0.0
 10
104.1907822897
 20
84.9798256777
 30
0.0
 10
103.6626649407
 20
86.3094529364
 30
0.0
 10
103.2906023527
 20
88.1556284395
 30
0.0
 10
103.1955661225
 20
89.5450133854
 30
0.0
 10
103.2905448965
 20
90.9344199022
 30
0.0
 10
103.6628141634
 20
92.7805074648
 30
0.0
 10
104.1902574607
 20
94.1103633885
 30
0.0
 10
104.6126882654
 20
94.9636073717
 30
0.0
  0
SPLINE
  5
4E4
100
AcDbEntity
  8
0
100
AcDbSpline
 62
7
  6
CONTINUOUS
 70
0
 71
3
 72
9
 73
5
 74
0
 42
0.0000001
 43
0.0000001
 44
0.0000000001
 40
0.0
 40
0.0
 40
0.0
 40
0.0
 40
0.2436430762
 40
1.0
 40
1.0
 40
1.0
 40
1.0
 10
105.3195756874
 20
84.5403772937
 30
0.0
 10
105.2743602603
 20
84.4908644148
 30
0.0
 10
105.0720008157
 20
84.3035046953
 30
0.0
 10
104.814663751
 20
84.1766308499
 30
0.0
 10
104.6126162814
 20
84.1265834461
 30
0.0
  0
SPLINE
  5
4E5
100
AcDbEntity
  8
0
100
AcDbSpline
 62
7
  6
CONTINUOUS
 70
0
 71
3
 72
14
 73
10
 74
0
 42
0.0000001
 43
0.0000001
 44
0.0000000001
 40
0.0
 40
0.0
 40
0.0
 40
0.0
 40
0.1269365979
 40
0.2517458101
 40
0.3749251442
 40
0.4973415992
 40
0.6201846305
 40
0.7445130106
 40
1.0
 40
1.0
 40
1.0
 40
1.0
 10
105.316240932
 20
84.552015307
 30
0.0
 10
105.1047285681
 20
84.9627221265
 30
0.0
 10
104.7175243747
 20
85.7947931227
 30
0.0
 10
104.2752819388
 20
87.0887377002
 30
0.0
 10
103.9976394125
 20
88.4117782686
 30
0.0
 10
103.9025357905
 20
89.7537015567
 30
0.0
 10
103.9982366619
 20
91.0998647775
 30
0.0
 10
104.3718134058
 20
92.8951622874
 30
0.0
 10
104.8973767681
 20
94.1875550504
 30
0.0
 10
105.3157006384
 20
95.0179543269
 30
0.0
  0
SPLINE
  5
4E6
100
AcDbEntity
  8
0
100
AcDbSpline
 62
7
  6
CONTINUOUS
 70
0
 71
3
 72
14
 73
10
 74
0
 42
0.0000001
 43
0.0000001
 44
0.0000000001
 40
0.0
 40
0.0
 40
0.0
 40
0.0
 40
0.2498604148
 40
0.3748831495
 40
0.4999057597
 40
0.624927878
 40
0.7499513511
 40
0.8749784678
 40
1.0
 40
1.0
 40
1.0
 40
1.0
 10
105.316475881
 20
68.352633796
 30
0.0
 10
104.8894625615
 20
69.5381922543
 30
0.0
 10
104.3649472332
 20
71.3652724215
 30
0.0
 10
103.9974159661
 20
73.8626060316
 30
0.0
 10
103.9027423594
 20
75.755008206
 30
0.0
 10
103.9970850761
 20
77.6472938214
 30
0.0
 10
104.2727999268
 20
79.5214547122
 30
0.0
 10
104.7131256101
 20
81.3633149314
 30
0.0
 10
105.1024366173
 20
82.5640983094
 30
0.0
 10
105.316078281
 20
83.1573184528
 30
0.0
  0
SPLINE
  5
4E7
100
AcDbEntity
  8
0
100
AcDbSpline
 62
7
  6
CONTINUOUS
 70
0
 71
3
 72
9
 73
5
 74
0
 42
0.0000001
 43
0.0000001
 44
0.0000000001
 40
0.0
 40
0.0
 40
0.0
 40
0.0
 40
0.4515527832
 40
1.0
 40
1.0
 40
1.0
 40
1.0
 10
105.319574799
 20
83.1718758619
 30
0.0
 10
105.2138997479
 20
83.2111702036
 30
0.0
 10
104.9781656167
 20
83.2935338765
 30
0.0
 10
104.7420325714
 20
83.3746339006
 30
0.0
 10
104.6126224707
 20
83.4194083743
 30
0.0
  0
SPLINE
  5
4E8
100
AcDbEntity
  8
0
100
AcDbSpline
 62
7
  6
CONTINUOUS
 70
0
 71
3
 72
13
 73
9
 74
0
 42
0.0000001
 43
0.0000001
 44
0.0000000001
 40
0.0
 40
0.0
 40
0.0
 40
0.0
 40
0.2499152811
 40
0.3749580306
 40
0.5000002609
 40
0.6250422544
 40
0.7500853274
 40
1.0
 40
1.0
 40
1.0
 40
1.0
 10
104.6125800447
 20
68.0935496866
 30
0.0
 10
104.1821021938
 20
69.3232136445
 30
0.0
 10
103.6567941517
 20
71.2165865277
 30
0.0
 10
103.2898697542
 20
73.8001692349
 30
0.0
 10
103.1957859452
 20
75.7565484924
 30
0.0
 10
103.2899098448
 20
77.7129199521
 30
0.0
 10
103.6566931109
 20
80.2965318494
 30
0.0
 10
104.182426978
 20
82.1897903337
 30
0.0
 10
104.6129032188
 20
83.4194514944
 30
0.0
  0
SPLINE
  5
4E9
100
AcDbEntity
  8
0
100
AcDbSpline
 62
7
  6
CONTINUOUS
 70
0
 71
3
 72
9
 73
5
 74
0
 42
0.0000001
 43
0.0000001
 44
0.0000000001
 40
0.0
 40
0.0
 40
0.0
 40
0.0
 40
0.222863684
 40
1.0
 40
1.0
 40
1.0
 40
1.0
 10
105.3195759709
 20
56.4856996861
 30
0.0
 10
105.2736735124
 20
56.513234076
 30
0.0
 10
105.0503285139
 20
56.6080190639
 30
0.0
 10
104.7936962022
 20
56.5942515601
 30
0.0
 10
104.6125122442
 20
56.5494016356
 30
0.0
  0
SPLINE
  5
4EA
100
AcDbEntity
  8
0
100
AcDbSpline
 62
7
  6
CONTINUOUS
 70
0
 71
3
 72
14
 73
10
 74
0
 42
0.0000001
 43
0.0000001
 44
0.0000000001
 40
0.0
 40
0.0
 40
0.0
 40
0.0
 40
0.2554866945
 40
0.3798151795
 40
0.5026582789
 40
0.6250747944
 40
0.7482542024
 40
0.8730634523
 40
1.0
 40
1.0
 40
1.0
 40
1.0
 10
105.3156958929
 20
56.4950500115
 30
0.0
 10
104.8973723475
 20
57.3254476949
 30
0.0
 10
104.3718144321
 20
58.6178410262
 30
0.0
 10
103.9982362956
 20
60.4131366174
 30
0.0
 10
103.9025358593
 20
61.759300081
 30
0.0
 10
103.9976394966
 20
63.1012233725
 30
0.0
 10
104.2752820291
 20
64.4242637773
 30
0.0
 10
104.717523503
 20
65.718208337
 30
0.0
 10
105.1047310324
 20
66.550277174
 30
0.0
 10
105.316242995
 20
66.9609837176
 30
0.0
  0
SPLINE
  5
4EB
100
AcDbEntity
  8
0
100
AcDbSpline
 62
7
  6
CONTINUOUS
 70
0
 71
3
 72
9
 73
5
 74
0
 42
0.0000001
 43
0.0000001
 44
0.0000000001
 40
0.0
 40
0.0
 40
0.0
 40
0.0
 40
0.2440140384
 40
1.0
 40
1.0
 40
1.0
 40
1.0
 10
105.3195755423
 20
66.9726240584
 30
0.0
 10
105.2747510542
 20
67.0226738648
 30
0.0
 10
105.0735347912
 20
67.2116818786
 30
0.0
 10
104.8148068662
 20
67.3369404132
 30
0.0
 10
104.6126160646
 20
67.3864181647
 30
0.0
  0
SPLINE
  5
4EC
100
AcDbEntity
  8
0
100
AcDbSpline
 62
7
  6
CONTINUOUS
 70
0
 71
3
 72
13
 73
9
 74
0
 42
0.0000001
 43
0.0000001
 44
0.0000000001
 40
0.0
 40
0.0
 40
0.0
 40
0.0
 40
0.2533542795
 40
0.3772013228
 40
0.4999972467
 40
0.6227925315
 40
0.7466390652
 40
1.0
 40
1.0
 40
1.0
 40
1.0
 10
104.6126893588
 20
56.5493938093
 30
0.0
 10
104.1902578273
 20
57.4026377377
 30
0.0
 10
103.6628137157
 20
58.7324939669
 30
0.0
 10
103.2905451735
 20
60.5785821688
 30
0.0
 10
103.1955654841
 20
61.9679891465
 30
0.0
 10
103.2906037728
 20
63.3573741294
 30
0.0
 10
103.6626614386
 20
65.2035521367
 30
0.0
 10
104.1907941347
 20
66.5331745638
 30
0.0
 10
104.6132327235
 20
67.3864429054
 30
0.0
  0
SPLINE
  5
4ED
100
AcDbEntity
  8
0
100
AcDbSpline
 62
7
  6
CONTINUOUS
 70
0
 71
3
 72
9
 73
5
 74
0
 42
0.0000001
 43
0.0000001
 44
0.0000000001
 40
0.0
 40
0.0
 40
0.0
 40
0.0
 40
0.4958701995
 40
1.0
 40
1.0
 40
1.0
 40
1.0
 10
104.6125045752
 20
56.2565017928
 30
0.0
 10
104.7452209987
 20
56.2564995243
 30
0.0
 10
105.0161941232
 20
56.1948877561
 30
0.0
 10
105.2334106725
 20
56.0226584958
 30
0.0
 10
105.3195978623
 20
55.9188457912
 30
0.0
  0
LINE
  5
4EE
100
AcDbEntity
  8
0
100
AcDbLine
 62
7
  6
CONTINUOUS
 10
105.3181680775
 20
55.9184106049
 11
103.9342026246
 21
55.9636074377
  0
SPLINE
  5
4EF
100
AcDbEntity
  8
0
100
AcDbSpline
 62
7
  6
CONTINUOUS
 70
0
 71
3
 72
9
 73
5
 74
0
 42
0.0000001
 43
0.0000001
 44
0.0000000001
 40
0.0
 40
0.0
 40
0.0
 40
0.0
 40
0.4953941299
 40
1.0
 40
1.0
 40
1.0
 40
1.0
 10
104.6125062292
 20
95.25649968
 30
0.0
 10
104.7450819049
 20
95.2565019107
 30
0.0
 10
105.01602867
 20
95.3182714309
 30
0.0
 10
105.2330833654
 20
95.4904683263
 30
0.0
 10
105.3195993868
 20
95.5941554519
 30
0.0
  0
LINE
  5
4F0
100
AcDbEntity
  8
0
100
AcDbLine
 62
7
  6
CONTINUOUS
 10
103.934202716
 20
95.5493938093
 11
105.3182328881
 21
95.594567881
  0
ELLIPSE
  5
4F1
100
AcDbEntity
  8
0
100
AcDbEllipse
 62
7
  6
CONTINUOUS
 10
110.6736904738
 20
155.8565005905
 30
0.0
 11
3.0
 21
-0.0
 31
0.0
 40
1.0
 41
-0.0
 42
1.5707963268
  0
ELLIPSE
  5
4F2
100
AcDbEntity
  8
0
100
AcDbEllipse
 62
7
  6
CONTINUOUS
 10
131.4979338242
 20
155.8565005905
 30
0.0
 11
-0.0
 21
3.0
 31
0.0
 40
0.5773502692
 41
0.1060960822
 42
1.5707963256
  0
ENDSEC
  0
SECTION
  2
OBJECTS
  0
DICTIONARY
  5
4F3
100
AcDbDictionary
  3
ACAD_GROUP
350
4F4
  3
ACAD_MLINESTYLE
350
4F5
  0
DICTIONARY
  5
4F4
102
{ACAD_REACTORS
330
4F3
102
}
100
AcDbDictionary
  0
DICTIONARY
  5
4F5
102
{ACAD_REACTORS
330
4F3
102
}
100
AcDbDictionary
  3
STANDARD
350
4F6
  0
MLINESTYLE
  5
4F6
102
{ACAD_REACTORS
330
4F5
102
}
100
AcDbMlineStyle
  2
STANDARD
 70
0
  3

 62
256
 51
90.0
 52
90.0
 71
2
 49
0.5
 62
256
  6
BYLAYER
 49
-0.5
 62
256
  6
BYLAYER
  0
ENDSEC
  0
EOF
