999
DXF file: C:\Users\64ciro\Desktop\FILE 3D-2D\ARMATEC\H36LLL022_3082.dxf
999
Pro/ENGINEER 2017260 by Parametric Technology Corporation
  0
SECTION
  2
HEADER
  9
$ACADVER
  1
AC1014
  9
$DWGCODEPAGE
  3
ANSI_1252
  9
$EXTMAX
 10
297.0
 20
210.0
 30
0.0
  9
$EXTMIN
 10
0.0
 20
0.0
 30
0.0
  9
$LIMMIN
 10
0.0
 20
0.0
  9
$LIMMAX
 10
297.0
 20
210.0
  9
$VIEWCTR
 10
148.5
 20
105.0
  9
$VIEWSIZE
 40
210.0
  9
$CLAYER
  8
0
  9
$LTSCALE
 40
16.335
  9
$CELTYPE
  6
BYLAYER
  9
$DIMSCALE
 40
1.0
  9
$DIMASZ
 40
1.5
  9
$DIMEXO
 40
0.0625
  9
$DIMDLI
 40
11.286
  9
$DIMEXE
 40
0.125
  9
$DIMCEN
 40
2.673
  9
$DIMLFAC
 40
1.0
  9
$DIMBLK
  1
_CLOSED
  9
$DIMALT
 70
0
  9
$DIMALTF
 40
25.4
  9
$DIMTXT
 40
2.4
  9
$DIMTOL
 70
1
  9
$DIMLIM
 70
0
  9
$DIMTFAC
 40
1.0
  9
$DIMTP
 40
0.01
  9
$DIMTM
 40
0.01
  9
$DIMGAP
 40
0.625
  9
$AUNITS
 70
0
  9
$PDMODE
 70
3
  9
$PDSIZE
 40
0.3125
  9
$HANDSEED
  5
596
  9
$TILEMODE
 70
1
  9
$MEASUREMENT
 70
1
  0
ENDSEC
  0
SECTION
  2
CLASSES
  0
ENDSEC
  0
SECTION
  2
TABLES
  0
TABLE
  2
VPORT
  5
8
100
AcDbSymbolTable
 70
2
  0
VPORT
  5
1F4
100
AcDbSymbolTableRecord
100
AcDbViewportTableRecord
  2
*ACTIVE
 70
0
 10
0.0
 20
0.0
 11
1.0
 21
1.0
 12
148.5
 22
105.0
 13
0.0
 23
0.0
 14
1.0
 24
1.0
 15
0.0
 25
0.0
 16
0.0
 26
0.0
 36
1.0
 17
0.0
 27
0.0
 37
0.0
 40
210.0
 41
1.4142857143
 42
50.0
 43
0.0
 44
0.0
 50
0.0
 51
0.0
 71
0
 72
100
 73
1
 74
1
 75
0
 76
0
 77
0
 78
0
  0
ENDTAB
  0
TABLE
  2
LTYPE
  5
5
100
AcDbSymbolTable
 70
6
  0
LTYPE
  5
14
100
AcDbSymbolTableRecord
100
AcDbLinetypeTableRecord
  2
BYBLOCK
 70
0
  3

 72
65
 73
0
 40
0.0
  0
LTYPE
  5
15
100
AcDbSymbolTableRecord
100
AcDbLinetypeTableRecord
  2
BYLAYER
 70
0
  3

 72
65
 73
0
 40
0.0
  0
LTYPE
  5
16
100
AcDbSymbolTableRecord
100
AcDbLinetypeTableRecord
  2
CONTINUOUS
 70
64
  3
Solid line
 72
65
 73
0
 40
0.0
  0
LTYPE
  5
1F5
100
AcDbSymbolTableRecord
100
AcDbLinetypeTableRecord
  2
CENTER
 70
64
  3
____ _ ____ _ ____ _ ____ _ ____ _ ____ _ ____
 72
65
 73
4
 40
0.6
 49
0.375
 74
0
 49
-0.075
 74
0
 49
0.075
 74
0
 49
-0.075
 74
0
  0
LTYPE
  5
1F6
100
AcDbSymbolTableRecord
100
AcDbLinetypeTableRecord
  2
HIDDEN
 70
64
  3
- - - - - - - - - - - - - - - - - - - -
 72
65
 73
2
 40
0.2
 49
0.1
 74
0
 49
-0.1
 74
0
  0
LTYPE
  5
1F7
100
AcDbSymbolTableRecord
100
AcDbLinetypeTableRecord
  2
PHANTOM
 70
64
  3
_____ _ _ _____ _ _ _____ _ _ _____
 72
65
 73
6
 40
0.8
 49
0.45
 74
0
 49
-0.05
 74
0
 49
0.1
 74
0
 49
-0.05
 74
0
 49
0.1
 74
0
 49
-0.05
 74
0
  0
LTYPE
  5
1F8
100
AcDbSymbolTableRecord
100
AcDbLinetypeTableRecord
  2
DOT
 70
64
  3
. . . . . . . . . . . . . . . . . . . .
 72
65
 73
2
 40
0.2
 49
0.1
 74
0
 49
-0.1
 74
0
  0
LTYPE
  5
1F9
100
AcDbSymbolTableRecord
100
AcDbLinetypeTableRecord
  2
DASHED
 70
64
  3
- - - - - - - - - - - - - - - - - - - -
 72
65
 73
2
 40
0.2
 49
0.1
 74
0
 49
-0.1
 74
0
  0
ENDTAB
  0
TABLE
  2
LAYER
  5
2
100
AcDbSymbolTable
 70
36
  0
LAYER
  5
10
100
AcDbSymbolTableRecord
100
AcDbLayerTableRecord
  2
0
 70
0
 62
7
  6
CONTINUOUS
  0
LAYER
  5
1FA
100
AcDbSymbolTableRecord
100
AcDbLayerTableRecord
  2
DEFAULT_1
 70
0
 62
7
  6
CENTER
  0
LAYER
  5
1FB
100
AcDbSymbolTableRecord
100
AcDbLayerTableRecord
  2
DEFAULT_2
 70
0
 62
8
  6
HIDDEN
  0
LAYER
  5
1FC
100
AcDbSymbolTableRecord
100
AcDbLayerTableRecord
  2
DEFAULT_3
 70
0
 62
7
  6
PHANTOM
  0
LAYER
  5
1FD
100
AcDbSymbolTableRecord
100
AcDbLayerTableRecord
  2
ASSI
 70
0
 62
7
  6
CONTINUOUS
  0
LAYER
  5
1FE
100
AcDbSymbolTableRecord
100
AcDbLayerTableRecord
  2
COSMETICA
 70
0
 62
7
  6
CONTINUOUS
  0
LAYER
  5
1FF
100
AcDbSymbolTableRecord
100
AcDbLayerTableRecord
  2
CSYS
 70
0
 62
7
  6
CONTINUOUS
  0
LAYER
  5
200
100
AcDbSymbolTableRecord
100
AcDbLayerTableRecord
  2
CURVE
 70
0
 62
7
  6
CONTINUOUS
  0
LAYER
  5
201
100
AcDbSymbolTableRecord
100
AcDbLayerTableRecord
  2
DETTAGLI
 70
0
 62
7
  6
CONTINUOUS
  0
LAYER
  5
202
100
AcDbSymbolTableRecord
100
AcDbLayerTableRecord
  2
FILETTI
 70
0
 62
7
  6
CONTINUOUS
  0
LAYER
  5
203
100
AcDbSymbolTableRecord
100
AcDbLayerTableRecord
  2
GEOM
 70
0
 62
7
  6
CONTINUOUS
  0
LAYER
  5
204
100
AcDbSymbolTableRecord
100
AcDbLayerTableRecord
  2
GEOMETRIA_SOLIDA
 70
0
 62
7
  6
CONTINUOUS
  0
LAYER
  5
205
100
AcDbSymbolTableRecord
100
AcDbLayerTableRecord
  2
LAY0001
 70
0
 62
7
  6
CONTINUOUS
  0
LAYER
  5
206
100
AcDbSymbolTableRecord
100
AcDbLayerTableRecord
  2
LAY0002
 70
0
 62
7
  6
CONTINUOUS
  0
LAYER
  5
207
100
AcDbSymbolTableRecord
100
AcDbLayerTableRecord
  2
LAY0003
 70
0
 62
7
  6
CONTINUOUS
  0
LAYER
  5
208
100
AcDbSymbolTableRecord
100
AcDbLayerTableRecord
  2
NOGEOM
 70
0
 62
7
  6
CONTINUOUS
  0
LAYER
  5
209
100
AcDbSymbolTableRecord
100
AcDbLayerTableRecord
  2
PIANI
 70
0
 62
7
  6
CONTINUOUS
  0
LAYER
  5
20A
100
AcDbSymbolTableRecord
100
AcDbLayerTableRecord
  2
QUOTE
 70
0
 62
7
  6
CONTINUOUS
  0
LAYER
  5
20B
100
AcDbSymbolTableRecord
100
AcDbLayerTableRecord
  2
RACCORDI
 70
0
 62
7
  6
CONTINUOUS
  0
LAYER
  5
20C
100
AcDbSymbolTableRecord
100
AcDbLayerTableRecord
  2
RIF
 70
0
 62
7
  6
CONTINUOUS
  0
LAYER
  5
20D
100
AcDbSymbolTableRecord
100
AcDbLayerTableRecord
  2
SMUSSI
 70
0
 62
7
  6
CONTINUOUS
  0
LAYER
  5
20E
100
AcDbSymbolTableRecord
100
AcDbLayerTableRecord
  2
TABELLE
 70
0
 62
7
  6
CONTINUOUS
  0
ENDTAB
  0
TABLE
  2
STYLE
  5
3
100
AcDbSymbolTable
 70
1
  0
STYLE
  5
11
100
AcDbSymbolTableRecord
100
AcDbTextStyleTableRecord
  2
STANDARD
 70
0
 40
0.0
 41
0.8
 50
0.0
 71
0
 42
0.2
  3
txt
  4

  0
STYLE
  5
20F
100
AcDbSymbolTableRecord
100
AcDbTextStyleTableRecord
  2
TEXTSTYLE_1
 70
0
 40
0.0
 41
0.8
 50
0.0
 71
0
 42
0.2
  3
gdt
  4

  0
ENDTAB
  0
TABLE
  2
VIEW
  5
6
100
AcDbSymbolTable
 70
0
  0
ENDTAB
  0
TABLE
  2
UCS
  5
7
100
AcDbSymbolTable
 70
0
  0
ENDTAB
  0
TABLE
  2
APPID
  5
9
100
AcDbSymbolTable
 70
1
  0
APPID
  5
210
100
AcDbSymbolTableRecord
100
AcDbRegAppTableRecord
  2
ACAD
 70
0
  0
ENDTAB
  0
TABLE
  2
BLOCK_RECORD
  5
1
100
AcDbSymbolTable
 70
0
  0
BLOCK_RECORD
  5
1F
100
AcDbSymbolTableRecord
100
AcDbBlockTableRecord
  2
*MODEL_SPACE
  0
BLOCK_RECORD
  5
1B
100
AcDbSymbolTableRecord
100
AcDbBlockTableRecord
  2
*PAPER_SPACE
  0
ENDTAB
  0
TABLE
  2
DIMSTYLE
  5
A
100
AcDbSymbolTable
 70
1
  0
DIMSTYLE
105
211
100
AcDbSymbolTableRecord
100
AcDbDimStyleTableRecord
  2
STANDARD
 70
0
  3

  4

  5
_CLOSED
  6
_CLOSED
  7
_CLOSED
 40
1.0
 41
1.5
 42
0.0625
 43
0.38
 44
0.125
 45
0.0
 46
0.0
 47
0.01
 48
0.01
140
2.4
141
0.09
142
0.0
143
25.4
144
1.0
145
0.0
146
1.0
147
0.625
 71
1.0
 72
0.0
 73
0
 74
0
 75
0
 76
0
 77
1
 78
8
 79
2
170
0
171
1
172
0
173
0
174
0
175
0
176
0
177
0
178
0
270
2
179
2
271
2
272
2
273
2
274
2
275
0
280
0
281
0
282
0
283
1
284
8
285
0
286
0
287
3
288
0
340
11
  0
ENDTAB
  0
ENDSEC
  0
SECTION
  2
BLOCKS
  0
BLOCK
  5
20
100
AcDbEntity
  8
0
100
AcDbBlockBegin
  2
*MODEL_SPACE
 70
0
 10
0.0
 20
0.0
 30
0.0
  3
*MODEL_SPACE
  1

  0
ENDBLK
  5
21
100
AcDbEntity
  8
0
100
AcDbBlockEnd
  0
BLOCK
  5
1C
100
AcDbEntity
  8
0
100
AcDbBlockBegin
  2
*PAPER_SPACE
 70
0
 10
0.0
 20
0.0
 30
0.0
  3
*PAPER_SPACE
  1

  0
ENDBLK
  5
1D
100
AcDbEntity
  8
0
100
AcDbBlockEnd
  0
ENDSEC
  0
SECTION
  2
ENTITIES
  0
LINE
  5
212
100
AcDbEntity
  8
0
100
AcDbLine
 62
7
  6
CONTINUOUS
 10
0.0
 20
0.0
 11
0.0
 21
210.0
  0
LINE
  5
213
100
AcDbEntity
  8
0
100
AcDbLine
 62
7
  6
CONTINUOUS
 10
0.0
 20
0.0
 11
297.0
 21
0.0
  0
LINE
  5
214
100
AcDbEntity
  8
0
100
AcDbLine
 62
7
  6
CONTINUOUS
 10
0.0
 20
210.0
 11
297.0
 21
210.0
  0
LINE
  5
215
100
AcDbEntity
  8
0
100
AcDbLine
 62
7
  6
CONTINUOUS
 10
297.0
 20
0.0
 11
297.0
 21
210.0
  0
LINE
  5
216
100
AcDbEntity
  8
0
100
AcDbLine
 62
7
  6
CONTINUOUS
 10
85.4111027985
 20
63.8999621802
 11
86.7390084177
 21
61.5999621802
  0
LINE
  5
217
100
AcDbEntity
  8
0
100
AcDbLine
 62
7
  6
CONTINUOUS
 10
97.8923142632
 20
64.8107422886
 11
97.9035448882
 21
64.7999621802
  0
LINE
  5
218
100
AcDbEntity
  8
0
100
AcDbLine
 62
7
  6
CONTINUOUS
 10
99.7063142632
 20
64.8107422886
 11
99.7175448883
 21
64.7999621802
  0
LINE
  5
219
100
AcDbEntity
  8
0
100
AcDbLine
 62
7
  6
CONTINUOUS
 10
101.5203142632
 20
64.8107422886
 11
101.5315448882
 21
64.7999621802
  0
LINE
  5
21A
100
AcDbEntity
  8
0
100
AcDbLine
 62
7
  6
CONTINUOUS
 10
97.2832903937
 20
65.979702287
 11
97.8923142632
 21
64.8107422886
  0
LINE
  5
21B
100
AcDbEntity
  8
GEOM
100
AcDbLine
 62
7
  6
CONTINUOUS
 10
82.3245002581
 20
93.3499621802
 11
82.3245002581
 21
64.7499621802
  0
LINE
  5
21C
100
AcDbEntity
  8
GEOM
100
AcDbLine
 62
7
  6
CONTINUOUS
 10
83.0245002581
 20
64.0499621802
 11
83.0245002581
 21
94.0499621802
  0
LINE
  5
21D
100
AcDbEntity
  8
0
100
AcDbLine
 62
7
  6
CONTINUOUS
 10
85.1512951774
 20
94.0499621802
 11
85.1512951774
 21
64.0499621802
  0
LINE
  5
21E
100
AcDbEntity
  8
0
100
AcDbLine
 62
7
  6
CONTINUOUS
 10
85.4111027985
 20
94.1999621802
 11
85.4111027985
 21
63.8999621802
  0
LINE
  5
21F
100
AcDbEntity
  8
0
100
AcDbLine
 62
7
  6
CONTINUOUS
 10
86.7390084177
 20
61.5999621802
 11
86.7390084177
 21
61.6255292813
  0
LINE
  5
220
100
AcDbEntity
  8
0
100
AcDbLine
 62
7
  6
CONTINUOUS
 10
86.7390084177
 20
69.5199874459
 11
86.7390084177
 21
71.1555040156
  0
LINE
  5
221
100
AcDbEntity
  8
0
100
AcDbLine
 62
7
  6
CONTINUOUS
 10
86.7390084177
 20
86.9444203448
 11
86.7390084177
 21
88.5799369145
  0
LINE
  5
222
100
AcDbEntity
  8
0
100
AcDbLine
 62
7
  6
CONTINUOUS
 10
86.7390084177
 20
96.4743950792
 11
86.7390084177
 21
96.4999621802
  0
LINE
  5
223
100
AcDbEntity
  8
0
100
AcDbLine
 62
7
  6
CONTINUOUS
 10
86.9988160388
 20
96.6499621802
 11
86.9988160388
 21
96.6241753047
  0
LINE
  5
224
100
AcDbEntity
  8
0
100
AcDbLine
 62
7
  6
CONTINUOUS
 10
86.9988160388
 20
61.4757490558
 11
86.9988160388
 21
61.4499621802
  0
LINE
  5
225
100
AcDbEntity
  8
0
100
AcDbLine
 62
7
  6
CONTINUOUS
 10
86.9988160388
 20
69.4380678923
 11
86.9988160388
 21
71.0876433437
  0
LINE
  5
226
100
AcDbEntity
  8
0
100
AcDbLine
 62
7
  6
CONTINUOUS
 10
86.9988160388
 20
87.0122810167
 11
86.9988160388
 21
88.6618564681
  0
LINE
  5
227
100
AcDbEntity
  8
0
100
AcDbLine
 62
7
  6
CONTINUOUS
 10
99.0972903937
 20
65.979702287
 11
99.7063142632
 21
64.8107422886
  0
LINE
  5
228
100
AcDbEntity
  8
0
100
AcDbLine
 62
7
  6
CONTINUOUS
 10
100.9112903937
 20
65.979702287
 11
101.5203142632
 21
64.8107422886
  0
LINE
  5
229
100
AcDbEntity
  8
0
100
AcDbLine
 62
7
  6
CONTINUOUS
 10
114.0209468676
 20
63.4035155708
 11
116.7000807009
 21
60.7243817375
  0
LINE
  5
22A
100
AcDbEntity
  8
0
100
AcDbLine
 62
7
  6
CONTINUOUS
 10
95.2564022601
 20
88.6618564681
 11
95.2564022601
 21
87.0122810167
  0
LINE
  5
22B
100
AcDbEntity
  8
0
100
AcDbLine
 62
7
  6
CONTINUOUS
 10
95.2564022601
 20
71.0876433437
 11
95.2564022601
 21
69.4380678923
  0
LINE
  5
22C
100
AcDbEntity
  8
0
100
AcDbLine
 62
7
  6
CONTINUOUS
 10
95.2564022601
 20
61.4499621802
 11
95.2564022601
 21
61.4757490558
  0
LINE
  5
22D
100
AcDbEntity
  8
0
100
AcDbLine
 62
7
  6
CONTINUOUS
 10
95.2564022601
 20
96.6241753047
 11
95.2564022601
 21
96.6499621802
  0
LINE
  5
22E
100
AcDbEntity
  8
0
100
AcDbLine
 62
7
  6
CONTINUOUS
 10
96.3245002581
 20
63.2999621802
 11
96.3245002581
 21
94.7999621802
  0
LINE
  5
22F
100
AcDbEntity
  8
0
100
AcDbLine
 62
7
  6
CONTINUOUS
 10
142.9571545506
 20
59.5499621802
 11
139.035818612
 21
59.5499621802
  0
LINE
  5
230
100
AcDbEntity
  8
0
100
AcDbLine
 62
7
  6
CONTINUOUS
 10
132.5711667616
 20
59.8499621802
 11
138.5188047139
 21
59.8499621802
  0
LINE
  5
231
100
AcDbEntity
  8
0
100
AcDbLine
 62
7
  6
CONTINUOUS
 10
117.1211667616
 20
60.5499621802
 11
131.3778337547
 21
60.5499621802
  0
LINE
  5
232
100
AcDbEntity
  8
0
100
AcDbLine
 62
7
  6
CONTINUOUS
 10
165.6501844775
 20
61.4499621802
 11
157.3925982561
 21
61.4499621802
  0
LINE
  5
233
100
AcDbEntity
  8
0
100
AcDbLine
 62
7
  6
CONTINUOUS
 10
86.9988160388
 20
61.4499621802
 11
95.2564022601
 21
61.4499621802
  0
LINE
  5
234
100
AcDbEntity
  8
0
100
AcDbLine
 62
7
  6
CONTINUOUS
 10
95.2564022601
 20
61.4757490558
 11
86.9988160388
 21
61.4757490558
  0
LINE
  5
235
100
AcDbEntity
  8
0
100
AcDbLine
 62
7
  6
CONTINUOUS
 10
157.3925982561
 20
61.4757490558
 11
165.6501844775
 21
61.4757490558
  0
LINE
  5
236
100
AcDbEntity
  8
0
100
AcDbLine
 62
7
  6
CONTINUOUS
 10
95.286791395
 20
61.5420037722
 11
86.986460443
 21
61.5420037722
  0
LINE
  5
237
100
AcDbEntity
  8
0
100
AcDbLine
 62
7
  6
CONTINUOUS
 10
157.3622091213
 20
61.5420037722
 11
165.6625400733
 21
61.5420037722
  0
LINE
  5
238
100
AcDbEntity
  8
0
100
AcDbLine
 62
7
  6
CONTINUOUS
 10
96.3245002581
 20
94.7999621802
 11
95.2564022601
 21
96.6499621802
  0
LINE
  5
239
100
AcDbEntity
  8
0
100
AcDbLine
 62
7
  6
CONTINUOUS
 10
98.0147547528
 20
92.1202220734
 11
97.4057308831
 21
93.2891820719
  0
LINE
  5
23A
100
AcDbEntity
  8
0
100
AcDbLine
 62
7
  6
CONTINUOUS
 10
99.8287547528
 20
92.1202220734
 11
99.2197308831
 21
93.2891820719
  0
LINE
  5
23B
100
AcDbEntity
  8
0
100
AcDbLine
 62
7
  6
CONTINUOUS
 10
102.3245002581
 20
63.5499621802
 11
102.3245002581
 21
94.5499621802
  0
LINE
  5
23C
100
AcDbEntity
  8
0
100
AcDbLine
 62
7
  6
CONTINUOUS
 10
102.3783967178
 20
63.5540827196
 11
102.3783969243
 21
63.5499621802
  0
LINE
  5
23D
100
AcDbEntity
  8
0
100
AcDbLine
 62
7
  6
CONTINUOUS
 10
102.3783950161
 20
63.7373466061
 11
102.3783967178
 21
63.5540827196
  0
LINE
  5
23E
100
AcDbEntity
  8
0
100
AcDbLine
 62
7
  6
CONTINUOUS
 10
102.3783992984
 20
84.6418452722
 11
102.3783972214
 21
84.8161567712
  0
LINE
  5
23F
100
AcDbEntity
  8
0
100
AcDbLine
 62
7
  6
CONTINUOUS
 10
102.3783934889
 20
64.1357486178
 11
102.3783950161
 21
63.7373466061
  0
LINE
  5
240
100
AcDbEntity
  8
0
100
AcDbLine
 62
7
  6
CONTINUOUS
 10
102.3783989868
 20
73.4580790882
 11
102.3784043634
 21
72.0438655258
  0
LINE
  5
241
100
AcDbEntity
  8
0
100
AcDbLine
 62
7
  6
CONTINUOUS
 10
102.3783936265
 20
93.9641757426
 11
102.3783925312
 21
94.1882662804
  0
LINE
  5
242
100
AcDbEntity
  8
0
100
AcDbLine
 62
7
  6
CONTINUOUS
 10
102.3783972214
 20
84.8161567712
 11
102.3783979258
 21
85.7889981443
  0
LINE
  5
243
100
AcDbEntity
  8
0
100
AcDbLine
 62
7
  6
CONTINUOUS
 10
102.3783979258
 20
85.7889981443
 11
102.3784031215
 21
86.0560588346
  0
LINE
  5
244
100
AcDbEntity
  8
0
100
AcDbLine
 62
7
  6
CONTINUOUS
 10
102.3783925312
 20
94.1882662804
 11
102.3784085623
 21
94.5499621802
  0
LINE
  5
245
100
AcDbEntity
  8
0
100
AcDbLine
 62
7
  6
CONTINUOUS
 10
85.4111027985
 20
94.1999621802
 11
86.7390084177
 21
96.4999621802
  0
LINE
  5
246
100
AcDbEntity
  8
0
100
AcDbLine
 62
7
  6
CONTINUOUS
 10
114.0413822663
 20
145.4499621802
 11
112.8245002581
 21
144.1450159908
  0
LINE
  5
247
100
AcDbEntity
  8
0
100
AcDbLine
 62
7
  6
CONTINUOUS
 10
114.7129225367
 20
145.4499621802
 11
112.8245002581
 21
143.4248772174
  0
LINE
  5
248
100
AcDbEntity
  8
0
100
AcDbLine
 62
7
  6
CONTINUOUS
 10
122.3245002581
 20
150.8046627186
 11
120.6245002581
 21
149.823167261
  0
LINE
  5
249
100
AcDbEntity
  8
0
100
AcDbLine
 62
7
  6
CONTINUOUS
 10
144.2405253592
 20
63.0499621802
 11
150.3245002581
 21
63.0499621802
  0
LINE
  5
24A
100
AcDbEntity
  8
0
100
AcDbLine
 62
7
  6
CONTINUOUS
 10
102.3245002581
 20
63.5499621802
 11
114.6164103927
 21
63.5499621802
  0
LINE
  5
24B
100
AcDbEntity
  8
0
100
AcDbLine
 62
7
  6
CONTINUOUS
 10
144.2405253593
 20
63.6742344794
 11
149.747149989
 21
63.6742344789
  0
LINE
  5
24C
100
AcDbEntity
  8
0
100
AcDbLine
 62
7
  6
CONTINUOUS
 10
169.6245002581
 20
64.0499621802
 11
167.4977053389
 21
64.0499621802
  0
LINE
  5
24D
100
AcDbEntity
  8
0
100
AcDbLine
 62
7
  6
CONTINUOUS
 10
83.0245002581
 20
64.0499621802
 11
85.1512951774
 21
64.0499621802
  0
LINE
  5
24E
100
AcDbEntity
  8
0
100
AcDbLine
 62
7
  6
CONTINUOUS
 10
102.3784066655
 20
64.1357486178
 11
114.6164089427
 21
64.1357474437
  0
LINE
  5
24F
100
AcDbEntity
  8
0
100
AcDbLine
 62
7
  6
CONTINUOUS
 10
156.3245002581
 20
64.7999621802
 11
156.3039480312
 21
64.7999621802
  0
LINE
  5
250
100
AcDbEntity
  8
0
100
AcDbLine
 62
7
  6
CONTINUOUS
 10
154.9066437297
 20
64.7999621802
 11
154.4896612614
 21
64.7999621802
  0
LINE
  5
251
100
AcDbEntity
  8
0
100
AcDbLine
 62
7
  6
CONTINUOUS
 10
153.0923569902
 20
64.7999621802
 11
152.6753754398
 21
64.7999621802
  0
LINE
  5
252
100
AcDbEntity
  8
0
100
AcDbLine
 62
7
  6
CONTINUOUS
 10
151.2780712202
 20
64.7999621802
 11
150.3245002581
 21
64.7999621802
  0
LINE
  5
253
100
AcDbEntity
  8
0
100
AcDbLine
 62
7
  6
CONTINUOUS
 10
102.3245002581
 20
64.7999621802
 11
101.5315448882
 21
64.7999621802
  0
LINE
  5
254
100
AcDbEntity
  8
0
100
AcDbLine
 62
7
  6
CONTINUOUS
 10
100.1155002582
 20
64.7999621802
 11
99.7175448883
 21
64.7999621802
  0
LINE
  5
255
100
AcDbEntity
  8
0
100
AcDbLine
 62
7
  6
CONTINUOUS
 10
98.3015002582
 20
64.7999621802
 11
97.9035448882
 21
64.7999621802
  0
LINE
  5
256
100
AcDbEntity
  8
0
100
AcDbLine
 62
7
  6
CONTINUOUS
 10
96.4875002582
 20
64.7999621802
 11
96.3245002581
 21
64.7999621802
  0
LINE
  5
257
100
AcDbEntity
  8
0
100
AcDbLine
 62
7
  6
CONTINUOUS
 10
151.8767233297
 20
65.9499621832
 11
152.0645041074
 21
65.9499621832
  0
LINE
  5
258
100
AcDbEntity
  8
0
100
AcDbLine
 62
7
  6
CONTINUOUS
 10
153.6910091256
 20
65.9499622287
 11
153.878789871
 21
65.9499622287
  0
LINE
  5
259
100
AcDbEntity
  8
0
100
AcDbLine
 62
7
  6
CONTINUOUS
 10
155.5052958806
 20
65.9499622555
 11
155.6930766322
 21
65.9499622555
  0
LINE
  5
25A
100
AcDbEntity
  8
0
100
AcDbLine
 62
7
  6
CONTINUOUS
 10
97.0955225732
 20
65.9679621802
 11
97.2955225732
 21
65.9679621802
  0
LINE
  5
25B
100
AcDbEntity
  8
0
100
AcDbLine
 62
7
  6
CONTINUOUS
 10
98.9095225732
 20
65.9679621802
 11
99.1095225732
 21
65.9679621802
  0
LINE
  5
25C
100
AcDbEntity
  8
0
100
AcDbLine
 62
7
  6
CONTINUOUS
 10
100.7235225732
 20
65.9679621802
 11
100.9235225732
 21
65.9679621802
  0
LINE
  5
25D
100
AcDbEntity
  8
0
100
AcDbLine
 62
7
  6
CONTINUOUS
 10
97.4057308831
 20
93.2891820719
 11
97.3945002582
 21
93.2999621802
  0
LINE
  5
25E
100
AcDbEntity
  8
0
100
AcDbLine
 62
7
  6
CONTINUOUS
 10
99.2197308831
 20
93.2891820719
 11
99.2085002582
 21
93.2999621802
  0
LINE
  5
25F
100
AcDbEntity
  8
0
100
AcDbLine
 62
7
  6
CONTINUOUS
 10
131.7989198154
 20
60.3755426229
 11
132.1500807009
 21
60.0243817375
  0
LINE
  5
260
100
AcDbEntity
  8
0
100
AcDbLine
 62
7
  6
CONTINUOUS
 10
112.8245002581
 20
132.5886373148
 11
112.5745002581
 21
132.1556246129
  0
LINE
  5
261
100
AcDbEntity
  8
0
100
AcDbLine
 62
7
  6
CONTINUOUS
 10
122.3106974567
 20
145.4361593787
 11
121.9245002581
 21
145.0499621802
  0
LINE
  5
262
100
AcDbEntity
  8
0
100
AcDbLine
 62
7
  6
CONTINUOUS
 10
116.6245002581
 20
138.5999621802
 11
117.3245002581
 21
139.2999621802
  0
LINE
  5
263
100
AcDbEntity
  8
0
100
AcDbLine
 62
7
  6
CONTINUOUS
 10
119.0245002581
 20
140.3499621802
 11
118.3245002581
 21
139.6499621802
  0
LINE
  5
264
100
AcDbEntity
  8
0
100
AcDbLine
 62
7
  6
CONTINUOUS
 10
95.286791395
 20
69.278120369
 11
86.986460443
 21
69.278120369
  0
LINE
  5
265
100
AcDbEntity
  8
0
100
AcDbLine
 62
7
  6
CONTINUOUS
 10
157.3622091213
 20
69.278120369
 11
165.6625400733
 21
69.278120369
  0
LINE
  5
266
100
AcDbEntity
  8
0
100
AcDbLine
 62
7
  6
CONTINUOUS
 10
95.2564022601
 20
69.4380678923
 11
86.9988160388
 21
69.4380678923
  0
LINE
  5
267
100
AcDbEntity
  8
0
100
AcDbLine
 62
7
  6
CONTINUOUS
 10
157.3925982561
 20
69.4380678923
 11
165.6501844775
 21
69.4380678923
  0
LINE
  5
268
100
AcDbEntity
  8
0
100
AcDbLine
 62
7
  6
CONTINUOUS
 10
95.2564022601
 20
71.0876433437
 11
86.9988160388
 21
71.0876433437
  0
LINE
  5
269
100
AcDbEntity
  8
0
100
AcDbLine
 62
7
  6
CONTINUOUS
 10
157.3925982561
 20
71.0876433437
 11
165.6501844775
 21
71.0876433437
  0
LINE
  5
26A
100
AcDbEntity
  8
0
100
AcDbLine
 62
7
  6
CONTINUOUS
 10
95.286791395
 20
71.3138455834
 11
86.986460443
 21
71.3138455834
  0
LINE
  5
26B
100
AcDbEntity
  8
0
100
AcDbLine
 62
7
  6
CONTINUOUS
 10
157.3622091213
 20
71.3138455834
 11
165.6625400733
 21
71.3138455834
  0
LINE
  5
26C
100
AcDbEntity
  8
0
100
AcDbLine
 62
7
  6
CONTINUOUS
 10
144.2405253611
 20
71.798272871
 11
149.747149989
 21
71.7982728835
  0
LINE
  5
26D
100
AcDbEntity
  8
0
100
AcDbLine
 62
7
  6
CONTINUOUS
 10
102.3784552353
 20
72.0438655258
 11
114.6163856912
 21
72.0438683504
  0
LINE
  5
26E
100
AcDbEntity
  8
0
100
AcDbLine
 62
7
  6
CONTINUOUS
 10
144.2406122581
 20
73.3053995625
 11
149.747149989
 21
73.3053995337
  0
LINE
  5
26F
100
AcDbEntity
  8
0
100
AcDbLine
 62
7
  6
CONTINUOUS
 10
102.378415439
 20
73.4580790882
 11
114.616394703
 21
73.4580756849
  0
LINE
  5
270
100
AcDbEntity
  8
0
100
AcDbLine
 62
7
  6
CONTINUOUS
 10
86.7266528225
 20
86.8532380099
 11
86.986460443
 21
86.7860787771
  0
LINE
  5
271
100
AcDbEntity
  8
0
100
AcDbLine
 62
7
  6
CONTINUOUS
 10
119.3454761492
 20
80.1224621802
 11
120.7184273547
 21
77.4278937209
  0
LINE
  5
272
100
AcDbEntity
  8
0
100
AcDbLine
 62
7
  6
CONTINUOUS
 10
120.0749882037
 20
80.1224621802
 11
121.0831833819
 21
78.1437677318
  0
LINE
  5
273
100
AcDbEntity
  8
0
100
AcDbLine
 62
7
  6
CONTINUOUS
 10
112.3245002581
 20
134.7999621802
 11
112.3245002581
 21
132.5886373148
  0
LINE
  5
274
100
AcDbEntity
  8
0
100
AcDbLine
 62
7
  6
CONTINUOUS
 10
112.8245002581
 20
131.4499621802
 11
112.8245002581
 21
132.0112870456
  0
LINE
  5
275
100
AcDbEntity
  8
0
100
AcDbLine
 62
7
  6
CONTINUOUS
 10
112.8245002581
 20
132.5886373148
 11
112.8245002581
 21
145.4499621802
  0
LINE
  5
276
100
AcDbEntity
  8
0
100
AcDbLine
 62
7
  6
CONTINUOUS
 10
114.6163715127
 20
73.4580756849
 11
114.6163845888
 21
72.0438646217
  0
LINE
  5
277
100
AcDbEntity
  8
0
100
AcDbLine
 62
7
  6
CONTINUOUS
 10
114.6164118103
 20
93.9641768258
 11
114.6164116715
 21
94.5499621802
  0
LINE
  5
278
100
AcDbEntity
  8
0
100
AcDbLine
 62
7
  6
CONTINUOUS
 10
114.6164112985
 20
64.1357474437
 11
114.6164111641
 21
63.5499621802
  0
LINE
  5
279
100
AcDbEntity
  8
0
100
AcDbLine
 62
7
  6
CONTINUOUS
 10
114.6163715955
 20
84.6418486617
 11
114.616386084
 21
86.0560560091
  0
LINE
  5
27A
100
AcDbEntity
  8
0
100
AcDbLine
 62
7
  6
CONTINUOUS
 10
115.8245002581
 20
135.2999621802
 11
115.8245002581
 21
144.9499621802
  0
LINE
  5
27B
100
AcDbEntity
  8
0
100
AcDbLine
 62
7
  6
CONTINUOUS
 10
96.9853142632
 20
93.2891820718
 11
96.4479906724
 21
92.2578347045
  0
LINE
  5
27C
100
AcDbEntity
  8
0
100
AcDbLine
 62
7
  6
CONTINUOUS
 10
96.4479906724
 20
92.2578347045
 11
96.3824073389
 21
92.1319621802
  0
LINE
  5
27D
100
AcDbEntity
  8
0
100
AcDbLine
 62
7
  6
CONTINUOUS
 10
98.7993142632
 20
93.2891820718
 11
98.2619906715
 21
92.2578347028
  0
LINE
  5
27E
100
AcDbEntity
  8
0
100
AcDbLine
 62
7
  6
CONTINUOUS
 10
98.2619906715
 20
92.2578347028
 11
98.1964073389
 21
92.1319621802
  0
LINE
  5
27F
100
AcDbEntity
  8
0
100
AcDbLine
 62
7
  6
CONTINUOUS
 10
100.6133142632
 20
93.2891820718
 11
100.0759906713
 21
92.2578347023
  0
LINE
  5
280
100
AcDbEntity
  8
0
100
AcDbLine
 62
7
  6
CONTINUOUS
 10
100.0759906713
 20
92.2578347023
 11
100.0104073389
 21
92.1319621802
  0
LINE
  5
281
100
AcDbEntity
  8
0
100
AcDbLine
 62
7
  6
CONTINUOUS
 10
117.7185430191
 20
129.7630604093
 11
117.4685430321
 21
129.3300477
  0
LINE
  5
282
100
AcDbEntity
  8
0
100
AcDbLine
 62
7
  6
CONTINUOUS
 10
117.6275712032
 20
130.7122497031
 11
117.8294952741
 21
130.9243808679
  0
LINE
  5
283
100
AcDbEntity
  8
0
100
AcDbLine
 62
7
  6
CONTINUOUS
 10
117.2070467049
 20
131.1134105886
 11
117.4098315881
 21
131.3255426164
  0
LINE
  5
284
100
AcDbEntity
  8
0
100
AcDbLine
 62
7
  6
CONTINUOUS
 10
117.7854761492
 20
75.1824621802
 11
130.7854761492
 21
75.1824621802
  0
LINE
  5
285
100
AcDbEntity
  8
0
100
AcDbLine
 62
7
  6
CONTINUOUS
 10
118.4354761492
 20
75.8324621802
 11
130.1354761492
 21
75.8324621802
  0
LINE
  5
286
100
AcDbEntity
  8
0
100
AcDbLine
 62
7
  6
CONTINUOUS
 10
120.9859113386
 20
76.8074621802
 11
121.7154233931
 21
76.8074621802
  0
LINE
  5
287
100
AcDbEntity
  8
0
100
AcDbLine
 62
7
  6
CONTINUOUS
 10
124.3145002581
 20
76.8074621802
 11
124.9645002581
 21
76.8074621802
  0
LINE
  5
288
100
AcDbEntity
  8
0
100
AcDbLine
 62
7
  6
CONTINUOUS
 10
125.8745002581
 20
76.8074621802
 11
126.5245002581
 21
76.8074621802
  0
LINE
  5
289
100
AcDbEntity
  8
0
100
AcDbLine
 62
7
  6
CONTINUOUS
 10
152.2218044744
 20
79.0499621802
 11
150.8245002581
 21
79.0499621802
  0
LINE
  5
28A
100
AcDbEntity
  8
0
100
AcDbLine
 62
7
  6
CONTINUOUS
 10
127.9545002581
 20
79.0499621802
 11
128.3445002581
 21
79.0499621802
  0
LINE
  5
28B
100
AcDbEntity
  8
0
100
AcDbLine
 62
7
  6
CONTINUOUS
 10
128.3445002581
 20
79.7324621802
 11
128.9945002581
 21
79.7324621802
  0
LINE
  5
28C
100
AcDbEntity
  8
0
100
AcDbLine
 62
7
  6
CONTINUOUS
 10
165.9223476938
 20
71.2466863505
 11
165.6625400733
 21
71.3138455834
  0
LINE
  5
28D
100
AcDbEntity
  8
0
100
AcDbLine
 62
7
  6
CONTINUOUS
 10
117.5731082756
 20
129.1248396628
 11
117.5745317961
 21
129.0956682625
  0
LINE
  5
28E
100
AcDbEntity
  8
0
100
AcDbLine
 62
7
  6
CONTINUOUS
 10
116.6245002581
 20
135.9999621802
 11
116.6245002581
 21
138.5999621802
  0
LINE
  5
28F
100
AcDbEntity
  8
0
100
AcDbLine
 62
7
  6
CONTINUOUS
 10
116.7000807009
 20
60.7243817375
 11
116.7000807009
 21
97.3755426229
  0
LINE
  5
290
100
AcDbEntity
  8
0
100
AcDbLine
 62
7
  6
CONTINUOUS
 10
116.8245002581
 20
135.5532956768
 11
116.8245002581
 21
135.4999621802
  0
LINE
  5
291
100
AcDbEntity
  8
0
100
AcDbLine
 62
7
  6
CONTINUOUS
 10
116.9330147527
 20
131.7466286837
 11
116.9330147526
 21
135.1962001523
  0
LINE
  5
292
100
AcDbEntity
  8
0
100
AcDbLine
 62
7
  6
CONTINUOUS
 10
117.1211667616
 20
60.5499621802
 11
117.1211667616
 21
97.5278834621
  0
LINE
  5
293
100
AcDbEntity
  8
0
100
AcDbLine
 62
7
  6
CONTINUOUS
 10
117.2205092069
 20
134.7999621802
 11
117.2205092069
 21
131.7466286837
  0
LINE
  5
294
100
AcDbEntity
  8
0
100
AcDbLine
 62
7
  6
CONTINUOUS
 10
117.5745002581
 20
129.0956681862
 11
117.5745002581
 21
98.0489677757
  0
LINE
  5
295
100
AcDbEntity
  8
0
100
AcDbLine
 62
7
  6
CONTINUOUS
 10
117.7185430191
 20
130.5032956768
 11
117.7185430191
 21
129.7630604093
  0
LINE
  5
296
100
AcDbEntity
  8
0
100
AcDbLine
 62
7
  6
CONTINUOUS
 10
117.7854761492
 20
82.9824621802
 11
117.7854761492
 21
75.1824621802
  0
LINE
  5
297
100
AcDbEntity
  8
0
100
AcDbLine
 62
7
  6
CONTINUOUS
 10
118.0038233696
 20
130.503295677
 11
118.0038233696
 21
128.8393229356
  0
LINE
  5
298
100
AcDbEntity
  8
0
100
AcDbLine
 62
7
  6
CONTINUOUS
 10
118.3245002581
 20
139.6499621802
 11
118.3245002581
 21
139.6150413391
  0
LINE
  5
299
100
AcDbEntity
  8
0
100
AcDbLine
 62
7
  6
CONTINUOUS
 10
118.4354761492
 20
82.3324621802
 11
118.4354761492
 21
75.8324621802
  0
LINE
  5
29A
100
AcDbEntity
  8
0
100
AcDbLine
 62
7
  6
CONTINUOUS
 10
119.8245002581
 20
140.3499621802
 11
119.8245002581
 21
143.3499621802
  0
LINE
  5
29B
100
AcDbEntity
  8
0
100
AcDbLine
 62
7
  6
CONTINUOUS
 10
120.2934258255
 20
142.9169494783
 11
120.2934258255
 21
140.3499621802
  0
LINE
  5
29C
100
AcDbEntity
  8
0
100
AcDbLine
 62
7
  6
CONTINUOUS
 10
120.3245002581
 20
149.3035520187
 11
120.3245002581
 21
148.6499621802
  0
LWPOLYLINE
  5
29D
100
AcDbEntity
  8
0
100
AcDbPolyline
 62
7
  6
CONTINUOUS
 90
3
 70
0
 10
117.5745019045
 20
98.0489668574
 10
117.5739114574
 20
98.024707891
 10
117.5651554274
 20
97.9527752025
  0
LINE
  5
29E
100
AcDbEntity
  8
0
100
AcDbLine
 62
7
  6
CONTINUOUS
 10
124.4703982919
 20
148.6499621802
 11
124.4524027854
 21
148.4499621802
  0
LINE
  5
29F
100
AcDbEntity
  8
0
100
AcDbLine
 62
7
  6
CONTINUOUS
 10
126.3245002581
 20
148.6499621802
 11
126.2730136987
 21
148.4499621802
  0
LINE
  5
2A0
100
AcDbEntity
  8
0
100
AcDbLine
 62
7
  6
CONTINUOUS
 10
128.1786022244
 20
148.6499621802
 11
128.0986644752
 21
148.4499621802
  0
LINE
  5
2A1
100
AcDbEntity
  8
0
100
AcDbLine
 62
7
  6
CONTINUOUS
 10
132.3245002581
 20
148.6499621802
 11
132.2242756042
 21
148.4499621802
  0
LINE
  5
2A2
100
AcDbEntity
  8
0
100
AcDbLine
 62
7
  6
CONTINUOUS
 10
129.8512117719
 20
148.6499621802
 11
129.7506476968
 21
148.4499621802
  0
LINE
  5
2A3
100
AcDbEntity
  8
0
100
AcDbLine
 62
7
  6
CONTINUOUS
 10
132.0308393559
 20
148.6499621802
 11
131.9196098239
 21
148.4499621802
  0
LINE
  5
2A4
100
AcDbEntity
  8
0
100
AcDbLine
 62
7
  6
CONTINUOUS
 10
131.1786022244
 20
148.6499621802
 11
131.0672557358
 21
148.4499621802
  0
LINE
  5
2A5
100
AcDbEntity
  8
0
100
AcDbLine
 62
7
  6
CONTINUOUS
 10
165.9223474757
 20
86.8532379536
 11
165.6625400733
 21
86.7860787771
  0
LINE
  5
2A6
100
AcDbEntity
  8
0
100
AcDbLine
 62
7
  6
CONTINUOUS
 10
119.3454761492
 20
80.1224621802
 11
120.0749882037
 21
80.1224621802
  0
LINE
  5
2A7
100
AcDbEntity
  8
0
100
AcDbLine
 62
7
  6
CONTINUOUS
 10
122.6749882037
 20
80.1224621802
 11
123.4045002581
 21
80.1224621802
  0
LINE
  5
2A8
100
AcDbEntity
  8
0
100
AcDbLine
 62
7
  6
CONTINUOUS
 10
124.3145002581
 20
80.1224621802
 11
124.9645002581
 21
80.1224621802
  0
LINE
  5
2A9
100
AcDbEntity
  8
0
100
AcDbLine
 62
7
  6
CONTINUOUS
 10
125.8745002581
 20
80.1224621802
 11
126.5245002581
 21
80.1224621802
  0
LINE
  5
2AA
100
AcDbEntity
  8
0
100
AcDbLine
 62
7
  6
CONTINUOUS
 10
124.3145002581
 20
80.7724621802
 11
124.9645002581
 21
80.7724621802
  0
LINE
  5
2AB
100
AcDbEntity
  8
0
100
AcDbLine
 62
7
  6
CONTINUOUS
 10
124.3145002581
 20
81.4224621802
 11
124.9645002581
 21
81.4224621802
  0
LINE
  5
2AC
100
AcDbEntity
  8
0
100
AcDbLine
 62
7
  6
CONTINUOUS
 10
118.4354761492
 20
82.3324621802
 11
130.1354761492
 21
82.3324621802
  0
LINE
  5
2AD
100
AcDbEntity
  8
0
100
AcDbLine
 62
7
  6
CONTINUOUS
 10
117.7854761492
 20
82.9824621802
 11
130.7854761492
 21
82.9824621802
  0
LINE
  5
2AE
100
AcDbEntity
  8
0
100
AcDbLine
 62
7
  6
CONTINUOUS
 10
114.6163942001
 20
84.6418486617
 11
102.3784157044
 21
84.6418452723
  0
LINE
  5
2AF
100
AcDbEntity
  8
0
100
AcDbLine
 62
7
  6
CONTINUOUS
 10
144.2406971931
 20
84.7945247919
 11
149.747149989
 21
84.7945248267
  0
LINE
  5
2B0
100
AcDbEntity
  8
0
100
AcDbLine
 62
7
  6
CONTINUOUS
 10
122.7977887444
 20
148.6499621802
 11
122.8150458163
 21
148.4499621802
  0
LINE
  5
2B1
100
AcDbEntity
  8
0
100
AcDbLine
 62
7
  6
CONTINUOUS
 10
121.9245002581
 20
145.0499621802
 11
121.9245002581
 21
143.3499621802
  0
LINE
  5
2B2
100
AcDbEntity
  8
0
100
AcDbLine
 62
7
  6
CONTINUOUS
 10
122.3245002581
 20
150.4473971287
 11
122.3245002581
 21
153.6499621802
  0
LINE
  5
2B3
100
AcDbEntity
  8
0
100
AcDbLine
 62
7
  6
CONTINUOUS
 10
123.7045002581
 20
125.9099621802
 11
123.7045002581
 21
124.7899621802
  0
LINE
  5
2B4
100
AcDbEntity
  8
0
100
AcDbLine
 62
7
  6
CONTINUOUS
 10
123.8438870033
 20
145.4499621802
 11
123.8438870033
 21
144.4990159903
  0
LINE
  5
2B5
100
AcDbEntity
  8
0
100
AcDbLine
 62
7
  6
CONTINUOUS
 10
124.1845002581
 20
112.7599621802
 11
124.1845002581
 21
109.1599621802
  0
LINE
  5
2B6
100
AcDbEntity
  8
0
100
AcDbLine
 62
7
  6
CONTINUOUS
 10
124.1945002581
 20
125.9099621802
 11
124.1945002581
 21
124.7899621802
  0
LINE
  5
2B7
100
AcDbEntity
  8
0
100
AcDbLine
 62
7
  6
CONTINUOUS
 10
124.3145002581
 20
81.4224621802
 11
124.3145002581
 21
80.7724621802
  0
LINE
  5
2B8
100
AcDbEntity
  8
0
100
AcDbLine
 62
7
  6
CONTINUOUS
 10
124.3145002581
 20
80.1224621802
 11
124.3145002581
 21
76.8074621802
  0
LINE
  5
2B9
100
AcDbEntity
  8
0
100
AcDbLine
 62
7
  6
CONTINUOUS
 10
124.7445002581
 20
112.1999621802
 11
124.7445002581
 21
111.0099621802
  0
LINE
  5
2BA
100
AcDbEntity
  8
0
100
AcDbLine
 62
7
  6
CONTINUOUS
 10
124.7445002581
 20
110.4499621802
 11
124.7445002581
 21
109.1599621802
  0
LINE
  5
2BB
100
AcDbEntity
  8
0
100
AcDbLine
 62
7
  6
CONTINUOUS
 10
124.9645002581
 20
106.5378838152
 11
124.9645002581
 21
103.7999621802
  0
LINE
  5
2BC
100
AcDbEntity
  8
0
100
AcDbLine
 62
7
  6
CONTINUOUS
 10
124.9645002581
 20
81.4224621802
 11
124.9645002581
 21
80.7724621802
  0
LINE
  5
2BD
100
AcDbEntity
  8
0
100
AcDbLine
 62
7
  6
CONTINUOUS
 10
124.9645002581
 20
80.1224621802
 11
124.9645002581
 21
76.8074621802
  0
LINE
  5
2BE
100
AcDbEntity
  8
0
100
AcDbLine
 62
7
  6
CONTINUOUS
 10
125.5245002581
 20
107.3999621802
 11
125.5245002581
 21
103.7999621802
  0
LINE
  5
2BF
100
AcDbEntity
  8
0
100
AcDbLine
 62
7
  6
CONTINUOUS
 10
125.5845002581
 20
111.9199621802
 11
125.5845002581
 21
111.2899621802
  0
LINE
  5
2C0
100
AcDbEntity
  8
0
100
AcDbLine
 62
7
  6
CONTINUOUS
 10
125.8555746908
 20
141.633745061
 11
125.8555746908
 21
140.3499621802
  0
LINE
  5
2C1
100
AcDbEntity
  8
0
100
AcDbLine
 62
7
  6
CONTINUOUS
 10
125.8745002581
 20
80.1224621802
 11
125.8745002581
 21
78.873074249
  0
LINE
  5
2C2
100
AcDbEntity
  8
0
100
AcDbLine
 62
7
  6
CONTINUOUS
 10
125.8745002581
 20
76.9699621802
 11
125.8745002581
 21
76.8074621802
  0
LINE
  5
2C3
100
AcDbEntity
  8
0
100
AcDbLine
 62
7
  6
CONTINUOUS
 10
126.0345002581
 20
126.9599621802
 11
126.0345002581
 21
123.7399621802
  0
LINE
  5
2C4
100
AcDbEntity
  8
0
100
AcDbLine
 62
7
  6
CONTINUOUS
 10
126.1445002581
 20
111.9199621802
 11
126.1445002581
 21
111.2899621802
  0
LINE
  5
2C5
100
AcDbEntity
  8
0
100
AcDbLine
 62
7
  6
CONTINUOUS
 10
126.3245002581
 20
106.2799621802
 11
126.3245002581
 21
104.9199621802
  0
LINE
  5
2C6
100
AcDbEntity
  8
0
100
AcDbLine
 62
7
  6
CONTINUOUS
 10
126.3245002581
 20
150.4473971287
 11
126.3245002581
 21
153.2926965903
  0
LINE
  5
2C7
100
AcDbEntity
  8
0
100
AcDbLine
 62
7
  6
CONTINUOUS
 10
126.5145002581
 20
112.7599621802
 11
126.5145002581
 21
109.1599621802
  0
LINE
  5
2C8
100
AcDbEntity
  8
0
100
AcDbLine
 62
7
  6
CONTINUOUS
 10
126.5245002581
 20
126.9599621802
 11
126.5245002581
 21
125.5599621802
  0
LINE
  5
2C9
100
AcDbEntity
  8
0
100
AcDbLine
 62
7
  6
CONTINUOUS
 10
126.5245002581
 20
125.0842442499
 11
126.5245002581
 21
123.2499621802
  0
LINE
  5
2CA
100
AcDbEntity
  8
0
100
AcDbLine
 62
7
  6
CONTINUOUS
 10
126.5245002581
 20
80.1224621802
 11
126.5245002581
 21
79.4724621802
  0
LINE
  5
2CB
100
AcDbEntity
  8
0
100
AcDbLine
 62
7
  6
CONTINUOUS
 10
126.7934258255
 20
140.6280228495
 11
126.7934258255
 21
140.3499621802
  0
LINE
  5
2CC
100
AcDbEntity
  8
0
100
AcDbLine
 62
7
  6
CONTINUOUS
 10
126.8845002581
 20
106.2799621802
 11
126.8845002581
 21
105.8899106324
  0
LINE
  5
2CD
100
AcDbEntity
  8
0
100
AcDbLine
 62
7
  6
CONTINUOUS
 10
127.0745002581
 20
111.1534520446
 11
127.0745002581
 21
109.1599621802
  0
LWPOLYLINE
  5
2CE
100
AcDbEntity
  8
0
100
AcDbPolyline
 62
7
  6
CONTINUOUS
 90
10
 70
0
 10
117.5651554274
 20
97.9527752025
 10
117.5461009427
 20
97.8828837472
 10
117.5171205089
 20
97.8164289819
 10
117.4787484138
 20
97.7547457475
 10
117.4318033947
 20
97.6992332583
 10
117.3774099051
 20
97.6511957921
 10
117.3166700691
 20
97.6115570863
 10
117.2509585806
 20
97.5811699314
 10
117.1821356015
 20
97.5607203425
 10
117.1118499046
 20
97.5503947944
  0
LINE
  5
2CF
100
AcDbEntity
  8
0
100
AcDbLine
 62
7
  6
CONTINUOUS
 10
96.4987308831
 20
64.8107422885
 11
97.1003321508
 21
65.9654562497
  0
LINE
  5
2D0
100
AcDbEntity
  8
0
100
AcDbLine
 62
7
  6
CONTINUOUS
 10
98.3127308831
 20
64.8107422885
 11
98.9143321508
 21
65.9654562497
  0
LINE
  5
2D1
100
AcDbEntity
  8
0
100
AcDbLine
 62
7
  6
CONTINUOUS
 10
159.1956541376
 20
165.021112619
 11
145.5905447013
 21
148.8071745705
  0
LINE
  5
2D2
100
AcDbEntity
  8
0
100
AcDbLine
 62
7
  6
CONTINUOUS
 10
147.8886780306
 20
146.8788117415
 11
161.194050682
 21
162.7355373996
  0
LINE
  5
2D3
100
AcDbEntity
  8
0
100
AcDbLine
 62
7
  6
CONTINUOUS
 10
136.0245002581
 20
135.9999621802
 11
135.9989198154
 21
135.9743817375
  0
LINE
  5
2D4
100
AcDbEntity
  8
0
100
AcDbLine
 62
7
  6
CONTINUOUS
 10
135.6500807009
 20
131.3255426229
 11
135.2489198154
 21
130.9243817375
  0
LINE
  5
2D5
100
AcDbEntity
  8
0
100
AcDbLine
 62
7
  6
CONTINUOUS
 10
86.7266530406
 20
71.2466864068
 11
86.986460443
 21
71.3138455834
  0
LINE
  5
2D6
100
AcDbEntity
  8
0
100
AcDbLine
 62
7
  6
CONTINUOUS
 10
114.6163854618
 20
86.0560560091
 11
102.3784531119
 21
86.0560588346
  0
LINE
  5
2D7
100
AcDbEntity
  8
0
100
AcDbLine
 62
7
  6
CONTINUOUS
 10
144.2405253592
 20
86.3016514774
 11
149.747149989
 21
86.3016514769
  0
LINE
  5
2D8
100
AcDbEntity
  8
0
100
AcDbLine
 62
7
  6
CONTINUOUS
 10
95.286791395
 20
86.7860787771
 11
86.986460443
 21
86.7860787771
  0
LINE
  5
2D9
100
AcDbEntity
  8
0
100
AcDbLine
 62
7
  6
CONTINUOUS
 10
157.3622091213
 20
86.7860787771
 11
165.6625400733
 21
86.7860787771
  0
LINE
  5
2DA
100
AcDbEntity
  8
0
100
AcDbLine
 62
7
  6
CONTINUOUS
 10
95.2564022601
 20
87.0122810167
 11
86.9988160388
 21
87.0122810167
  0
LINE
  5
2DB
100
AcDbEntity
  8
0
100
AcDbLine
 62
7
  6
CONTINUOUS
 10
157.3925982561
 20
87.0122810167
 11
165.6501844775
 21
87.0122810167
  0
LINE
  5
2DC
100
AcDbEntity
  8
0
100
AcDbLine
 62
7
  6
CONTINUOUS
 10
95.2564022601
 20
88.6618564681
 11
86.9988160388
 21
88.6618564681
  0
LINE
  5
2DD
100
AcDbEntity
  8
0
100
AcDbLine
 62
7
  6
CONTINUOUS
 10
157.3925982561
 20
88.6618564681
 11
165.6501844775
 21
88.6618564681
  0
LINE
  5
2DE
100
AcDbEntity
  8
0
100
AcDbLine
 62
7
  6
CONTINUOUS
 10
95.286791395
 20
88.8218039914
 11
86.986460443
 21
88.8218039914
  0
LINE
  5
2DF
100
AcDbEntity
  8
0
100
AcDbLine
 62
7
  6
CONTINUOUS
 10
157.3622091213
 20
88.8218039914
 11
165.6625400733
 21
88.8218039914
  0
LWPOLYLINE
  5
2E0
100
AcDbEntity
  8
0
100
AcDbPolyline
 62
7
  6
CONTINUOUS
 90
3
 70
0
 10
117.5543724426
 20
129.2037652251
 10
117.5664203241
 20
129.164938732
 10
117.5731082756
 20
129.1248396628
  0
LINE
  5
2E1
100
AcDbEntity
  8
0
100
AcDbLine
 62
7
  6
CONTINUOUS
 10
127.9145002581
 20
112.7599621802
 11
127.9145002581
 21
110.7664723159
  0
LINE
  5
2E2
100
AcDbEntity
  8
0
100
AcDbLine
 62
7
  6
CONTINUOUS
 10
128.3445002581
 20
79.7324621802
 11
128.3445002581
 21
79.0499621802
  0
LINE
  5
2E3
100
AcDbEntity
  8
0
100
AcDbLine
 62
7
  6
CONTINUOUS
 10
128.4745002581
 20
112.7599621802
 11
128.4745002581
 21
109.1599621802
  0
LINE
  5
2E4
100
AcDbEntity
  8
0
100
AcDbLine
 62
7
  6
CONTINUOUS
 10
128.8245002581
 20
131.4499621802
 11
128.8245002581
 21
138.4499621802
  0
LINE
  5
2E5
100
AcDbEntity
  8
0
100
AcDbLine
 62
7
  6
CONTINUOUS
 10
128.9945002581
 20
79.7324621802
 11
128.9945002581
 21
78.8701242951
  0
LINE
  5
2E6
100
AcDbEntity
  8
0
100
AcDbLine
 62
7
  6
CONTINUOUS
 10
130.1354761492
 20
82.3324621802
 11
130.1354761492
 21
75.8324621802
  0
LINE
  5
2E7
100
AcDbEntity
  8
0
100
AcDbLine
 62
7
  6
CONTINUOUS
 10
130.3245002581
 20
150.4473971287
 11
130.3245002581
 21
153.6499621802
  0
LINE
  5
2E8
100
AcDbEntity
  8
0
100
AcDbLine
 62
7
  6
CONTINUOUS
 10
130.7854761492
 20
82.9824621802
 11
130.7854761492
 21
75.1824621802
  0
LINE
  5
2E9
100
AcDbEntity
  8
0
100
AcDbLine
 62
7
  6
CONTINUOUS
 10
131.3778337547
 20
95.9420132689
 11
131.3778337547
 21
60.5499621802
  0
LINE
  5
2EA
100
AcDbEntity
  8
0
100
AcDbLine
 62
7
  6
CONTINUOUS
 10
131.7989198154
 20
96.1256572048
 11
131.7989198154
 21
60.3755426229
  0
LINE
  5
2EB
100
AcDbEntity
  8
0
100
AcDbLine
 62
7
  6
CONTINUOUS
 10
132.1500807009
 20
60.0243817375
 11
132.1500807009
 21
96.6102646473
  0
LINE
  5
2EC
100
AcDbEntity
  8
0
100
AcDbLine
 62
7
  6
CONTINUOUS
 10
132.3245002581
 20
149.3035520187
 11
132.3245002581
 21
148.6499621802
  0
LINE
  5
2ED
100
AcDbEntity
  8
0
100
AcDbLine
 62
7
  6
CONTINUOUS
 10
132.5711667616
 20
59.8499621802
 11
132.5711667616
 21
97.0619271443
  0
LINE
  5
2EE
100
AcDbEntity
  8
0
100
AcDbLine
 62
7
  6
CONTINUOUS
 10
139.4082407374
 20
144.9118513347
 11
138.2132480655
 21
142.1078889459
  0
LINE
  5
2EF
100
AcDbEntity
  8
0
100
AcDbLine
 62
7
  6
CONTINUOUS
 10
139.2136348709
 20
144.0951700689
 11
133.8245002581
 21
131.4499621802
  0
LINE
  5
2F0
100
AcDbEntity
  8
0
100
AcDbLine
 62
7
  6
CONTINUOUS
 10
100.1267308831
 20
64.8107422885
 11
100.7283321508
 21
65.9654562497
  0
LINE
  5
2F1
100
AcDbEntity
  8
0
100
AcDbLine
 62
7
  6
CONTINUOUS
 10
96.3245002581
 20
63.2999621802
 11
95.2675683048
 21
61.4693023369
  0
LINE
  5
2F2
100
AcDbEntity
  8
0
100
AcDbLine
 62
7
  6
CONTINUOUS
 10
124.8845002581
 20
107.3999621802
 11
124.0585501898
 21
106.2203832364
  0
LINE
  5
2F3
100
AcDbEntity
  8
0
100
AcDbLine
 62
7
  6
CONTINUOUS
 10
100.0165225732
 20
92.1319621802
 11
99.8165225732
 21
92.1319621802
  0
LINE
  5
2F4
100
AcDbEntity
  8
0
100
AcDbLine
 62
7
  6
CONTINUOUS
 10
98.2025225732
 20
92.1319621802
 11
98.0025225732
 21
92.1319621802
  0
LINE
  5
2F5
100
AcDbEntity
  8
0
100
AcDbLine
 62
7
  6
CONTINUOUS
 10
96.3885225732
 20
92.1319621802
 11
96.3245002581
 21
92.1319621802
  0
LINE
  5
2F6
100
AcDbEntity
  8
0
100
AcDbLine
 62
7
  6
CONTINUOUS
 10
154.7981525623
 20
92.1499621099
 11
154.6103718187
 21
92.1499621099
  0
LINE
  5
2F7
100
AcDbEntity
  8
0
100
AcDbLine
 62
7
  6
CONTINUOUS
 10
152.9838659287
 20
92.1499621582
 11
152.7960851724
 21
92.1499621582
  0
LINE
  5
2F8
100
AcDbEntity
  8
0
100
AcDbLine
 62
7
  6
CONTINUOUS
 10
155.8137865848
 20
93.2999621802
 11
155.3968047103
 21
93.2999621802
  0
LINE
  5
2F9
100
AcDbEntity
  8
0
100
AcDbLine
 62
7
  6
CONTINUOUS
 10
153.9995004144
 20
93.2999621802
 11
153.5825180496
 21
93.2999621802
  0
LINE
  5
2FA
100
AcDbEntity
  8
0
100
AcDbLine
 62
7
  6
CONTINUOUS
 10
152.1852138084
 20
93.2999621802
 11
150.3245002581
 21
93.2999621802
  0
LINE
  5
2FB
100
AcDbEntity
  8
0
100
AcDbLine
 62
7
  6
CONTINUOUS
 10
102.3245002581
 20
93.2999621802
 11
100.6245448883
 21
93.2999621802
  0
LINE
  5
2FC
100
AcDbEntity
  8
0
100
AcDbLine
 62
7
  6
CONTINUOUS
 10
99.2085002582
 20
93.2999621802
 11
98.8105448882
 21
93.2999621802
  0
LINE
  5
2FD
100
AcDbEntity
  8
0
100
AcDbLine
 62
7
  6
CONTINUOUS
 10
97.3945002582
 20
93.2999621802
 11
96.9965448882
 21
93.2999621802
  0
LINE
  5
2FE
100
AcDbEntity
  8
0
100
AcDbLine
 62
7
  6
CONTINUOUS
 10
114.616409803
 20
93.9641768258
 11
102.3784070446
 21
93.9641757426
  0
LINE
  5
2FF
100
AcDbEntity
  8
0
100
AcDbLine
 62
7
  6
CONTINUOUS
 10
169.6245002581
 20
94.0499621802
 11
167.4977053389
 21
94.0499621802
  0
LINE
  5
300
100
AcDbEntity
  8
0
100
AcDbLine
 62
7
  6
CONTINUOUS
 10
83.0245002581
 20
94.0499621802
 11
85.1512951774
 21
94.0499621802
  0
LINE
  5
301
100
AcDbEntity
  8
0
100
AcDbLine
 62
7
  6
CONTINUOUS
 10
144.2405253715
 20
94.4256897986
 11
149.747149989
 21
94.4256898815
  0
LINE
  5
302
100
AcDbEntity
  8
0
100
AcDbLine
 62
7
  6
CONTINUOUS
 10
114.6164115514
 20
94.5499621802
 11
102.3245002581
 21
94.5499621802
  0
LINE
  5
303
100
AcDbEntity
  8
0
100
AcDbLine
 62
7
  6
CONTINUOUS
 10
144.2405253637
 20
95.0499621802
 11
150.3245002581
 21
95.0499621802
  0
LINE
  5
304
100
AcDbEntity
  8
0
100
AcDbLine
 62
7
  6
CONTINUOUS
 10
95.286791395
 20
96.5579205882
 11
86.986460443
 21
96.5579205882
  0
LINE
  5
305
100
AcDbEntity
  8
0
100
AcDbLine
 62
7
  6
CONTINUOUS
 10
157.3622091213
 20
96.5579205882
 11
165.6625400733
 21
96.5579205882
  0
LINE
  5
306
100
AcDbEntity
  8
0
100
AcDbLine
 62
7
  6
CONTINUOUS
 10
95.2564022601
 20
96.6241753047
 11
86.9988160388
 21
96.6241753047
  0
LINE
  5
307
100
AcDbEntity
  8
0
100
AcDbLine
 62
7
  6
CONTINUOUS
 10
157.3925982561
 20
96.6241753047
 11
165.6501844775
 21
96.6241753047
  0
LINE
  5
308
100
AcDbEntity
  8
0
100
AcDbLine
 62
7
  6
CONTINUOUS
 10
165.6501844775
 20
96.6499621802
 11
157.3925982561
 21
96.6499621802
  0
LINE
  5
309
100
AcDbEntity
  8
0
100
AcDbLine
 62
7
  6
CONTINUOUS
 10
86.9988160388
 20
96.6499621802
 11
95.2564022601
 21
96.6499621802
  0
LINE
  5
30A
100
AcDbEntity
  8
0
100
AcDbLine
 62
7
  6
CONTINUOUS
 10
124.5172753346
 20
105.8991804321
 11
124.0585501898
 21
106.2203832364
  0
LINE
  5
30B
100
AcDbEntity
  8
0
100
AcDbLine
 62
7
  6
CONTINUOUS
 10
156.3245002581
 20
63.2999621802
 11
157.3925982561
 21
61.4499621802
  0
LINE
  5
30C
100
AcDbEntity
  8
0
100
AcDbLine
 62
7
  6
CONTINUOUS
 10
128.1344576209
 20
109.1599621802
 11
127.0745002581
 21
111.1534520446
  0
LINE
  5
30D
100
AcDbEntity
  8
0
100
AcDbLine
 62
7
  6
CONTINUOUS
 10
127.9145002581
 20
110.7664723159
 11
126.8545428954
 21
112.7599621802
  0
LINE
  5
30E
100
AcDbEntity
  8
0
100
AcDbLine
 62
7
  6
CONTINUOUS
 10
152.0645041074
 20
65.9616898777
 11
152.6641412918
 21
64.8107456711
  0
LINE
  5
30F
100
AcDbEntity
  8
0
100
AcDbLine
 62
7
  6
CONTINUOUS
 10
153.878789871
 20
65.9616899543
 11
154.4784270836
 21
64.8107456998
  0
LINE
  5
310
100
AcDbEntity
  8
0
100
AcDbLine
 62
7
  6
CONTINUOUS
 10
155.6930766322
 20
65.9616899752
 11
156.2927138598
 21
64.8107456939
  0
LINE
  5
311
100
AcDbEntity
  8
0
100
AcDbLine
 62
7
  6
CONTINUOUS
 10
121.4703982919
 20
148.6499621802
 11
121.5212186998
 21
148.4499621802
  0
LINE
  5
312
100
AcDbEntity
  8
0
100
AcDbLine
 62
7
  6
CONTINUOUS
 10
135.0745002581
 20
130.5032956768
 11
135.0745002581
 21
98.7499621802
  0
LINE
  5
313
100
AcDbEntity
  8
0
100
AcDbLine
 62
7
  6
CONTINUOUS
 10
135.8245002581
 20
135.5532956768
 11
135.8245002581
 21
131.7466286837
  0
LINE
  5
314
100
AcDbEntity
  8
0
100
AcDbLine
 62
7
  6
CONTINUOUS
 10
136.0245002581
 20
135.9999621802
 11
136.0245002581
 21
136.6121003255
  0
LINE
  5
315
100
AcDbEntity
  8
0
100
AcDbLine
 62
7
  6
CONTINUOUS
 10
138.2132480655
 20
145.4499621802
 11
138.2132480655
 21
142.1078889459
  0
LINE
  5
316
100
AcDbEntity
  8
0
100
AcDbLine
 62
7
  6
CONTINUOUS
 10
138.5188047139
 20
98.2499621802
 11
138.5188047139
 21
59.8499621802
  0
LINE
  5
317
100
AcDbEntity
  8
0
100
AcDbLine
 62
7
  6
CONTINUOUS
 10
139.035818612
 20
59.5499621802
 11
139.035818612
 21
98.5499621802
  0
LINE
  5
318
100
AcDbEntity
  8
0
100
AcDbLine
 62
7
  6
CONTINUOUS
 10
124.9645002581
 20
106.5378838152
 11
124.5172753346
 21
105.8991804321
  0
LINE
  5
319
100
AcDbEntity
  8
0
100
AcDbLine
 62
7
  6
CONTINUOUS
 10
114.0209468676
 20
94.6964087896
 11
116.7000807009
 21
97.3755426229
  0
LINE
  5
31A
100
AcDbEntity
  8
0
100
AcDbLine
 62
7
  6
CONTINUOUS
 10
117.1118499046
 20
97.5503947944
 11
117.0959279698
 21
97.5494572837
  0
LINE
  5
31B
100
AcDbEntity
  8
0
100
AcDbLine
 62
7
  6
CONTINUOUS
 10
135.5745002581
 20
98.2499621802
 11
138.5188047139
 21
98.2499621802
  0
LINE
  5
31C
100
AcDbEntity
  8
0
100
AcDbLine
 62
7
  6
CONTINUOUS
 10
142.9571545506
 20
98.5499621802
 11
139.035818612
 21
98.5499621802
  0
LWPOLYLINE
  5
31D
100
AcDbEntity
  8
0
100
AcDbPolyline
 62
7
  6
CONTINUOUS
 90
13
 70
0
 10
135.5744975623
 20
98.2499514965
 10
135.5354368822
 20
98.2514783598
 10
135.464027468
 20
98.2623043137
 10
135.3949201153
 20
98.28330655
 10
135.3295578325
 20
98.3140476913
 10
135.2693065326
 20
98.3538859746
 10
135.2154239868
 20
98.401989902
 10
135.1690345032
 20
98.4573559008
 10
135.1311066994
 20
98.5188279904
 10
135.1024321274
 20
98.5851229004
 10
135.0836089024
 20
98.6548573397
 10
135.0750297257
 20
98.7265762826
 10
135.0744831439
 20
98.7499630846
  0
LINE
  5
31E
100
AcDbEntity
  8
0
100
AcDbLine
 62
7
  6
CONTINUOUS
 10
128.3967028405
 20
123.2499621802
 11
127.2505161924
 21
125.0842442499
  0
LINE
  5
31F
100
AcDbEntity
  8
0
100
AcDbLine
 62
7
  6
CONTINUOUS
 10
128.9745002581
 20
123.2499621802
 11
127.82831361
 21
125.0842442499
  0
LINE
  5
320
100
AcDbEntity
  8
0
100
AcDbLine
 62
7
  6
CONTINUOUS
 10
120.3245002581
 20
148.6499621802
 11
120.4247249121
 21
148.4499621802
  0
LINE
  5
321
100
AcDbEntity
  8
0
100
AcDbLine
 62
7
  6
CONTINUOUS
 10
142.9571545506
 20
98.5499621802
 11
143.0160883243
 21
98.4235782946
  0
LINE
  5
322
100
AcDbEntity
  8
0
100
AcDbLine
 62
7
  6
CONTINUOUS
 10
120.6181611604
 20
148.6499621802
 11
120.6975702487
 21
148.4499621802
  0
LINE
  5
323
100
AcDbEntity
  8
0
100
AcDbLine
 62
7
  6
CONTINUOUS
 10
143.0160883243
 20
98.4235782946
 11
144.1213415897
 21
95.3869199052
  0
LINE
  5
324
100
AcDbEntity
  8
0
100
AcDbLine
 62
7
  6
CONTINUOUS
 10
140.2013505242
 20
148.4499621802
 11
140.2013505242
 21
145.4499621802
  0
LINE
  5
325
100
AcDbEntity
  8
0
100
AcDbLine
 62
7
  6
CONTINUOUS
 10
140.6681407374
 20
148.4499621802
 11
140.6681407374
 21
145.4499621802
  0
LINE
  5
326
100
AcDbEntity
  8
0
100
AcDbLine
 62
7
  6
CONTINUOUS
 10
141.3245002581
 20
98.5499621802
 11
141.3245002581
 21
59.5499621802
  0
LINE
  5
327
100
AcDbEntity
  8
0
100
AcDbLine
 62
7
  6
CONTINUOUS
 10
142.9571545506
 20
59.5499621802
 11
142.9571545506
 21
98.5499621802
  0
LINE
  5
328
100
AcDbEntity
  8
0
100
AcDbLine
 62
7
  6
CONTINUOUS
 10
143.0160883242
 20
59.6763460656
 11
143.0160883242
 21
98.4235782948
  0
LINE
  5
329
100
AcDbEntity
  8
GEOM
100
AcDbLine
 62
7
  6
CONTINUOUS
 10
143.7602713962
 20
95.3887241126
 11
143.7602713962
 21
94.6860261594
  0
LINE
  5
32A
100
AcDbEntity
  8
GEOM
100
AcDbLine
 62
7
  6
CONTINUOUS
 10
143.7602713962
 20
86.5203969183
 11
143.7602713962
 21
84.8239339893
  0
LINE
  5
32B
100
AcDbEntity
  8
GEOM
100
AcDbLine
 62
7
  6
CONTINUOUS
 10
143.7602713962
 20
73.2759903712
 11
143.7602713962
 21
71.5795274422
  0
LINE
  5
32C
100
AcDbEntity
  8
GEOM
100
AcDbLine
 62
7
  6
CONTINUOUS
 10
143.7602713962
 20
63.413898201
 11
143.7602713962
 21
62.7112002478
  0
LINE
  5
32D
100
AcDbEntity
  8
GEOM
100
AcDbLine
 62
7
  6
CONTINUOUS
 10
144.2301177066
 20
95.0500697281
 11
144.2301177066
 21
94.4255540723
  0
LINE
  5
32E
100
AcDbEntity
  8
GEOM
100
AcDbLine
 62
7
  6
CONTINUOUS
 10
144.2301177066
 20
86.3019393168
 11
144.2301177066
 21
84.7942252561
  0
LINE
  5
32F
100
AcDbEntity
  8
GEOM
100
AcDbLine
 62
7
  6
CONTINUOUS
 10
144.2301177066
 20
73.3056990928
 11
144.2301177066
 21
71.7979850252
  0
LINE
  5
330
100
AcDbEntity
  8
GEOM
100
AcDbLine
 62
7
  6
CONTINUOUS
 10
144.2301177066
 20
63.6743702367
 11
144.2301177066
 21
63.0498546427
  0
LINE
  5
331
100
AcDbEntity
  8
0
100
AcDbLine
 62
7
  6
CONTINUOUS
 10
121.0831833819
 20
78.1437677318
 11
120.7184273547
 21
77.4278937209
  0
LINE
  5
332
100
AcDbEntity
  8
0
100
AcDbLine
 62
7
  6
CONTINUOUS
 10
122.6749882037
 20
80.1224621802
 11
120.9859113386
 21
76.8074621802
  0
LINE
  5
333
100
AcDbEntity
  8
0
100
AcDbLine
 62
7
  6
CONTINUOUS
 10
123.4045002581
 20
80.1224621802
 11
121.7154233931
 21
76.8074621802
  0
LINE
  5
334
100
AcDbEntity
  8
0
100
AcDbLine
 62
7
  6
CONTINUOUS
 10
125.5245002581
 20
103.7999621802
 11
124.9645002581
 21
103.7999621802
  0
LINE
  5
335
100
AcDbEntity
  8
0
100
AcDbLine
 62
7
  6
CONTINUOUS
 10
128.5645002581
 20
106.2799621802
 11
128.0045002581
 21
106.2799621802
  0
LINE
  5
336
100
AcDbEntity
  8
0
100
AcDbLine
 62
7
  6
CONTINUOUS
 10
125.5245002581
 20
107.3999621802
 11
124.8845002581
 21
107.3999621802
  0
LWPOLYLINE
  5
337
100
AcDbEntity
  8
0
100
AcDbPolyline
 62
7
  6
CONTINUOUS
 90
6
 70
0
 10
117.4246477452
 20
129.3553879465
 10
117.4583858163
 20
129.33270806
 10
117.4887478655
 20
129.3056750788
 10
117.5151763456
 20
129.2747853922
 10
117.5371859211
 20
129.2406062438
 10
117.5543724426
 20
129.2037652251
  0
LINE
  5
338
100
AcDbEntity
  8
0
100
AcDbLine
 62
7
  6
CONTINUOUS
 10
116.6245002581
 20
135.9999621802
 11
116.6500807009
 21
135.9743817375
  0
LINE
  5
339
100
AcDbEntity
  8
0
100
AcDbLine
 62
7
  6
CONTINUOUS
 10
152.7960851724
 20
92.1382344429
 11
152.196447975
 21
93.2891786712
  0
LINE
  5
33A
100
AcDbEntity
  8
0
100
AcDbLine
 62
7
  6
CONTINUOUS
 10
154.6103718187
 20
92.1382343825
 11
154.010734593
 21
93.28917866
  0
LINE
  5
33B
100
AcDbEntity
  8
0
100
AcDbLine
 62
7
  6
CONTINUOUS
 10
149.747149989
 20
95.0499621802
 11
149.747149989
 21
94.4256898815
  0
LINE
  5
33C
100
AcDbEntity
  8
0
100
AcDbLine
 62
7
  6
CONTINUOUS
 10
149.747149989
 20
86.3016514769
 11
149.747149989
 21
84.7945248267
  0
LINE
  5
33D
100
AcDbEntity
  8
0
100
AcDbLine
 62
7
  6
CONTINUOUS
 10
149.747149989
 20
73.3053995337
 11
149.747149989
 21
71.7982728835
  0
LINE
  5
33E
100
AcDbEntity
  8
0
100
AcDbLine
 62
7
  6
CONTINUOUS
 10
149.747149989
 20
63.6742344789
 11
149.747149989
 21
63.0499621802
  0
LINE
  5
33F
100
AcDbEntity
  8
0
100
AcDbLine
 62
7
  6
CONTINUOUS
 10
150.3245002581
 20
63.0499621802
 11
150.3245002581
 21
95.0499621802
  0
LINE
  5
340
100
AcDbEntity
  8
0
100
AcDbLine
 62
7
  6
CONTINUOUS
 10
128.4745002581
 20
109.1599621802
 11
128.1344576209
 21
109.1599621802
  0
LINE
  5
341
100
AcDbEntity
  8
0
100
AcDbLine
 62
7
  6
CONTINUOUS
 10
127.0745002581
 20
109.1599621802
 11
126.5145002581
 21
109.1599621802
  0
LINE
  5
342
100
AcDbEntity
  8
0
100
AcDbLine
 62
7
  6
CONTINUOUS
 10
124.7445002581
 20
109.1599621802
 11
124.1845002581
 21
109.1599621802
  0
LINE
  5
343
100
AcDbEntity
  8
0
100
AcDbLine
 62
7
  6
CONTINUOUS
 10
125.3045002581
 20
110.4499621802
 11
124.7445002581
 21
110.4499621802
  0
LINE
  5
344
100
AcDbEntity
  8
0
100
AcDbLine
 62
7
  6
CONTINUOUS
 10
125.3045002581
 20
111.0099621802
 11
124.7445002581
 21
111.0099621802
  0
LINE
  5
345
100
AcDbEntity
  8
0
100
AcDbLine
 62
7
  6
CONTINUOUS
 10
125.3045002581
 20
112.1999621802
 11
124.7445002581
 21
112.1999621802
  0
LINE
  5
346
100
AcDbEntity
  8
0
100
AcDbLine
 62
7
  6
CONTINUOUS
 10
128.4745002581
 20
112.7599621802
 11
127.9145002581
 21
112.7599621802
  0
LINE
  5
347
100
AcDbEntity
  8
0
100
AcDbLine
 62
7
  6
CONTINUOUS
 10
126.8545428954
 20
112.7599621802
 11
126.5145002581
 21
112.7599621802
  0
LINE
  5
348
100
AcDbEntity
  8
0
100
AcDbLine
 62
7
  6
CONTINUOUS
 10
125.3045002581
 20
112.7599621802
 11
124.1845002581
 21
112.7599621802
  0
LINE
  5
349
100
AcDbEntity
  8
0
100
AcDbLine
 62
7
  6
CONTINUOUS
 10
112.5745002581
 20
132.1556246129
 11
117.6532967789
 21
129.2233800745
  0
LINE
  5
34A
100
AcDbEntity
  8
0
100
AcDbLine
 62
7
  6
CONTINUOUS
 10
112.8245002581
 20
132.5886373148
 11
117.7185430191
 21
129.7630604093
  0
LINE
  5
34B
100
AcDbEntity
  8
0
100
AcDbLine
 62
7
  6
CONTINUOUS
 10
156.3245002581
 20
92.3304658779
 11
155.8250207406
 21
93.289178682
  0
LINE
  5
34C
100
AcDbEntity
  8
0
100
AcDbLine
 62
7
  6
CONTINUOUS
 10
156.3245002581
 20
63.2999621802
 11
156.3245002581
 21
94.7999621802
  0
LINE
  5
34D
100
AcDbEntity
  8
0
100
AcDbLine
 62
7
  6
CONTINUOUS
 10
128.8245002581
 20
138.4499621802
 11
122.2968946552
 21
145.4499621802
  0
LINE
  5
34E
100
AcDbEntity
  8
0
100
AcDbLine
 62
7
  6
CONTINUOUS
 10
123.8438870033
 20
144.4990159903
 11
122.9571153351
 21
145.4499621802
  0
LINE
  5
34F
100
AcDbEntity
  8
0
100
AcDbLine
 62
7
  6
CONTINUOUS
 10
167.2378977178
 20
94.1999621802
 11
165.9099920986
 21
96.4999621802
  0
LINE
  5
350
100
AcDbEntity
  8
0
100
AcDbLine
 62
7
  6
CONTINUOUS
 10
157.3925982561
 20
96.6499621802
 11
157.3925982561
 21
96.6241753047
  0
LINE
  5
351
100
AcDbEntity
  8
0
100
AcDbLine
 62
7
  6
CONTINUOUS
 10
157.3925982561
 20
61.4757490558
 11
157.3925982561
 21
61.4499621802
  0
LINE
  5
352
100
AcDbEntity
  8
0
100
AcDbLine
 62
7
  6
CONTINUOUS
 10
157.3925982561
 20
69.4380678923
 11
157.3925982561
 21
71.0876433437
  0
LINE
  5
353
100
AcDbEntity
  8
0
100
AcDbLine
 62
7
  6
CONTINUOUS
 10
157.3925982561
 20
87.0122810167
 11
157.3925982561
 21
88.6618564681
  0
LINE
  5
354
100
AcDbEntity
  8
0
100
AcDbLine
 62
7
  6
CONTINUOUS
 10
160.8245002581
 20
163.7866372221
 11
160.8245002581
 21
166.1132871383
  0
LINE
  5
355
100
AcDbEntity
  8
0
100
AcDbLine
 62
7
  6
CONTINUOUS
 10
160.8245002581
 20
166.4499621802
 11
160.8245002581
 21
166.6499621802
  0
LINE
  5
356
100
AcDbEntity
  8
0
100
AcDbLine
 62
7
  6
CONTINUOUS
 10
162.1245002581
 20
161.9499621802
 11
162.1245002581
 21
167.9499621802
  0
LINE
  5
357
100
AcDbEntity
  8
GEOM
100
AcDbLine
 62
7
  6
CONTINUOUS
 10
162.3245002581
 20
167.9499621802
 11
162.3245002581
 21
167.9999621802
  0
LINE
  5
358
100
AcDbEntity
  8
0
100
AcDbLine
 62
7
  6
CONTINUOUS
 10
143.0160883243
 20
59.6763460658
 11
144.1214321522
 21
62.7132532738
  0
LINE
  5
359
100
AcDbEntity
  8
0
100
AcDbLine
 62
7
  6
CONTINUOUS
 10
128.9745002581
 20
123.2499621802
 11
128.3967028405
 21
123.2499621802
  0
LINE
  5
35A
100
AcDbEntity
  8
0
100
AcDbLine
 62
7
  6
CONTINUOUS
 10
126.5245002581
 20
123.2499621802
 11
125.2445002581
 21
123.2499621802
  0
LINE
  5
35B
100
AcDbEntity
  8
0
100
AcDbLine
 62
7
  6
CONTINUOUS
 10
126.0345002581
 20
123.7399621802
 11
125.2445002581
 21
123.7399621802
  0
LINE
  5
35C
100
AcDbEntity
  8
0
100
AcDbLine
 62
7
  6
CONTINUOUS
 10
127.2505161924
 20
125.0842442499
 11
126.5245002581
 21
125.0842442499
  0
LINE
  5
35D
100
AcDbEntity
  8
0
100
AcDbLine
 62
7
  6
CONTINUOUS
 10
127.6445002581
 20
125.5599621802
 11
126.5245002581
 21
125.5599621802
  0
LINE
  5
35E
100
AcDbEntity
  8
0
100
AcDbLine
 62
7
  6
CONTINUOUS
 10
118.3349074157
 20
139.6041943297
 11
118.9185117907
 21
139.2999621802
  0
LINE
  5
35F
100
AcDbEntity
  8
0
100
AcDbLine
 62
7
  6
CONTINUOUS
 10
132.0308393559
 20
148.6499621802
 11
132.2224784755
 21
148.4499621802
  0
LINE
  5
360
100
AcDbEntity
  8
GEOM
100
AcDbLine
 62
7
  6
CONTINUOUS
 10
163.4772970034
 20
167.9499621802
 11
163.4772970034
 21
167.9999621802
  0
LINE
  5
361
100
AcDbEntity
  8
GEOM
100
AcDbLine
 62
7
  6
CONTINUOUS
 10
164.3245002581
 20
167.9499621802
 11
164.3245002581
 21
167.9999621802
  0
LINE
  5
362
100
AcDbEntity
  8
GEOM
100
AcDbLine
 62
7
  6
CONTINUOUS
 10
165.0152100274
 20
167.9499621802
 11
165.0152100274
 21
167.9999621802
  0
LINE
  5
363
100
AcDbEntity
  8
0
100
AcDbLine
 62
7
  6
CONTINUOUS
 10
165.6501844775
 20
88.6618564681
 11
165.6501844775
 21
87.0122810167
  0
LINE
  5
364
100
AcDbEntity
  8
0
100
AcDbLine
 62
7
  6
CONTINUOUS
 10
165.6501844775
 20
71.0876433437
 11
165.6501844775
 21
69.4380678923
  0
LINE
  5
365
100
AcDbEntity
  8
0
100
AcDbLine
 62
7
  6
CONTINUOUS
 10
165.6501844775
 20
61.4499621802
 11
165.6501844775
 21
61.4757490558
  0
LINE
  5
366
100
AcDbEntity
  8
0
100
AcDbLine
 62
7
  6
CONTINUOUS
 10
165.6501844775
 20
96.6241753047
 11
165.6501844775
 21
96.6499621802
  0
LINE
  5
367
100
AcDbEntity
  8
0
100
AcDbLine
 62
7
  6
CONTINUOUS
 10
165.9099920986
 20
96.4999621802
 11
165.9099920986
 21
96.4743950792
  0
LINE
  5
368
100
AcDbEntity
  8
0
100
AcDbLine
 62
7
  6
CONTINUOUS
 10
165.9099920986
 20
88.5799369145
 11
165.9099920986
 21
86.9444203448
  0
LINE
  5
369
100
AcDbEntity
  8
0
100
AcDbLine
 62
7
  6
CONTINUOUS
 10
165.9099920986
 20
71.1555040156
 11
165.9099920986
 21
69.5199874459
  0
LINE
  5
36A
100
AcDbEntity
  8
0
100
AcDbLine
 62
7
  6
CONTINUOUS
 10
165.9099920986
 20
61.6255292813
 11
165.9099920986
 21
61.5999621802
  0
LINE
  5
36B
100
AcDbEntity
  8
GEOM
100
AcDbLine
 62
7
  6
CONTINUOUS
 10
165.9675377723
 20
167.9499621802
 11
165.9675377723
 21
167.9999621802
  0
LINE
  5
36C
100
AcDbEntity
  8
GEOM
100
AcDbLine
 62
7
  6
CONTINUOUS
 10
166.5360405391
 20
167.9499621802
 11
166.5360405391
 21
167.9999621802
  0
LINE
  5
36D
100
AcDbEntity
  8
GEOM
100
AcDbLine
 62
7
  6
CONTINUOUS
 10
166.5969567175
 20
167.9499621802
 11
166.5969567175
 21
167.9999621802
  0
LINE
  5
36E
100
AcDbEntity
  8
0
100
AcDbLine
 62
7
  6
CONTINUOUS
 10
167.2378977178
 20
63.8999621802
 11
167.2378977178
 21
94.1999621802
  0
LINE
  5
36F
100
AcDbEntity
  8
0
100
AcDbLine
 62
7
  6
CONTINUOUS
 10
167.4977053389
 20
64.0499621802
 11
167.4977053389
 21
94.0499621802
  0
LINE
  5
370
100
AcDbEntity
  8
GEOM
100
AcDbLine
 62
7
  6
CONTINUOUS
 10
167.9528842888
 20
167.9499621802
 11
167.9528842888
 21
167.9999621802
  0
LINE
  5
371
100
AcDbEntity
  8
GEOM
100
AcDbLine
 62
7
  6
CONTINUOUS
 10
168.0137040045
 20
167.9499621802
 11
168.0137040045
 21
167.9999621802
  0
LINE
  5
372
100
AcDbEntity
  8
0
100
AcDbLine
 62
7
  6
CONTINUOUS
 10
142.9571545506
 20
59.5499621802
 11
143.0160883243
 21
59.6763460658
  0
LINE
  5
373
100
AcDbEntity
  8
0
100
AcDbLine
 62
7
  6
CONTINUOUS
 10
153.5712838822
 20
93.2891786706
 11
152.9978460685
 21
92.1885181055
  0
LINE
  5
374
100
AcDbEntity
  8
0
100
AcDbLine
 62
7
  6
CONTINUOUS
 10
152.9978460685
 20
92.1885181055
 11
152.9777571968
 21
92.1499621582
  0
LINE
  5
375
100
AcDbEntity
  8
0
100
AcDbLine
 62
7
  6
CONTINUOUS
 10
155.3855705312
 20
93.2891786592
 11
154.812132689
 21
92.1885180444
  0
LINE
  5
376
100
AcDbEntity
  8
0
100
AcDbLine
 62
7
  6
CONTINUOUS
 10
154.812132689
 20
92.1885180444
 11
154.7920438239
 21
92.1499621099
  0
LINE
  5
377
100
AcDbEntity
  8
0
100
AcDbLine
 62
7
  6
CONTINUOUS
 10
156.3245002581
 20
94.7999621802
 11
157.3814322115
 21
96.6306220235
  0
LINE
  5
378
100
AcDbEntity
  8
0
100
AcDbLine
 62
7
  6
CONTINUOUS
 10
127.6445002581
 20
126.9599621802
 11
126.5245002581
 21
126.9599621802
  0
LINE
  5
379
100
AcDbEntity
  8
0
100
AcDbLine
 62
7
  6
CONTINUOUS
 10
126.0345002581
 20
126.9599621802
 11
125.2445001085
 21
126.9599621802
  0
LINE
  5
37A
100
AcDbEntity
  8
0
100
AcDbLine
 62
7
  6
CONTINUOUS
 10
127.6445002581
 20
127.4499621802
 11
125.2445002581
 21
127.4499621802
  0
LINE
  5
37B
100
AcDbEntity
  8
0
100
AcDbLine
 62
7
  6
CONTINUOUS
 10
117.7185430191
 20
130.5032956768
 11
135.0745002581
 21
130.5032956768
  0
LINE
  5
37C
100
AcDbEntity
  8
0
100
AcDbLine
 62
7
  6
CONTINUOUS
 10
117.8294961017
 20
130.9243817375
 11
135.2489198154
 21
130.9243817375
  0
LINE
  5
37D
100
AcDbEntity
  8
0
100
AcDbLine
 62
7
  6
CONTINUOUS
 10
135.6500807009
 20
131.3255426229
 11
117.4098315944
 21
131.3255426229
  0
LINE
  5
37E
100
AcDbEntity
  8
0
100
AcDbLine
 62
7
  6
CONTINUOUS
 10
112.8245002581
 20
131.4499621802
 11
113.7967434446
 21
131.4499621802
  0
LINE
  5
37F
100
AcDbEntity
  8
0
100
AcDbLine
 62
7
  6
CONTINUOUS
 10
128.8245002581
 20
131.4499621802
 11
133.8245002581
 21
131.4499621802
  0
LINE
  5
380
100
AcDbEntity
  8
0
100
AcDbLine
 62
7
  6
CONTINUOUS
 10
116.9330147527
 20
131.7466286837
 11
128.8245002581
 21
131.7466286837
  0
LINE
  5
381
100
AcDbEntity
  8
0
100
AcDbLine
 62
7
  6
CONTINUOUS
 10
133.9509335866
 20
131.7466286837
 11
135.8245002581
 21
131.7466286837
  0
LINE
  5
382
100
AcDbEntity
  8
0
100
AcDbLine
 62
7
  6
CONTINUOUS
 10
120.3245002581
 20
148.6499621802
 11
120.6674638224
 21
148.4499621802
  0
LINE
  5
383
100
AcDbEntity
  8
GEOM
100
AcDbLine
 62
7
  6
CONTINUOUS
 10
168.5928658967
 20
167.9499621802
 11
168.5928658967
 21
167.9999621802
  0
LINE
  5
384
100
AcDbEntity
  8
GEOM
100
AcDbLine
 62
7
  6
CONTINUOUS
 10
169.5246953235
 20
167.9499621802
 11
169.5246953235
 21
167.9999621802
  0
LINE
  5
385
100
AcDbEntity
  8
GEOM
100
AcDbLine
 62
7
  6
CONTINUOUS
 10
169.6245002581
 20
94.0499621802
 11
169.6245002581
 21
64.0499621802
  0
LINE
  5
386
100
AcDbEntity
  8
GEOM
100
AcDbLine
 62
7
  6
CONTINUOUS
 10
170.2494676215
 20
167.9499621802
 11
170.2494676215
 21
167.9999621802
  0
LINE
  5
387
100
AcDbEntity
  8
GEOM
100
AcDbLine
 62
7
  6
CONTINUOUS
 10
170.3245002581
 20
93.3499621802
 11
170.3245002581
 21
64.7499621802
  0
LINE
  5
388
100
AcDbEntity
  8
GEOM
100
AcDbLine
 62
7
  6
CONTINUOUS
 10
170.8858559948
 20
167.9499621802
 11
170.8858559948
 21
167.9999621802
  0
LINE
  5
389
100
AcDbEntity
  8
GEOM
100
AcDbLine
 62
7
  6
CONTINUOUS
 10
171.5199774953
 20
167.9499621802
 11
171.5199774953
 21
167.9999621802
  0
LINE
  5
38A
100
AcDbEntity
  8
GEOM
100
AcDbLine
 62
7
  6
CONTINUOUS
 10
172.197868934
 20
167.9499621802
 11
172.197868934
 21
167.9999621802
  0
LINE
  5
38B
100
AcDbEntity
  8
GEOM
100
AcDbLine
 62
7
  6
CONTINUOUS
 10
172.9261138882
 20
167.9499621802
 11
172.9261138882
 21
167.9999621802
  0
LINE
  5
38C
100
AcDbEntity
  8
0
100
AcDbLine
 62
7
  6
CONTINUOUS
 10
151.2893053677
 20
64.8107456711
 11
151.8588367905
 21
65.9039087953
  0
LINE
  5
38D
100
AcDbEntity
  8
0
100
AcDbLine
 62
7
  6
CONTINUOUS
 10
151.8588367905
 20
65.9039087953
 11
151.8828320543
 21
65.9499621832
  0
LINE
  5
38E
100
AcDbEntity
  8
0
100
AcDbLine
 62
7
  6
CONTINUOUS
 10
112.8245002581
 20
132.5886373148
 11
112.3245002581
 21
132.5886373148
  0
LINE
  5
38F
100
AcDbEntity
  8
0
100
AcDbLine
 62
7
  6
CONTINUOUS
 10
117.2205092069
 20
134.7999621802
 11
112.3245002581
 21
134.7999621802
  0
LINE
  5
390
100
AcDbEntity
  8
0
100
AcDbLine
 62
7
  6
CONTINUOUS
 10
116.8329250464
 20
135.2999621802
 11
112.8245002581
 21
135.2999621802
  0
LINE
  5
391
100
AcDbEntity
  8
0
100
AcDbLine
 62
7
  6
CONTINUOUS
 10
116.8245002581
 20
135.4999621802
 11
117.0286276281
 21
135.4999621802
  0
LINE
  5
392
100
AcDbEntity
  8
0
100
AcDbLine
 62
7
  6
CONTINUOUS
 10
135.8245002581
 20
135.5532956768
 11
135.5732589001
 21
135.5532956768
  0
LINE
  5
393
100
AcDbEntity
  8
0
100
AcDbLine
 62
7
  6
CONTINUOUS
 10
128.8245002581
 20
135.5532956768
 11
116.8245002581
 21
135.5532956768
  0
LINE
  5
394
100
AcDbEntity
  8
0
100
AcDbLine
 62
7
  6
CONTINUOUS
 10
135.9989198154
 20
135.9743817375
 11
135.9323676718
 21
135.9743817562
  0
LINE
  5
395
100
AcDbEntity
  8
0
100
AcDbLine
 62
7
  6
CONTINUOUS
 10
128.8245002581
 20
135.9743812473
 11
116.6500807009
 21
135.9743817375
  0
LINE
  5
396
100
AcDbEntity
  8
0
100
AcDbLine
 62
7
  6
CONTINUOUS
 10
135.9323676718
 20
135.9743817562
 11
135.7527163826
 21
135.9743794569
  0
LINE
  5
397
100
AcDbEntity
  8
0
100
AcDbLine
 62
7
  6
CONTINUOUS
 10
116.6245002581
 20
135.9999621802
 11
128.8245002581
 21
135.9999621802
  0
LINE
  5
398
100
AcDbEntity
  8
0
100
AcDbLine
 62
7
  6
CONTINUOUS
 10
135.7636192275
 20
135.9999621802
 11
136.0245002581
 21
135.9999621802
  0
LINE
  5
399
100
AcDbEntity
  8
0
100
AcDbLine
 62
7
  6
CONTINUOUS
 10
130.3245002581
 20
150.8046627186
 11
132.0245002581
 21
149.823167261
  0
LINE
  5
39A
100
AcDbEntity
  8
GEOM
100
AcDbLine
 62
7
  6
CONTINUOUS
 10
174.3321055871
 20
167.9499621802
 11
174.3321055871
 21
167.9999621802
  0
LINE
  5
39B
100
AcDbEntity
  8
GEOM
100
AcDbLine
 62
7
  6
CONTINUOUS
 10
175.2807677505
 20
167.9499621802
 11
175.2807677505
 21
167.9999621802
  0
LINE
  5
39C
100
AcDbEntity
  8
GEOM
100
AcDbLine
 62
7
  6
CONTINUOUS
 10
175.8910870863
 20
167.9499621802
 11
175.8910870863
 21
167.9999621802
  0
LINE
  5
39D
100
AcDbEntity
  8
GEOM
100
AcDbLine
 62
7
  6
CONTINUOUS
 10
176.5261973292
 20
167.9499621802
 11
176.5261973292
 21
167.9999621802
  0
LINE
  5
39E
100
AcDbEntity
  8
GEOM
100
AcDbLine
 62
7
  6
CONTINUOUS
 10
177.3548116953
 20
167.9499621802
 11
177.3548116953
 21
167.9999621802
  0
LINE
  5
39F
100
AcDbEntity
  8
GEOM
100
AcDbLine
 62
7
  6
CONTINUOUS
 10
177.9103402325
 20
167.9499621802
 11
177.9103402325
 21
167.9999621802
  0
LINE
  5
3A0
100
AcDbEntity
  8
GEOM
100
AcDbLine
 62
7
  6
CONTINUOUS
 10
178.4818333421
 20
167.9499621802
 11
178.4818333421
 21
167.9999621802
  0
LINE
  5
3A1
100
AcDbEntity
  8
GEOM
100
AcDbLine
 62
7
  6
CONTINUOUS
 10
179.1726025477
 20
167.9499621802
 11
179.1726025477
 21
167.9999621802
  0
LINE
  5
3A2
100
AcDbEntity
  8
0
100
AcDbLine
 62
7
  6
CONTINUOUS
 10
153.1035911671
 20
64.810745699
 11
153.6731226182
 21
65.9039088714
  0
LINE
  5
3A3
100
AcDbEntity
  8
0
100
AcDbLine
 62
7
  6
CONTINUOUS
 10
153.6731226182
 20
65.9039088714
 11
153.6971178663
 21
65.9499622287
  0
LINE
  5
3A4
100
AcDbEntity
  8
0
100
AcDbLine
 62
7
  6
CONTINUOUS
 10
154.9178779012
 20
64.8107456936
 11
155.4874093667
 21
65.9039088918
  0
LINE
  5
3A5
100
AcDbEntity
  8
0
100
AcDbLine
 62
7
  6
CONTINUOUS
 10
155.4874093667
 20
65.9039088918
 11
155.511404618
 21
65.9499622555
  0
LINE
  5
3A6
100
AcDbEntity
  8
0
100
AcDbLine
 62
7
  6
CONTINUOUS
 10
112.8245002581
 20
138.4499621802
 11
115.8245002581
 21
138.4499621802
  0
LINE
  5
3A7
100
AcDbEntity
  8
0
100
AcDbLine
 62
7
  6
CONTINUOUS
 10
128.6846229952
 20
138.5999621802
 11
116.6245002581
 21
138.5999621802
  0
LINE
  5
3A8
100
AcDbEntity
  8
0
100
AcDbLine
 62
7
  6
CONTINUOUS
 10
128.0318624349
 20
139.2999621802
 11
117.3245002581
 21
139.2999621802
  0
LINE
  5
3A9
100
AcDbEntity
  8
0
100
AcDbLine
 62
7
  6
CONTINUOUS
 10
118.4321466087
 20
139.6499621802
 11
118.3245002581
 21
139.6499621802
  0
LINE
  5
3AA
100
AcDbEntity
  8
0
100
AcDbLine
 62
7
  6
CONTINUOUS
 10
119.0245002581
 20
140.3499621802
 11
127.0527215945
 21
140.3499621802
  0
LINE
  5
3AB
100
AcDbEntity
  8
0
100
AcDbLine
 62
7
  6
CONTINUOUS
 10
119.8245002581
 20
142.9169494783
 11
120.2934258255
 21
142.9169494783
  0
LINE
  5
3AC
100
AcDbEntity
  8
0
100
AcDbLine
 62
7
  6
CONTINUOUS
 10
124.2551763361
 20
143.3499621802
 11
119.8245002582
 21
143.3499621802
  0
LINE
  5
3AD
100
AcDbEntity
  8
0
100
AcDbLine
 62
7
  6
CONTINUOUS
 10
120.6181611604
 20
148.6499621802
 11
121.4621557453
 21
148.4499621802
  0
LINE
  5
3AE
100
AcDbEntity
  8
0
100
AcDbLine
 62
7
  6
CONTINUOUS
 10
131.1786022244
 20
148.6499621802
 11
131.8860850556
 21
148.4499621802
  0
LINE
  5
3AF
100
AcDbEntity
  8
GEOM
100
AcDbLine
 62
7
  6
CONTINUOUS
 10
179.7985488366
 20
167.9499621802
 11
179.7985488366
 21
167.9999621802
  0
LINE
  5
3B0
100
AcDbEntity
  8
GEOM
100
AcDbLine
 62
7
  6
CONTINUOUS
 10
180.4278713191
 20
167.9499621802
 11
180.4278713191
 21
167.9999621802
  0
LINE
  5
3B1
100
AcDbEntity
  8
GEOM
100
AcDbLine
 62
7
  6
CONTINUOUS
 10
181.1460359239
 20
167.9499621802
 11
181.1460359239
 21
167.9999621802
  0
LINE
  5
3B2
100
AcDbEntity
  8
GEOM
100
AcDbLine
 62
7
  6
CONTINUOUS
 10
182.0984119002
 20
167.9499621802
 11
182.0984119002
 21
167.9999621802
  0
LINE
  5
3B3
100
AcDbEntity
  8
GEOM
100
AcDbLine
 62
7
  6
CONTINUOUS
 10
182.6669628984
 20
167.9499621802
 11
182.6669628984
 21
167.9999621802
  0
LINE
  5
3B4
100
AcDbEntity
  8
GEOM
100
AcDbLine
 62
7
  6
CONTINUOUS
 10
182.7278308454
 20
167.9499621802
 11
182.7278308454
 21
167.9999621802
  0
LINE
  5
3B5
100
AcDbEntity
  8
GEOM
100
AcDbLine
 62
7
  6
CONTINUOUS
 10
184.083806648
 20
167.9499621802
 11
184.083806648
 21
167.9999621802
  0
LINE
  5
3B6
100
AcDbEntity
  8
GEOM
100
AcDbLine
 62
7
  6
CONTINUOUS
 10
184.1446745951
 20
167.9499621802
 11
184.1446745951
 21
167.9999621802
  0
LINE
  5
3B7
100
AcDbEntity
  8
GEOM
100
AcDbLine
 62
7
  6
CONTINUOUS
 10
184.7237400246
 20
167.9499621802
 11
184.7237400246
 21
167.9999621802
  0
LINE
  5
3B8
100
AcDbEntity
  8
0
100
AcDbLine
 62
7
  6
CONTINUOUS
 10
122.6699006896
 20
145.0499621802
 11
121.9245002581
 21
145.0499621802
  0
LINE
  5
3B9
100
AcDbEntity
  8
0
100
AcDbLine
 62
7
  6
CONTINUOUS
 10
114.0413822663
 20
145.4499621802
 11
122.9571153351
 21
145.4499621802
  0
LINE
  5
3BA
100
AcDbEntity
  8
0
100
AcDbLine
 62
7
  6
CONTINUOUS
 10
123.8438870033
 20
145.4499621802
 11
138.2132480655
 21
145.4499621802
  0
LINE
  5
3BB
100
AcDbEntity
  8
0
100
AcDbLine
 62
7
  6
CONTINUOUS
 10
139.7487042056
 20
145.4499621802
 11
144.8245002581
 21
145.4499621802
  0
LINE
  5
3BC
100
AcDbEntity
  8
0
100
AcDbLine
 62
7
  6
CONTINUOUS
 10
115.8245002581
 20
148.4499621802
 11
144.8245002581
 21
148.4499621802
  0
LINE
  5
3BD
100
AcDbEntity
  8
0
100
AcDbLine
 62
7
  6
CONTINUOUS
 10
132.3245002581
 20
148.6499621802
 11
120.3245002581
 21
148.6499621802
  0
LINE
  5
3BE
100
AcDbEntity
  8
0
100
AcDbLine
 62
7
  6
CONTINUOUS
 10
124.4703982919
 20
148.6499621802
 11
126.1700562631
 21
148.4499621802
  0
LINE
  5
3BF
100
AcDbEntity
  8
0
100
AcDbLine
 62
7
  6
CONTINUOUS
 10
126.3245002581
 20
148.6499621802
 11
128.0001907919
 21
148.4499621802
  0
LINE
  5
3C0
100
AcDbEntity
  8
0
100
AcDbLine
 62
7
  6
CONTINUOUS
 10
122.7977887444
 20
148.6499621802
 11
124.3550397887
 21
148.4499621802
  0
LINE
  5
3C1
100
AcDbEntity
  8
0
100
AcDbLine
 62
7
  6
CONTINUOUS
 10
128.1786022244
 20
148.6499621802
 11
129.666297056
 21
148.4499621802
  0
LINE
  5
3C2
100
AcDbEntity
  8
0
100
AcDbLine
 62
7
  6
CONTINUOUS
 10
121.4703982919
 20
148.6499621802
 11
122.732807827
 21
148.4499621802
  0
LINE
  5
3C3
100
AcDbEntity
  8
0
100
AcDbLine
 62
7
  6
CONTINUOUS
 10
129.8512117719
 20
148.6499621802
 11
131.0052849659
 21
148.4499621802
  0
LINE
  5
3C4
100
AcDbEntity
  8
GEOM
100
AcDbLine
 62
7
  6
CONTINUOUS
 10
185.6245002581
 20
167.9499621802
 11
185.6245002581
 21
168.0499621802
  0
LINE
  5
3C5
100
AcDbEntity
  8
GEOM
100
AcDbLine
 62
7
  6
CONTINUOUS
 10
185.8224442626
 20
167.9499621802
 11
185.8224442626
 21
168.0499621802
  0
LINE
  5
3C6
100
AcDbEntity
  8
GEOM
100
AcDbLine
 62
7
  6
CONTINUOUS
 10
186.2060882954
 20
167.9499621802
 11
186.2060882954
 21
168.0499621802
  0
LINE
  5
3C7
100
AcDbEntity
  8
GEOM
100
AcDbLine
 62
7
  6
CONTINUOUS
 10
186.6445546148
 20
167.9499621802
 11
186.6445546148
 21
168.0499621802
  0
LINE
  5
3C8
100
AcDbEntity
  8
GEOM
100
AcDbLine
 62
7
  6
CONTINUOUS
 10
186.7662494135
 20
167.9499621802
 11
186.7662494135
 21
168.0499621802
  0
LINE
  5
3C9
100
AcDbEntity
  8
GEOM
100
AcDbLine
 62
7
  6
CONTINUOUS
 10
186.8382018296
 20
167.9499621802
 11
186.8382018296
 21
167.9999621802
  0
LINE
  5
3CA
100
AcDbEntity
  8
GEOM
100
AcDbLine
 62
7
  6
CONTINUOUS
 10
186.9937830248
 20
167.9499621802
 11
186.9937830248
 21
168.0499621802
  0
LINE
  5
3CB
100
AcDbEntity
  8
GEOM
100
AcDbLine
 62
7
  6
CONTINUOUS
 10
187.1641779773
 20
167.9499621802
 11
187.1641779773
 21
168.0499621802
  0
LINE
  5
3CC
100
AcDbEntity
  8
GEOM
100
AcDbLine
 62
7
  6
CONTINUOUS
 10
187.4651754003
 20
167.9499621802
 11
187.4651754003
 21
168.0499621802
  0
LINE
  5
3CD
100
AcDbEntity
  8
GEOM
100
AcDbLine
 62
7
  6
CONTINUOUS
 10
187.7960157603
 20
167.9499621802
 11
187.7960157603
 21
168.0499621802
  0
LINE
  5
3CE
100
AcDbEntity
  8
GEOM
100
AcDbLine
 62
7
  6
CONTINUOUS
 10
187.933506843
 20
167.9499621802
 11
187.933506843
 21
168.0499621802
  0
LINE
  5
3CF
100
AcDbEntity
  8
GEOM
100
AcDbLine
 62
7
  6
CONTINUOUS
 10
188.1185026648
 20
167.9499621802
 11
188.1185026648
 21
167.9999621802
  0
LINE
  5
3D0
100
AcDbEntity
  8
GEOM
100
AcDbLine
 62
7
  6
CONTINUOUS
 10
188.1188402842
 20
167.9499621802
 11
188.1188402842
 21
167.9999621802
  0
LINE
  5
3D1
100
AcDbEntity
  8
GEOM
100
AcDbLine
 62
7
  6
CONTINUOUS
 10
188.7548724564
 20
167.9499621802
 11
188.7548724564
 21
168.0499621802
  0
LINE
  5
3D2
100
AcDbEntity
  8
GEOM
100
AcDbLine
 62
7
  6
CONTINUOUS
 10
188.9456741619
 20
167.9499621802
 11
188.9456741619
 21
168.0499621802
  0
LINE
  5
3D3
100
AcDbEntity
  8
GEOM
100
AcDbLine
 62
7
  6
CONTINUOUS
 10
189.3782938314
 20
167.9499621802
 11
189.3782938314
 21
168.0499621802
  0
LINE
  5
3D4
100
AcDbEntity
  8
GEOM
100
AcDbLine
 62
7
  6
CONTINUOUS
 10
189.5568514494
 20
167.9499621802
 11
189.5568514494
 21
168.0499621802
  0
LINE
  5
3D5
100
AcDbEntity
  8
GEOM
100
AcDbLine
 62
7
  6
CONTINUOUS
 10
189.9915120973
 20
167.9499621802
 11
189.9915120973
 21
168.0499621802
  0
LINE
  5
3D6
100
AcDbEntity
  8
GEOM
100
AcDbLine
 62
7
  6
CONTINUOUS
 10
190.1823138028
 20
167.9499621802
 11
190.1823138028
 21
168.0499621802
  0
LINE
  5
3D7
100
AcDbEntity
  8
GEOM
100
AcDbLine
 62
7
  6
CONTINUOUS
 10
190.4159692796
 20
167.9499621802
 11
190.4159692796
 21
168.0499621802
  0
LINE
  5
3D8
100
AcDbEntity
  8
GEOM
100
AcDbLine
 62
7
  6
CONTINUOUS
 10
190.5116482133
 20
167.9499621802
 11
190.5116482133
 21
168.0499621802
  0
LINE
  5
3D9
100
AcDbEntity
  8
GEOM
100
AcDbLine
 62
7
  6
CONTINUOUS
 10
190.7863492706
 20
167.9499621802
 11
190.7863492706
 21
168.0499621802
  0
LINE
  5
3DA
100
AcDbEntity
  8
GEOM
100
AcDbLine
 62
7
  6
CONTINUOUS
 10
190.9883743958
 20
167.9499621802
 11
190.9883743958
 21
168.0499621802
  0
LINE
  5
3DB
100
AcDbEntity
  8
GEOM
100
AcDbLine
 62
7
  6
CONTINUOUS
 10
191.185297967
 20
167.9499621802
 11
191.185297967
 21
168.0499621802
  0
LINE
  5
3DC
100
AcDbEntity
  8
GEOM
100
AcDbLine
 62
7
  6
CONTINUOUS
 10
191.2220298728
 20
167.9499621802
 11
191.2220298728
 21
168.0499621802
  0
LINE
  5
3DD
100
AcDbEntity
  8
0
100
AcDbLine
 62
7
  6
CONTINUOUS
 10
167.2378977178
 20
63.8999621802
 11
165.9099920986
 21
61.5999621802
  0
LINE
  5
3DE
100
AcDbEntity
  8
0
100
AcDbLine
 62
7
  6
CONTINUOUS
 10
132.3245002581
 20
149.3035520187
 11
120.3245002581
 21
149.3035520187
  0
LINE
  5
3DF
100
AcDbEntity
  8
0
100
AcDbLine
 62
7
  6
CONTINUOUS
 10
132.0245002581
 20
149.823167261
 11
120.6245002581
 21
149.823167261
  0
LINE
  5
3E0
100
AcDbEntity
  8
0
100
AcDbLine
 62
7
  6
CONTINUOUS
 10
122.3245002581
 20
153.6499621802
 11
130.3245002581
 21
153.6499621802
  0
LINE
  5
3E1
100
AcDbEntity
  8
GEOM
100
AcDbLine
 62
7
  6
CONTINUOUS
 10
191.4138518892
 20
167.9499621802
 11
191.4138518892
 21
168.0499621802
  0
LINE
  5
3E2
100
AcDbEntity
  8
GEOM
100
AcDbLine
 62
7
  6
CONTINUOUS
 10
191.5179257413
 20
167.9499621802
 11
191.5179257413
 21
168.0499621802
  0
LINE
  5
3E3
100
AcDbEntity
  8
GEOM
100
AcDbLine
 62
7
  6
CONTINUOUS
 10
191.7403577981
 20
167.9499621802
 11
191.7403577981
 21
168.0499621802
  0
LINE
  5
3E4
100
AcDbEntity
  8
GEOM
100
AcDbLine
 62
7
  6
CONTINUOUS
 10
192.0250298899
 20
167.9499621802
 11
192.0250298899
 21
168.0499621802
  0
LINE
  5
3E5
100
AcDbEntity
  8
GEOM
100
AcDbLine
 62
7
  6
CONTINUOUS
 10
192.0842086357
 20
167.9499621802
 11
192.0842086357
 21
168.0499621802
  0
LINE
  5
3E6
100
AcDbEntity
  8
GEOM
100
AcDbLine
 62
7
  6
CONTINUOUS
 10
192.3066406925
 20
167.9499621802
 11
192.3066406925
 21
168.0499621802
  0
LINE
  5
3E7
100
AcDbEntity
  8
GEOM
100
AcDbLine
 62
7
  6
CONTINUOUS
 10
192.5321333254
 20
167.9499621802
 11
192.5321333254
 21
168.0499621802
  0
LINE
  5
3E8
100
AcDbEntity
  8
GEOM
100
AcDbLine
 62
7
  6
CONTINUOUS
 10
193.214734516
 20
167.9499621802
 11
193.214734516
 21
168.0499621802
  0
LINE
  5
3E9
100
AcDbEntity
  8
GEOM
100
AcDbLine
 62
7
  6
CONTINUOUS
 10
193.3623057835
 20
167.9499621802
 11
193.3623057835
 21
168.0499621802
  0
LINE
  5
3EA
100
AcDbEntity
  8
GEOM
100
AcDbLine
 62
7
  6
CONTINUOUS
 10
193.7024516876
 20
167.9499621802
 11
193.7024516876
 21
168.0499621802
  0
LINE
  5
3EB
100
AcDbEntity
  8
GEOM
100
AcDbLine
 62
7
  6
CONTINUOUS
 10
193.973859526
 20
167.9499621802
 11
193.973859526
 21
168.0499621802
  0
LINE
  5
3EC
100
AcDbEntity
  8
GEOM
100
AcDbLine
 62
7
  6
CONTINUOUS
 10
194.1356331533
 20
167.9499621802
 11
194.1356331533
 21
168.0499621802
  0
LINE
  5
3ED
100
AcDbEntity
  8
GEOM
100
AcDbLine
 62
7
  6
CONTINUOUS
 10
194.1901695724
 20
167.9499621802
 11
194.1901695724
 21
168.0499621802
  0
LINE
  5
3EE
100
AcDbEntity
  8
GEOM
100
AcDbLine
 62
7
  6
CONTINUOUS
 10
194.4184316454
 20
167.9499621802
 11
194.4184316454
 21
167.9999621802
  0
LINE
  5
3EF
100
AcDbEntity
  8
GEOM
100
AcDbLine
 62
7
  6
CONTINUOUS
 10
194.4799435754
 20
167.9499621802
 11
194.4799435754
 21
168.0499621802
  0
LINE
  5
3F0
100
AcDbEntity
  8
GEOM
100
AcDbLine
 62
7
  6
CONTINUOUS
 10
194.6891112339
 20
167.9499621802
 11
194.6891112339
 21
168.0499621802
  0
LINE
  5
3F1
100
AcDbEntity
  8
GEOM
100
AcDbLine
 62
7
  6
CONTINUOUS
 10
195.0982633959
 20
167.9499621802
 11
195.0982633959
 21
168.0499621802
  0
LINE
  5
3F2
100
AcDbEntity
  8
GEOM
100
AcDbLine
 62
7
  6
CONTINUOUS
 10
195.2913281763
 20
167.9499621802
 11
195.2913281763
 21
168.0499621802
  0
LINE
  5
3F3
100
AcDbEntity
  8
GEOM
100
AcDbLine
 62
7
  6
CONTINUOUS
 10
195.465581741
 20
167.9499621802
 11
195.465581741
 21
168.0499621802
  0
LINE
  5
3F4
100
AcDbEntity
  8
GEOM
100
AcDbLine
 62
7
  6
CONTINUOUS
 10
195.6492412701
 20
167.9499621802
 11
195.6492412701
 21
168.0499621802
  0
LINE
  5
3F5
100
AcDbEntity
  8
GEOM
100
AcDbLine
 62
7
  6
CONTINUOUS
 10
196.119613513
 20
167.9499621802
 11
196.119613513
 21
168.0499621802
  0
LINE
  5
3F6
100
AcDbEntity
  8
GEOM
100
AcDbLine
 62
7
  6
CONTINUOUS
 10
196.2671847805
 20
167.9499621802
 11
196.2671847805
 21
168.0499621802
  0
LINE
  5
3F7
100
AcDbEntity
  8
GEOM
100
AcDbLine
 62
7
  6
CONTINUOUS
 10
196.6073313978
 20
167.9499621802
 11
196.6073313978
 21
168.0499621802
  0
LINE
  5
3F8
100
AcDbEntity
  8
GEOM
100
AcDbLine
 62
7
  6
CONTINUOUS
 10
196.8787389459
 20
167.9499621802
 11
196.8787389459
 21
168.0499621802
  0
LINE
  5
3F9
100
AcDbEntity
  8
GEOM
100
AcDbLine
 62
7
  6
CONTINUOUS
 10
197.0405121503
 20
167.9499621802
 11
197.0405121503
 21
168.0499621802
  0
LINE
  5
3FA
100
AcDbEntity
  8
GEOM
100
AcDbLine
 62
7
  6
CONTINUOUS
 10
197.0950485694
 20
167.9499621802
 11
197.0950485694
 21
168.0499621802
  0
LINE
  5
3FB
100
AcDbEntity
  8
GEOM
100
AcDbLine
 62
7
  6
CONTINUOUS
 10
197.3164606719
 20
167.9499621802
 11
197.3164606719
 21
168.0499621802
  0
LINE
  5
3FC
100
AcDbEntity
  8
GEOM
100
AcDbLine
 62
7
  6
CONTINUOUS
 10
197.4062492599
 20
167.9499621802
 11
197.4062492599
 21
168.0499621802
  0
LINE
  5
3FD
100
AcDbEntity
  8
GEOM
100
AcDbLine
 62
7
  6
CONTINUOUS
 10
197.6327620452
 20
167.9499621802
 11
197.6327620452
 21
168.0499621802
  0
LINE
  5
3FE
100
AcDbEntity
  8
GEOM
100
AcDbLine
 62
7
  6
CONTINUOUS
 10
197.6368432889
 20
167.9499621802
 11
197.6368432889
 21
168.0499621802
  0
LINE
  5
3FF
100
AcDbEntity
  8
GEOM
100
AcDbLine
 62
7
  6
CONTINUOUS
 10
197.7888735366
 20
167.9499621802
 11
197.7888735366
 21
168.0499621802
  0
LINE
  5
400
100
AcDbEntity
  8
GEOM
100
AcDbLine
 62
7
  6
CONTINUOUS
 10
198.2837325279
 20
167.9499621802
 11
198.2837325279
 21
168.0499621802
  0
LINE
  5
401
100
AcDbEntity
  8
GEOM
100
AcDbLine
 62
7
  6
CONTINUOUS
 10
198.373775609
 20
167.9499621802
 11
198.373775609
 21
168.0499621802
  0
LINE
  5
402
100
AcDbEntity
  8
GEOM
100
AcDbLine
 62
7
  6
CONTINUOUS
 10
198.6000353277
 20
167.9499621802
 11
198.6000353277
 21
168.0499621802
  0
LINE
  5
403
100
AcDbEntity
  8
GEOM
100
AcDbLine
 62
7
  6
CONTINUOUS
 10
198.8303756284
 20
167.9499621802
 11
198.8303756284
 21
168.0499621802
  0
LINE
  5
404
100
AcDbEntity
  8
GEOM
100
AcDbLine
 62
7
  6
CONTINUOUS
 10
198.9245006148
 20
167.9499621802
 11
198.9245006148
 21
168.0499621802
  0
LINE
  5
405
100
AcDbEntity
  8
GEOM
100
AcDbLine
 62
7
  6
CONTINUOUS
 10
198.9732061669
 20
167.9499621802
 11
198.9732061669
 21
167.9999621802
  0
LINE
  5
406
100
AcDbEntity
  8
GEOM
100
AcDbLine
 62
7
  6
CONTINUOUS
 10
199.0785434064
 20
167.9499621802
 11
199.0785434064
 21
167.9999621802
  0
LINE
  5
407
100
AcDbEntity
  8
GEOM
100
AcDbLine
 62
7
  6
CONTINUOUS
 10
199.0786398691
 20
167.9499621802
 11
199.0786398691
 21
167.9999621802
  0
LINE
  5
408
100
AcDbEntity
  8
GEOM
100
AcDbLine
 62
7
  6
CONTINUOUS
 10
199.1206975948
 20
167.9499621802
 11
199.1206975948
 21
167.9999621802
  0
LINE
  5
409
100
AcDbEntity
  8
GEOM
100
AcDbLine
 62
7
  6
CONTINUOUS
 10
199.2984783022
 20
167.9499621802
 11
199.2984783022
 21
167.9999621802
  0
LINE
  5
40A
100
AcDbEntity
  8
GEOM
100
AcDbLine
 62
7
  6
CONTINUOUS
 10
199.2987676902
 20
167.9499621802
 11
199.2987676902
 21
167.9999621802
  0
LINE
  5
40B
100
AcDbEntity
  8
GEOM
100
AcDbLine
 62
7
  6
CONTINUOUS
 10
199.3394749385
 20
167.9499621802
 11
199.3394749385
 21
167.9999621802
  0
LINE
  5
40C
100
AcDbEntity
  8
GEOM
100
AcDbLine
 62
7
  6
CONTINUOUS
 10
199.3583816225
 20
167.9499621802
 11
199.3583816225
 21
167.9999621802
  0
LINE
  5
40D
100
AcDbEntity
  8
GEOM
100
AcDbLine
 62
7
  6
CONTINUOUS
 10
199.3990888708
 20
167.9499621802
 11
199.3990888708
 21
167.9999621802
  0
LINE
  5
40E
100
AcDbEntity
  8
GEOM
100
AcDbLine
 62
7
  6
CONTINUOUS
 10
199.3991867167
 20
167.9499621802
 11
199.3991867167
 21
167.9999621802
  0
LINE
  5
40F
100
AcDbEntity
  8
GEOM
100
AcDbLine
 62
7
  6
CONTINUOUS
 10
199.5783165183
 20
167.9499621802
 11
199.5783165183
 21
167.9999621802
  0
LINE
  5
410
100
AcDbEntity
  8
GEOM
100
AcDbLine
 62
7
  6
CONTINUOUS
 10
199.6189273039
 20
167.9499621802
 11
199.6189273039
 21
167.9999621802
  0
LINE
  5
411
100
AcDbEntity
  8
GEOM
100
AcDbLine
 62
7
  6
CONTINUOUS
 10
199.783203237
 20
167.9499621802
 11
199.783203237
 21
167.9999621802
  0
LINE
  5
412
100
AcDbEntity
  8
GEOM
100
AcDbLine
 62
7
  6
CONTINUOUS
 10
199.7833961623
 20
167.9499621802
 11
199.7833961623
 21
167.9999621802
  0
LINE
  5
413
100
AcDbEntity
  8
GEOM
100
AcDbLine
 62
7
  6
CONTINUOUS
 10
199.8242963359
 20
167.9499621802
 11
199.8242963359
 21
167.9999621802
  0
LINE
  5
414
100
AcDbEntity
  8
GEOM
100
AcDbLine
 62
7
  6
CONTINUOUS
 10
199.8432030199
 20
167.9499621802
 11
199.8432030199
 21
167.9999621802
  0
LINE
  5
415
100
AcDbEntity
  8
GEOM
100
AcDbLine
 62
7
  6
CONTINUOUS
 10
199.8837173429
 20
167.9499621802
 11
199.8837173429
 21
167.9999621802
  0
LINE
  5
416
100
AcDbEntity
  8
GEOM
100
AcDbLine
 62
7
  6
CONTINUOUS
 10
200.0197297126
 20
167.9499621802
 11
200.0197297126
 21
167.9999621802
  0
LINE
  5
417
100
AcDbEntity
  8
GEOM
100
AcDbLine
 62
7
  6
CONTINUOUS
 10
200.0630414531
 20
167.9499621802
 11
200.0630414531
 21
167.9999621802
  0
LINE
  5
418
100
AcDbEntity
  8
GEOM
100
AcDbLine
 62
7
  6
CONTINUOUS
 10
200.07664269
 20
167.9499621802
 11
200.07664269
 21
167.9999621802
  0
LINE
  5
419
100
AcDbEntity
  8
GEOM
100
AcDbLine
 62
7
  6
CONTINUOUS
 10
200.1198579678
 20
167.9499621802
 11
200.1198579678
 21
167.9999621802
  0
LINE
  5
41A
100
AcDbEntity
  8
GEOM
100
AcDbLine
 62
7
  6
CONTINUOUS
 10
200.2555809495
 20
167.9499621802
 11
200.2555809495
 21
167.9999621802
  0
LINE
  5
41B
100
AcDbEntity
  8
GEOM
100
AcDbLine
 62
7
  6
CONTINUOUS
 10
200.2559668002
 20
167.9499621802
 11
200.2559668002
 21
167.9999621802
  0
LINE
  5
41C
100
AcDbEntity
  8
GEOM
100
AcDbLine
 62
7
  6
CONTINUOUS
 10
200.2965775858
 20
167.9499621802
 11
200.2965775858
 21
167.9999621802
  0
LINE
  5
41D
100
AcDbEntity
  8
GEOM
100
AcDbLine
 62
7
  6
CONTINUOUS
 10
200.3156771952
 20
167.9499621802
 11
200.3156771952
 21
167.9999621802
  0
LINE
  5
41E
100
AcDbEntity
  8
GEOM
100
AcDbLine
 62
7
  6
CONTINUOUS
 10
200.3562879808
 20
167.9499621802
 11
200.3562879808
 21
167.9999621802
  0
LINE
  5
41F
100
AcDbEntity
  8
GEOM
100
AcDbLine
 62
7
  6
CONTINUOUS
 10
201.0230799163
 20
167.9499621802
 11
201.0230799163
 21
167.9999621802
  0
LINE
  5
420
100
AcDbEntity
  8
0
100
AcDbLine
 62
7
  6
CONTINUOUS
 10
162.1245002581
 20
161.9499621802
 11
215.3245002581
 21
161.9499621802
  0
LINE
  5
421
100
AcDbEntity
  8
0
100
AcDbLine
 62
7
  6
CONTINUOUS
 10
160.8245002581
 20
164.4499621802
 11
217.8245002581
 21
164.4499621802
  0
LINE
  5
422
100
AcDbEntity
  8
0
100
AcDbLine
 62
7
  6
CONTINUOUS
 10
160.8245002581
 20
165.4499621802
 11
217.8245002581
 21
165.4499621802
  0
LINE
  5
423
100
AcDbEntity
  8
0
100
AcDbLine
 62
7
  6
CONTINUOUS
 10
160.8245002581
 20
166.4499621802
 11
160.8422707351
 21
166.4499621802
  0
LINE
  5
424
100
AcDbEntity
  8
0
100
AcDbLine
 62
7
  6
CONTINUOUS
 10
208.3245002581
 20
161.9499621802
 11
208.3245002581
 21
167.9499621802
  0
LINE
  5
425
100
AcDbEntity
  8
GEOM
100
AcDbLine
 62
7
  6
CONTINUOUS
 10
208.6395814199
 20
167.9499621802
 11
208.6395814199
 21
167.9999621802
  0
LINE
  5
426
100
AcDbEntity
  8
0
100
AcDbLine
 62
7
  6
CONTINUOUS
 10
162.1245002581
 20
167.9499621802
 11
215.3245002581
 21
167.9499621802
  0
LINE
  5
427
100
AcDbEntity
  8
GEOM
100
AcDbLine
 62
7
  6
CONTINUOUS
 10
162.3245002581
 20
167.9999621802
 11
164.3245002581
 21
167.9999621802
  0
LINE
  5
428
100
AcDbEntity
  8
GEOM
100
AcDbLine
 62
7
  6
CONTINUOUS
 10
165.0152100274
 20
167.9999621802
 11
169.5246953235
 21
167.9999621802
  0
LINE
  5
429
100
AcDbEntity
  8
GEOM
100
AcDbLine
 62
7
  6
CONTINUOUS
 10
170.2494676215
 20
167.9999621802
 11
174.3321055871
 21
167.9999621802
  0
LINE
  5
42A
100
AcDbEntity
  8
GEOM
100
AcDbLine
 62
7
  6
CONTINUOUS
 10
175.2807677505
 20
167.9999621802
 11
180.4278713191
 21
167.9999621802
  0
LINE
  5
42B
100
AcDbEntity
  8
GEOM
100
AcDbLine
 62
7
  6
CONTINUOUS
 10
181.1460359239
 20
167.9999621802
 11
185.6245002581
 21
167.9999621802
  0
LINE
  5
42C
100
AcDbEntity
  8
GEOM
100
AcDbLine
 62
7
  6
CONTINUOUS
 10
186.7662494135
 20
167.9999621802
 11
186.9937830248
 21
167.9999621802
  0
LINE
  5
42D
100
AcDbEntity
  8
GEOM
100
AcDbLine
 62
7
  6
CONTINUOUS
 10
187.933506843
 20
167.9999621802
 11
188.7548724564
 21
167.9999621802
  0
LINE
  5
42E
100
AcDbEntity
  8
GEOM
100
AcDbLine
 62
7
  6
CONTINUOUS
 10
190.1823138028
 20
167.9999621802
 11
190.4159692796
 21
167.9999621802
  0
LINE
  5
42F
100
AcDbEntity
  8
GEOM
100
AcDbLine
 62
7
  6
CONTINUOUS
 10
191.4138518892
 20
167.9999621802
 11
191.5179257413
 21
167.9999621802
  0
LINE
  5
430
100
AcDbEntity
  8
GEOM
100
AcDbLine
 62
7
  6
CONTINUOUS
 10
192.5321333254
 20
167.9999621802
 11
193.214734516
 21
167.9999621802
  0
LINE
  5
431
100
AcDbEntity
  8
GEOM
100
AcDbLine
 62
7
  6
CONTINUOUS
 10
194.4184316454
 20
167.9999621802
 11
194.4799435754
 21
167.9999621802
  0
LINE
  5
432
100
AcDbEntity
  8
GEOM
100
AcDbLine
 62
7
  6
CONTINUOUS
 10
194.6891112339
 20
167.9999621802
 11
195.0982633959
 21
167.9999621802
  0
LINE
  5
433
100
AcDbEntity
  8
GEOM
100
AcDbLine
 62
7
  6
CONTINUOUS
 10
195.6492412701
 20
167.9999621802
 11
196.119613513
 21
167.9999621802
  0
LINE
  5
434
100
AcDbEntity
  8
GEOM
100
AcDbLine
 62
7
  6
CONTINUOUS
 10
197.0950485694
 20
167.9999621802
 11
197.3164606719
 21
167.9999621802
  0
LINE
  5
435
100
AcDbEntity
  8
GEOM
100
AcDbLine
 62
7
  6
CONTINUOUS
 10
198.9245006148
 20
167.9999621802
 11
198.9732061669
 21
167.9999621802
  0
LINE
  5
436
100
AcDbEntity
  8
GEOM
100
AcDbLine
 62
7
  6
CONTINUOUS
 10
199.0785434064
 20
167.9999621802
 11
199.6189273039
 21
167.9999621802
  0
LINE
  5
437
100
AcDbEntity
  8
GEOM
100
AcDbLine
 62
7
  6
CONTINUOUS
 10
199.783203237
 20
167.9999621802
 11
200.3562879808
 21
167.9999621802
  0
LINE
  5
438
100
AcDbEntity
  8
GEOM
100
AcDbLine
 62
7
  6
CONTINUOUS
 10
201.0230799163
 20
167.9999621802
 11
209.1272071251
 21
167.9999621802
  0
LINE
  5
439
100
AcDbEntity
  8
GEOM
100
AcDbLine
 62
7
  6
CONTINUOUS
 10
185.6245002581
 20
168.0499621802
 11
186.7662494135
 21
168.0499621802
  0
LINE
  5
43A
100
AcDbEntity
  8
GEOM
100
AcDbLine
 62
7
  6
CONTINUOUS
 10
186.9937830248
 20
168.0499621802
 11
187.933506843
 21
168.0499621802
  0
LINE
  5
43B
100
AcDbEntity
  8
GEOM
100
AcDbLine
 62
7
  6
CONTINUOUS
 10
188.7548724564
 20
168.0499621802
 11
190.1823138028
 21
168.0499621802
  0
LINE
  5
43C
100
AcDbEntity
  8
GEOM
100
AcDbLine
 62
7
  6
CONTINUOUS
 10
190.4159692796
 20
168.0499621802
 11
191.4138518892
 21
168.0499621802
  0
LINE
  5
43D
100
AcDbEntity
  8
GEOM
100
AcDbLine
 62
7
  6
CONTINUOUS
 10
191.5179257413
 20
168.0499621802
 11
192.5321333254
 21
168.0499621802
  0
LINE
  5
43E
100
AcDbEntity
  8
GEOM
100
AcDbLine
 62
7
  6
CONTINUOUS
 10
193.214734516
 20
168.0499621802
 11
194.1901695724
 21
168.0499621802
  0
LINE
  5
43F
100
AcDbEntity
  8
GEOM
100
AcDbLine
 62
7
  6
CONTINUOUS
 10
194.4799435754
 20
168.0499621802
 11
194.6891112339
 21
168.0499621802
  0
LINE
  5
440
100
AcDbEntity
  8
GEOM
100
AcDbLine
 62
7
  6
CONTINUOUS
 10
195.0982633959
 20
168.0499621802
 11
195.6492412701
 21
168.0499621802
  0
LINE
  5
441
100
AcDbEntity
  8
GEOM
100
AcDbLine
 62
7
  6
CONTINUOUS
 10
196.119613513
 20
168.0499621802
 11
197.0950485694
 21
168.0499621802
  0
LINE
  5
442
100
AcDbEntity
  8
GEOM
100
AcDbLine
 62
7
  6
CONTINUOUS
 10
197.3164606719
 20
168.0499621802
 11
198.9245006148
 21
168.0499621802
  0
LINE
  5
443
100
AcDbEntity
  8
GEOM
100
AcDbLine
 62
7
  6
CONTINUOUS
 10
208.7397303457
 20
167.9499621802
 11
208.7397303457
 21
167.9999621802
  0
LINE
  5
444
100
AcDbEntity
  8
GEOM
100
AcDbLine
 62
7
  6
CONTINUOUS
 10
208.9055324561
 20
167.9499621802
 11
208.9055324561
 21
167.9999621802
  0
LINE
  5
445
100
AcDbEntity
  8
GEOM
100
AcDbLine
 62
7
  6
CONTINUOUS
 10
208.9762223703
 20
167.9499621802
 11
208.9762223703
 21
167.9999621802
  0
LINE
  5
446
100
AcDbEntity
  8
GEOM
100
AcDbLine
 62
7
  6
CONTINUOUS
 10
209.0048028825
 20
167.9499621802
 11
209.0048028825
 21
167.9999621802
  0
LINE
  5
447
100
AcDbEntity
  8
GEOM
100
AcDbLine
 62
7
  6
CONTINUOUS
 10
209.1272071251
 20
167.9499621802
 11
209.1272071251
 21
167.9999621802
  0
LINE
  5
448
100
AcDbEntity
  8
0
100
AcDbLine
 62
7
  6
CONTINUOUS
 10
217.8245002581
 20
164.4499621802
 11
217.8245002581
 21
165.4499621802
  0
ARC
  5
449
100
AcDbEntity
  8
0
100
AcDbCircle
 62
7
  6
CONTINUOUS
 10
138.3902600864
 20
-330.3314504077
 40
469.9189230265
100
AcDbArc
 50
91.647595721
 51
92.0043560969
  0
ARC
  5
44A
100
AcDbEntity
  8
0
100
AcDbCircle
 62
7
  6
CONTINUOUS
 10
119.2388288354
 20
90.8697068723
 40
17.5340661847
100
AcDbArc
 50
195.2787482714
 51
195.9340780443
  0
ARC
  5
44B
100
AcDbEntity
  8
0
100
AcDbCircle
 62
7
  6
CONTINUOUS
 10
119.2202180329
 20
68.9409147209
 40
17.5138868163
100
AcDbArc
 50
195.2681260397
 51
195.9240688883
  0
ARC
  5
44C
100
AcDbEntity
  8
0
100
AcDbCircle
 62
7
  6
CONTINUOUS
 10
118.7757443903
 20
89.2825910459
 40
17.0525578855
100
AcDbArc
 50
164.2887374564
 51
164.739177115
  0
ARC
  5
44D
100
AcDbEntity
  8
0
100
AcDbCircle
 62
7
  6
CONTINUOUS
 10
117.8465331899
 20
67.6179639871
 40
16.0888039615
100
AcDbArc
 50
164.2710842805
 51
164.7467348881
  0
ARC
  5
44E
100
AcDbEntity
  8
GEOM
100
AcDbCircle
 62
7
  6
CONTINUOUS
 10
83.0245002581
 20
93.3499621802
 40
0.7
100
AcDbArc
 50
90.0
 51
180.0
  0
ARC
  5
44F
100
AcDbEntity
  8
GEOM
100
AcDbCircle
 62
7
  6
CONTINUOUS
 10
83.0245002581
 20
64.7499621802
 40
0.7
100
AcDbArc
 50
180.0
 51
270.0
  0
ARC
  5
450
100
AcDbEntity
  8
0
100
AcDbCircle
 62
7
  6
CONTINUOUS
 10
117.1211667616
 20
96.9544565622
 40
0.595505618
100
AcDbArc
 50
92.4414324803
 51
135.0000000004
  0
ARC
  5
451
100
AcDbEntity
  8
0
100
AcDbCircle
 62
7
  6
CONTINUOUS
 10
117.1211667616
 20
61.1454677982
 40
0.595505618
100
AcDbArc
 50
224.9999999997
 51
270.0
  0
ARC
  5
452
100
AcDbEntity
  8
0
100
AcDbCircle
 62
7
  6
CONTINUOUS
 10
113.6674178991
 20
95.0499621802
 40
0.4999993643
100
AcDbArc
 50
270.0077578769
 51
314.9979660018
  0
ARC
  5
453
100
AcDbEntity
  8
0
100
AcDbCircle
 62
7
  6
CONTINUOUS
 10
113.6674178991
 20
63.0499621802
 40
0.4999993643
100
AcDbArc
 50
45.0020339982
 51
89.9922421231
  0
ARC
  5
454
100
AcDbEntity
  8
0
100
AcDbCircle
 62
7
  6
CONTINUOUS
 10
102.3786722887
 20
63.9071741414
 40
0.3572101385
100
AcDbArc
 50
261.2778860345
 51
269.9558326335
  0
ARC
  5
455
100
AcDbEntity
  8
0
100
AcDbCircle
 62
7
  6
CONTINUOUS
 10
102.3786849312
 20
94.1927759611
 40
0.3571851688
100
AcDbArc
 50
90.0443321051
 51
98.7247864198
  0
ARC
  5
456
100
AcDbEntity
  8
0
100
AcDbCircle
 62
7
  6
CONTINUOUS
 10
86.998699128
 20
96.324157839
 40
0.3000174884
100
AcDbArc
 50
89.9776729826
 51
149.9495995658
  0
ARC
  5
457
100
AcDbEntity
  8
0
100
AcDbCircle
 62
7
  6
CONTINUOUS
 10
86.998699127
 20
61.7757665196
 40
0.3000174867
100
AcDbArc
 50
210.0504002382
 51
270.0223272133
  0
ARC
  5
458
100
AcDbEntity
  8
0
100
AcDbCircle
 62
7
  6
CONTINUOUS
 10
86.9988160388
 20
96.3499621802
 40
0.3
100
AcDbArc
 50
90.0
 51
150.0
  0
ARC
  5
459
100
AcDbEntity
  8
0
100
AcDbCircle
 62
7
  6
CONTINUOUS
 10
86.9988160388
 20
61.7499621802
 40
0.3
100
AcDbArc
 50
210.0
 51
270.0
  0
ARC
  5
45A
100
AcDbEntity
  8
0
100
AcDbCircle
 62
7
  6
CONTINUOUS
 10
85.1512951774
 20
94.3499621802
 40
0.3
100
AcDbArc
 50
270.0
 51
330.0000000001
  0
ARC
  5
45B
100
AcDbEntity
  8
0
100
AcDbCircle
 62
7
  6
CONTINUOUS
 10
85.1512951774
 20
63.7499621802
 40
0.3
100
AcDbArc
 50
29.9999999999
 51
90.0
  0
ARC
  5
45C
100
AcDbEntity
  8
0
100
AcDbCircle
 62
7
  6
CONTINUOUS
 10
71.0583290881
 20
154.5772998558
 40
55.5831180101
100
AcDbArc
 50
353.6709999501
 51
353.8783855052
  0
ARC
  5
45D
100
AcDbEntity
  8
0
100
AcDbCircle
 62
7
  6
CONTINUOUS
 10
115.8245002581
 20
145.4499621802
 40
3.0
100
AcDbArc
 50
90.0
 51
180.0
  0
ARC
  5
45E
100
AcDbEntity
  8
0
100
AcDbCircle
 62
7
  6
CONTINUOUS
 10
117.4082423453
 20
130.5033567585
 40
0.5955810274
100
AcDbArc
 50
359.994123842
 51
44.9844374748
  0
ARC
  5
45F
100
AcDbEntity
  8
0
100
AcDbCircle
 62
7
  6
CONTINUOUS
 10
116.2289946401
 20
135.5532956768
 40
0.595505618
100
AcDbArc
 50
0.0
 51
45.0000000014
  0
ARC
  5
460
100
AcDbEntity
  8
0
100
AcDbCircle
 62
7
  6
CONTINUOUS
 10
116.3245002581
 20
144.9499621802
 40
0.5
100
AcDbArc
 50
90.0
 51
180.0
  0
ARC
  5
461
100
AcDbEntity
  8
0
100
AcDbCircle
 62
7
  6
CONTINUOUS
 10
112.8245002581
 20
132.5886373148
 40
0.5
100
AcDbArc
 50
180.0
 51
240.0
  0
ARC
  5
462
100
AcDbEntity
  8
0
100
AcDbCircle
 62
7
  6
CONTINUOUS
 10
112.8245002581
 20
134.7999621802
 40
0.5
100
AcDbArc
 50
90.0
 51
180.0
  0
ARC
  5
463
100
AcDbEntity
  8
0
100
AcDbCircle
 62
7
  6
CONTINUOUS
 10
116.6245002581
 20
135.4999621802
 40
0.2
100
AcDbArc
 50
270.0
 51
360.0
  0
ARC
  5
464
100
AcDbEntity
  8
0
100
AcDbCircle
 62
7
  6
CONTINUOUS
 10
134.8948521247
 20
80.0184361839
 40
33.1716285395
100
AcDbArc
 50
190.9257085783
 51
191.4065921668
  0
ARC
  5
465
100
AcDbEntity
  8
0
100
AcDbCircle
 62
7
  6
CONTINUOUS
 10
134.2638599159
 20
78.2056224202
 40
32.5285456225
100
AcDbArc
 50
168.6697939636
 51
169.0783257613
  0
ARC
  5
466
100
AcDbEntity
  8
0
100
AcDbCircle
 62
7
  6
CONTINUOUS
 10
128.6207502581
 20
76.8074621802
 40
2.09625
100
AcDbArc
 50
79.7295607216
 51
180.0
  0
ARC
  5
467
100
AcDbEntity
  8
0
100
AcDbCircle
 62
7
  6
CONTINUOUS
 10
127.9545002581
 20
76.9699621802
 40
2.08
100
AcDbArc
 50
90.0
 51
180.0
  0
ARC
  5
468
100
AcDbEntity
  8
0
100
AcDbCircle
 62
7
  6
CONTINUOUS
 10
127.0749666422
 20
78.2233778115
 40
1.365
100
AcDbArc
 50
113.7828917797
 51
151.5775992543
  0
ARC
  5
469
100
AcDbEntity
  8
0
100
AcDbCircle
 62
7
  6
CONTINUOUS
 10
132.5711667616
 20
60.4454677982
 40
0.595505618
100
AcDbArc
 50
225.0
 51
270.0
  0
ARC
  5
46A
100
AcDbEntity
  8
0
100
AcDbCircle
 62
7
  6
CONTINUOUS
 10
131.3778337547
 20
59.9544565622
 40
0.595505618
100
AcDbArc
 50
45.0
 51
90.0
  0
ARC
  5
46B
100
AcDbEntity
  8
0
100
AcDbCircle
 62
7
  6
CONTINUOUS
 10
138.5188047139
 20
59.2544565622
 40
0.595505618
100
AcDbArc
 50
29.7506540961
 51
90.0
  0
ARC
  5
46C
100
AcDbEntity
  8
GEOM
100
AcDbCircle
 62
7
  6
CONTINUOUS
 10
144.2405075483
 20
62.5479975163
 40
0.5019646643
100
AcDbArc
 50
89.9979661061
 51
91.1860129473
  0
ARC
  5
46D
100
AcDbEntity
  8
GEOM
100
AcDbCircle
 62
7
  6
CONTINUOUS
 10
144.2406178659
 20
62.5496657036
 40
0.5002991387
100
AcDbArc
 50
91.202598491
 51
96.9710688564
  0
ARC
  5
46E
100
AcDbEntity
  8
GEOM
100
AcDbCircle
 62
7
  6
CONTINUOUS
 10
144.5940878883
 20
62.5499621802
 40
0.4999999986
100
AcDbArc
 50
90.0028820896
 51
160.0
  0
ARC
  5
46F
100
AcDbEntity
  8
GEOM
100
AcDbCircle
 62
7
  6
CONTINUOUS
 10
144.2405077172
 20
64.0718936653
 40
0.3976591865
100
AcDbArc
 50
268.5028096183
 51
270.0025352382
  0
ARC
  5
470
100
AcDbEntity
  8
GEOM
100
AcDbCircle
 62
7
  6
CONTINUOUS
 10
144.2405112682
 20
71.6104817404
 40
0.1877911284
100
AcDbArc
 50
89.9960354195
 51
93.1727359227
  0
ARC
  5
471
100
AcDbEntity
  8
GEOM
100
AcDbCircle
 62
7
  6
CONTINUOUS
 10
144.2405114886
 20
84.61404746
 40
0.1804773363
100
AcDbArc
 50
89.9962779495
 51
93.3015199242
  0
ARC
  5
472
100
AcDbEntity
  8
GEOM
100
AcDbCircle
 62
7
  6
CONTINUOUS
 10
144.2405112613
 20
73.4858727315
 40
0.1804731727
100
AcDbArc
 50
266.6984761142
 51
270.0039117877
  0
ARC
  5
473
100
AcDbEntity
  8
0
100
AcDbCircle
 62
7
  6
CONTINUOUS
 10
127.4445002581
 20
106.2799621802
 40
1.12
100
AcDbArc
 50
0.0
 51
180.0
  0
ARC
  5
474
100
AcDbEntity
  8
0
100
AcDbCircle
 62
7
  6
CONTINUOUS
 10
127.4445002581
 20
104.9199621802
 40
1.12
100
AcDbArc
 50
180.0
 51
120.0
  0
ARC
  5
475
100
AcDbEntity
  8
0
100
AcDbCircle
 62
7
  6
CONTINUOUS
 10
125.3045002581
 20
111.9199621802
 40
0.84
100
AcDbArc
 50
0.0
 51
90.0
  0
ARC
  5
476
100
AcDbEntity
  8
0
100
AcDbCircle
 62
7
  6
CONTINUOUS
 10
125.3045002581
 20
111.2899621802
 40
0.84
100
AcDbArc
 50
270.0
 51
360.0
  0
ARC
  5
477
100
AcDbEntity
  8
0
100
AcDbCircle
 62
7
  6
CONTINUOUS
 10
138.5188047139
 20
98.8454677982
 40
0.595505618
100
AcDbArc
 50
270.0
 51
330.2493459039
  0
CIRCLE
  5
478
100
AcDbEntity
  8
0
100
AcDbCircle
 62
7
  6
CONTINUOUS
 10
127.4445002581
 20
104.9199621802
 40
0.56
  0
ARC
  5
479
100
AcDbEntity
  8
0
100
AcDbCircle
 62
7
  6
CONTINUOUS
 10
127.4445002581
 20
106.2799621802
 40
0.56
100
AcDbArc
 50
0.0
 51
180.0
  0
ARC
  5
47A
100
AcDbEntity
  8
GEOM
100
AcDbCircle
 62
7
  6
CONTINUOUS
 10
144.2405060624
 20
95.5517989856
 40
0.501836792
100
AcDbArc
 50
268.813854484
 51
270.0018999823
  0
ARC
  5
47B
100
AcDbEntity
  8
GEOM
100
AcDbCircle
 62
7
  6
CONTINUOUS
 10
144.2406168954
 20
95.5502608092
 40
0.5003012598
100
AcDbArc
 50
263.0289436956
 51
268.7975177847
  0
ARC
  5
47C
100
AcDbEntity
  8
GEOM
100
AcDbCircle
 62
7
  6
CONTINUOUS
 10
144.5940865712
 20
95.5499621802
 40
0.499999964
100
AcDbArc
 50
200.0
 51
269.9999956452
  0
ARC
  5
47D
100
AcDbEntity
  8
GEOM
100
AcDbCircle
 62
7
  6
CONTINUOUS
 10
144.2405043119
 20
94.0283041508
 40
0.3973856838
100
AcDbArc
 50
89.9980066473
 51
91.497729915
  0
ARC
  5
47E
100
AcDbEntity
  8
0
100
AcDbCircle
 62
7
  6
CONTINUOUS
 10
125.3045002581
 20
111.2899621802
 40
0.28
100
AcDbArc
 50
270.0
 51
360.0
  0
ARC
  5
47F
100
AcDbEntity
  8
0
100
AcDbCircle
 62
7
  6
CONTINUOUS
 10
125.3045002581
 20
111.9199621802
 40
0.28
100
AcDbArc
 50
0.0
 51
90.0
  0
ARC
  5
480
100
AcDbEntity
  8
GEOM
100
AcDbCircle
 62
7
  6
CONTINUOUS
 10
144.2405117267
 20
86.4894616715
 40
0.1878101945
100
AcDbArc
 50
266.8274464021
 51
270.0041454637
  0
ARC
  5
481
100
AcDbEntity
  8
GEOM
100
AcDbCircle
 62
7
  6
CONTINUOUS
 10
169.6245002581
 20
64.7499621802
 40
0.7
100
AcDbArc
 50
270.0
 51
360.0
  0
ARC
  5
482
100
AcDbEntity
  8
0
100
AcDbCircle
 62
7
  6
CONTINUOUS
 10
165.6503013883
 20
61.7757665214
 40
0.3000174884
100
AcDbArc
 50
269.9776729826
 51
329.9495995658
  0
ARC
  5
483
100
AcDbEntity
  8
0
100
AcDbCircle
 62
7
  6
CONTINUOUS
 10
165.6501844775
 20
61.7499621802
 40
0.3
100
AcDbArc
 50
270.0
 51
330.0
  0
ARC
  5
484
100
AcDbEntity
  8
0
100
AcDbCircle
 62
7
  6
CONTINUOUS
 10
167.4977053389
 20
63.7499621802
 40
0.3
100
AcDbArc
 50
90.0
 51
150.0000000001
  0
ARC
  5
485
100
AcDbEntity
  8
GEOM
100
AcDbCircle
 62
7
  6
CONTINUOUS
 10
169.6245002581
 20
93.3499621802
 40
0.7
100
AcDbArc
 50
0.0
 51
90.0
  0
ARC
  5
486
100
AcDbEntity
  8
0
100
AcDbCircle
 62
7
  6
CONTINUOUS
 10
165.6503013893
 20
96.3241578408
 40
0.3000174867
100
AcDbArc
 50
30.0504002382
 51
90.0223272133
  0
ARC
  5
487
100
AcDbEntity
  8
0
100
AcDbCircle
 62
7
  6
CONTINUOUS
 10
165.6501844775
 20
96.3499621802
 40
0.3
100
AcDbArc
 50
30.0
 51
90.0
  0
ARC
  5
488
100
AcDbEntity
  8
0
100
AcDbCircle
 62
7
  6
CONTINUOUS
 10
167.4977053389
 20
94.3499621802
 40
0.3
100
AcDbArc
 50
209.9999999999
 51
270.0
  0
ARC
  5
489
100
AcDbEntity
  8
0
100
AcDbCircle
 62
7
  6
CONTINUOUS
 10
162.2598319101
 20
162.4499621802
 40
4.0
100
AcDbArc
 50
111.0331393818
 51
140.0
  0
ARC
  5
48A
100
AcDbEntity
  8
0
100
AcDbCircle
 62
7
  6
CONTINUOUS
 10
144.8245002581
 20
149.4499621802
 40
4.0
100
AcDbArc
 50
270.0
 51
320.0
  0
ARC
  5
48B
100
AcDbEntity
  8
0
100
AcDbCircle
 62
7
  6
CONTINUOUS
 10
164.6798517029
 20
166.1142757568
 40
3.8553515715
100
AcDbArc
 50
179.0238597861
 51
180.0146922186
  0
ARC
  5
48C
100
AcDbEntity
  8
0
100
AcDbCircle
 62
7
  6
CONTINUOUS
 10
125.2445002581
 20
125.9099621802
 40
1.54
100
AcDbArc
 50
90.0
 51
180.0
  0
ARC
  5
48D
100
AcDbEntity
  8
0
100
AcDbCircle
 62
7
  6
CONTINUOUS
 10
125.2445002581
 20
124.7899621802
 40
1.54
100
AcDbArc
 50
180.0
 51
270.0
  0
ARC
  5
48E
100
AcDbEntity
  8
0
100
AcDbCircle
 62
7
  6
CONTINUOUS
 10
162.1245002581
 20
163.2499621802
 40
1.3
100
AcDbArc
 50
212.8904173777
 51
270.0
  0
ARC
  5
48F
100
AcDbEntity
  8
0
100
AcDbCircle
 62
7
  6
CONTINUOUS
 10
162.1245002581
 20
166.6499621802
 40
1.3
100
AcDbArc
 50
90.0
 51
180.0
  0
ARC
  5
490
100
AcDbEntity
  8
0
100
AcDbCircle
 62
7
  6
CONTINUOUS
 10
127.6445002581
 20
126.2599621802
 40
1.19
100
AcDbArc
 50
278.8857694273
 51
90.0
  0
ARC
  5
491
100
AcDbEntity
  8
0
100
AcDbCircle
 62
7
  6
CONTINUOUS
 10
125.2445002581
 20
124.7899621802
 40
1.05
100
AcDbArc
 50
180.0
 51
270.0
  0
ARC
  5
492
100
AcDbEntity
  8
0
100
AcDbCircle
 62
7
  6
CONTINUOUS
 10
125.2445002581
 20
125.9099621802
 40
1.05
100
AcDbArc
 50
90.0000081659
 51
180.0
  0
ARC
  5
493
100
AcDbEntity
  8
0
100
AcDbCircle
 62
7
  6
CONTINUOUS
 10
144.8245002581
 20
149.4499621802
 40
1.0
100
AcDbArc
 50
270.0
 51
320.0
  0
ARC
  5
494
100
AcDbEntity
  8
0
100
AcDbCircle
 62
7
  6
CONTINUOUS
 10
127.6445002581
 20
126.2599621802
 40
0.7
100
AcDbArc
 50
270.0
 51
90.0
  0
ARC
  5
495
100
AcDbEntity
  8
0
100
AcDbCircle
 62
7
  6
CONTINUOUS
 10
131.7245002581
 20
149.3035520187
 40
0.6
100
AcDbArc
 50
0.0
 51
60.0
  0
ARC
  5
496
100
AcDbEntity
  8
0
100
AcDbCircle
 62
7
  6
CONTINUOUS
 10
120.9245002581
 20
149.3035520187
 40
0.6
100
AcDbArc
 50
120.0
 51
180.0
  0
ARC
  5
497
100
AcDbEntity
  8
0
100
AcDbCircle
 62
7
  6
CONTINUOUS
 10
135.2289946401
 20
131.7466286837
 40
0.595505618
100
AcDbArc
 50
315.0
 51
359.9999999999
  0
ARC
  5
498
100
AcDbEntity
  8
0
100
AcDbCircle
 62
7
  6
CONTINUOUS
 10
135.6700058761
 20
130.5032956768
 40
0.595505618
100
AcDbArc
 50
135.0
 51
180.0
  0
ARC
  5
499
100
AcDbEntity
  8
0
100
AcDbCircle
 62
7
  6
CONTINUOUS
 10
136.4200058761
 20
135.5532956768
 40
0.595505618
100
AcDbArc
 50
134.9999999986
 51
180.0
  0
ARC
  5
49A
100
AcDbEntity
  8
0
100
AcDbCircle
 62
7
  6
CONTINUOUS
 10
319.132886897
 20
341.933020861
 40
291.6293896891
100
AcDbArc
 50
226.2343523979
 51
226.3484134888
  0
ARC
  5
49B
100
AcDbEntity
  8
0
100
AcDbCircle
 62
7
  6
CONTINUOUS
 10
306.4213550924
 20
329.039902258
 40
273.8191932701
100
AcDbArc
 50
226.2891617041
 51
226.4107718891
  0
ARC
  5
49C
100
AcDbEntity
  8
0
100
AcDbCircle
 62
7
  6
CONTINUOUS
 10
215.3245002581
 20
165.4499621802
 40
2.5
100
AcDbArc
 50
0.0
 51
90.0
  0
ARC
  5
49D
100
AcDbEntity
  8
0
100
AcDbCircle
 62
7
  6
CONTINUOUS
 10
215.3245002581
 20
164.4499621802
 40
2.5
100
AcDbArc
 50
270.0
 51
360.0
  0
SPLINE
  5
49E
100
AcDbEntity
  8
0
100
AcDbSpline
 62
7
  6
CONTINUOUS
 70
0
 71
3
 72
9
 73
5
 74
0
 42
0.0000001
 43
0.0000001
 44
0.0000000001
 40
0.0
 40
0.0
 40
0.0
 40
0.0
 40
0.3876155666
 40
1.0
 40
1.0
 40
1.0
 40
1.0
 10
118.3244981048
 20
139.6150421555
 30
0.0
 10
118.3244980218
 20
139.6130366492
 30
0.0
 10
118.3275767606
 20
139.6081705699
 30
0.0
 10
118.3320978673
 20
139.6056588222
 30
0.0
 10
118.3349075443
 20
139.60419431
 30
0.0
  0
SPLINE
  5
49F
100
AcDbEntity
  8
0
100
AcDbSpline
 62
7
  6
CONTINUOUS
 70
0
 71
3
 72
9
 73
5
 74
0
 42
0.0000001
 43
0.0000001
 44
0.0000000001
 40
0.0
 40
0.0
 40
0.0
 40
0.0
 40
0.27918513
 40
1.0
 40
1.0
 40
1.0
 40
1.0
 10
118.4321466087
 20
139.6499621802
 30
0.0
 10
118.4273155975
 20
139.649176816
 30
0.0
 10
118.4100279875
 20
139.6462691905
 30
0.0
 10
118.392798205
 20
139.6429813732
 30
0.0
 10
118.3804701983
 20
139.6402053139
 30
0.0
  0
SPLINE
  5
4A0
100
AcDbEntity
  8
0
100
AcDbSpline
 62
7
  6
CONTINUOUS
 70
0
 71
3
 72
12
 73
8
 74
0
 42
0.0000001
 43
0.0000001
 44
0.0000000001
 40
0.0
 40
0.0
 40
0.0
 40
0.0
 40
0.3987430043
 40
0.6923398698
 40
0.8011414878
 40
0.8863010623
 40
1.0
 40
1.0
 40
1.0
 40
1.0
 10
118.3804701983
 20
139.6402053139
 30
0.0
 10
118.3722579434
 20
139.6383560525
 30
0.0
 10
118.358066185
 20
139.6348064355
 30
0.0
 10
118.3419984175
 20
139.6294706631
 30
0.0
 10
118.3327262035
 20
139.6248217603
 30
0.0
 10
118.3274155062
 20
139.6212934469
 30
0.0
 10
118.3244982041
 20
139.6174424618
 30
0.0
 10
118.3244981048
 20
139.6150421555
 30
0.0
  0
LINE
  5
4A1
100
AcDbEntity
  8
0
100
AcDbLine
 62
7
  6
CONTINUOUS
 10
124.879147848
 20
139.3931966616
 11
124.9945804819
 21
139.3965954177
  0
LINE
  5
4A2
100
AcDbEntity
  8
0
100
AcDbLine
 62
7
  6
CONTINUOUS
 10
124.9945804819
 20
139.3965954177
 11
127.8642501075
 21
139.4801146976
  0
SPLINE
  5
4A3
100
AcDbEntity
  8
0
100
AcDbSpline
 62
7
  6
CONTINUOUS
 70
0
 71
3
 72
22
 73
18
 74
0
 42
0.0000001
 43
0.0000001
 44
0.0000000001
 40
0.0
 40
0.0
 40
0.0
 40
0.0
 40
0.0061854999
 40
0.0145413255
 40
0.0250605714
 40
0.0377240134
 40
0.069352482
 40
0.1091121667
 40
0.1565916801
 40
0.2112928856
 40
0.2726411936
 40
0.3399916985
 40
0.4126338132
 40
0.4898008036
 40
0.6544150522
 40
0.8269028214
 40
1.0
 40
1.0
 40
1.0
 40
1.0
 10
119.0184036325
 20
139.3029026292
 30
0.0
 10
119.0357766366
 20
139.3073188252
 30
0.0
 10
119.0771873058
 20
139.3153850554
 30
0.0
 10
119.149034631
 20
139.3259961912
 30
0.0
 10
119.2398180448
 20
139.3366953923
 30
0.0
 10
119.3979025429
 20
139.3522336005
 30
0.0
 10
119.6407899085
 20
139.3708993889
 30
0.0
 10
119.9846071641
 20
139.3922704533
 30
0.0
 10
120.3953934588
 20
139.4137535149
 30
0.0
 10
120.8688089963
 20
139.4353382457
 30
0.0
 10
121.3998613855
 20
139.45697565
 30
0.0
 10
121.9829433827
 20
139.4786516302
 30
0.0
 10
122.6118959075
 20
139.5003543896
 30
0.0
 10
123.5226110309
 20
139.5299549062
 30
0.0
 10
124.7226093467
 20
139.5662925268
 30
0.0
 10
126.2005412148
 20
139.6091058449
 30
0.0
 10
127.2016259486
 20
139.6380012689
 30
0.0
 10
127.7030425806
 20
139.6527610137
 30
0.0
  0
SPLINE
  5
4A4
100
AcDbEntity
  8
0
100
AcDbSpline
 62
7
  6
CONTINUOUS
 70
0
 71
3
 72
18
 73
14
 74
0
 42
0.0000001
 43
0.0000001
 44
0.0000000001
 40
0.0
 40
0.0
 40
0.0
 40
0.0
 40
0.1687764049
 40
0.3366499041
 40
0.4971717344
 40
0.6442396758
 40
0.7723276466
 40
0.8277322966
 40
0.8766797838
 40
0.9187228007
 40
0.9534810315
 40
0.9806532783
 40
1.0
 40
1.0
 40
1.0
 40
1.0
 10
127.5025838728
 20
139.8679023382
 30
0.0
 10
126.9921993871
 20
139.8585986177
 30
0.0
 10
125.9741545824
 20
139.8403848896
 30
0.0
 10
124.4706853812
 20
139.8134350221
 30
0.0
 10
123.0328820609
 20
139.7866242275
 30
0.0
 10
121.7154305562
 20
139.7599847732
 30
0.0
 10
120.7158999784
 20
139.7370637629
 30
0.0
 10
120.0131289673
 20
139.7182507304
 30
0.0
 10
119.5705521917
 20
139.7048956478
 30
0.0
 10
119.1904530281
 20
139.6916144179
 30
0.0
 10
118.8762478503
 20
139.6784935371
 30
0.0
 10
118.630769497
 20
139.665501392
 30
0.0
 10
118.4903896022
 20
139.6555949602
 30
0.0
 10
118.4321466087
 20
139.6499621802
 30
0.0
  0
SPLINE
  5
4A5
100
AcDbEntity
  8
0
100
AcDbSpline
 62
7
  6
CONTINUOUS
 70
0
 71
3
 72
10
 73
6
 74
0
 42
0.0000001
 43
0.0000001
 44
0.0000000001
 40
0.0
 40
0.0
 40
0.0
 40
0.0
 40
0.2491739154
 40
0.4987551285
 40
1.0
 40
1.0
 40
1.0
 40
1.0
 10
123.074500258
 20
143.3499621802
 30
0.0
 10
122.8400143761
 20
143.3499621802
 30
0.0
 10
122.3704113373
 20
143.3302644581
 30
0.0
 10
121.4357023215
 20
143.2147815225
 30
0.0
 10
120.745812482
 20
143.0505359569
 30
0.0
 10
120.2934258255
 20
142.9169494783
 30
0.0
  0
SPLINE
  5
4A6
100
AcDbEntity
  8
0
100
AcDbSpline
 62
7
  6
CONTINUOUS
 70
0
 71
3
 72
9
 73
5
 74
0
 42
0.0000001
 43
0.0000001
 44
0.0000000001
 40
0.0
 40
0.0
 40
0.0
 40
0.0
 40
0.5003403138
 40
1.0
 40
1.0
 40
1.0
 40
1.0
 10
124.3438015207
 20
143.2557390912
 30
0.0
 10
124.1336298627
 20
143.2865530767
 30
0.0
 10
123.7113286379
 20
143.3338769375
 30
0.0
 10
123.2866298186
 20
143.3499621802
 30
0.0
 10
123.074500258
 20
143.3499621802
 30
0.0
  0
SPLINE
  5
4A7
100
AcDbEntity
  8
0
100
AcDbSpline
 62
7
  6
CONTINUOUS
 70
0
 71
3
 72
15
 73
11
 74
0
 42
0.0000001
 43
0.0000001
 44
0.0000000001
 40
0.0
 40
0.0
 40
0.0
 40
0.0
 40
0.1257074555
 40
0.2508731029
 40
0.375574375
 40
0.5000000233
 40
0.6244256674
 40
0.7491269306
 40
0.874292556
 40
1.0
 40
1.0
 40
1.0
 40
1.0
 10
130.3245002581
 20
150.4473971287
 30
0.0
 10
130.1623020924
 20
150.5014631839
 30
0.0
 10
129.8355477607
 20
150.6005629683
 30
0.0
 10
129.3372684811
 20
150.7151398545
 30
0.0
 10
128.8327508855
 20
150.7879477218
 30
0.0
 10
128.3245001694
 20
150.8130002077
 30
0.0
 10
127.8162494675
 20
150.7879476893
 30
0.0
 10
127.3117319211
 20
150.7151398202
 30
0.0
 10
126.8134526966
 20
150.6005629524
 30
0.0
 10
126.4866984091
 20
150.501463179
 30
0.0
 10
126.3245002581
 20
150.4473971287
 30
0.0
  0
LINE
  5
4A8
100
AcDbEntity
  8
0
100
AcDbLine
 62
7
  6
CONTINUOUS
 10
125.5312386171
 20
148.4499621802
 11
125.5390056936
 21
148.5242183558
  0
SPLINE
  5
4A9
100
AcDbEntity
  8
0
100
AcDbSpline
 62
7
  6
CONTINUOUS
 70
0
 71
3
 72
9
 73
5
 74
0
 42
0.0000001
 43
0.0000001
 44
0.0000000001
 40
0.0
 40
0.0
 40
0.0
 40
0.0
 40
0.253023751
 40
1.0
 40
1.0
 40
1.0
 40
1.0
 10
126.3245002581
 20
148.6499621802
 30
0.0
 10
126.3843106945
 20
148.6328295362
 30
0.0
 10
126.6209522113
 20
148.5660262391
 30
0.0
 10
126.8580801903
 20
148.5009368463
 30
0.0
 10
127.0345386199
 20
148.4499621802
 30
0.0
  0
SPLINE
  5
4AA
100
AcDbEntity
  8
0
100
AcDbSpline
 62
7
  6
CONTINUOUS
 70
0
 71
3
 72
11
 73
7
 74
0
 42
0.0000001
 43
0.0000001
 44
0.0000000001
 40
0.0
 40
0.0
 40
0.0
 40
0.0
 40
0.2514178059
 40
0.5017501979
 40
0.7511495642
 40
1.0
 40
1.0
 40
1.0
 40
1.0
 10
122.3245002581
 20
153.2926965903
 30
0.0
 10
122.4867003418
 20
153.3467632848
 30
0.0
 10
122.8134550821
 20
153.4458639982
 30
0.0
 10
123.3117457203
 20
153.5604392408
 30
0.0
 10
123.8162233089
 20
153.6332501594
 30
0.0
 10
124.1552722702
 20
153.6499621802
 30
0.0
 10
124.3245002588
 20
153.6499621802
 30
0.0
  0
SPLINE
  5
4AB
100
AcDbEntity
  8
0
100
AcDbSpline
 62
7
  6
CONTINUOUS
 70
0
 71
3
 72
11
 73
7
 74
0
 42
0.0000001
 43
0.0000001
 44
0.0000000001
 40
0.0
 40
0.0
 40
0.0
 40
0.0
 40
0.2488504827
 40
0.4982499007
 40
0.7485823605
 40
1.0
 40
1.0
 40
1.0
 40
1.0
 10
124.3245002588
 20
153.6499621802
 30
0.0
 10
124.4937282792
 20
153.6499621802
 30
0.0
 10
124.8327773093
 20
153.6332501711
 30
0.0
 10
125.3372550003
 20
153.5604391735
 30
0.0
 10
125.8355456112
 20
153.4458639602
 30
0.0
 10
126.162300282
 20
153.346763249
 30
0.0
 10
126.3245002581
 20
153.2926965903
 30
0.0
  0
SPLINE
  5
4AC
100
AcDbEntity
  8
0
100
AcDbSpline
 62
7
  6
CONTINUOUS
 70
0
 71
3
 72
15
 73
11
 74
0
 42
0.0000001
 43
0.0000001
 44
0.0000000001
 40
0.0
 40
0.0
 40
0.0
 40
0.0
 40
0.1257074555
 40
0.2508731029
 40
0.375574375
 40
0.5000000233
 40
0.6244256674
 40
0.7491269306
 40
0.874292556
 40
1.0
 40
1.0
 40
1.0
 40
1.0
 10
126.3245002581
 20
150.4473971287
 30
0.0
 10
126.1623020924
 20
150.5014631839
 30
0.0
 10
125.8355477607
 20
150.6005629683
 30
0.0
 10
125.3372684811
 20
150.7151398545
 30
0.0
 10
124.8327508855
 20
150.7879477218
 30
0.0
 10
124.3245001694
 20
150.8130002077
 30
0.0
 10
123.8162494675
 20
150.7879476893
 30
0.0
 10
123.3117319211
 20
150.7151398202
 30
0.0
 10
122.8134526966
 20
150.6005629524
 30
0.0
 10
122.4866984091
 20
150.501463179
 30
0.0
 10
122.3245002581
 20
150.4473971287
 30
0.0
  0
SPLINE
  5
4AD
100
AcDbEntity
  8
0
100
AcDbSpline
 62
7
  6
CONTINUOUS
 70
0
 71
3
 72
11
 73
7
 74
0
 42
0.0000001
 43
0.0000001
 44
0.0000000001
 40
0.0
 40
0.0
 40
0.0
 40
0.0
 40
0.2514175677
 40
0.5017500004
 40
0.7511494403
 40
1.0
 40
1.0
 40
1.0
 40
1.0
 10
126.3245002581
 20
153.2926965903
 30
0.0
 10
126.486700188
 20
153.3467632336
 30
0.0
 10
126.8134547927
 20
153.4458639321
 30
0.0
 10
127.3117453511
 20
153.5604391372
 30
0.0
 10
127.8162230857
 20
153.6332501797
 30
0.0
 10
128.1552721846
 20
153.6499621802
 30
0.0
 10
128.3245002574
 20
153.6499621802
 30
0.0
  0
SPLINE
  5
4AE
100
AcDbEntity
  8
0
100
AcDbSpline
 62
7
  6
CONTINUOUS
 70
0
 71
3
 72
11
 73
7
 74
0
 42
0.0000001
 43
0.0000001
 44
0.0000000001
 40
0.0
 40
0.0
 40
0.0
 40
0.0
 40
0.2488505601
 40
0.4982499613
 40
0.7485822917
 40
1.0
 40
1.0
 40
1.0
 40
1.0
 10
128.3245002574
 20
153.6499621802
 30
0.0
 10
128.4937283307
 20
153.6499621802
 30
0.0
 10
128.8327774031
 20
153.6332501769
 30
0.0
 10
129.3372550488
 20
153.5604391805
 30
0.0
 10
129.835545604
 20
153.4458639585
 30
0.0
 10
130.1623002373
 20
153.3467632639
 30
0.0
 10
130.3245002581
 20
153.2926965903
 30
0.0
  0
SPLINE
  5
4AF
100
AcDbEntity
  8
0
100
AcDbSpline
 62
7
  6
CONTINUOUS
 70
0
 71
3
 72
8
 73
4
 74
0
 42
0.0000001
 43
0.0000001
 44
0.0000000001
 40
0.0
 40
0.0
 40
0.0
 40
0.0
 40
1.0
 40
1.0
 40
1.0
 40
1.0
 10
160.8245002581
 20
163.7866372221
 30
0.0
 10
160.8245002581
 20
163.6742559892
 30
0.0
 10
160.8290866309
 20
163.5615673813
 30
0.0
 10
160.8422707351
 20
163.4499621802
 30
0.0
  0
SPLINE
  5
4B0
100
AcDbEntity
  8
0
100
AcDbSpline
 62
7
  6
CONTINUOUS
 70
0
 71
3
 72
8
 73
4
 74
0
 42
0.0000001
 43
0.0000001
 44
0.0000000001
 40
0.0
 40
0.0
 40
0.0
 40
0.0
 40
1.0
 40
1.0
 40
1.0
 40
1.0
 10
160.8422707351
 20
166.4499621802
 30
0.0
 10
160.8316906211
 20
166.3604001038
 30
0.0
 10
160.8266191785
 20
166.270127016
 30
0.0
 10
160.8250596347
 20
166.179955667
 30
0.0
  0
SPLINE
  5
4B1
100
AcDbEntity
  8
0
100
AcDbSpline
 62
7
  6
CONTINUOUS
 70
0
 71
3
 72
11
 73
7
 74
0
 42
0.0000001
 43
0.0000001
 44
0.0000000001
 40
0.0
 40
0.0
 40
0.0
 40
0.0
 40
0.2593954391
 40
0.5114645637
 40
0.7574772192
 40
1.0
 40
1.0
 40
1.0
 40
1.0
 10
157.3622091213
 20
69.278120369
 30
0.0
 10
157.2037054769
 20
68.9667632687
 30
0.0
 10
156.9149857153
 20
68.3401488377
 30
0.0
 10
156.5818063465
 20
67.3736630581
 30
0.0
 10
156.3723706237
 20
66.3956131603
 30
0.0
 10
156.3245002433
 20
65.736695087
 30
0.0
 10
156.3245002582
 20
65.4100405346
 30
0.0
  0
SPLINE
  5
4B2
100
AcDbEntity
  8
0
100
AcDbSpline
 62
7
  6
CONTINUOUS
 70
0
 71
3
 72
11
 73
7
 74
0
 42
0.0000001
 43
0.0000001
 44
0.0000000001
 40
0.0
 40
0.0
 40
0.0
 40
0.0
 40
0.2425227716
 40
0.4885354802
 40
0.7406046152
 40
1.0
 40
1.0
 40
1.0
 40
1.0
 10
156.3245002582
 20
65.4100405346
 30
0.0
 10
156.324500273
 20
65.0833894696
 30
0.0
 10
156.3723768423
 20
64.4244786863
 30
0.0
 10
156.581812465
 20
63.4464399215
 30
0.0
 10
156.9149903782
 20
62.4799650689
 30
0.0
 10
157.2037071963
 20
61.8533574951
 30
0.0
 10
157.3622091213
 20
61.5420037722
 30
0.0
  0
SPLINE
  5
4B3
100
AcDbEntity
  8
0
100
AcDbSpline
 62
7
  6
CONTINUOUS
 70
0
 71
3
 72
10
 73
6
 74
0
 42
0.0000001
 43
0.0000001
 44
0.0000000001
 40
0.0
 40
0.0
 40
0.0
 40
0.0
 40
0.4999061397
 40
0.7499530973
 40
1.0
 40
1.0
 40
1.0
 40
1.0
 10
157.3622091213
 20
86.7860787771
 30
0.0
 10
157.0406379347
 20
85.5227201634
 30
0.0
 10
156.6473659261
 20
83.6013524203
 30
0.0
 10
156.3715611842
 20
81.0066329633
 30
0.0
 10
156.3245002582
 20
79.7019849088
 30
0.0
 10
156.3245002582
 20
79.0499191081
 30
0.0
  0
SPLINE
  5
4B4
100
AcDbEntity
  8
0
100
AcDbSpline
 62
7
  6
CONTINUOUS
 70
0
 71
3
 72
10
 73
6
 74
0
 42
0.0000001
 43
0.0000001
 44
0.0000000001
 40
0.0
 40
0.0
 40
0.0
 40
0.0
 40
0.2500469099
 40
0.5000938735
 40
1.0
 40
1.0
 40
1.0
 40
1.0
 10
156.3245002582
 20
79.0499191081
 30
0.0
 10
156.3245002582
 20
78.3978604605
 30
0.0
 10
156.3715673274
 20
77.0932268869
 30
0.0
 10
156.6473721784
 20
74.4985365075
 30
0.0
 10
157.0406414799
 20
72.5771902689
 30
0.0
 10
157.3622091213
 20
71.3138455834
 30
0.0
  0
SPLINE
  5
4B5
100
AcDbEntity
  8
0
100
AcDbSpline
 62
7
  6
CONTINUOUS
 70
0
 71
3
 72
11
 73
7
 74
0
 42
0.0000001
 43
0.0000001
 44
0.0000000001
 40
0.0
 40
0.0
 40
0.0
 40
0.0
 40
0.2593954391
 40
0.5114645637
 40
0.7574772192
 40
1.0
 40
1.0
 40
1.0
 40
1.0
 10
157.3622091213
 20
96.5579205882
 30
0.0
 10
157.2037054769
 20
96.2465634879
 30
0.0
 10
156.9149857146
 20
95.619949057
 30
0.0
 10
156.5818063488
 20
94.6534632773
 30
0.0
 10
156.3723706162
 20
93.6754133796
 30
0.0
 10
156.3245002582
 20
93.0164953062
 30
0.0
 10
156.3245002582
 20
92.6898407538
 30
0.0
  0
SPLINE
  5
4B6
100
AcDbEntity
  8
0
100
AcDbSpline
 62
7
  6
CONTINUOUS
 70
0
 71
3
 72
11
 73
7
 74
0
 42
0.0000001
 43
0.0000001
 44
0.0000000001
 40
0.0
 40
0.0
 40
0.0
 40
0.0
 40
0.2425227716
 40
0.4885354802
 40
0.7406046152
 40
1.0
 40
1.0
 40
1.0
 40
1.0
 10
156.3245002582
 20
92.6898407538
 30
0.0
 10
156.3245002582
 20
92.3631896888
 30
0.0
 10
156.3723768498
 20
91.7042789056
 30
0.0
 10
156.5818124628
 20
90.7262401407
 30
0.0
 10
156.9149903789
 20
89.7597652882
 30
0.0
 10
157.2037071963
 20
89.1331577143
 30
0.0
 10
157.3622091213
 20
88.8218039914
 30
0.0
  0
SPLINE
  5
4B7
100
AcDbEntity
  8
0
100
AcDbSpline
 62
7
  6
CONTINUOUS
 70
0
 71
3
 72
11
 73
7
 74
0
 42
0.0000001
 43
0.0000001
 44
0.0000000001
 40
0.0
 40
0.0
 40
0.0
 40
0.0
 40
0.0957989484
 40
0.2979289133
 40
0.601883564
 40
1.0
 40
1.0
 40
1.0
 40
1.0
 10
165.9099920986
 20
96.4743950792
 30
0.0
 10
165.9099921328
 20
96.4734587824
 30
0.0
 10
165.9112649174
 20
96.4707127452
 30
0.0
 10
165.9134908692
 20
96.4653600852
 30
0.0
 10
165.9174732225
 20
96.457416284
 30
0.0
 10
165.9205620564
 20
96.4513057272
 30
0.0
 10
165.9223476945
 20
96.4478486341
 30
0.0
  0
SPLINE
  5
4B8
100
AcDbEntity
  8
0
100
AcDbSpline
 62
7
  6
CONTINUOUS
 70
0
 71
3
 72
11
 73
7
 74
0
 42
0.0000001
 43
0.0000001
 44
0.0000000001
 40
0.0
 40
0.0
 40
0.0
 40
0.0
 40
0.098891379
 40
0.300831928
 40
0.6027826149
 40
1.0
 40
1.0
 40
1.0
 40
1.0
 10
165.6501844775
 20
96.6241753047
 30
0.0
 10
165.6501846946
 20
96.6219530062
 30
0.0
 10
165.6513990217
 20
96.6152561523
 30
0.0
 10
165.6536379768
 20
96.6019304954
 30
0.0
 10
165.6576134395
 20
96.5820550956
 30
0.0
 10
165.6607329434
 20
96.566662063
 30
0.0
 10
165.6625400733
 20
96.5579205882
 30
0.0
  0
SPLINE
  5
4B9
100
AcDbEntity
  8
0
100
AcDbSpline
 62
7
  6
CONTINUOUS
 70
0
 71
3
 72
15
 73
11
 74
0
 42
0.0000001
 43
0.0000001
 44
0.0000000001
 40
0.0
 40
0.0
 40
0.0
 40
0.0
 40
0.1291678258
 40
0.2547093589
 40
0.3773358393
 40
0.4984123928
 40
0.6197401074
 40
0.7430670103
 40
0.8696312407
 40
1.0
 40
1.0
 40
1.0
 40
1.0
 10
165.9223476945
 20
96.4478486341
 30
0.0
 10
166.0835285028
 20
96.1357940509
 30
0.0
 10
166.3772584555
 20
95.5073903043
 30
0.0
 10
166.7163516629
 20
94.5368157996
 30
0.0
 10
166.9294910637
 20
93.5526577351
 30
0.0
 10
167.0022824804
 20
92.5592695749
 30
0.0
 10
166.9292107404
 20
91.5640175553
 30
0.0
 10
166.7159973799
 20
90.5744397234
 30
0.0
 10
166.3770260584
 20
89.595455364
 30
0.0
 10
166.083494682
 20
88.9603154979
 30
0.0
 10
165.9223476945
 20
88.6445728042
 30
0.0
  0
SPLINE
  5
4BA
100
AcDbEntity
  8
0
100
AcDbSpline
 62
7
  6
CONTINUOUS
 70
0
 71
3
 72
15
 73
11
 74
0
 42
0.0000001
 43
0.0000001
 44
0.0000000001
 40
0.0
 40
0.0
 40
0.0
 40
0.0
 40
0.1298253766
 40
0.2559011901
 40
0.3788549708
 40
0.4999997997
 40
0.6211449
 40
0.7440986001
 40
0.8701744191
 40
1.0
 40
1.0
 40
1.0
 40
1.0
 10
165.6625400733
 20
96.5579205882
 30
0.0
 10
165.8233763108
 20
96.2468187277
 30
0.0
 10
166.1166239477
 20
95.6207134236
 30
0.0
 10
166.4557993017
 20
94.6544539461
 30
0.0
 10
166.6693959012
 20
93.6759624136
 30
0.0
 10
166.7425443535
 20
92.6898631173
 30
0.0
 10
166.6693966915
 20
91.7037639319
 30
0.0
 10
166.4558001171
 20
90.7252718697
 30
0.0
 10
166.1166251218
 20
89.7590118368
 30
0.0
 10
165.823376222
 20
89.1329065182
 30
0.0
 10
165.6625400733
 20
88.8218039914
 30
0.0
  0
SPLINE
  5
4BB
100
AcDbEntity
  8
0
100
AcDbSpline
 62
7
  6
CONTINUOUS
 70
0
 71
3
 72
10
 73
6
 74
0
 42
0.0000001
 43
0.0000001
 44
0.0000000001
 40
0.0
 40
0.0
 40
0.0
 40
0.0
 40
0.2360160779
 40
0.4803845336
 40
1.0
 40
1.0
 40
1.0
 40
1.0
 10
165.9223474783
 20
96.4478485095
 30
0.0
 10
165.9103251154
 20
96.4678102109
 30
0.0
 10
165.8787082894
 20
96.5045261744
 30
0.0
 10
165.7932124306
 20
96.5563285067
 30
0.0
 10
165.7134199026
 20
96.5644966604
 30
0.0
 10
165.6625400733
 20
96.5579205882
 30
0.0
  0
SPLINE
  5
4BC
100
AcDbEntity
  8
0
100
AcDbSpline
 62
7
  6
CONTINUOUS
 70
0
 71
3
 72
9
 73
5
 74
0
 42
0.0000001
 43
0.0000001
 44
0.0000000001
 40
0.0
 40
0.0
 40
0.0
 40
0.0
 40
0.210308983
 40
1.0
 40
1.0
 40
1.0
 40
1.0
 10
165.9223476945
 20
88.6445728042
 30
0.0
 10
165.9202392759
 20
88.6404416849
 30
0.0
 10
165.9120259595
 20
88.6198716959
 30
0.0
 10
165.9099922783
 20
88.5973523958
 30
0.0
 10
165.9099920986
 20
88.5799369145
 30
0.0
  0
SPLINE
  5
4BD
100
AcDbEntity
  8
0
100
AcDbSpline
 62
7
  6
CONTINUOUS
 70
0
 71
3
 72
9
 73
5
 74
0
 42
0.0000001
 43
0.0000001
 44
0.0000000001
 40
0.0
 40
0.0
 40
0.0
 40
0.0
 40
0.4390517103
 40
1.0
 40
1.0
 40
1.0
 40
1.0
 10
165.6625400733
 20
88.8218039914
 30
0.0
 10
165.6577776525
 20
88.7987865765
 30
0.0
 10
165.6517076976
 20
88.745421701
 30
0.0
 10
165.6501853206
 20
88.6918872222
 30
0.0
 10
165.6501844775
 20
88.6618564681
 30
0.0
  0
SPLINE
  5
4BE
100
AcDbEntity
  8
0
100
AcDbSpline
 62
7
  6
CONTINUOUS
 70
0
 71
3
 72
9
 73
5
 74
0
 42
0.0000001
 43
0.0000001
 44
0.0000000001
 40
0.0
 40
0.0
 40
0.0
 40
0.0
 40
0.4942739266
 40
1.0
 40
1.0
 40
1.0
 40
1.0
 10
165.9223476938
 20
88.644572804
 30
0.0
 10
165.8977219956
 20
88.6918263882
 30
0.0
 10
165.8212896663
 20
88.7746135406
 30
0.0
 10
165.7166102517
 20
88.814815396
 30
0.0
 10
165.6625400733
 20
88.8218038574
 30
0.0
  0
SPLINE
  5
4BF
100
AcDbEntity
  8
0
100
AcDbSpline
 62
7
  6
CONTINUOUS
 70
0
 71
3
 72
10
 73
6
 74
0
 42
0.0000001
 43
0.0000001
 44
0.0000000001
 40
0.0
 40
0.0
 40
0.0
 40
0.0
 40
0.2108085873
 40
0.453649774
 40
1.0
 40
1.0
 40
1.0
 40
1.0
 10
165.9099920986
 20
88.5799369145
 30
0.0
 10
165.8958269477
 20
88.5933360924
 30
0.0
 10
165.8606876576
 20
88.6172904703
 30
0.0
 10
165.7746447912
 20
88.6522008624
 30
0.0
 10
165.7007183836
 20
88.6618564681
 30
0.0
 10
165.6501844775
 20
88.6618564681
 30
0.0
  0
SPLINE
  5
4C0
100
AcDbEntity
  8
0
100
AcDbSpline
 62
7
  6
CONTINUOUS
 70
0
 71
3
 72
9
 73
5
 74
0
 42
0.0000001
 43
0.0000001
 44
0.0000000001
 40
0.0
 40
0.0
 40
0.0
 40
0.0
 40
0.2379054
 40
1.0
 40
1.0
 40
1.0
 40
1.0
 10
165.9099920986
 20
86.9444203448
 30
0.0
 10
165.9099921148
 20
86.9371123654
 30
0.0
 10
165.9111807288
 20
86.9063978025
 30
0.0
 10
165.9165269134
 20
86.8759128384
 30
0.0
 10
165.9223476945
 20
86.8532380101
 30
0.0
  0
SPLINE
  5
4C1
100
AcDbEntity
  8
0
100
AcDbSpline
 62
7
  6
CONTINUOUS
 70
0
 71
3
 72
9
 73
5
 74
0
 42
0.0000001
 43
0.0000001
 44
0.0000000001
 40
0.0
 40
0.0
 40
0.0
 40
0.0
 40
0.2377408785
 40
1.0
 40
1.0
 40
1.0
 40
1.0
 10
165.6501844775
 20
87.0122810167
 30
0.0
 10
165.6501845839
 20
86.99432399
 30
0.0
 10
165.6513550891
 20
86.9187941807
 30
0.0
 10
165.6566204706
 20
86.843348555
 30
0.0
 10
165.6625400733
 20
86.7860787771
 30
0.0
  0
SPLINE
  5
4C2
100
AcDbEntity
  8
0
100
AcDbSpline
 62
7
  6
CONTINUOUS
 70
0
 71
3
 72
10
 73
6
 74
0
 42
0.0000001
 43
0.0000001
 44
0.0000000001
 40
0.0
 40
0.0
 40
0.0
 40
0.0
 40
0.2032447928
 40
0.4449065796
 40
1.0
 40
1.0
 40
1.0
 40
1.0
 10
165.9099920986
 20
86.9444203448
 30
0.0
 10
165.8954759762
 20
86.9557949994
 30
0.0
 10
165.8598191556
 20
86.9757086234
 30
0.0
 10
165.773534724
 20
87.0045389492
 30
0.0
 10
165.7005519707
 20
87.0122810199
 30
0.0
 10
165.6501844775
 20
87.0122810167
 30
0.0
  0
SPLINE
  5
4C3
100
AcDbEntity
  8
0
100
AcDbSpline
 62
7
  6
CONTINUOUS
 70
0
 71
3
 72
13
 73
9
 74
0
 42
0.0000001
 43
0.0000001
 44
0.0000000001
 40
0.0
 40
0.0
 40
0.0
 40
0.0
 40
0.2499524158
 40
0.3749764843
 40
0.4999999981
 40
0.625023512
 40
0.7500475813
 40
1.0
 40
1.0
 40
1.0
 40
1.0
 10
165.9223476945
 20
86.8532380101
 30
0.0
 10
166.2493733579
 20
85.5793438357
 30
0.0
 10
166.649511917
 20
83.6415850961
 30
0.0
 10
166.9301890377
 20
81.0239724071
 30
0.0
 10
167.0020405393
 20
79.0499621991
 30
0.0
 10
166.9301891305
 20
77.0759519916
 30
0.0
 10
166.6495122035
 20
74.4583392366
 30
0.0
 10
166.2493729012
 20
72.5205806579
 30
0.0
 10
165.9223476945
 20
71.2466863503
 30
0.0
  0
SPLINE
  5
4C4
100
AcDbEntity
  8
0
100
AcDbSpline
 62
7
  6
CONTINUOUS
 70
0
 71
3
 72
13
 73
9
 74
0
 42
0.0000001
 43
0.0000001
 44
0.0000000001
 40
0.0
 40
0.0
 40
0.0
 40
0.0
 40
0.2499526532
 40
0.3749767102
 40
0.5000000013
 40
0.625023292
 40
0.7500473493
 40
1.0
 40
1.0
 40
1.0
 40
1.0
 10
165.6625400733
 20
86.7860787771
 30
0.0
 10
165.9889224447
 20
85.5234506521
 30
0.0
 10
166.3890622866
 20
83.6026634117
 30
0.0
 10
166.6702562387
 20
81.0073606885
 30
0.0
 10
166.742295391
 20
79.0499621248
 30
0.0
 10
166.6702565985
 20
77.092563559
 30
0.0
 10
166.389063127
 20
74.4972607474
 30
0.0
 10
165.9889217767
 20
72.5764738677
 30
0.0
 10
165.6625400733
 20
71.3138455834
 30
0.0
  0
SPLINE
  5
4C5
100
AcDbEntity
  8
0
100
AcDbSpline
 62
7
  6
CONTINUOUS
 70
0
 71
3
 72
9
 73
5
 74
0
 42
0.0000001
 43
0.0000001
 44
0.0000000001
 40
0.0
 40
0.0
 40
0.0
 40
0.0
 40
0.2590401723
 40
1.0
 40
1.0
 40
1.0
 40
1.0
 10
165.9223476945
 20
71.2466863503
 30
0.0
 10
165.9203693777
 20
71.2389800274
 30
0.0
 10
165.9135569551
 20
71.2090369446
 30
0.0
 10
165.9099923194
 20
71.1782619764
 30
0.0
 10
165.9099920986
 20
71.1555040156
 30
0.0
  0
SPLINE
  5
4C6
100
AcDbEntity
  8
0
100
AcDbSpline
 62
7
  6
CONTINUOUS
 70
0
 71
3
 72
9
 73
5
 74
0
 42
0.0000001
 43
0.0000001
 44
0.0000000001
 40
0.0
 40
0.0
 40
0.0
 40
0.0
 40
0.2588604451
 40
1.0
 40
1.0
 40
1.0
 40
1.0
 10
165.6625400733
 20
71.3138455834
 30
0.0
 10
165.660528091
 20
71.2943974435
 30
0.0
 10
165.6536621536
 20
71.2191808152
 30
0.0
 10
165.6501859542
 20
71.1436222068
 30
0.0
 10
165.6501844775
 20
71.0876433437
 30
0.0
  0
SPLINE
  5
4C7
100
AcDbEntity
  8
0
100
AcDbSpline
 62
7
  6
CONTINUOUS
 70
0
 71
3
 72
10
 73
6
 74
0
 42
0.0000001
 43
0.0000001
 44
0.0000000001
 40
0.0
 40
0.0
 40
0.0
 40
0.0
 40
0.2032447879
 40
0.4449065759
 40
1.0
 40
1.0
 40
1.0
 40
1.0
 10
165.9099920986
 20
71.1555040156
 30
0.0
 10
165.8954759758
 20
71.1441293625
 30
0.0
 10
165.8598191545
 20
71.124215741
 30
0.0
 10
165.7735347232
 20
71.0953854169
 30
0.0
 10
165.7005519707
 20
71.0876433437
 30
0.0
 10
165.6501844775
 20
71.0876433437
 30
0.0
  0
SPLINE
  5
4C8
100
AcDbEntity
  8
0
100
AcDbSpline
 62
7
  6
CONTINUOUS
 70
0
 71
3
 72
9
 73
5
 74
0
 42
0.0000001
 43
0.0000001
 44
0.0000000001
 40
0.0
 40
0.0
 40
0.0
 40
0.0
 40
0.2909817592
 40
1.0
 40
1.0
 40
1.0
 40
1.0
 10
165.9099920986
 20
69.5199874459
 30
0.0
 10
165.9099921137
 20
69.513576215
 30
0.0
 10
165.9108548567
 20
69.4916335902
 30
0.0
 10
165.9152464105
 20
69.4692661039
 30
0.0
 10
165.9223476945
 20
69.4553515562
 30
0.0
  0
SPLINE
  5
4C9
100
AcDbEntity
  8
0
100
AcDbSpline
 62
7
  6
CONTINUOUS
 70
0
 71
3
 72
9
 73
5
 74
0
 42
0.0000001
 43
0.0000001
 44
0.0000000001
 40
0.0
 40
0.0
 40
0.0
 40
0.0
 40
0.560948867
 40
1.0
 40
1.0
 40
1.0
 40
1.0
 10
165.6501844775
 20
69.4380678923
 30
0.0
 10
165.6501846669
 20
69.408037084
 30
0.0
 10
165.6517027743
 20
69.3545018625
 30
0.0
 10
165.6577816681
 20
69.3011386014
 30
0.0
 10
165.6625400733
 20
69.278120369
 30
0.0
  0
SPLINE
  5
4CA
100
AcDbEntity
  8
0
100
AcDbSpline
 62
7
  6
CONTINUOUS
 70
0
 71
3
 72
10
 73
6
 74
0
 42
0.0000001
 43
0.0000001
 44
0.0000000001
 40
0.0
 40
0.0
 40
0.0
 40
0.0
 40
0.2108085805
 40
0.453649766
 40
1.0
 40
1.0
 40
1.0
 40
1.0
 10
165.9099920986
 20
69.5199874459
 30
0.0
 10
165.8958269474
 20
69.5065882695
 30
0.0
 10
165.8606876571
 20
69.4826338939
 30
0.0
 10
165.7746447909
 20
69.4477235034
 30
0.0
 10
165.700718384
 20
69.4380678953
 30
0.0
 10
165.6501844775
 20
69.4380678923
 30
0.0
  0
SPLINE
  5
4CB
100
AcDbEntity
  8
0
100
AcDbSpline
 62
7
  6
CONTINUOUS
 70
0
 71
3
 72
15
 73
11
 74
0
 42
0.0000001
 43
0.0000001
 44
0.0000000001
 40
0.0
 40
0.0
 40
0.0
 40
0.0
 40
0.1303687677
 40
0.2569330051
 40
0.3802598994
 40
0.5015875907
 40
0.622664133
 40
0.7452906011
 40
0.870832151
 40
1.0
 40
1.0
 40
1.0
 40
1.0
 10
165.9223476945
 20
69.4553515562
 30
0.0
 10
166.0834949163
 20
69.1396089579
 30
0.0
 10
166.3770258333
 20
68.5044688182
 30
0.0
 10
166.7159972452
 20
67.5254845022
 30
0.0
 10
166.9292105848
 20
66.5359067345
 30
0.0
 10
167.0022825045
 20
65.5406548561
 30
0.0
 10
166.9294911766
 20
64.5472668112
 30
0.0
 10
166.7163517917
 20
63.5631087714
 30
0.0
 10
166.3772586155
 20
62.5925341615
 30
0.0
 10
166.0835283629
 20
61.9641304512
 30
0.0
 10
165.9223476945
 20
61.6520757263
 30
0.0
  0
SPLINE
  5
4CC
100
AcDbEntity
  8
0
100
AcDbSpline
 62
7
  6
CONTINUOUS
 70
0
 71
3
 72
15
 73
11
 74
0
 42
0.0000001
 43
0.0000001
 44
0.0000000001
 40
0.0
 40
0.0
 40
0.0
 40
0.0
 40
0.1298255657
 40
0.2559013832
 40
0.3788550807
 40
0.5000001809
 40
0.6211450128
 40
0.7440987854
 40
0.870174609
 40
1.0
 40
1.0
 40
1.0
 40
1.0
 10
165.6625400733
 20
69.278120369
 30
0.0
 10
165.8233764802
 20
68.967018022
 30
0.0
 10
166.1166245589
 20
68.3409123456
 30
0.0
 10
166.4557996392
 20
67.3746524402
 30
0.0
 10
166.6693962065
 20
66.3961603901
 30
0.0
 10
166.7425444244
 20
65.4100612602
 30
0.0
 10
166.6693962844
 20
64.423961934
 30
0.0
 10
166.4557998422
 20
63.445470362
 30
0.0
 10
166.1166245075
 20
62.4792107767
 30
0.0
 10
165.8233760359
 20
61.8531058186
 30
0.0
 10
165.6625400733
 20
61.5420037722
 30
0.0
  0
SPLINE
  5
4CD
100
AcDbEntity
  8
0
100
AcDbSpline
 62
7
  6
CONTINUOUS
 70
0
 71
3
 72
9
 73
5
 74
0
 42
0.0000001
 43
0.0000001
 44
0.0000000001
 40
0.0
 40
0.0
 40
0.0
 40
0.0
 40
0.4942739063
 40
1.0
 40
1.0
 40
1.0
 40
1.0
 10
165.9223474662
 20
69.4553516288
 30
0.0
 10
165.897721818
 20
69.408098034
 30
0.0
 10
165.8212895966
 20
69.3253108164
 30
0.0
 10
165.716610236
 20
69.2851088765
 30
0.0
 10
165.6625400733
 20
69.278120369
 30
0.0
  0
SPLINE
  5
4CE
100
AcDbEntity
  8
0
100
AcDbSpline
 62
7
  6
CONTINUOUS
 70
0
 71
3
 72
11
 73
7
 74
0
 42
0.0000001
 43
0.0000001
 44
0.0000000001
 40
0.0
 40
0.0
 40
0.0
 40
0.0
 40
0.3981140522
 40
0.702071968
 40
0.9042057167
 40
1.0
 40
1.0
 40
1.0
 40
1.0
 10
165.9223476945
 20
61.6520757263
 30
0.0
 10
165.9205620624
 20
61.648618656
 30
0.0
 10
165.9174732062
 20
61.6425080848
 30
0.0
 10
165.9134909375
 20
61.6345642379
 30
0.0
 10
165.911264737
 20
61.629211579
 30
0.0
 10
165.9099922488
 20
61.6264655325
 30
0.0
 10
165.9099920986
 20
61.6255292813
 30
0.0
  0
SPLINE
  5
4CF
100
AcDbEntity
  8
0
100
AcDbSpline
 62
7
  6
CONTINUOUS
 70
0
 71
3
 72
11
 73
7
 74
0
 42
0.0000001
 43
0.0000001
 44
0.0000000001
 40
0.0
 40
0.0
 40
0.0
 40
0.0
 40
0.3972162082
 40
0.6991660565
 40
0.9011093959
 40
1.0
 40
1.0
 40
1.0
 40
1.0
 10
165.6625400733
 20
61.5420037722
 30
0.0
 10
165.6607314898
 20
61.5332626294
 30
0.0
 10
165.657614525
 20
61.5178690815
 30
0.0
 10
165.6536403401
 20
61.4979935644
 30
0.0
 10
165.6513980982
 20
61.4846682679
 30
0.0
 10
165.6501854445
 20
61.4779713356
 30
0.0
 10
165.6501844775
 20
61.4757490558
 30
0.0
  0
SPLINE
  5
4D0
100
AcDbEntity
  8
0
100
AcDbSpline
 62
7
  6
CONTINUOUS
 70
0
 71
3
 72
10
 73
6
 74
0
 42
0.0000001
 43
0.0000001
 44
0.0000000001
 40
0.0
 40
0.0
 40
0.0
 40
0.0
 40
0.2360161396
 40
0.4803846099
 40
1.0
 40
1.0
 40
1.0
 40
1.0
 10
165.9223476938
 20
61.6520757267
 30
0.0
 10
165.9103253112
 20
61.6321140178
 30
0.0
 10
165.8787084396
 20
61.595398052
 30
0.0
 10
165.7932124853
 20
61.5435957832
 30
0.0
 10
165.7134199071
 20
61.5354277479
 30
0.0
 10
165.6625400733
 20
61.5420039067
 30
0.0
  0
SPLINE
  5
4D1
100
AcDbEntity
  8
0
100
AcDbSpline
 62
7
  6
CONTINUOUS
 70
0
 71
3
 72
11
 73
7
 74
0
 42
0.0000001
 43
0.0000001
 44
0.0000000001
 40
0.0
 40
0.0
 40
0.0
 40
0.0
 40
0.3979566358
 40
0.7020506226
 40
0.9042268266
 40
1.0
 40
1.0
 40
1.0
 40
1.0
 10
157.3622091213
 20
61.5420037722
 30
0.0
 10
157.3666015561
 20
61.5333754799
 30
0.0
 10
157.3741996177
 20
61.5181184975
 30
0.0
 10
157.3839946095
 20
61.4982874533
 30
0.0
 10
157.389465309
 20
61.4849245476
 30
0.0
 10
157.3925982561
 20
61.4780791458
 30
0.0
 10
157.3925982561
 20
61.4757490558
 30
0.0
  0
SPLINE
  5
4D2
100
AcDbEntity
  8
0
100
AcDbSpline
 62
7
  6
CONTINUOUS
 70
0
 71
3
 72
9
 73
5
 74
0
 42
0.0000001
 43
0.0000001
 44
0.0000000001
 40
0.0
 40
0.0
 40
0.0
 40
0.0
 40
0.2589629126
 40
1.0
 40
1.0
 40
1.0
 40
1.0
 10
157.3622091213
 20
71.3138455834
 30
0.0
 10
157.3670754832
 20
71.2947270787
 30
0.0
 10
157.3838304201
 20
71.2204258476
 30
0.0
 10
157.3925982561
 20
71.1440964784
 30
0.0
 10
157.3925982561
 20
71.0876433437
 30
0.0
  0
SPLINE
  5
4D3
100
AcDbEntity
  8
0
100
AcDbSpline
 62
7
  6
CONTINUOUS
 70
0
 71
3
 72
9
 73
5
 74
0
 42
0.0000001
 43
0.0000001
 44
0.0000000001
 40
0.0
 40
0.0
 40
0.0
 40
0.0
 40
0.5548312282
 40
1.0
 40
1.0
 40
1.0
 40
1.0
 10
157.3925982561
 20
69.4380678923
 30
0.0
 10
157.3925982562
 20
69.4077622795
 30
0.0
 10
157.388834081
 20
69.3530312625
 30
0.0
 10
157.3732404444
 20
69.299789781
 30
0.0
 10
157.3622091213
 20
69.278120369
 30
0.0
  0
SPLINE
  5
4D4
100
AcDbEntity
  8
0
100
AcDbSpline
 62
7
  6
CONTINUOUS
 70
0
 71
3
 72
9
 73
5
 74
0
 42
0.0000001
 43
0.0000001
 44
0.0000000001
 40
0.0
 40
0.0
 40
0.0
 40
0.0
 40
0.4451711475
 40
1.0
 40
1.0
 40
1.0
 40
1.0
 10
157.3622091213
 20
88.8218039914
 30
0.0
 10
157.3732405029
 20
88.8001344645
 30
0.0
 10
157.3888340532
 20
88.7468929523
 30
0.0
 10
157.3925982561
 20
88.6921619501
 30
0.0
 10
157.3925982561
 20
88.6618564681
 30
0.0
  0
SPLINE
  5
4D5
100
AcDbEntity
  8
0
100
AcDbSpline
 62
7
  6
CONTINUOUS
 70
0
 71
3
 72
9
 73
5
 74
0
 42
0.0000001
 43
0.0000001
 44
0.0000000001
 40
0.0
 40
0.0
 40
0.0
 40
0.0
 40
0.2378499264
 40
1.0
 40
1.0
 40
1.0
 40
1.0
 10
157.3925982565
 20
87.0122810167
 30
0.0
 10
157.3925982565
 20
86.9941591015
 30
0.0
 10
157.3896708352
 20
86.9179773315
 30
0.0
 10
157.3765329884
 20
86.8423530381
 30
0.0
 10
157.3622091213
 20
86.7860787771
 30
0.0
  0
SPLINE
  5
4D6
100
AcDbEntity
  8
0
100
AcDbSpline
 62
7
  6
CONTINUOUS
 70
0
 71
3
 72
11
 73
7
 74
0
 42
0.0000001
 43
0.0000001
 44
0.0000000001
 40
0.0
 40
0.0
 40
0.0
 40
0.0
 40
0.0957749074
 40
0.2979511948
 40
0.602043981
 40
1.0
 40
1.0
 40
1.0
 40
1.0
 10
157.3925982561
 20
96.6241753047
 30
0.0
 10
157.3925982562
 20
96.6218451724
 30
0.0
 10
157.3894652518
 20
96.6149997396
 30
0.0
 10
157.3839945805
 20
96.6016368087
 30
0.0
 10
157.3741995851
 20
96.5818058118
 30
0.0
 10
157.3666015492
 20
96.566548867
 30
0.0
 10
157.3622091213
 20
96.5579205882
 30
0.0
  0
SPLINE
  5
4D7
100
AcDbEntity
  8
0
100
AcDbSpline
 62
7
  6
CONTINUOUS
 70
0
 71
3
 72
10
 73
6
 74
0
 42
0.0000001
 43
0.0000001
 44
0.0000000001
 40
0.0
 40
0.0
 40
0.0
 40
0.0
 40
0.4999061397
 40
0.7499530973
 40
1.0
 40
1.0
 40
1.0
 40
1.0
 10
95.286791395
 20
71.3138455834
 30
0.0
 10
95.6083625816
 20
72.577204197
 30
0.0
 10
96.0016345902
 20
74.4985719402
 30
0.0
 10
96.2774393321
 20
77.0932913971
 30
0.0
 10
96.3245002581
 20
78.3979394517
 30
0.0
 10
96.3245002581
 20
79.0500052523
 30
0.0
  0
SPLINE
  5
4D8
100
AcDbEntity
  8
0
100
AcDbSpline
 62
7
  6
CONTINUOUS
 70
0
 71
3
 72
10
 73
6
 74
0
 42
0.0000001
 43
0.0000001
 44
0.0000000001
 40
0.0
 40
0.0
 40
0.0
 40
0.0
 40
0.2500469099
 40
0.5000938735
 40
1.0
 40
1.0
 40
1.0
 40
1.0
 10
96.3245002581
 20
79.0500052523
 30
0.0
 10
96.3245002581
 20
79.7020638999
 30
0.0
 10
96.2774331888
 20
81.0066974735
 30
0.0
 10
96.0016283379
 20
83.6013878529
 30
0.0
 10
95.6083590364
 20
85.5227340915
 30
0.0
 10
95.286791395
 20
86.7860787771
 30
0.0
  0
SPLINE
  5
4D9
100
AcDbEntity
  8
0
100
AcDbSpline
 62
7
  6
CONTINUOUS
 70
0
 71
3
 72
11
 73
7
 74
0
 42
0.0000001
 43
0.0000001
 44
0.0000000001
 40
0.0
 40
0.0
 40
0.0
 40
0.0
 40
0.2593954391
 40
0.5114645637
 40
0.7574772192
 40
1.0
 40
1.0
 40
1.0
 40
1.0
 10
95.286791395
 20
61.5420037722
 30
0.0
 10
95.4452950394
 20
61.8533608725
 30
0.0
 10
95.7340148017
 20
62.4799753034
 30
0.0
 10
96.0671941675
 20
63.4464610832
 30
0.0
 10
96.2766299001
 20
64.4245109808
 30
0.0
 10
96.3245002581
 20
65.0834290542
 30
0.0
 10
96.3245002581
 20
65.4100836066
 30
0.0
  0
SPLINE
  5
4DA
100
AcDbEntity
  8
0
100
AcDbSpline
 62
7
  6
CONTINUOUS
 70
0
 71
3
 72
11
 73
7
 74
0
 42
0.0000001
 43
0.0000001
 44
0.0000000001
 40
0.0
 40
0.0
 40
0.0
 40
0.0
 40
0.2425227716
 40
0.4885354802
 40
0.7406046152
 40
1.0
 40
1.0
 40
1.0
 40
1.0
 10
96.3245002581
 20
65.4100836066
 30
0.0
 10
96.3245002581
 20
65.7367346716
 30
0.0
 10
96.2766236665
 20
66.3956454548
 30
0.0
 10
96.0671880535
 20
67.3736842197
 30
0.0
 10
95.7340101374
 20
68.3401590722
 30
0.0
 10
95.44529332
 20
68.9667666461
 30
0.0
 10
95.286791395
 20
69.278120369
 30
0.0
  0
SPLINE
  5
4DB
100
AcDbEntity
  8
0
100
AcDbSpline
 62
7
  6
CONTINUOUS
 70
0
 71
3
 72
11
 73
7
 74
0
 42
0.0000001
 43
0.0000001
 44
0.0000000001
 40
0.0
 40
0.0
 40
0.0
 40
0.0
 40
0.2593954391
 40
0.5114645637
 40
0.7574772192
 40
1.0
 40
1.0
 40
1.0
 40
1.0
 10
95.286791395
 20
88.8218039914
 30
0.0
 10
95.4452950394
 20
89.1331610917
 30
0.0
 10
95.7340148017
 20
89.7597755226
 30
0.0
 10
96.0671941675
 20
90.7262613024
 30
0.0
 10
96.2766299001
 20
91.7043112
 30
0.0
 10
96.3245002581
 20
92.3632292735
 30
0.0
 10
96.3245002581
 20
92.6898838258
 30
0.0
  0
SPLINE
  5
4DC
100
AcDbEntity
  8
0
100
AcDbSpline
 62
7
  6
CONTINUOUS
 70
0
 71
3
 72
11
 73
7
 74
0
 42
0.0000001
 43
0.0000001
 44
0.0000000001
 40
0.0
 40
0.0
 40
0.0
 40
0.0
 40
0.2425227716
 40
0.4885354802
 40
0.7406046152
 40
1.0
 40
1.0
 40
1.0
 40
1.0
 10
96.3245002581
 20
92.6898838258
 30
0.0
 10
96.3245002581
 20
93.0165348908
 30
0.0
 10
96.2766236665
 20
93.6754456741
 30
0.0
 10
96.0671880535
 20
94.6534844389
 30
0.0
 10
95.7340101374
 20
95.6199592914
 30
0.0
 10
95.44529332
 20
96.2465668654
 30
0.0
 10
95.286791395
 20
96.5579205882
 30
0.0
  0
SPLINE
  5
4DD
100
AcDbEntity
  8
0
100
AcDbSpline
 62
7
  6
CONTINUOUS
 70
0
 71
3
 72
11
 73
7
 74
0
 42
0.0000001
 43
0.0000001
 44
0.0000000001
 40
0.0
 40
0.0
 40
0.0
 40
0.0
 40
0.0957989484
 40
0.2979289133
 40
0.601883564
 40
1.0
 40
1.0
 40
1.0
 40
1.0
 10
86.7390084177
 20
61.6255292813
 30
0.0
 10
86.7390083835
 20
61.626465578
 30
0.0
 10
86.7377355989
 20
61.6292116152
 30
0.0
 10
86.7355096471
 20
61.6345642752
 30
0.0
 10
86.7315272938
 20
61.6425080765
 30
0.0
 10
86.7284384599
 20
61.6486186333
 30
0.0
 10
86.7266528218
 20
61.6520757263
 30
0.0
  0
SPLINE
  5
4DE
100
AcDbEntity
  8
0
100
AcDbSpline
 62
7
  6
CONTINUOUS
 70
0
 71
3
 72
11
 73
7
 74
0
 42
0.0000001
 43
0.0000001
 44
0.0000000001
 40
0.0
 40
0.0
 40
0.0
 40
0.0
 40
0.098891379
 40
0.300831928
 40
0.6027826149
 40
1.0
 40
1.0
 40
1.0
 40
1.0
 10
86.9988160388
 20
61.4757490558
 30
0.0
 10
86.9988158217
 20
61.4779713542
 30
0.0
 10
86.9976014946
 20
61.4846682081
 30
0.0
 10
86.9953625395
 20
61.497993865
 30
0.0
 10
86.9913870768
 20
61.5178692649
 30
0.0
 10
86.9882675729
 20
61.5332622975
 30
0.0
 10
86.986460443
 20
61.5420037722
 30
0.0
  0
SPLINE
  5
4DF
100
AcDbEntity
  8
0
100
AcDbSpline
 62
7
  6
CONTINUOUS
 70
0
 71
3
 72
15
 73
11
 74
0
 42
0.0000001
 43
0.0000001
 44
0.0000000001
 40
0.0
 40
0.0
 40
0.0
 40
0.0
 40
0.1291678258
 40
0.2547093589
 40
0.3773358393
 40
0.4984123928
 40
0.6197401074
 40
0.7430670103
 40
0.8696312407
 40
1.0
 40
1.0
 40
1.0
 40
1.0
 10
86.7266528218
 20
61.6520757263
 30
0.0
 10
86.5654720135
 20
61.9641303096
 30
0.0
 10
86.2717420608
 20
62.5925340561
 30
0.0
 10
85.9326488534
 20
63.5631085608
 30
0.0
 10
85.7195094526
 20
64.5472666254
 30
0.0
 10
85.6467180359
 20
65.5406547856
 30
0.0
 10
85.7197897758
 20
66.5359068051
 30
0.0
 10
85.9330031364
 20
67.525484637
 30
0.0
 10
86.2719744579
 20
68.5044689965
 30
0.0
 10
86.5655058343
 20
69.1396088625
 30
0.0
 10
86.7266528218
 20
69.4553515562
 30
0.0
  0
SPLINE
  5
4E0
100
AcDbEntity
  8
0
100
AcDbSpline
 62
7
  6
CONTINUOUS
 70
0
 71
3
 72
15
 73
11
 74
0
 42
0.0000001
 43
0.0000001
 44
0.0000000001
 40
0.0
 40
0.0
 40
0.0
 40
0.0
 40
0.1298253766
 40
0.2559011901
 40
0.3788549708
 40
0.4999997997
 40
0.6211449
 40
0.7440986001
 40
0.8701744191
 40
1.0
 40
1.0
 40
1.0
 40
1.0
 10
86.986460443
 20
61.5420037722
 30
0.0
 10
86.8256242055
 20
61.8531056327
 30
0.0
 10
86.5323765686
 20
62.4792109368
 30
0.0
 10
86.1932012146
 20
63.4454704143
 30
0.0
 10
85.9796046151
 20
64.4239619468
 30
0.0
 10
85.9064561628
 20
65.4100612431
 30
0.0
 10
85.9796038248
 20
66.3961604285
 30
0.0
 10
86.1932003992
 20
67.3746524907
 30
0.0
 10
86.5323753945
 20
68.3409125236
 30
0.0
 10
86.8256242943
 20
68.9670178422
 30
0.0
 10
86.986460443
 20
69.278120369
 30
0.0
  0
SPLINE
  5
4E1
100
AcDbEntity
  8
0
100
AcDbSpline
 62
7
  6
CONTINUOUS
 70
0
 71
3
 72
10
 73
6
 74
0
 42
0.0000001
 43
0.0000001
 44
0.0000000001
 40
0.0
 40
0.0
 40
0.0
 40
0.0
 40
0.2360160779
 40
0.4803845336
 40
1.0
 40
1.0
 40
1.0
 40
1.0
 10
86.726653038
 20
61.6520758509
 30
0.0
 10
86.7386754009
 20
61.6321141496
 30
0.0
 10
86.7702922269
 20
61.5953981861
 30
0.0
 10
86.8557880857
 20
61.5435958537
 30
0.0
 10
86.9355806137
 20
61.5354277
 30
0.0
 10
86.986460443
 20
61.5420037722
 30
0.0
  0
SPLINE
  5
4E2
100
AcDbEntity
  8
0
100
AcDbSpline
 62
7
  6
CONTINUOUS
 70
0
 71
3
 72
9
 73
5
 74
0
 42
0.0000001
 43
0.0000001
 44
0.0000000001
 40
0.0
 40
0.0
 40
0.0
 40
0.0
 40
0.210308983
 40
1.0
 40
1.0
 40
1.0
 40
1.0
 10
86.7266528218
 20
69.4553515562
 30
0.0
 10
86.7287612404
 20
69.4594826755
 30
0.0
 10
86.7369745568
 20
69.4800526646
 30
0.0
 10
86.739008238
 20
69.5025719646
 30
0.0
 10
86.7390084177
 20
69.5199874459
 30
0.0
  0
SPLINE
  5
4E3
100
AcDbEntity
  8
0
100
AcDbSpline
 62
7
  6
CONTINUOUS
 70
0
 71
3
 72
9
 73
5
 74
0
 42
0.0000001
 43
0.0000001
 44
0.0000000001
 40
0.0
 40
0.0
 40
0.0
 40
0.0
 40
0.4390517103
 40
1.0
 40
1.0
 40
1.0
 40
1.0
 10
86.986460443
 20
69.278120369
 30
0.0
 10
86.9912228638
 20
69.3011377839
 30
0.0
 10
86.9972928187
 20
69.3545026594
 30
0.0
 10
86.9988151957
 20
69.4080371383
 30
0.0
 10
86.9988160388
 20
69.4380678923
 30
0.0
  0
SPLINE
  5
4E4
100
AcDbEntity
  8
0
100
AcDbSpline
 62
7
  6
CONTINUOUS
 70
0
 71
3
 72
9
 73
5
 74
0
 42
0.0000001
 43
0.0000001
 44
0.0000000001
 40
0.0
 40
0.0
 40
0.0
 40
0.0
 40
0.4942739266
 40
1.0
 40
1.0
 40
1.0
 40
1.0
 10
86.7266528225
 20
69.4553515564
 30
0.0
 10
86.7512785207
 20
69.4080979722
 30
0.0
 10
86.82771085
 20
69.3253108198
 30
0.0
 10
86.9323902646
 20
69.2851089644
 30
0.0
 10
86.986460443
 20
69.278120503
 30
0.0
  0
SPLINE
  5
4E5
100
AcDbEntity
  8
0
100
AcDbSpline
 62
7
  6
CONTINUOUS
 70
0
 71
3
 72
10
 73
6
 74
0
 42
0.0000001
 43
0.0000001
 44
0.0000000001
 40
0.0
 40
0.0
 40
0.0
 40
0.0
 40
0.2108085873
 40
0.453649774
 40
1.0
 40
1.0
 40
1.0
 40
1.0
 10
86.7390084177
 20
69.5199874459
 30
0.0
 10
86.7531735686
 20
69.5065882681
 30
0.0
 10
86.7883128587
 20
69.4826338901
 30
0.0
 10
86.8743557251
 20
69.4477234981
 30
0.0
 10
86.9482821327
 20
69.4380678923
 30
0.0
 10
86.9988160388
 20
69.4380678923
 30
0.0
  0
SPLINE
  5
4E6
100
AcDbEntity
  8
0
100
AcDbSpline
 62
7
  6
CONTINUOUS
 70
0
 71
3
 72
9
 73
5
 74
0
 42
0.0000001
 43
0.0000001
 44
0.0000000001
 40
0.0
 40
0.0
 40
0.0
 40
0.0
 40
0.2379054
 40
1.0
 40
1.0
 40
1.0
 40
1.0
 10
86.7390084177
 20
71.1555040156
 30
0.0
 10
86.7390084015
 20
71.162811995
 30
0.0
 10
86.7378197875
 20
71.1935265579
 30
0.0
 10
86.7324736029
 20
71.224011522
 30
0.0
 10
86.7266528218
 20
71.2466863503
 30
0.0
  0
SPLINE
  5
4E7
100
AcDbEntity
  8
0
100
AcDbSpline
 62
7
  6
CONTINUOUS
 70
0
 71
3
 72
9
 73
5
 74
0
 42
0.0000001
 43
0.0000001
 44
0.0000000001
 40
0.0
 40
0.0
 40
0.0
 40
0.0
 40
0.2377408785
 40
1.0
 40
1.0
 40
1.0
 40
1.0
 10
86.9988160388
 20
71.0876433437
 30
0.0
 10
86.9988159324
 20
71.1056003704
 30
0.0
 10
86.9976454272
 20
71.1811301797
 30
0.0
 10
86.9923800457
 20
71.2565758055
 30
0.0
 10
86.986460443
 20
71.3138455834
 30
0.0
  0
SPLINE
  5
4E8
100
AcDbEntity
  8
0
100
AcDbSpline
 62
7
  6
CONTINUOUS
 70
0
 71
3
 72
10
 73
6
 74
0
 42
0.0000001
 43
0.0000001
 44
0.0000000001
 40
0.0
 40
0.0
 40
0.0
 40
0.0
 40
0.2032447928
 40
0.4449065796
 40
1.0
 40
1.0
 40
1.0
 40
1.0
 10
86.7390084177
 20
71.1555040156
 30
0.0
 10
86.7535245401
 20
71.144129361
 30
0.0
 10
86.7891813607
 20
71.124215737
 30
0.0
 10
86.8754657923
 20
71.0953854112
 30
0.0
 10
86.9484485456
 20
71.0876433405
 30
0.0
 10
86.9988160388
 20
71.0876433437
 30
0.0
  0
SPLINE
  5
4E9
100
AcDbEntity
  8
0
100
AcDbSpline
 62
7
  6
CONTINUOUS
 70
0
 71
3
 72
13
 73
9
 74
0
 42
0.0000001
 43
0.0000001
 44
0.0000000001
 40
0.0
 40
0.0
 40
0.0
 40
0.0
 40
0.2499524158
 40
0.3749764843
 40
0.4999999981
 40
0.625023512
 40
0.7500475813
 40
1.0
 40
1.0
 40
1.0
 40
1.0
 10
86.7266528218
 20
71.2466863503
 30
0.0
 10
86.3996271584
 20
72.5205805247
 30
0.0
 10
85.9994885993
 20
74.4583392643
 30
0.0
 10
85.7188114786
 20
77.0759519533
 30
0.0
 10
85.646959977
 20
79.0499621613
 30
0.0
 10
85.7188113858
 20
81.0239723688
 30
0.0
 10
85.9994883128
 20
83.6415851238
 30
0.0
 10
86.3996276151
 20
85.5793437025
 30
0.0
 10
86.7266528218
 20
86.8532380101
 30
0.0
  0
SPLINE
  5
4EA
100
AcDbEntity
  8
0
100
AcDbSpline
 62
7
  6
CONTINUOUS
 70
0
 71
3
 72
13
 73
9
 74
0
 42
0.0000001
 43
0.0000001
 44
0.0000000001
 40
0.0
 40
0.0
 40
0.0
 40
0.0
 40
0.2499526532
 40
0.3749767102
 40
0.5000000013
 40
0.625023292
 40
0.7500473493
 40
1.0
 40
1.0
 40
1.0
 40
1.0
 10
86.986460443
 20
71.3138455834
 30
0.0
 10
86.6600780716
 20
72.5764737083
 30
0.0
 10
86.2599382297
 20
74.4972609487
 30
0.0
 10
85.9787442776
 20
77.0925636719
 30
0.0
 10
85.9067051253
 20
79.0499622356
 30
0.0
 10
85.9787439178
 20
81.0073608014
 30
0.0
 10
86.2599373893
 20
83.602663613
 30
0.0
 10
86.6600787396
 20
85.5234504928
 30
0.0
 10
86.986460443
 20
86.7860787771
 30
0.0
  0
SPLINE
  5
4EB
100
AcDbEntity
  8
0
100
AcDbSpline
 62
7
  6
CONTINUOUS
 70
0
 71
3
 72
9
 73
5
 74
0
 42
0.0000001
 43
0.0000001
 44
0.0000000001
 40
0.0
 40
0.0
 40
0.0
 40
0.0
 40
0.2590401723
 40
1.0
 40
1.0
 40
1.0
 40
1.0
 10
86.7266528218
 20
86.8532380101
 30
0.0
 10
86.7286311386
 20
86.8609443331
 30
0.0
 10
86.7354435612
 20
86.8908874158
 30
0.0
 10
86.7390081969
 20
86.9216623841
 30
0.0
 10
86.7390084177
 20
86.9444203448
 30
0.0
  0
SPLINE
  5
4EC
100
AcDbEntity
  8
0
100
AcDbSpline
 62
7
  6
CONTINUOUS
 70
0
 71
3
 72
9
 73
5
 74
0
 42
0.0000001
 43
0.0000001
 44
0.0000000001
 40
0.0
 40
0.0
 40
0.0
 40
0.0
 40
0.2588604451
 40
1.0
 40
1.0
 40
1.0
 40
1.0
 10
86.986460443
 20
86.7860787771
 30
0.0
 10
86.9884724253
 20
86.8055269169
 30
0.0
 10
86.9953383627
 20
86.8807435452
 30
0.0
 10
86.9988145621
 20
86.9563021536
 30
0.0
 10
86.9988160388
 20
87.0122810167
 30
0.0
  0
SPLINE
  5
4ED
100
AcDbEntity
  8
0
100
AcDbSpline
 62
7
  6
CONTINUOUS
 70
0
 71
3
 72
10
 73
6
 74
0
 42
0.0000001
 43
0.0000001
 44
0.0000000001
 40
0.0
 40
0.0
 40
0.0
 40
0.0
 40
0.2032447879
 40
0.4449065759
 40
1.0
 40
1.0
 40
1.0
 40
1.0
 10
86.7390084177
 20
86.9444203448
 30
0.0
 10
86.7535245405
 20
86.9557949979
 30
0.0
 10
86.7891813618
 20
86.9757086194
 30
0.0
 10
86.8754657931
 20
87.0045389435
 30
0.0
 10
86.9484485456
 20
87.0122810167
 30
0.0
 10
86.9988160388
 20
87.0122810167
 30
0.0
  0
SPLINE
  5
4EE
100
AcDbEntity
  8
0
100
AcDbSpline
 62
7
  6
CONTINUOUS
 70
0
 71
3
 72
9
 73
5
 74
0
 42
0.0000001
 43
0.0000001
 44
0.0000000001
 40
0.0
 40
0.0
 40
0.0
 40
0.0
 40
0.2909817592
 40
1.0
 40
1.0
 40
1.0
 40
1.0
 10
86.7390084177
 20
88.5799369145
 30
0.0
 10
86.7390084026
 20
88.5863481455
 30
0.0
 10
86.7381456596
 20
88.6082907702
 30
0.0
 10
86.7337541058
 20
88.6306582565
 30
0.0
 10
86.7266528218
 20
88.6445728042
 30
0.0
  0
SPLINE
  5
4EF
100
AcDbEntity
  8
0
100
AcDbSpline
 62
7
  6
CONTINUOUS
 70
0
 71
3
 72
9
 73
5
 74
0
 42
0.0000001
 43
0.0000001
 44
0.0000000001
 40
0.0
 40
0.0
 40
0.0
 40
0.0
 40
0.560948867
 40
1.0
 40
1.0
 40
1.0
 40
1.0
 10
86.9988160388
 20
88.6618564681
 30
0.0
 10
86.9988158494
 20
88.6918872764
 30
0.0
 10
86.997297742
 20
88.7454224979
 30
0.0
 10
86.9912188482
 20
88.798785759
 30
0.0
 10
86.986460443
 20
88.8218039914
 30
0.0
  0
SPLINE
  5
4F0
100
AcDbEntity
  8
0
100
AcDbSpline
 62
7
  6
CONTINUOUS
 70
0
 71
3
 72
10
 73
6
 74
0
 42
0.0000001
 43
0.0000001
 44
0.0000000001
 40
0.0
 40
0.0
 40
0.0
 40
0.0
 40
0.2108085805
 40
0.453649766
 40
1.0
 40
1.0
 40
1.0
 40
1.0
 10
86.7390084177
 20
88.5799369145
 30
0.0
 10
86.7531735689
 20
88.593336091
 30
0.0
 10
86.7883128592
 20
88.6172904666
 30
0.0
 10
86.8743557254
 20
88.652200857
 30
0.0
 10
86.9482821323
 20
88.6618564651
 30
0.0
 10
86.9988160388
 20
88.6618564681
 30
0.0
  0
SPLINE
  5
4F1
100
AcDbEntity
  8
0
100
AcDbSpline
 62
7
  6
CONTINUOUS
 70
0
 71
3
 72
15
 73
11
 74
0
 42
0.0000001
 43
0.0000001
 44
0.0000000001
 40
0.0
 40
0.0
 40
0.0
 40
0.0
 40
0.1303687677
 40
0.2569330051
 40
0.3802598994
 40
0.5015875907
 40
0.622664133
 40
0.7452906011
 40
0.870832151
 40
1.0
 40
1.0
 40
1.0
 40
1.0
 10
86.7266528218
 20
88.6445728042
 30
0.0
 10
86.5655056
 20
88.9603154026
 30
0.0
 10
86.271974683
 20
89.5954555422
 30
0.0
 10
85.9330032711
 20
90.5744398583
 30
0.0
 10
85.7197899315
 20
91.564017626
 30
0.0
 10
85.6467180118
 20
92.5592695043
 30
0.0
 10
85.7195093397
 20
93.5526575493
 30
0.0
 10
85.9326487246
 20
94.536815589
 30
0.0
 10
86.2717419008
 20
95.5073901989
 30
0.0
 10
86.5654721534
 20
96.1357939092
 30
0.0
 10
86.7266528218
 20
96.4478486341
 30
0.0
  0
SPLINE
  5
4F2
100
AcDbEntity
  8
0
100
AcDbSpline
 62
7
  6
CONTINUOUS
 70
0
 71
3
 72
15
 73
11
 74
0
 42
0.0000001
 43
0.0000001
 44
0.0000000001
 40
0.0
 40
0.0
 40
0.0
 40
0.0
 40
0.1298255657
 40
0.2559013832
 40
0.3788550807
 40
0.5000001809
 40
0.6211450128
 40
0.7440987854
 40
0.870174609
 40
1.0
 40
1.0
 40
1.0
 40
1.0
 10
86.986460443
 20
88.8218039914
 30
0.0
 10
86.8256240361
 20
89.1329063384
 30
0.0
 10
86.5323759574
 20
89.7590120148
 30
0.0
 10
86.1932008771
 20
90.7252719202
 30
0.0
 10
85.9796043098
 20
91.7037639704
 30
0.0
 10
85.9064560919
 20
92.6898631002
 30
0.0
 10
85.9796042319
 20
93.6759624264
 30
0.0
 10
86.1932006741
 20
94.6544539984
 30
0.0
 10
86.5323760088
 20
95.6207135838
 30
0.0
 10
86.8256244804
 20
96.2468185418
 30
0.0
 10
86.986460443
 20
96.5579205882
 30
0.0
  0
SPLINE
  5
4F3
100
AcDbEntity
  8
0
100
AcDbSpline
 62
7
  6
CONTINUOUS
 70
0
 71
3
 72
9
 73
5
 74
0
 42
0.0000001
 43
0.0000001
 44
0.0000000001
 40
0.0
 40
0.0
 40
0.0
 40
0.0
 40
0.4942739063
 40
1.0
 40
1.0
 40
1.0
 40
1.0
 10
86.7266530501
 20
88.6445727317
 30
0.0
 10
86.7512786983
 20
88.6918263264
 30
0.0
 10
86.8277109197
 20
88.7746135441
 30
0.0
 10
86.9323902803
 20
88.8148154839
 30
0.0
 10
86.986460443
 20
88.8218039914
 30
0.0
  0
SPLINE
  5
4F4
100
AcDbEntity
  8
0
100
AcDbSpline
 62
7
  6
CONTINUOUS
 70
0
 71
3
 72
11
 73
7
 74
0
 42
0.0000001
 43
0.0000001
 44
0.0000000001
 40
0.0
 40
0.0
 40
0.0
 40
0.0
 40
0.3981140522
 40
0.702071968
 40
0.9042057167
 40
1.0
 40
1.0
 40
1.0
 40
1.0
 10
86.7266528218
 20
96.4478486341
 30
0.0
 10
86.7284384539
 20
96.4513057044
 30
0.0
 10
86.7315273101
 20
96.4574162756
 30
0.0
 10
86.7355095788
 20
96.4653601225
 30
0.0
 10
86.7377357793
 20
96.4707127814
 30
0.0
 10
86.7390082675
 20
96.4734588279
 30
0.0
 10
86.7390084177
 20
96.4743950792
 30
0.0
  0
SPLINE
  5
4F5
100
AcDbEntity
  8
0
100
AcDbSpline
 62
7
  6
CONTINUOUS
 70
0
 71
3
 72
11
 73
7
 74
0
 42
0.0000001
 43
0.0000001
 44
0.0000000001
 40
0.0
 40
0.0
 40
0.0
 40
0.0
 40
0.3972162082
 40
0.6991660565
 40
0.9011093959
 40
1.0
 40
1.0
 40
1.0
 40
1.0
 10
86.986460443
 20
96.5579205882
 30
0.0
 10
86.9882690265
 20
96.566661731
 30
0.0
 10
86.9913859913
 20
96.5820552789
 30
0.0
 10
86.9953601762
 20
96.6019307961
 30
0.0
 10
86.9976024181
 20
96.6152560925
 30
0.0
 10
86.9988150718
 20
96.6219530248
 30
0.0
 10
86.9988160388
 20
96.6241753047
 30
0.0
  0
SPLINE
  5
4F6
100
AcDbEntity
  8
0
100
AcDbSpline
 62
7
  6
CONTINUOUS
 70
0
 71
3
 72
10
 73
6
 74
0
 42
0.0000001
 43
0.0000001
 44
0.0000000001
 40
0.0
 40
0.0
 40
0.0
 40
0.0
 40
0.2360161396
 40
0.4803846099
 40
1.0
 40
1.0
 40
1.0
 40
1.0
 10
86.7266528225
 20
96.4478486337
 30
0.0
 10
86.7386752051
 20
96.4678103426
 30
0.0
 10
86.7702920767
 20
96.5045263084
 30
0.0
 10
86.855788031
 20
96.5563285772
 30
0.0
 10
86.9355806092
 20
96.5644966125
 30
0.0
 10
86.986460443
 20
96.5579204537
 30
0.0
  0
SPLINE
  5
4F7
100
AcDbEntity
  8
0
100
AcDbSpline
 62
7
  6
CONTINUOUS
 70
0
 71
3
 72
11
 73
7
 74
0
 42
0.0000001
 43
0.0000001
 44
0.0000000001
 40
0.0
 40
0.0
 40
0.0
 40
0.0
 40
0.0957749081
 40
0.297951196
 40
0.6020439815
 40
1.0
 40
1.0
 40
1.0
 40
1.0
 10
95.2564022598
 20
61.4757490558
 30
0.0
 10
95.2564022598
 20
61.478079188
 30
0.0
 10
95.2595352646
 20
61.4849246208
 30
0.0
 10
95.2650059358
 20
61.4982875517
 30
0.0
 10
95.2748009312
 20
61.5181185486
 30
0.0
 10
95.2823989671
 20
61.5333754935
 30
0.0
 10
95.286791395
 20
61.5420037722
 30
0.0
  0
SPLINE
  5
4F8
100
AcDbEntity
  8
0
100
AcDbSpline
 62
7
  6
CONTINUOUS
 70
0
 71
3
 72
9
 73
5
 74
0
 42
0.0000001
 43
0.0000001
 44
0.0000000001
 40
0.0
 40
0.0
 40
0.0
 40
0.0
 40
0.4451711476
 40
1.0
 40
1.0
 40
1.0
 40
1.0
 10
95.286791395
 20
69.278120369
 30
0.0
 10
95.2757600134
 20
69.2997898959
 30
0.0
 10
95.2601664629
 20
69.3530314081
 30
0.0
 10
95.2564022606
 20
69.4077624104
 30
0.0
 10
95.2564022605
 20
69.4380678923
 30
0.0
  0
SPLINE
  5
4F9
100
AcDbEntity
  8
0
100
AcDbSpline
 62
7
  6
CONTINUOUS
 70
0
 71
3
 72
9
 73
5
 74
0
 42
0.0000001
 43
0.0000001
 44
0.0000000001
 40
0.0
 40
0.0
 40
0.0
 40
0.0
 40
0.2378499264
 40
1.0
 40
1.0
 40
1.0
 40
1.0
 10
95.2564022601
 20
71.0876433437
 30
0.0
 10
95.2564022601
 20
71.1057652589
 30
0.0
 10
95.2593296808
 20
71.181947029
 30
0.0
 10
95.2724675279
 20
71.2575713223
 30
0.0
 10
95.286791395
 20
71.3138455834
 30
0.0
  0
SPLINE
  5
4FA
100
AcDbEntity
  8
0
100
AcDbSpline
 62
7
  6
CONTINUOUS
 70
0
 71
3
 72
9
 73
5
 74
0
 42
0.0000001
 43
0.0000001
 44
0.0000000001
 40
0.0
 40
0.0
 40
0.0
 40
0.0
 40
0.5548312283
 40
1.0
 40
1.0
 40
1.0
 40
1.0
 10
95.2564022598
 20
88.6618564681
 30
0.0
 10
95.2564022598
 20
88.6921620809
 30
0.0
 10
95.2601664355
 20
88.7468930978
 30
0.0
 10
95.2757600719
 20
88.8001345794
 30
0.0
 10
95.286791395
 20
88.8218039914
 30
0.0
  0
SPLINE
  5
4FB
100
AcDbEntity
  8
0
100
AcDbSpline
 62
7
  6
CONTINUOUS
 70
0
 71
3
 72
9
 73
5
 74
0
 42
0.0000001
 43
0.0000001
 44
0.0000000001
 40
0.0
 40
0.0
 40
0.0
 40
0.0
 40
0.2589629127
 40
1.0
 40
1.0
 40
1.0
 40
1.0
 10
95.286791395
 20
86.7860787771
 30
0.0
 10
95.2819250331
 20
86.8051972817
 30
0.0
 10
95.2651700961
 20
86.8794985129
 30
0.0
 10
95.2564022606
 20
86.955827882
 30
0.0
 10
95.2564022605
 20
87.0122810167
 30
0.0
  0
SPLINE
  5
4FC
100
AcDbEntity
  8
0
100
AcDbSpline
 62
7
  6
CONTINUOUS
 70
0
 71
3
 72
11
 73
7
 74
0
 42
0.0000001
 43
0.0000001
 44
0.0000000001
 40
0.0
 40
0.0
 40
0.0
 40
0.0
 40
0.3979566363
 40
0.7020506239
 40
0.9042268274
 40
1.0
 40
1.0
 40
1.0
 40
1.0
 10
95.286791395
 20
96.5579205882
 30
0.0
 10
95.2823989602
 20
96.5665488805
 30
0.0
 10
95.2748008986
 20
96.5818058629
 30
0.0
 10
95.2650059069
 20
96.6016369071
 30
0.0
 10
95.2595352072
 20
96.6149998127
 30
0.0
 10
95.2564022605
 20
96.6218452146
 30
0.0
 10
95.2564022605
 20
96.6241753047
 30
0.0
  0
SPLINE
  5
4FD
100
AcDbEntity
  8
0
100
AcDbSpline
 62
7
  6
CONTINUOUS
 70
0
 71
3
 72
9
 73
5
 74
0
 42
0.0000001
 43
0.0000001
 44
0.0000000001
 40
0.0
 40
0.0
 40
0.0
 40
0.0
 40
0.3458608646
 40
1.0
 40
1.0
 40
1.0
 40
1.0
 10
155.3855705481
 20
93.2891708239
 30
0.0
 10
155.3864161153
 20
93.2907928352
 30
0.0
 10
155.3889228083
 20
93.295207097
 30
0.0
 10
155.3933459123
 20
93.2999456646
 30
0.0
 10
155.396805509
 20
93.2999446174
 30
0.0
  0
SPLINE
  5
4FE
100
AcDbEntity
  8
0
100
AcDbSpline
 62
7
  6
CONTINUOUS
 70
0
 71
3
 72
9
 73
5
 74
0
 42
0.0000001
 43
0.0000001
 44
0.0000000001
 40
0.0
 40
0.0
 40
0.0
 40
0.0
 40
0.3458433002
 40
1.0
 40
1.0
 40
1.0
 40
1.0
 10
153.5712838996
 20
93.2891693546
 30
0.0
 10
153.5721294251
 20
93.2907912913
 30
0.0
 10
153.5746362398
 20
93.295205612
 30
0.0
 10
153.5790583468
 20
93.2999443659
 30
0.0
 10
153.5825180506
 20
93.2999443643
 30
0.0
  0
SPLINE
  5
4FF
100
AcDbEntity
  8
0
100
AcDbSpline
 62
7
  6
CONTINUOUS
 70
0
 71
3
 72
9
 73
5
 74
0
 42
0.0000001
 43
0.0000001
 44
0.0000000001
 40
0.0
 40
0.0
 40
0.0
 40
0.0
 40
0.3458606959
 40
1.0
 40
1.0
 40
1.0
 40
1.0
 10
156.2927138767
 20
64.8107535452
 30
0.0
 10
156.293559443
 20
64.8091315358
 30
0.0
 10
156.2960661357
 20
64.8047172765
 30
0.0
 10
156.3004892282
 20
64.799978711
 30
0.0
 10
156.3039488235
 20
64.7999797491
 30
0.0
  0
SPLINE
  5
500
100
AcDbEntity
  8
0
100
AcDbSpline
 62
7
  6
CONTINUOUS
 70
0
 71
3
 72
9
 73
5
 74
0
 42
0.0000001
 43
0.0000001
 44
0.0000000001
 40
0.0
 40
0.0
 40
0.0
 40
0.0
 40
0.3458610456
 40
1.0
 40
1.0
 40
1.0
 40
1.0
 10
154.4784271006
 20
64.8107535179
 30
0.0
 10
154.479272668
 20
64.809131506
 30
0.0
 10
154.4817793592
 20
64.8047172451
 30
0.0
 10
154.4862024717
 20
64.7999786792
 30
0.0
 10
154.4896620669
 20
64.7999797362
 30
0.0
  0
SPLINE
  5
501
100
AcDbEntity
  8
0
100
AcDbSpline
 62
7
  6
CONTINUOUS
 70
0
 71
3
 72
9
 73
5
 74
0
 42
0.0000001
 43
0.0000001
 44
0.0000000001
 40
0.0
 40
0.0
 40
0.0
 40
0.0
 40
0.3458274243
 40
1.0
 40
1.0
 40
1.0
 40
1.0
 10
152.6641413088
 20
64.8107562219
 30
0.0
 10
152.6649867901
 20
64.8091343272
 30
0.0
 10
152.6674937074
 20
64.8047198861
 30
0.0
 10
152.6719147875
 20
64.7999807981
 30
0.0
 10
152.6753746248
 20
64.7999797321
 30
0.0
  0
SPLINE
  5
502
100
AcDbEntity
  8
0
100
AcDbSpline
 62
7
  6
CONTINUOUS
 70
0
 71
3
 72
9
 73
5
 74
0
 42
0.0000001
 43
0.0000001
 44
0.0000000001
 40
0.0
 40
0.0
 40
0.0
 40
0.0
 40
0.3458279279
 40
1.0
 40
1.0
 40
1.0
 40
1.0
 10
155.8250207234
 20
93.2891681643
 30
0.0
 10
155.82417524
 20
93.2907900608
 30
0.0
 10
155.821668324
 20
93.2952044996
 30
0.0
 10
155.8172472057
 20
93.2999435764
 30
0.0
 10
155.8137873712
 20
93.299944606
 30
0.0
  0
SPLINE
  5
503
100
AcDbEntity
  8
0
100
AcDbSpline
 62
7
  6
CONTINUOUS
 70
0
 71
3
 72
9
 73
5
 74
0
 42
0.0000001
 43
0.0000001
 44
0.0000000001
 40
0.0
 40
0.0
 40
0.0
 40
0.0
 40
0.3458276849
 40
1.0
 40
1.0
 40
1.0
 40
1.0
 10
154.0107345758
 20
93.2891681244
 30
0.0
 10
154.0098890913
 20
93.2907900242
 30
0.0
 10
154.0073821684
 20
93.2952044753
 30
0.0
 10
154.0029610577
 20
93.2999435701
 30
0.0
 10
153.9995012131
 20
93.2999446174
 30
0.0
  0
SPLINE
  5
504
100
AcDbEntity
  8
0
100
AcDbSpline
 62
7
  6
CONTINUOUS
 70
0
 71
3
 72
9
 73
5
 74
0
 42
0.0000001
 43
0.0000001
 44
0.0000000001
 40
0.0
 40
0.0
 40
0.0
 40
0.0
 40
0.34584325
 40
1.0
 40
1.0
 40
1.0
 40
1.0
 10
152.1964479575
 20
93.2891693508
 30
0.0
 10
152.1956024322
 20
93.2907912872
 30
0.0
 10
152.1930956171
 20
93.2952056081
 30
0.0
 10
152.1886735134
 20
93.2999443627
 30
0.0
 10
152.1852138093
 20
93.2999443643
 30
0.0
  0
SPLINE
  5
505
100
AcDbEntity
  8
0
100
AcDbSpline
 62
7
  6
CONTINUOUS
 70
0
 71
3
 72
9
 73
5
 74
0
 42
0.0000001
 43
0.0000001
 44
0.0000000001
 40
0.0
 40
0.0
 40
0.0
 40
0.0
 40
0.34582781
 40
1.0
 40
1.0
 40
1.0
 40
1.0
 10
154.917877884
 20
64.81075622
 30
0.0
 10
154.9170323997
 20
64.8091343213
 30
0.0
 10
154.9145254793
 20
64.8047198747
 30
0.0
 10
154.9101043629
 20
64.7999807873
 30
0.0
 10
154.906644522
 20
64.7999797491
 30
0.0
  0
SPLINE
  5
506
100
AcDbEntity
  8
0
100
AcDbSpline
 62
7
  6
CONTINUOUS
 70
0
 71
3
 72
9
 73
5
 74
0
 42
0.0000001
 43
0.0000001
 44
0.0000000001
 40
0.0
 40
0.0
 40
0.0
 40
0.0
 40
0.3458275528
 40
1.0
 40
1.0
 40
1.0
 40
1.0
 10
153.1035911501
 20
64.810756244
 30
0.0
 10
153.102745666
 20
64.8091343445
 30
0.0
 10
153.1002387425
 20
64.804719892
 30
0.0
 10
153.0958176416
 20
64.7999807933
 30
0.0
 10
153.0923577957
 20
64.7999797362
 30
0.0
  0
SPLINE
  5
507
100
AcDbEntity
  8
0
100
AcDbSpline
 62
7
  6
CONTINUOUS
 70
0
 71
3
 72
9
 73
5
 74
0
 42
0.0000001
 43
0.0000001
 44
0.0000000001
 40
0.0
 40
0.0
 40
0.0
 40
0.0
 40
0.3458612043
 40
1.0
 40
1.0
 40
1.0
 40
1.0
 10
151.2893053508
 20
64.8107534787
 30
0.0
 10
151.288459785
 20
64.8091314699
 30
0.0
 10
151.2859531011
 20
64.80471722
 30
0.0
 10
151.2815299911
 20
64.7999786661
 30
0.0
 10
151.2780704052
 20
64.7999797321
 30
0.0
  0
SPLINE
  5
508
100
AcDbEntity
  8
GEOM
100
AcDbSpline
 62
7
  6
CONTINUOUS
 70
0
 71
3
 72
11
 73
7
 74
0
 42
0.0000001
 43
0.0000001
 44
0.0000000001
 40
0.0
 40
0.0
 40
0.0
 40
0.0
 40
0.2498725323
 40
0.4991675774
 40
0.7489104807
 40
1.0
 40
1.0
 40
1.0
 40
1.0
 10
143.7602713962
 20
71.5795274422
 30
0.0
 10
143.8771358194
 20
70.9061370225
 30
0.0
 10
144.0605796363
 20
69.5514096648
 30
0.0
 10
144.1560884171
 20
67.5023590194
 30
0.0
 10
144.0602616735
 20
65.450007877
 30
0.0
 10
143.8770017753
 20
64.0906899881
 30
0.0
 10
143.7602713962
 20
63.413898201
 30
0.0
  0
SPLINE
  5
509
100
AcDbEntity
  8
0
100
AcDbSpline
 62
7
  6
CONTINUOUS
 70
0
 71
3
 72
26
 73
22
 74
0
 42
0.0000001
 43
0.0000001
 44
0.0000000001
 40
0.0
 40
0.0
 40
0.0
 40
0.0
 40
0.1903556391
 40
0.3737425746
 40
0.4607228446
 40
0.5434832285
 40
0.621267025
 40
0.6933653138
 40
0.7591162181
 40
0.8179185173
 40
0.8692366563
 40
0.9126000465
 40
0.9311749328
 40
0.9476185421
 40
0.9618969878
 40
0.9739795768
 40
0.9838385605
 40
0.9914591076
 40
0.9968369074
 40
0.9986903505
 40
1.0
 40
1.0
 40
1.0
 40
1.0
 10
152.638785347
 20
79.0499621802
 30
0.0
 10
152.6204061804
 20
79.9540011332
 30
0.0
 10
152.5845411364
 20
81.7289876397
 30
0.0
 10
152.5385482661
 20
83.9170267467
 30
0.0
 10
152.5012406165
 20
85.5940357768
 30
0.0
 10
152.4737601715
 20
86.7695034906
 30
0.0
 10
152.4463036963
 20
87.8742591655
 30
0.0
 10
152.4188790832
 20
88.8981908303
 30
0.0
 10
152.3914957415
 20
89.8319228762
 30
0.0
 10
152.3641798275
 20
90.6669011291
 30
0.0
 10
152.336952024
 20
91.395472952
 30
0.0
 10
152.3133471464
 20
91.9329517471
 30
0.0
 10
152.2940451148
 20
92.3047824458
 30
0.0
 10
152.2803484854
 20
92.5385528778
 30
0.0
 10
152.2667010554
 20
92.741430321
 30
0.0
 10
152.253102796
 20
92.9129429946
 30
0.0
 10
152.2396590627
 20
93.052751367
 30
0.0
 10
152.226288459
 20
93.1604785764
 30
0.0
 10
152.2146670617
 20
93.2301836284
 30
0.0
 10
152.204485198
 20
93.2694490863
 30
0.0
 10
152.1993237425
 20
93.2836528506
 30
0.0
 10
152.1964479575
 20
93.2891693508
 30
0.0
  0
SPLINE
  5
50A
100
AcDbEntity
  8
0
100
AcDbSpline
 62
7
  6
CONTINUOUS
 70
0
 71
3
 72
26
 73
22
 74
0
 42
0.0000001
 43
0.0000001
 44
0.0000000001
 40
0.0
 40
0.0
 40
0.0
 40
0.0
 40
0.1903557056
 40
0.3737427306
 40
0.4607229942
 40
0.5434834157
 40
0.6212672091
 40
0.6933654385
 40
0.7591163655
 40
0.8179185262
 40
0.8692366058
 40
0.9126001299
 40
0.9311749727
 40
0.9476185561
 40
0.9618971213
 40
0.9739796648
 40
0.9838385618
 40
0.9914592461
 40
0.996837044
 40
0.9986903709
 40
1.0
 40
1.0
 40
1.0
 40
1.0
 10
154.4530721077
 20
79.0499621802
 30
0.0
 10
154.4347507966
 20
79.9540025508
 30
0.0
 10
154.3987889254
 20
81.7289876857
 30
0.0
 10
154.3528424949
 20
83.9170282846
 30
0.0
 10
154.3155255324
 20
85.594037555
 30
0.0
 10
154.2880470194
 20
86.7695053487
 30
0.0
 10
154.2605905342
 20
87.8742608176
 30
0.0
 10
154.2331656652
 20
88.8981922033
 30
0.0
 10
154.2057824434
 20
89.8319233447
 30
0.0
 10
154.1784665525
 20
90.666900699
 30
0.0
 10
154.1512386743
 20
91.3954721553
 30
0.0
 10
154.1276339187
 20
91.9329510601
 30
0.0
 10
154.108331805
 20
92.3047820315
 30
0.0
 10
154.0946350581
 20
92.5385526752
 30
0.0
 10
154.0809878089
 20
92.7414303438
 30
0.0
 10
154.0673895146
 20
92.9129429387
 30
0.0
 10
154.0539455255
 20
93.0527513095
 30
0.0
 10
154.0405750288
 20
93.1604787228
 30
0.0
 10
154.0289542108
 20
93.2301840019
 30
0.0
 10
154.0187716776
 20
93.2694486287
 30
0.0
 10
154.0136102577
 20
93.2836516806
 30
0.0
 10
154.0107345758
 20
93.2891681244
 30
0.0
  0
SPLINE
  5
50B
100
AcDbEntity
  8
0
100
AcDbSpline
 62
7
  6
CONTINUOUS
 70
0
 71
3
 72
26
 73
22
 74
0
 42
0.0000001
 43
0.0000001
 44
0.0000000001
 40
0.0
 40
0.0
 40
0.0
 40
0.0
 40
0.1903557453
 40
0.3737428014
 40
0.4607230822
 40
0.5434835142
 40
0.6212673088
 40
0.6933655184
 40
0.759116391
 40
0.8179184817
 40
0.8692365167
 40
0.9126000847
 40
0.9311749573
 40
0.9476185539
 40
0.9618971203
 40
0.9739796626
 40
0.9838385596
 40
0.9914592435
 40
0.996837043
 40
0.9986903715
 40
1.0
 40
1.0
 40
1.0
 40
1.0
 10
156.2673577303
 20
79.0499621802
 30
0.0
 10
156.2490384696
 20
79.954002782
 30
0.0
 10
156.2130732474
 20
81.7289881871
 30
0.0
 10
156.1671284954
 20
83.917029241
 30
0.0
 10
156.12981125
 20
85.5940387867
 30
0.0
 10
156.1023328346
 20
86.7695067211
 30
0.0
 10
156.0748763812
 20
87.8742621538
 30
0.0
 10
156.0474515475
 20
88.8981931946
 30
0.0
 10
156.0200683717
 20
89.8319236532
 30
0.0
 10
155.9927525513
 20
90.6669002075
 30
0.0
 10
155.9655247136
 20
91.3954713305
 30
0.0
 10
155.9419199769
 20
91.9329503749
 30
0.0
 10
155.9226178762
 20
92.3047817609
 30
0.0
 10
155.9089211362
 20
92.5385526156
 30
0.0
 10
155.895273896
 20
92.7414303478
 30
0.0
 10
155.8816756138
 20
92.9129429436
 30
0.0
 10
155.8682316389
 20
93.0527513077
 30
0.0
 10
155.8548611524
 20
93.1604787288
 30
0.0
 10
155.8432403383
 20
93.2301840214
 30
0.0
 10
155.8330578228
 20
93.2694486653
 30
0.0
 10
155.8278964056
 20
93.2836517238
 30
0.0
 10
155.8250207234
 20
93.2891681643
 30
0.0
  0
SPLINE
  5
50C
100
AcDbEntity
  8
GEOM
100
AcDbSpline
 62
7
  6
CONTINUOUS
 70
0
 71
3
 72
9
 73
5
 74
0
 42
0.0000001
 43
0.0000001
 44
0.0000000001
 40
0.0
 40
0.0
 40
0.0
 40
0.0
 40
0.49999087
 40
1.0
 40
1.0
 40
1.0
 40
1.0
 10
144.1242416305
 20
79.0499621802
 30
0.0
 10
144.12424162
 20
80.0146363732
 30
0.0
 10
144.0607198802
 20
81.9445206176
 30
0.0
 10
143.8774163867
 20
83.8663634577
 30
0.0
 10
143.7602713962
 20
84.8239339893
 30
0.0
  0
SPLINE
  5
50D
100
AcDbEntity
  8
GEOM
100
AcDbSpline
 62
7
  6
CONTINUOUS
 70
0
 71
3
 72
12
 73
8
 74
0
 42
0.0000001
 43
0.0000001
 44
0.0000000001
 40
0.0
 40
0.0
 40
0.0
 40
0.0
 40
0.3199933278
 40
0.6086881189
 40
0.8412108237
 40
0.9306123334
 40
1.0
 40
1.0
 40
1.0
 40
1.0
 10
144.2301177066
 20
84.7942252561
 30
0.0
 10
144.1797414551
 20
84.7913153474
 30
0.0
 10
144.0837395535
 20
84.7882218438
 30
0.0
 10
143.9510922877
 20
84.7914619483
 30
0.0
 10
143.8550145262
 20
84.8005018208
 30
0.0
 10
143.7944559595
 20
84.8125065104
 30
0.0
 10
143.7703797316
 20
84.8197452522
 30
0.0
 10
143.7602713962
 20
84.8239339893
 30
0.0
  0
SPLINE
  5
50E
100
AcDbEntity
  8
GEOM
100
AcDbSpline
 62
7
  6
CONTINUOUS
 70
0
 71
3
 72
11
 73
7
 74
0
 42
0.0000001
 43
0.0000001
 44
0.0000000001
 40
0.0
 40
0.0
 40
0.0
 40
0.0
 40
0.2857084726
 40
0.5555644037
 40
0.7957270417
 40
1.0
 40
1.0
 40
1.0
 40
1.0
 10
144.2301177066
 20
86.3019393168
 30
0.0
 10
144.179225241
 20
86.3047644255
 30
0.0
 10
144.0805186184
 20
86.3189563581
 30
0.0
 10
143.9451360953
 20
86.3645479377
 30
0.0
 10
143.8346408892
 20
86.4300595136
 30
0.0
 10
143.7790435262
 20
86.4891611969
 30
0.0
 10
143.7602713962
 20
86.5203969183
 30
0.0
  0
SPLINE
  5
50F
100
AcDbEntity
  8
0
100
AcDbSpline
 62
7
  6
CONTINUOUS
 70
0
 71
3
 72
26
 73
22
 74
0
 42
0.0000001
 43
0.0000001
 44
0.0000000001
 40
0.0
 40
0.0
 40
0.0
 40
0.0
 40
0.1903556802
 40
0.3737426879
 40
0.4607229404
 40
0.5434833544
 40
0.6212671479
 40
0.693365393
 40
0.7591163628
 40
0.8179185823
 40
0.8692367037
 40
0.9126001919
 40
0.931175009
 40
0.9476185791
 40
0.9618971406
 40
0.9739796818
 40
0.9838385753
 40
0.9914592566
 40
0.9968370492
 40
0.9986903726
 40
1.0
 40
1.0
 40
1.0
 40
1.0
 10
152.2218044744
 20
79.0499621802
 30
0.0
 10
152.2401233226
 20
78.1459218816
 30
0.0
 10
152.2760891846
 20
76.3709370327
 30
0.0
 10
152.3220335809
 20
74.18289665
 30
0.0
 10
152.3593508639
 20
72.5058875587
 30
0.0
 10
152.3868292446
 20
71.3304198509
 30
0.0
 10
152.4142856854
 20
70.2256643424
 30
0.0
 10
152.4417105263
 20
69.2017326787
 30
0.0
 10
152.4690937119
 20
68.2680009802
 30
0.0
 10
152.4964095924
 20
67.4330229451
 30
0.0
 10
152.5236374398
 20
66.7044511802
 30
0.0
 10
152.5472421567
 20
66.1669723687
 30
0.0
 10
152.5665442367
 20
65.7951417516
 30
0.0
 10
152.5802409575
 20
65.5613713102
 30
0.0
 10
152.5938881823
 20
65.3584937315
 30
0.0
 10
152.6074864555
 20
65.1869811808
 30
0.0
 10
152.6209304256
 20
65.0471728504
 30
0.0
 10
152.6343009005
 20
64.9394454917
 30
0.0
 10
152.6459216943
 20
64.869740265
 30
0.0
 10
152.6561042212
 20
64.8304756876
 30
0.0
 10
152.6612656322
 20
64.8162726593
 30
0.0
 10
152.6641413088
 20
64.8107562219
 30
0.0
  0
SPLINE
  5
510
100
AcDbEntity
  8
GEOM
100
AcDbSpline
 62
7
  6
CONTINUOUS
 70
0
 71
3
 72
11
 73
7
 74
0
 42
0.0000001
 43
0.0000001
 44
0.0000000001
 40
0.0
 40
0.0
 40
0.0
 40
0.0
 40
0.2683946937
 40
0.5265597734
 40
0.7702291367
 40
1.0
 40
1.0
 40
1.0
 40
1.0
 10
144.2301177066
 20
94.4255540723
 30
0.0
 10
144.1794347659
 20
94.424227349
 30
0.0
 10
144.0791683923
 20
94.4341870556
 30
0.0
 10
143.9414432774
 20
94.4863167729
 30
0.0
 10
143.8295586717
 20
94.5708518548
 30
0.0
 10
143.777899737
 20
94.6463630196
 30
0.0
 10
143.7602713962
 20
94.6860261594
 30
0.0
  0
SPLINE
  5
511
100
AcDbEntity
  8
0
100
AcDbSpline
 62
7
  6
CONTINUOUS
 70
0
 71
3
 72
26
 73
22
 74
0
 42
0.0000001
 43
0.0000001
 44
0.0000000001
 40
0.0
 40
0.0
 40
0.0
 40
0.0
 40
0.1903563662
 40
0.373747919
 40
0.4607299079
 40
0.5434901661
 40
0.62127311
 40
0.6933702721
 40
0.7591199488
 40
0.8179215407
 40
0.8692388046
 40
0.9126013355
 40
0.9311759566
 40
0.9476194003
 40
0.9618974364
 40
0.9739798351
 40
0.9838388174
 40
0.9914590899
 40
0.9968367693
 40
0.9986903173
 40
1.0
 40
1.0
 40
1.0
 40
1.0
 10
154.036089603
 20
79.0499621802
 30
0.0
 10
154.0544405336
 20
78.1459191103
 30
0.0
 10
154.0903533338
 20
76.3709080095
 30
0.0
 10
154.1363245089
 20
74.1828346811
 30
0.0
 10
154.1736372809
 20
72.5057960873
 30
0.0
 10
154.2011170458
 20
71.3303247251
 30
0.0
 10
154.2285734426
 20
70.2255789413
 30
0.0
 10
154.2559978369
 20
69.2016624093
 30
0.0
 10
154.2833811234
 20
68.2679448198
 30
0.0
 10
154.3106966157
 20
67.4329798264
 30
0.0
 10
154.33792425
 20
66.7044195321
 30
0.0
 10
154.3615289983
 20
66.1669501856
 30
0.0
 10
154.3808308696
 20
65.7951255798
 30
0.0
 10
154.3945271444
 20
65.5613591018
 30
0.0
 10
154.4081747076
 20
65.3584852924
 30
0.0
 10
154.4217729249
 20
65.1869754623
 30
0.0
 10
154.4352161309
 20
65.0471692623
 30
0.0
 10
154.4485867266
 20
64.9394439001
 30
0.0
 10
154.4602087577
 20
64.8697403901
 30
0.0
 10
154.4703898525
 20
64.8304746734
 30
0.0
 10
154.4755512351
 20
64.8162701544
 30
0.0
 10
154.4784271006
 20
64.8107535179
 30
0.0
  0
SPLINE
  5
512
100
AcDbEntity
  8
0
100
AcDbSpline
 62
7
  6
CONTINUOUS
 70
0
 71
3
 72
26
 73
22
 74
0
 42
0.0000001
 43
0.0000001
 44
0.0000000001
 40
0.0
 40
0.0
 40
0.0
 40
0.0
 40
0.1903559837
 40
0.373747338
 40
0.4607292875
 40
0.5434895767
 40
0.6212725813
 40
0.6933698381
 40
0.7591196462
 40
0.8179213724
 40
0.8692387636
 40
0.9126013122
 40
0.9311759222
 40
0.9476193626
 40
0.9618974124
 40
0.9739798237
 40
0.9838388105
 40
0.9914590901
 40
0.9968367724
 40
0.9986903183
 40
1.0
 40
1.0
 40
1.0
 40
1.0
 10
155.8503764096
 20
79.0499621802
 30
0.0
 10
155.8686959612
 20
78.1459202928
 30
0.0
 10
155.9046612458
 20
76.3709130234
 30
0.0
 10
155.9506070125
 20
74.1828421238
 30
0.0
 10
155.9879248367
 20
72.5058046242
 30
0.0
 10
156.0154036093
 20
71.3303329946
 30
0.0
 10
156.042859974
 20
70.2255863257
 30
0.0
 10
156.0702845132
 20
69.2016684373
 30
0.0
 10
156.0976678001
 20
68.2679491374
 30
0.0
 10
156.124983336
 20
67.4329822792
 30
0.0
 10
156.1522110077
 20
66.7044206598
 30
0.0
 10
156.1758157664
 20
66.166950678
 30
0.0
 10
156.1951176365
 20
65.7951260572
 30
0.0
 10
156.2088139149
 20
65.5613595836
 30
0.0
 10
156.2224614727
 20
65.3584856648
 30
0.0
 10
156.2360596883
 20
65.1869756885
 30
0.0
 10
156.2495029067
 20
65.0471693741
 30
0.0
 10
156.2628735024
 20
64.9394439435
 30
0.0
 10
156.2744955205
 20
64.8697403921
 30
0.0
 10
156.2846766286
 20
64.8304746793
 30
0.0
 10
156.2898380129
 20
64.8162701771
 30
0.0
 10
156.2927138767
 20
64.8107535452
 30
0.0
  0
SPLINE
  5
513
100
AcDbEntity
  8
0
100
AcDbSpline
 62
7
  6
CONTINUOUS
 70
0
 71
3
 72
9
 73
5
 74
0
 42
0.0000001
 43
0.0000001
 44
0.0000000001
 40
0.0
 40
0.0
 40
0.0
 40
0.0
 40
0.2478821365
 40
1.0
 40
1.0
 40
1.0
 40
1.0
 10
156.3245006702
 20
76.2483139601
 30
0.0
 10
156.3197164986
 20
76.4798055248
 30
0.0
 10
156.3005125077
 20
77.4136850744
 30
0.0
 10
156.281590828
 20
78.3475703951
 30
0.0
 10
156.2673577303
 20
79.0499621802
 30
0.0
  0
SPLINE
  5
514
100
AcDbEntity
  8
GEOM
100
AcDbSpline
 62
7
  6
CONTINUOUS
 70
0
 71
3
 72
11
 73
7
 74
0
 42
0.0000001
 43
0.0000001
 44
0.0000000001
 40
0.0
 40
0.0
 40
0.0
 40
0.0
 40
0.2508640441
 40
0.5013342181
 40
0.7512176851
 40
1.0
 40
1.0
 40
1.0
 40
1.0
 10
144.1798963668
 20
95.053657982
 30
0.0
 10
144.1331406054
 20
95.0593658979
 30
0.0
 10
144.0407956553
 20
95.0840175456
 30
0.0
 10
143.9182749406
 20
95.157341201
 30
0.0
 10
143.8203767865
 20
95.2606959341
 30
0.0
 10
143.7761454015
 20
95.3447920289
 30
0.0
 10
143.7602713962
 20
95.3887241126
 30
0.0
  0
LINE
  5
515
100
AcDbEntity
  8
GEOM
100
AcDbLine
 62
7
  6
CONTINUOUS
 10
143.7602713962
 20
62.7112002478
 11
144.1242405886
 21
62.7209718266
  0
SPLINE
  5
516
100
AcDbEntity
  8
GEOM
100
AcDbSpline
 62
7
  6
CONTINUOUS
 70
0
 71
3
 72
9
 73
5
 74
0
 42
0.0000001
 43
0.0000001
 44
0.0000000001
 40
0.0
 40
0.0
 40
0.0
 40
0.0
 40
0.5000072239
 40
1.0
 40
1.0
 40
1.0
 40
1.0
 10
143.7602713962
 20
73.2759903712
 30
0.0
 10
143.8774163576
 20
74.2335572062
 30
0.0
 10
144.0607203799
 20
76.1554000228
 30
0.0
 10
144.1242416821
 20
78.0852843047
 30
0.0
 10
144.1242416305
 20
79.0499621802
 30
0.0
  0
SPLINE
  5
517
100
AcDbEntity
  8
0
100
AcDbSpline
 62
7
  6
CONTINUOUS
 70
0
 71
3
 72
47
 73
43
 74
0
 42
0.0000001
 43
0.0000001
 44
0.0000000001
 40
0.0
 40
0.0
 40
0.0
 40
0.0
 40
0.0003040751
 40
0.0008177735
 40
0.0026533871
 40
0.0056237198
 40
0.0097388788
 40
0.0149969832
 40
0.021387637
 40
0.0288964741
 40
0.0375082882
 40
0.0472033956
 40
0.0579581898
 40
0.0825483
 40
0.1110488996
 40
0.1431958573
 40
0.1786869528
 40
0.2171906616
 40
0.2583471072
 40
0.3017697364
 40
0.3470529051
 40
0.3937718885
 40
0.4897576555
 40
0.5861387852
 40
0.6793119011
 40
0.7235986622
 40
0.7657937646
 40
0.8055027914
 40
0.8423525236
 40
0.875999457
 40
0.9061284219
 40
0.932457087
 40
0.9547419196
 40
0.9643005608
 40
0.9727745547
 40
0.9801440314
 40
0.9863915384
 40
0.9915057449
 40
0.9954776245
 40
0.9983030468
 40
0.9992898937
 40
1.0
 40
1.0
 40
1.0
 40
1.0
 10
154.7981525434
 20
92.1499467956
 30
0.0
 10
154.800809965
 20
92.1499497584
 30
0.0
 10
154.8072606418
 20
92.1450738426
 30
0.0
 10
154.8173258568
 20
92.1243797502
 30
0.0
 10
154.8291868066
 20
92.0788759159
 30
0.0
 10
154.8422339104
 20
92.0022147853
 30
0.0
 10
154.8557513531
 20
91.8950659515
 30
0.0
 10
154.8693985083
 20
91.7580077465
 30
0.0
 10
154.8831622704
 20
91.591129381
 30
0.0
 10
154.896981713
 20
91.394882353
 30
0.0
 10
154.9108388036
 20
91.1696911392
 30
0.0
 10
154.9247218313
 20
90.9160888962
 30
0.0
 10
154.9441373637
 20
90.5229452382
 30
0.0
 10
154.9679743051
 20
89.9654800737
 30
0.0
 10
154.995581021
 20
89.2210663118
 30
0.0
 10
155.0232525571
 20
88.3813293776
 30
0.0
 10
155.050979818
 20
87.4541311708
 30
0.0
 10
155.0787412886
 20
86.448164578
 30
0.0
 10
155.1065274317
 20
85.3728576354
 30
0.0
 10
155.1343324568
 20
84.238284389
 30
0.0
 10
155.1621498901
 20
83.055084496
 30
0.0
 10
155.199587834
 20
81.4126158192
 30
0.0
 10
155.2457255111
 20
79.3236661577
 30
0.0
 10
155.3006214187
 20
76.8288315153
 30
0.0
 10
155.347053458
 20
74.7857363281
 30
0.0
 10
155.3847734354
 20
73.2161186349
 30
0.0
 10
155.4125697214
 20
72.113640296
 30
0.0
 10
155.4403423994
 20
71.0761779904
 30
0.0
 10
155.4680858924
 20
70.1134488952
 30
0.0
 10
155.495786559
 20
69.2344797898
 30
0.0
 10
155.5234182354
 20
68.4475054506
 30
0.0
 10
155.5509679649
 20
67.7598949641
 30
0.0
 10
155.574837188
 20
67.2520602945
 30
0.0
 10
155.5943587463
 20
66.9002499304
 30
0.0
 10
155.6082144582
 20
66.6786827714
 30
0.0
 10
155.6220215726
 20
66.4861103588
 30
0.0
 10
155.6357852417
 20
66.3229913323
 30
0.0
 10
155.6493996378
 20
66.1896528298
 30
0.0
 10
155.6629267232
 20
66.0864541661
 30
0.0
 10
155.6747233888
 20
66.0193430183
 30
0.0
 10
155.6849972377
 20
65.9811792141
 30
0.0
 10
155.6902098542
 20
65.9672125354
 30
0.0
 10
155.6930766201
 20
65.9617084838
 30
0.0
  0
SPLINE
  5
518
100
AcDbEntity
  8
GEOM
100
AcDbSpline
 62
7
  6
CONTINUOUS
 70
0
 71
3
 72
11
 73
7
 74
0
 42
0.0000001
 43
0.0000001
 44
0.0000000001
 40
0.0
 40
0.0
 40
0.0
 40
0.0
 40
0.2508641908
 40
0.5013346529
 40
0.7512187907
 40
1.0
 40
1.0
 40
1.0
 40
1.0
 10
144.1798974861
 20
63.0462664121
 30
0.0
 10
144.1331416685
 20
63.0405584804
 30
0.0
 10
144.0407965632
 20
63.0159069064
 30
0.0
 10
143.9182756472
 20
62.9425826916
 30
0.0
 10
143.8203784883
 20
62.839227285
 30
0.0
 10
143.7761453276
 20
62.7551321692
 30
0.0
 10
143.7602713962
 20
62.7112002478
 30
0.0
  0
SPLINE
  5
519
100
AcDbEntity
  8
GEOM
100
AcDbSpline
 62
7
  6
CONTINUOUS
 70
0
 71
3
 72
11
 73
7
 74
0
 42
0.0000001
 43
0.0000001
 44
0.0000000001
 40
0.0
 40
0.0
 40
0.0
 40
0.0
 40
0.2683927414
 40
0.5265546014
 40
0.7702165673
 40
1.0
 40
1.0
 40
1.0
 40
1.0
 10
144.2301177066
 20
63.6743702367
 30
0.0
 10
144.1794349421
 20
63.6756972228
 30
0.0
 10
144.0791688959
 20
63.6657383597
 30
0.0
 10
143.941445983
 20
63.6136100391
 30
0.0
 10
143.8295556026
 20
63.5290797297
 30
0.0
 10
143.7779007483
 20
63.4535636767
 30
0.0
 10
143.7602713962
 20
63.413898201
 30
0.0
  0
SPLINE
  5
51A
100
AcDbEntity
  8
GEOM
100
AcDbSpline
 62
7
  6
CONTINUOUS
 70
0
 71
3
 72
11
 73
7
 74
0
 42
0.0000001
 43
0.0000001
 44
0.0000000001
 40
0.0
 40
0.0
 40
0.0
 40
0.0
 40
0.2857082914
 40
0.5555639687
 40
0.7957261229
 40
1.0
 40
1.0
 40
1.0
 40
1.0
 10
144.2301177066
 20
71.7979850252
 30
0.0
 10
144.1792252374
 20
71.7951599867
 30
0.0
 10
144.0805185718
 20
71.7809682312
 30
0.0
 10
143.9451362114
 20
71.7353767352
 30
0.0
 10
143.8346402617
 20
71.6698658679
 30
0.0
 10
143.7790436218
 20
71.610763324
 30
0.0
 10
143.7602713962
 20
71.5795274422
 30
0.0
  0
SPLINE
  5
51B
100
AcDbEntity
  8
GEOM
100
AcDbSpline
 62
7
  6
CONTINUOUS
 70
0
 71
3
 72
12
 73
8
 74
0
 42
0.0000001
 43
0.0000001
 44
0.0000000001
 40
0.0
 40
0.0
 40
0.0
 40
0.0
 40
0.3199933771
 40
0.608688233
 40
0.8412110898
 40
0.9306124683
 40
1.0
 40
1.0
 40
1.0
 40
1.0
 10
144.2301177066
 20
73.3056990928
 30
0.0
 10
144.1797414538
 20
73.3086090034
 30
0.0
 10
144.0837395534
 20
73.311702456
 30
0.0
 10
143.9510922334
 20
73.3084625057
 30
0.0
 10
143.8550145472
 20
73.2994220055
 30
0.0
 10
143.7944559595
 20
73.2874176493
 30
0.0
 10
143.7703797116
 20
73.2801790973
 30
0.0
 10
143.7602713962
 20
73.2759903712
 30
0.0
  0
SPLINE
  5
51C
100
AcDbEntity
  8
GEOM
100
AcDbSpline
 62
7
  6
CONTINUOUS
 70
0
 71
3
 72
11
 73
7
 74
0
 42
0.0000001
 43
0.0000001
 44
0.0000000001
 40
0.0
 40
0.0
 40
0.0
 40
0.0
 40
0.2510962359
 40
0.5008410302
 40
0.7501319964
 40
1.0
 40
1.0
 40
1.0
 40
1.0
 10
143.7602713962
 20
94.6860261594
 30
0.0
 10
143.8770045637
 20
94.0092161952
 30
0.0
 10
144.0602662224
 20
92.6498746664
 30
0.0
 10
144.1560893473
 20
90.5975108257
 30
0.0
 10
144.0605765444
 20
88.5484788192
 30
0.0
 10
143.8771345967
 20
87.1937749933
 30
0.0
 10
143.7602713962
 20
86.5203969183
 30
0.0
  0
SPLINE
  5
51D
100
AcDbEntity
  8
0
100
AcDbSpline
 62
7
  6
CONTINUOUS
 70
0
 71
3
 72
28
 73
24
 74
0
 42
0.0000001
 43
0.0000001
 44
0.0000000001
 40
0.0
 40
0.0
 40
0.0
 40
0.0
 40
0.1948807519
 40
0.2899660274
 40
0.3822614881
 40
0.4708835818
 40
0.554970833
 40
0.6337159877
 40
0.7063643519
 40
0.7722135918
 40
0.8306335394
 40
0.8810642236
 40
0.9031281008
 40
0.9230203076
 40
0.9406951457
 40
0.9561080896
 40
0.9692250431
 40
0.9800197792
 40
0.9884690766
 40
0.9945645943
 40
0.9983296234
 40
0.999381708
 40
1.0
 40
1.0
 40
1.0
 40
1.0
 10
151.4231523663
 20
79.0499621802
 30
0.0
 10
151.4419306154
 20
78.1980375933
 30
0.0
 10
151.4698639828
 20
76.930445847
 30
0.0
 10
151.5077771406
 20
75.2594071756
 30
0.0
 10
151.5359720971
 20
74.0528922163
 30
0.0
 10
151.5641536591
 20
72.8944802285
 30
0.0
 10
151.5923178692
 20
71.795335899
 30
0.0
 10
151.6204570366
 20
70.7660614922
 30
0.0
 10
151.64855972
 20
69.8165651254
 30
0.0
 10
151.6766094213
 20
68.9559826863
 30
0.0
 10
151.7045901978
 20
68.192603982
 30
0.0
 10
151.7287497478
 20
67.6206746668
 30
0.0
 10
151.7484266091
 20
67.2171840516
 30
0.0
 10
151.7625009565
 20
66.9568222911
 30
0.0
 10
151.776545985
 20
66.7255853675
 30
0.0
 10
151.7905520223
 20
66.5240393764
 30
0.0
 10
151.8045068574
 20
66.3526358361
 30
0.0
 10
151.8183379334
 20
66.2118456375
 30
0.0
 10
151.8320412397
 20
66.101767053
 30
0.0
 10
151.8452515044
 20
66.0230219171
 30
0.0
 10
151.8573016093
 20
65.9762720203
 30
0.0
 10
151.8674629952
 20
65.9550207886
 30
0.0
 10
151.8740198132
 20
65.9499619141
 30
0.0
 10
151.8767233427
 20
65.9499646429
 30
0.0
  0
SPLINE
  5
51E
100
AcDbEntity
  8
0
100
AcDbSpline
 62
7
  6
CONTINUOUS
 70
0
 71
3
 72
26
 73
22
 74
0
 42
0.0000001
 43
0.0000001
 44
0.0000000001
 40
0.0
 40
0.0
 40
0.0
 40
0.0
 40
0.1899468248
 40
0.3729703143
 40
0.4598009487
 40
0.5424381491
 40
0.6201316267
 40
0.6921753084
 40
0.7579100934
 40
0.8167414156
 40
0.8681316974
 40
0.9116160712
 40
0.9302686222
 40
0.9468048105
 40
0.9611852354
 40
0.9733818141
 40
0.9833709019
 40
0.9911325651
 40
0.9966639229
 40
0.9986013507
 40
1.0
 40
1.0
 40
1.0
 40
1.0
 10
151.6231523663
 20
79.0499621802
 30
0.0
 10
151.6414309624
 20
78.2207056626
 30
0.0
 10
151.6773206323
 20
76.5924180532
 30
0.0
 10
151.7231639862
 20
74.5850864869
 30
0.0
 10
151.7603956313
 20
73.0462808747
 30
0.0
 10
151.7878143325
 20
71.967327248
 30
0.0
 10
151.8152106323
 20
70.9529665136
 30
0.0
 10
151.842575536
 20
70.0124428291
 30
0.0
 10
151.869900976
 20
69.1543227698
 30
0.0
 10
151.8971571718
 20
68.3864391616
 30
0.0
 10
151.9243311878
 20
67.7157846995
 30
0.0
 10
151.9478797799
 20
67.220587093
 30
0.0
 10
151.9671344727
 20
66.8775756705
 30
0.0
 10
151.980800004
 20
66.6615476729
 30
0.0
 10
151.9944225188
 20
66.4737693557
 30
0.0
 10
152.0079985534
 20
66.3146709836
 30
0.0
 10
152.0214262021
 20
66.1845631041
 30
0.0
 10
152.0347746371
 20
66.0837915376
 30
0.0
 10
152.0464179649
 20
66.0182003653
 30
0.0
 10
152.0565443078
 20
65.9808249166
 30
0.0
 10
152.0616834682
 20
65.9671138631
 30
0.0
 10
152.0645040877
 20
65.9616965778
 30
0.0
  0
SPLINE
  5
51F
100
AcDbEntity
  8
0
100
AcDbSpline
 62
7
  6
CONTINUOUS
 70
0
 71
3
 72
47
 73
43
 74
0
 42
0.0000001
 43
0.0000001
 44
0.0000000001
 40
0.0
 40
0.0
 40
0.0
 40
0.0
 40
0.0003043527
 40
0.000818215
 40
0.0026527203
 40
0.0056231863
 40
0.0097393472
 40
0.014996608
 40
0.021386907
 40
0.0288968016
 40
0.0375082219
 40
0.0472025734
 40
0.057958296
 40
0.0825475125
 40
0.1110492108
 40
0.1431955125
 40
0.1786865492
 40
0.2171908262
 40
0.2583465878
 40
0.3017696738
 40
0.3470527279
 40
0.3937715411
 40
0.4897573544
 40
0.5861384018
 40
0.679311592
 40
0.7235982275
 40
0.7657938621
 40
0.8055020922
 40
0.842352377
 40
0.8759993592
 40
0.9061275989
 40
0.932457325
 40
0.9547412672
 40
0.9643008877
 40
0.9727740433
 40
0.9801431181
 40
0.9863918068
 40
0.9915054876
 40
0.9954765713
 40
0.9983030976
 40
0.9992902198
 40
1.0
 40
1.0
 40
1.0
 40
1.0
 10
152.9838659491
 20
92.1499484887
 30
0.0
 10
152.9865257968
 20
92.1499451989
 30
0.0
 10
152.9929693298
 20
92.1450574772
 30
0.0
 10
153.0030372004
 20
92.1243744985
 30
0.0
 10
153.0149063991
 20
92.0788768847
 30
0.0
 10
153.0279471614
 20
92.002215807
 30
0.0
 10
153.0414615612
 20
91.8950634895
 30
0.0
 10
153.0551132518
 20
91.7580076822
 30
0.0
 10
153.0688770755
 20
91.5911304113
 30
0.0
 10
153.0826933209
 20
91.394880462
 30
0.0
 10
153.0965520683
 20
91.1696901263
 30
0.0
 10
153.1104365993
 20
90.9160898592
 30
0.0
 10
153.1298484833
 20
90.5229522732
 30
0.0
 10
153.1536897242
 20
89.9654773084
 30
0.0
 10
153.1812928374
 20
89.2210672351
 30
0.0
 10
153.2089664574
 20
88.3813268994
 30
0.0
 10
153.2366933233
 20
87.4541298217
 30
0.0
 10
153.2644539766
 20
86.4481645869
 30
0.0
 10
153.2922412875
 20
85.3728545353
 30
0.0
 10
153.3200454184
 20
84.2382840883
 30
0.0
 10
153.3478631867
 20
83.055082527
 30
0.0
 10
153.3853011811
 20
81.4126156952
 30
0.0
 10
153.4314386717
 20
79.3236675267
 30
0.0
 10
153.4863348059
 20
76.8288321901
 30
0.0
 10
153.5327664533
 20
74.7857378621
 30
0.0
 10
153.5704870491
 20
73.2161157497
 30
0.0
 10
153.5982822785
 20
72.1136406314
 30
0.0
 10
153.6260562947
 20
71.0761756914
 30
0.0
 10
153.6537990045
 20
70.1134481445
 30
0.0
 10
153.6814990336
 20
69.2344799654
 30
0.0
 10
153.709133169
 20
68.4475022473
 30
0.0
 10
153.7366788587
 20
67.7598963285
 30
0.0
 10
153.7605530621
 20
67.252051777
 30
0.0
 10
153.7800702798
 20
66.9002476799
 30
0.0
 10
153.7939277804
 20
66.67868287
 30
0.0
 10
153.807737171
 20
66.4861111201
 30
0.0
 10
153.8214964317
 20
66.3229895049
 30
0.0
 10
153.8351110708
 20
66.1896521193
 30
0.0
 10
153.8486448383
 20
66.0864563132
 30
0.0
 10
153.8604369681
 20
66.0193393147
 30
0.0
 10
153.8707080084
 20
65.9811653253
 30
0.0
 10
153.8759220119
 20
65.9671992037
 30
0.0
 10
153.8787898921
 20
65.9616989454
 30
0.0
  0
SPLINE
  5
520
100
AcDbEntity
  8
0
100
AcDbSpline
 62
7
  6
CONTINUOUS
 70
0
 71
3
 72
9
 73
5
 74
0
 42
0.0000001
 43
0.0000001
 44
0.0000000001
 40
0.0
 40
0.0
 40
0.0
 40
0.0
 40
0.5024010194
 40
1.0
 40
1.0
 40
1.0
 40
1.0
 10
149.747149989
 20
63.6742344789
 30
0.0
 10
149.9303175058
 20
64.3381090577
 30
0.0
 10
150.2215184028
 20
65.6816254906
 30
0.0
 10
150.3245002581
 20
67.0541564563
 30
0.0
 10
150.3245002581
 20
67.7362536803
 30
0.0
  0
SPLINE
  5
521
100
AcDbEntity
  8
GEOM
100
AcDbSpline
 62
7
  6
CONTINUOUS
 70
0
 71
3
 72
11
 73
7
 74
0
 42
0.0000001
 43
0.0000001
 44
0.0000000001
 40
0.0
 40
0.0
 40
0.0
 40
0.0
 40
0.2504619924
 40
0.5000038209
 40
0.7495425748
 40
1.0
 40
1.0
 40
1.0
 40
1.0
 10
144.2405253611
 20
71.798272871
 30
0.0
 10
144.3542331085
 20
71.1264007983
 30
0.0
 10
144.5322902204
 20
69.7760660859
 30
0.0
 10
144.6249275652
 20
67.7362307373
 30
0.0
 10
144.5322863689
 20
65.6964082374
 30
0.0
 10
144.3542328508
 20
64.3460939928
 30
0.0
 10
144.2405253593
 20
63.6742344794
 30
0.0
  0
LINE
  5
522
100
AcDbEntity
  8
GEOM
100
AcDbLine
 62
7
  6
CONTINUOUS
 10
144.1242407998
 20
95.3789522398
 11
143.9973852365
 21
95.3824906187
  0
LINE
  5
523
100
AcDbEntity
  8
GEOM
100
AcDbLine
 62
7
  6
CONTINUOUS
 10
143.9973852365
 20
95.3824906187
 11
143.7602713962
 21
95.3887241126
  0
SPLINE
  5
524
100
AcDbEntity
  8
0
100
AcDbSpline
 62
7
  6
CONTINUOUS
 70
0
 71
3
 72
9
 73
5
 74
0
 42
0.0000001
 43
0.0000001
 44
0.0000000001
 40
0.0
 40
0.0
 40
0.0
 40
0.0
 40
0.4975989906
 40
1.0
 40
1.0
 40
1.0
 40
1.0
 10
150.3245002581
 20
67.7362536803
 30
0.0
 10
150.3245002582
 20
68.4183509184
 30
0.0
 10
150.2215184009
 20
69.7908818848
 30
0.0
 10
149.9303175023
 20
71.1343983177
 30
0.0
 10
149.747149989
 20
71.7982728835
 30
0.0
  0
SPLINE
  5
525
100
AcDbEntity
  8
0
100
AcDbSpline
 62
7
  6
CONTINUOUS
 70
0
 71
3
 72
9
 73
5
 74
0
 42
0.0000001
 43
0.0000001
 44
0.0000000001
 40
0.0
 40
0.0
 40
0.0
 40
0.0
 40
0.4999853593
 40
1.0
 40
1.0
 40
1.0
 40
1.0
 10
150.3245002582
 20
79.0499621804
 30
0.0
 10
150.3245002581
 20
80.0133195961
 30
0.0
 10
150.2227085755
 20
81.9413540537
 30
0.0
 10
149.9316296932
 20
83.8489385246
 30
0.0
 10
149.747149989
 20
84.7945248267
 30
0.0
  0
LINE
  5
526
100
AcDbEntity
  8
0
100
AcDbLine
 62
7
  6
CONTINUOUS
 10
154.6103718116
 20
92.1382336661
 11
154.6126054913
 21
92.1335558274
  0
SPLINE
  5
527
100
AcDbEntity
  8
0
100
AcDbSpline
 62
7
  6
CONTINUOUS
 70
0
 71
3
 72
44
 73
40
 74
0
 42
0.0000001
 43
0.0000001
 44
0.0000000001
 40
0.0
 40
0.0
 40
0.0
 40
0.0
 40
0.0018675319
 40
0.0048650884
 40
0.0090020419
 40
0.0142763164
 40
0.0206773965
 40
0.0281909957
 40
0.0464906148
 40
0.0690071675
 40
0.0955349607
 40
0.1258267031
 40
0.1596006043
 40
0.1965436685
 40
0.2363102335
 40
0.3228118985
 40
0.415888439
 40
0.5120779138
 40
0.607802065
 40
0.6543726079
 40
0.6994998794
 40
0.7427640751
 40
0.7837608798
 40
0.8221091696
 40
0.8574517909
 40
0.8894585159
 40
0.917833395
 40
0.9423113736
 40
0.9530172909
 40
0.9626663656
 40
0.9712380998
 40
0.9787127376
 40
0.9850723684
 40
0.9903052557
 40
0.9944022082
 40
0.9973580558
 40
0.999184474
 40
0.9996964621
 40
1.0
 40
1.0
 40
1.0
 40
1.0
 10
154.6126054913
 20
92.1335558274
 30
0.0
 10
154.6191843411
 20
92.1186229953
 30
0.0
 10
154.6293486457
 20
92.0769865329
 30
0.0
 10
154.6427063944
 20
91.9996197742
 30
0.0
 10
154.6560586573
 20
91.8919176876
 30
0.0
 10
154.6697298762
 20
91.7544584375
 30
0.0
 10
154.6834453403
 20
91.5873366053
 30
0.0
 10
154.703153538
 20
91.306551614
 30
0.0
 10
154.7269842316
 20
90.8849176852
 30
0.0
 10
154.7543371032
 20
90.2971244251
 30
0.0
 10
154.7818064157
 20
89.6044544654
 30
0.0
 10
154.8093828041
 20
88.8133612434
 30
0.0
 10
154.8370172716
 20
87.9312157036
 30
0.0
 10
154.8646950251
 20
86.9662474645
 30
0.0
 10
154.9027104591
 20
85.5406734879
 30
0.0
 10
154.9493593291
 20
83.6246856038
 30
0.0
 10
155.0040592957
 20
81.2157501325
 30
0.0
 10
155.0588187071
 20
78.7262134218
 30
0.0
 10
155.1048529414
 20
76.6429352453
 30
0.0
 10
155.1422032819
 20
75.0057371993
 30
0.0
 10
155.1699524179
 20
73.8268153778
 30
0.0
 10
155.1976873508
 20
72.6966084318
 30
0.0
 10
155.2254053719
 20
71.6256519451
 30
0.0
 10
155.2530978373
 20
70.623935051
 30
0.0
 10
155.2807548015
 20
69.7008013229
 30
0.0
 10
155.3083601731
 20
68.8648521912
 30
0.0
 10
155.3358950909
 20
68.1238895865
 30
0.0
 10
155.3596764269
 20
67.5690405515
 30
0.0
 10
155.3790407034
 20
67.1777838569
 30
0.0
 10
155.3928915999
 20
66.925411604
 30
0.0
 10
155.4067145641
 20
66.7013164155
 30
0.0
 10
155.4204958886
 20
66.5060282258
 30
0.0
 10
155.4342275687
 20
66.3399734507
 30
0.0
 10
155.4478445688
 20
66.2035934476
 30
0.0
 10
155.4613214762
 20
66.096971278
 30
0.0
 10
155.4743365695
 20
66.0206910449
 30
0.0
 10
155.4861747369
 20
65.9754205777
 30
0.0
 10
155.4962191089
 20
65.9548326221
 30
0.0
 10
155.5026436643
 20
65.9499694064
 30
0.0
 10
155.5052958644
 20
65.9499662551
 30
0.0
  0
SPLINE
  5
528
100
AcDbEntity
  8
0
100
AcDbSpline
 62
7
  6
CONTINUOUS
 70
0
 71
3
 72
9
 73
5
 74
0
 42
0.0000001
 43
0.0000001
 44
0.0000000001
 40
0.0
 40
0.0
 40
0.0
 40
0.0
 40
0.5000185118
 40
1.0
 40
1.0
 40
1.0
 40
1.0
 10
149.747149989
 20
73.3053995337
 30
0.0
 10
149.9316311656
 20
74.2509933833
 30
0.0
 10
150.2227376911
 20
76.1585749481
 30
0.0
 10
150.3245002582
 20
78.0866119923
 30
0.0
 10
150.3245002582
 20
79.0499621804
 30
0.0
  0
SPLINE
  5
529
100
AcDbEntity
  8
0
100
AcDbSpline
 62
7
  6
CONTINUOUS
 70
0
 71
3
 72
9
 73
5
 74
0
 42
0.0000001
 43
0.0000001
 44
0.0000000001
 40
0.0
 40
0.0
 40
0.0
 40
0.0
 40
0.2249728459
 40
1.0
 40
1.0
 40
1.0
 40
1.0
 10
152.7960851645
 20
92.1382149833
 30
0.0
 10
152.7964891245
 20
92.1374398559
 30
0.0
 10
152.7982145164
 20
92.1339578164
 30
0.0
 10
152.7996938232
 20
92.1303581436
 30
0.0
 10
152.8007565149
 20
92.1275407281
 30
0.0
  0
SPLINE
  5
52A
100
AcDbEntity
  8
0
100
AcDbSpline
 62
7
  6
CONTINUOUS
 70
0
 71
3
 72
44
 73
40
 74
0
 42
0.0000001
 43
0.0000001
 44
0.0000000001
 40
0.0
 40
0.0
 40
0.0
 40
0.0
 40
0.0020553053
 40
0.0052397665
 40
0.0095580872
 40
0.0150047875
 40
0.0215713209
 40
0.0292431633
 40
0.047830243
 40
0.0705998135
 40
0.0973419981
 40
0.1278093729
 40
0.1617219263
 40
0.198763983
 40
0.2385933386
 40
0.3251148271
 40
0.4180860802
 40
0.5140673192
 40
0.609507639
 40
0.6559168929
 40
0.7008759867
 40
0.7439672721
 40
0.784791992
 40
0.8229720136
 40
0.8581524871
 40
0.8900093219
 40
0.9182464225
 40
0.9426032818
 40
0.9532554594
 40
0.9628569068
 40
0.971384415
 40
0.9788203174
 40
0.9851485147
 40
0.9903542158
 40
0.994429204
 40
0.9973709128
 40
0.9991884519
 40
0.9996976553
 40
1.0
 40
1.0
 40
1.0
 40
1.0
 10
152.8007565149
 20
92.1275407281
 30
0.0
 10
152.8070928006
 20
92.1107419223
 30
0.0
 10
152.8173206686
 20
92.0658815501
 30
0.0
 10
152.830644073
 20
91.9835385322
 30
0.0
 10
152.8440324852
 20
91.8711461485
 30
0.0
 10
152.8576784063
 20
91.7291483048
 30
0.0
 10
152.8713728207
 20
91.5577237916
 30
0.0
 10
152.8909959071
 20
91.271649069
 30
0.0
 10
152.9147691148
 20
90.8440057074
 30
0.0
 10
152.9420582706
 20
90.24975325
 30
0.0
 10
152.9694653096
 20
89.5516310109
 30
0.0
 10
152.9969736938
 20
88.756110002
 30
0.0
 10
153.0245357437
 20
87.8705684347
 30
0.0
 10
153.0521427353
 20
86.9032111892
 30
0.0
 10
153.0900390888
 20
85.4763994161
 30
0.0
 10
153.1365543756
 20
83.5610799555
 30
0.0
 10
153.1911129542
 20
81.1553027993
 30
0.0
 10
153.245729327
 20
78.6715975272
 30
0.0
 10
153.2916486064
 20
76.5945403317
 30
0.0
 10
153.3289044468
 20
74.9631035212
 30
0.0
 10
153.3565774625
 20
73.788860943
 30
0.0
 10
153.3842378227
 20
72.6634156169
 30
0.0
 10
153.4118803387
 20
71.5972069475
 30
0.0
 10
153.439496656
 20
70.6001267875
 30
0.0
 10
153.4670802538
 20
69.6814166394
 30
0.0
 10
153.4946083951
 20
68.849603134
 30
0.0
 10
153.5220699931
 20
68.112394478
 30
0.0
 10
153.5457859174
 20
67.5604134546
 30
0.0
 10
153.5650997093
 20
67.1711970403
 30
0.0
 10
153.5789099472
 20
66.9201588039
 30
0.0
 10
153.5926965233
 20
66.6972598585
 30
0.0
 10
153.6064430143
 20
66.503019403
 30
0.0
 10
153.6201330227
 20
66.3378560648
 30
0.0
 10
153.6337129215
 20
66.2022131113
 30
0.0
 10
153.6471580344
 20
66.0961726102
 30
0.0
 10
153.6601380258
 20
66.0203007624
 30
0.0
 10
153.6719323986
 20
65.9752712903
 30
0.0
 10
153.6819615625
 20
65.9547957479
 30
0.0
 10
153.6883680039
 20
65.9499820005
 30
0.0
 10
153.6910091276
 20
65.9499822943
 30
0.0
  0
SPLINE
  5
52B
100
AcDbEntity
  8
GEOM
100
AcDbSpline
 62
7
  6
CONTINUOUS
 70
0
 71
3
 72
9
 73
5
 74
0
 42
0.0000001
 43
0.0000001
 44
0.0000000001
 40
0.0
 40
0.0
 40
0.0
 40
0.0
 40
0.5000071698
 40
1.0
 40
1.0
 40
1.0
 40
1.0
 10
144.2406122581
 20
73.3053995625
 30
0.0
 10
144.3546457257
 20
74.258282988
 30
0.0
 10
144.5325223904
 20
76.1704990595
 30
0.0
 10
144.5940880392
 20
78.090307227
 30
0.0
 10
144.5940879409
 20
79.0499621802
 30
0.0
  0
SPLINE
  5
52C
100
AcDbEntity
  8
GEOM
100
AcDbSpline
 62
7
  6
CONTINUOUS
 70
0
 71
3
 72
9
 73
5
 74
0
 42
0.0000001
 43
0.0000001
 44
0.0000000001
 40
0.0
 40
0.0
 40
0.0
 40
0.0
 40
0.4999908997
 40
1.0
 40
1.0
 40
1.0
 40
1.0
 10
144.5940879409
 20
79.0499621802
 30
0.0
 10
144.5940879231
 20
80.0096121632
 30
0.0
 10
144.5324868861
 20
81.9294142565
 30
0.0
 10
144.3547299116
 20
83.8416388193
 30
0.0
 10
144.2406971931
 20
84.7945247919
 30
0.0
  0
SPLINE
  5
52D
100
AcDbEntity
  8
0
100
AcDbSpline
 62
7
  6
CONTINUOUS
 70
0
 71
3
 72
9
 73
5
 74
0
 42
0.0000001
 43
0.0000001
 44
0.0000000001
 40
0.0
 40
0.0
 40
0.0
 40
0.0
 40
0.5024010194
 40
1.0
 40
1.0
 40
1.0
 40
1.0
 10
149.747149989
 20
86.3016514769
 30
0.0
 10
149.9303175059
 20
86.9655260558
 30
0.0
 10
150.2215184029
 20
88.309042489
 30
0.0
 10
150.3245002581
 20
89.6815734549
 30
0.0
 10
150.3245002581
 20
90.3636706791
 30
0.0
  0
SPLINE
  5
52E
100
AcDbEntity
  8
GEOM
100
AcDbSpline
 62
7
  6
CONTINUOUS
 70
0
 71
3
 72
11
 73
7
 74
0
 42
0.0000001
 43
0.0000001
 44
0.0000000001
 40
0.0
 40
0.0
 40
0.0
 40
0.0
 40
0.2504643473
 40
0.5000050329
 40
0.7495429022
 40
1.0
 40
1.0
 40
1.0
 40
1.0
 10
144.2405253715
 20
94.4256897986
 30
0.0
 10
144.3542361957
 20
93.7538117553
 30
0.0
 10
144.5322879477
 20
92.4034729398
 30
0.0
 10
144.6249292179
 20
90.3636371119
 30
0.0
 10
144.5322857647
 20
88.3238209829
 30
0.0
 10
144.3542327106
 20
86.9735101044
 30
0.0
 10
144.2405253592
 20
86.3016514774
 30
0.0
  0
SPLINE
  5
52F
100
AcDbEntity
  8
0
100
AcDbSpline
 62
7
  6
CONTINUOUS
 70
0
 71
3
 72
28
 73
24
 74
0
 42
0.0000001
 43
0.0000001
 44
0.0000000001
 40
0.0
 40
0.0
 40
0.0
 40
0.0
 40
0.0005806892
 40
0.001610266
 40
0.0053510851
 40
0.0114351683
 40
0.0198747916
 40
0.0306619397
 40
0.0437764283
 40
0.0591863474
 40
0.0768579286
 40
0.0967508663
 40
0.1188151507
 40
0.1692479326
 40
0.2276726361
 40
0.293531406
 40
0.3661885264
 40
0.4449445367
 40
0.5290443216
 40
0.6176787805
 40
0.7099898987
 40
0.8050892213
 40
1.0
 40
1.0
 40
1.0
 40
1.0
 10
151.2780704052
 20
64.7999797321
 30
0.0
 10
151.2753089407
 20
64.799980583
 30
0.0
 10
151.2686527016
 20
64.8057154844
 30
0.0
 10
151.2586756611
 20
64.8286860605
 30
0.0
 10
151.2465298323
 20
64.8795811628
 30
0.0
 10
151.2334079394
 20
64.9651351747
 30
0.0
 10
151.219672911
 20
65.0848787589
 30
0.0
 10
151.205853483
 20
65.238007909
 30
0.0
 10
151.1918988664
 20
65.4244573142
 30
0.0
 10
151.1778935948
 20
65.6436915209
 30
0.0
 10
151.1638464749
 20
65.8952235194
 30
0.0
 10
151.1497747191
 20
66.1784393238
 30
0.0
 10
151.1300969021
 20
66.6173602806
 30
0.0
 10
151.1059376496
 20
67.2394940715
 30
0.0
 10
151.0779560466
 20
68.0698872391
 30
0.0
 10
151.0499076916
 20
69.0060189157
 30
0.0
 10
151.0218039922
 20
70.0388730626
 30
0.0
 10
150.9936651429
 20
71.1585007055
 30
0.0
 10
150.9655013461
 20
72.3541301362
 30
0.0
 10
150.9373194003
 20
73.6142372346
 30
0.0
 10
150.909124746
 20
74.9266647686
 30
0.0
 10
150.8712115377
 20
76.7443962772
 30
0.0
 10
150.84327841
 20
78.1232551171
 30
0.0
 10
150.8245002581
 20
79.0499621802
 30
0.0
  0
SPLINE
  5
530
100
AcDbEntity
  8
0
100
AcDbSpline
 62
7
  6
CONTINUOUS
 70
0
 71
3
 72
28
 73
24
 74
0
 42
0.0000001
 43
0.0000001
 44
0.0000000001
 40
0.0
 40
0.0
 40
0.0
 40
0.0
 40
0.0005805374
 40
0.0016099512
 40
0.0053508372
 40
0.0114344094
 40
0.0198734549
 40
0.0306605874
 40
0.0437745308
 40
0.0591838033
 40
0.0768552721
 40
0.0967476147
 40
0.1188111922
 40
0.1692432328
 40
0.2276670695
 40
0.2935246084
 40
0.3661808134
 40
0.4449359131
 40
0.5290356237
 40
0.6176719708
 40
0.7099854843
 40
0.8050876806
 40
1.0
 40
1.0
 40
1.0
 40
1.0
 10
153.0923577957
 20
64.7999797362
 30
0.0
 10
153.0895970524
 20
64.7999788927
 30
0.0
 10
153.0829390473
 20
64.8057104034
 30
0.0
 10
153.0729630276
 20
64.8286808085
 30
0.0
 10
153.0608181815
 20
64.8795724999
 30
0.0
 10
153.0476951443
 20
64.9651217912
 30
0.0
 10
153.0339600515
 20
65.0848599751
 30
0.0
 10
153.020141596
 20
65.2379838542
 30
0.0
 10
153.0061865485
 20
65.4244274766
 30
0.0
 10
152.9921810963
 20
65.6436555063
 30
0.0
 10
152.9781345831
 20
65.8951811302
 30
0.0
 10
152.9640626217
 20
66.1783902391
 30
0.0
 10
152.9443846963
 20
66.6173015414
 30
0.0
 10
152.9202258121
 20
67.2394244384
 30
0.0
 10
152.892244249
 20
68.0698042414
 30
0.0
 10
152.8641957118
 20
69.0059217405
 30
0.0
 10
152.8360925445
 20
70.0387615383
 30
0.0
 10
152.8079535113
 20
71.1583803303
 30
0.0
 10
152.7797882285
 20
72.3540142309
 30
0.0
 10
152.7516084605
 20
73.6141416209
 30
0.0
 10
152.7234144126
 20
74.9266034331
 30
0.0
 10
152.6854716039
 20
76.7443670407
 30
0.0
 10
152.6576254843
 20
78.1232488859
 30
0.0
 10
152.638785347
 20
79.0499621802
 30
0.0
  0
SPLINE
  5
531
100
AcDbEntity
  8
0
100
AcDbSpline
 62
7
  6
CONTINUOUS
 70
0
 71
3
 72
28
 73
24
 74
0
 42
0.0000001
 43
0.0000001
 44
0.0000000001
 40
0.0
 40
0.0
 40
0.0
 40
0.0
 40
0.0005805388
 40
0.0016099539
 40
0.0053508399
 40
0.0114344198
 40
0.0198734751
 40
0.0306606153
 40
0.0437745762
 40
0.0591838605
 40
0.0768553209
 40
0.0967476571
 40
0.1188112428
 40
0.1692433851
 40
0.227667365
 40
0.293525046
 40
0.3661813457
 40
0.4449365174
 40
0.5290362631
 40
0.6176725702
 40
0.7099860404
 40
0.805088083
 40
1.0
 40
1.0
 40
1.0
 40
1.0
 10
154.906644522
 20
64.7999797491
 30
0.0
 10
154.9038837722
 20
64.7999789207
 30
0.0
 10
154.8972257829
 20
64.8057104611
 30
0.0
 10
154.8872497513
 20
64.8286808691
 30
0.0
 10
154.8751048965
 20
64.8795726092
 30
0.0
 10
154.8619818711
 20
64.9651219822
 30
0.0
 10
154.8482467758
 20
65.0848602876
 30
0.0
 10
154.8344283069
 20
65.2379843319
 30
0.0
 10
154.8204732658
 20
65.4244281315
 30
0.0
 10
154.8064678171
 20
65.6436562598
 30
0.0
 10
154.7924212995
 20
65.8951818687
 30
0.0
 10
154.7783493486
 20
66.1783909453
 30
0.0
 10
154.7586714141
 20
66.6173027386
 30
0.0
 10
154.7345124897
 20
67.2394268363
 30
0.0
 10
154.7065308744
 20
68.0698084775
 30
0.0
 10
154.6784823944
 20
69.0059277831
 30
0.0
 10
154.6503789566
 20
70.0387690396
 30
0.0
 10
154.6222400189
 20
71.1583887916
 30
0.0
 10
154.5940757901
 20
72.3540230325
 30
0.0
 10
154.5658934733
 20
73.6141501308
 30
0.0
 10
154.5376979838
 20
74.9266107873
 30
0.0
 10
154.4997829452
 20
76.7443721082
 30
0.0
 10
154.4718528946
 20
78.1232495981
 30
0.0
 10
154.4530721077
 20
79.0499621802
 30
0.0
  0
SPLINE
  5
532
100
AcDbEntity
  8
0
100
AcDbSpline
 62
7
  6
CONTINUOUS
 70
0
 71
3
 72
28
 73
24
 74
0
 42
0.0000001
 43
0.0000001
 44
0.0000000001
 40
0.0
 40
0.0
 40
0.0
 40
0.0
 40
0.0005806885
 40
0.0016102643
 40
0.0053510851
 40
0.0114351687
 40
0.0198747911
 40
0.0306619393
 40
0.0437764267
 40
0.0591863493
 40
0.0768579468
 40
0.0967509108
 40
0.1188152148
 40
0.1692479699
 40
0.2276726112
 40
0.2935313319
 40
0.3661884345
 40
0.4449444435
 40
0.5290442394
 40
0.6176787143
 40
0.7099898423
 40
0.8050891827
 40
1.0
 40
1.0
 40
1.0
 40
1.0
 10
155.396805509
 20
93.2999446174
 30
0.0
 10
155.3995669704
 20
93.2999437815
 30
0.0
 10
155.4062232338
 20
93.2942089148
 30
0.0
 10
155.416200288
 20
93.2712383346
 30
0.0
 10
155.4283461279
 20
93.2203432371
 30
0.0
 10
155.441468048
 20
93.1347892187
 30
0.0
 10
155.4552030992
 20
93.0150456403
 30
0.0
 10
155.4690225467
 20
92.8619165004
 30
0.0
 10
155.4829771884
 20
92.6754670853
 30
0.0
 10
155.4969824868
 20
92.4562327907
 30
0.0
 10
155.5110296347
 20
92.2047005732
 30
0.0
 10
155.5251014204
 20
91.9214844725
 30
0.0
 10
155.5447792696
 20
91.4825634244
 30
0.0
 10
155.5689385556
 20
90.8604299624
 30
0.0
 10
155.5969201686
 20
90.0300374491
 30
0.0
 10
155.6249685597
 20
89.0939063845
 30
0.0
 10
155.6530722944
 20
88.0610525594
 30
0.0
 10
155.6812111932
 20
86.9414249519
 30
0.0
 10
155.7093750546
 20
85.7457953953
 30
0.0
 10
155.737557029
 20
84.4856881173
 30
0.0
 10
155.765751714
 20
83.173260371
 30
0.0
 10
155.8036653078
 20
81.3555285482
 30
0.0
 10
155.8315975663
 20
79.9766694166
 30
0.0
 10
155.8503764096
 20
79.0499621802
 30
0.0
  0
SPLINE
  5
533
100
AcDbEntity
  8
0
100
AcDbSpline
 62
7
  6
CONTINUOUS
 70
0
 71
3
 72
28
 73
24
 74
0
 42
0.0000001
 43
0.0000001
 44
0.0000000001
 40
0.0
 40
0.0
 40
0.0
 40
0.0
 40
0.0005806147
 40
0.0016101089
 40
0.0053509845
 40
0.0114348895
 40
0.0198742966
 40
0.0306615021
 40
0.0437758626
 40
0.0591856052
 40
0.0768572424
 40
0.096750092
 40
0.1188142384
 40
0.1692470416
 40
0.2276717349
 40
0.2935304724
 40
0.3661876947
 40
0.4449437609
 40
0.5290436307
 40
0.6176782395
 40
0.7099894006
 40
0.805088904
 40
1.0
 40
1.0
 40
1.0
 40
1.0
 10
153.5825180506
 20
93.2999443643
 30
0.0
 10
153.5852791612
 20
93.299944363
 30
0.0
 10
153.5919363083
 20
93.2942111964
 30
0.0
 10
153.6019129652
 20
93.2712406218
 30
0.0
 10
153.6140583155
 20
93.2203467369
 30
0.0
 10
153.627180787
 20
93.1347942615
 30
0.0
 10
153.6409159331
 20
93.0150523582
 30
0.0
 10
153.654735004
 20
92.8619245092
 30
0.0
 10
153.6686898387
 20
92.6754762974
 30
0.0
 10
153.6826952619
 20
92.4562432644
 30
0.0
 10
153.6967422148
 20
92.2047122331
 30
0.0
 10
153.7108140919
 20
91.921497224
 30
0.0
 10
153.7304920546
 20
91.4825772163
 30
0.0
 10
153.75465125
 20
90.8604439815
 30
0.0
 10
153.7826329898
 20
90.0300508601
 30
0.0
 10
153.8106815149
 20
89.0939188384
 30
0.0
 10
153.8387851345
 20
88.0610640183
 30
0.0
 10
153.8669241132
 20
86.9414351434
 30
0.0
 10
153.895088604
 20
85.7458042598
 30
0.0
 10
153.9232693524
 20
84.4856957209
 30
0.0
 10
153.9514629599
 20
83.1732662959
 30
0.0
 10
153.9893918289
 20
81.3555324037
 30
0.0
 10
154.0172786035
 20
79.9766701531
 30
0.0
 10
154.036089603
 20
79.0499621802
 30
0.0
  0
SPLINE
  5
534
100
AcDbEntity
  8
0
100
AcDbSpline
 62
7
  6
CONTINUOUS
 70
0
 71
3
 72
9
 73
5
 74
0
 42
0.0000001
 43
0.0000001
 44
0.0000000001
 40
0.0
 40
0.0
 40
0.0
 40
0.0
 40
0.4975989906
 40
1.0
 40
1.0
 40
1.0
 40
1.0
 10
150.3245002581
 20
90.3636706791
 30
0.0
 10
150.3245002582
 20
91.045767917
 30
0.0
 10
150.2215184008
 20
92.4182988832
 30
0.0
 10
149.9303175022
 20
93.7618153158
 30
0.0
 10
149.747149989
 20
94.4256898815
 30
0.0
  0
SPLINE
  5
535
100
AcDbEntity
  8
0
100
AcDbSpline
 62
7
  6
CONTINUOUS
 70
0
 71
3
 72
9
 73
5
 74
0
 42
0.0000001
 43
0.0000001
 44
0.0000000001
 40
0.0
 40
0.0
 40
0.0
 40
0.0
 40
0.2373325247
 40
1.0
 40
1.0
 40
1.0
 40
1.0
 10
139.4082407374
 20
144.9118513347
 30
0.0
 10
139.4009653503
 20
144.8754569808
 30
0.0
 10
139.373387689
 20
144.7215184224
 30
0.0
 10
139.3508308395
 20
144.566629292
 30
0.0
 10
139.3260633991
 20
144.4499621802
 30
0.0
  0
SPLINE
  5
536
100
AcDbEntity
  8
0
100
AcDbSpline
 62
7
  6
CONTINUOUS
 70
0
 71
3
 72
38
 73
34
 74
0
 42
0.0000001
 43
0.0000001
 44
0.0000000001
 40
0.0
 40
0.0
 40
0.0
 40
0.0
 40
0.0007786586
 40
0.0025708771
 40
0.0054676519
 40
0.0094816756
 40
0.0146117831
 40
0.0208465658
 40
0.0281721187
 40
0.0365739339
 40
0.0565346979
 40
0.0805425191
 40
0.108386634
 40
0.1398082742
 40
0.1745260678
 40
0.2122201244
 40
0.252549292
 40
0.2951443926
 40
0.3855630522
 40
0.4801844894
 40
0.575563735
 40
0.6682281913
 40
0.7548043242
 40
0.83214082
 40
0.8664503736
 40
0.897423994
 40
0.924786156
 40
0.9482815174
 40
0.967704319
 40
0.9828739589
 40
0.9936654393
 40
0.9973916512
 40
1.0
 40
1.0
 40
1.0
 40
1.0
 10
100.0165226106
 20
92.1319578581
 30
0.0
 10
100.0233088201
 20
92.1319455264
 30
0.0
 10
100.0360819919
 20
92.1063451011
 30
0.0
 10
100.0463902177
 20
92.0646231659
 30
0.0
 10
100.0603563109
 20
91.9874544164
 30
0.0
 10
100.0732198904
 20
91.8843834562
 30
0.0
 10
100.0868654977
 20
91.7506194933
 30
0.0
 10
100.100380227
 20
91.5884327213
 30
0.0
 10
100.1140391824
 20
91.3974608415
 30
0.0
 10
100.1333921228
 20
91.0870499361
 30
0.0
 10
100.1569641852
 20
90.6312131891
 30
0.0
 10
100.1840958351
 20
90.0059360436
 30
0.0
 10
100.2113177097
 20
89.2806898962
 30
0.0
 10
100.2386297706
 20
88.4620522516
 30
0.0
 10
100.2659840968
 20
87.5575274367
 30
0.0
 10
100.2933781825
 20
86.5753402296
 30
0.0
 10
100.3207953295
 20
85.5244759639
 30
0.0
 10
100.3581211118
 20
84.0142061647
 30
0.0
 10
100.404051153
 20
82.0308345049
 30
0.0
 10
100.4582270523
 20
79.5875044332
 30
0.0
 10
100.5124147202
 20
77.1245971556
 30
0.0
 10
100.5665421341
 20
74.7318224278
 30
0.0
 10
100.6205413723
 20
72.4963346166
 30
0.0
 10
100.666950373
 20
70.7693933604
 30
0.0
 10
100.7049471316
 20
69.5270032463
 30
0.0
 10
100.732256268
 20
68.7200349392
 30
0.0
 10
100.7594590112
 20
68.0073678199
 30
0.0
 10
100.7865868744
 20
67.3954586385
 30
0.0
 10
100.8133762867
 20
66.8898881904
 30
0.0
 10
100.8400548656
 20
66.4952826173
 30
0.0
 10
100.863144597
 20
66.2374538309
 30
0.0
 10
100.8834358557
 20
66.0895953643
 30
0.0
 10
100.8936610454
 20
66.0352445556
 30
0.0
 10
100.8994979462
 20
66.0132742197
 30
0.0
  0
SPLINE
  5
537
100
AcDbEntity
  8
0
100
AcDbSpline
 62
7
  6
CONTINUOUS
 70
0
 71
3
 72
9
 73
5
 74
0
 42
0.0000001
 43
0.0000001
 44
0.0000000001
 40
0.0
 40
0.0
 40
0.0
 40
0.0
 40
0.3044553467
 40
1.0
 40
1.0
 40
1.0
 40
1.0
 10
100.8994979462
 20
66.0132742197
 30
0.0
 10
100.9004245997
 20
66.0097862575
 30
0.0
 10
100.9036530442
 20
65.9983958542
 30
0.0
 10
100.9074815311
 20
65.9870695191
 30
0.0
 10
100.9112903769
 20
65.9797571776
 30
0.0
  0
SPLINE
  5
538
100
AcDbEntity
  8
0
100
AcDbSpline
 62
7
  6
CONTINUOUS
 70
0
 71
3
 72
38
 73
34
 74
0
 42
0.0000001
 43
0.0000001
 44
0.0000000001
 40
0.0
 40
0.0
 40
0.0
 40
0.0
 40
0.0007775778
 40
0.0025727639
 40
0.0054761541
 40
0.009496721
 40
0.0146320221
 40
0.0208758334
 40
0.0282145404
 40
0.0366300619
 40
0.0566172375
 40
0.0806633069
 40
0.1085442489
 40
0.1400123761
 40
0.1747746954
 40
0.2125196895
 40
0.2528975282
 40
0.2955438355
 40
0.3860582523
 40
0.480762472
 40
0.5762028664
 40
0.6688988935
 40
0.7554702886
 40
0.8327606767
 40
0.8670284265
 40
0.8979533683
 40
0.925250379
 40
0.9486753942
 40
0.9680106977
 40
0.9830893289
 40
0.993773625
 40
0.9974456074
 40
1.0
 40
1.0
 40
1.0
 40
1.0
 10
98.2025224981
 20
92.1319276106
 30
0.0
 10
98.2093000047
 20
92.1319464824
 30
0.0
 10
98.222143711
 20
92.1063179485
 30
0.0
 10
98.2323955721
 20
92.0645302368
 30
0.0
 10
98.2463964452
 20
91.9872010101
 30
0.0
 10
98.2592588426
 20
91.8839629374
 30
0.0
 10
98.272928865
 20
91.7500031809
 30
0.0
 10
98.2864509456
 20
91.5875605075
 30
0.0
 10
98.3001182186
 20
91.3962546671
 30
0.0
 10
98.3194845586
 20
91.0853458236
 30
0.0
 10
98.3430861224
 20
90.6287772258
 30
0.0
 10
98.3702277582
 20
90.0025474407
 30
0.0
 10
98.3974825672
 20
89.2761638108
 30
0.0
 10
98.4248085127
 20
88.4563232068
 30
0.0
 10
98.4521920104
 20
87.550463681
 30
0.0
 10
98.4796035621
 20
86.5669140077
 30
0.0
 10
98.50704676
 20
85.5146218774
 30
0.0
 10
98.5443989986
 20
84.0024838121
 30
0.0
 10
98.5903661322
 20
82.0168956564
 30
0.0
 10
98.6445848654
 20
79.5712128488
 30
0.0
 10
98.698815733
 20
77.1065103312
 30
0.0
 10
98.7529848334
 20
74.7127109323
 30
0.0
 10
98.8070264411
 20
72.4771506327
 30
0.0
 10
98.8534713489
 20
70.7508314855
 30
0.0
 10
98.8915115741
 20
69.5094994845
 30
0.0
 10
98.9188337236
 20
68.7038017075
 30
0.0
 10
98.9460663186
 20
67.9926649264
 30
0.0
 10
98.9731996669
 20
67.3826358635
 30
0.0
 10
99.0000163894
 20
66.8791823982
 30
0.0
 10
99.0266925133
 20
66.4870335003
 30
0.0
 10
99.0497835322
 20
66.2313768505
 30
0.0
 10
99.0701230512
 20
66.0854087204
 30
0.0
 10
99.0803466819
 20
66.0320028939
 30
0.0
 10
99.0862262769
 20
66.0105286294
 30
0.0
  0
SPLINE
  5
539
100
AcDbEntity
  8
0
100
AcDbSpline
 62
7
  6
CONTINUOUS
 70
0
 71
3
 72
9
 73
5
 74
0
 42
0.0000001
 43
0.0000001
 44
0.0000000001
 40
0.0
 40
0.0
 40
0.0
 40
0.0
 40
0.3021038821
 40
1.0
 40
1.0
 40
1.0
 40
1.0
 10
99.0862262769
 20
66.0105286294
 30
0.0
 10
99.0870974277
 20
66.0073468929
 30
0.0
 10
99.0901480763
 20
65.9968746158
 30
0.0
 10
99.0937648793
 20
65.9864796445
 30
0.0
 10
99.0972904665
 20
65.9797234947
 30
0.0
  0
SPLINE
  5
53A
100
AcDbEntity
  8
0
100
AcDbSpline
 62
7
  6
CONTINUOUS
 70
0
 71
3
 72
32
 73
28
 74
0
 42
0.0000001
 43
0.0000001
 44
0.0000000001
 40
0.0
 40
0.0
 40
0.0
 40
0.0
 40
0.046413246
 40
0.1046144262
 40
0.1729905755
 40
0.2496445275
 40
0.3324478528
 40
0.4190997145
 40
0.5071924412
 40
0.5942790495
 40
0.6779407128
 40
0.7558534377
 40
0.7919681504
 40
0.8258524526
 40
0.8572659803
 40
0.8859942149
 40
0.9118366113
 40
0.9346118641
 40
0.9541677014
 40
0.9703626972
 40
0.983094164
 40
0.9881334924
 40
0.9922762175
 40
0.9955199667
 40
0.9978667252
 40
0.9993301734
 40
1.0
 40
1.0
 40
1.0
 40
1.0
 10
96.3244987988
 20
90.7075949731
 30
0.0
 10
96.3431107262
 20
90.3249607199
 30
0.0
 10
96.3778806921
 20
89.4621688252
 30
0.0
 10
96.4246648352
 20
88.0350996931
 30
0.0
 10
96.4717574228
 20
86.3583206538
 30
0.0
 10
96.519083833
 20
84.4784189001
 30
0.0
 10
96.5665217252
 20
82.4476312111
 30
0.0
 10
96.6140245977
 20
80.3224074779
 30
0.0
 10
96.661549002
 20
78.1618221767
 30
0.0
 10
96.7090570712
 20
76.0259229757
 30
0.0
 10
96.7565162096
 20
73.9740679589
 30
0.0
 10
96.7969222588
 20
72.3428762624
 30
0.0
 10
96.8297193576
 20
71.1224793046
 30
0.0
 10
96.8536714609
 20
70.285780562
 30
0.0
 10
96.8776043203
 20
69.5100743936
 30
0.0
 10
96.9015043073
 20
68.8007782828
 30
0.0
 10
96.9253567843
 20
68.1628216375
 30
0.0
 10
96.9491524099
 20
67.6006345331
 30
0.0
 10
96.9728261205
 20
67.1181333378
 30
0.0
 10
96.9963555481
 20
66.7186879793
 30
0.0
 10
97.0169910594
 20
66.43900268
 30
0.0
 10
97.0340877888
 20
66.2590487366
 30
0.0
 10
97.0460244586
 20
66.1569299883
 30
0.0
 10
97.0572410807
 20
66.0780138864
 30
0.0
 10
97.0695155986
 20
66.0194939154
 30
0.0
 10
97.0784750325
 20
65.9865875919
 30
0.0
 10
97.0899939783
 20
65.9679566831
 30
0.0
 10
97.0955226019
 20
65.9679647112
 30
0.0
  0
SPLINE
  5
53B
100
AcDbEntity
  8
0
100
AcDbSpline
 62
7
  6
CONTINUOUS
 70
0
 71
3
 72
38
 73
34
 74
0
 42
0.0000001
 43
0.0000001
 44
0.0000000001
 40
0.0
 40
0.0
 40
0.0
 40
0.0
 40
0.0007794251
 40
0.0025751164
 40
0.0054815581
 40
0.009510111
 40
0.0146549734
 40
0.0209067127
 40
0.0282546033
 40
0.036684172
 40
0.0567023352
 40
0.0807822123
 40
0.1087050496
 40
0.140215192
 40
0.1750267568
 40
0.2128189312
 40
0.2532491025
 40
0.295944142
 40
0.3865555531
 40
0.4813436553
 40
0.5768459817
 40
0.6695739048
 40
0.7561403775
 40
0.8333840125
 40
0.8676115362
 40
0.8984852543
 40
0.925720326
 40
0.9490706987
 40
0.968323208
 40
0.9833051667
 40
0.9938880102
 40
0.9975027678
 40
1.0
 40
1.0
 40
1.0
 40
1.0
 10
96.3885226222
 20
92.1319124882
 30
0.0
 10
96.3953169353
 20
92.131900991
 30
0.0
 10
96.4081267995
 20
92.1062642978
 30
0.0
 10
96.4184436599
 20
92.0644158864
 30
0.0
 10
96.4324313838
 20
91.9869829803
 30
0.0
 10
96.4453066758
 20
91.8835524279
 30
0.0
 10
96.4589815728
 20
91.7493572239
 30
0.0
 10
96.4725209155
 20
91.5866657405
 30
0.0
 10
96.4862020055
 20
91.3950691956
 30
0.0
 10
96.5055784021
 20
91.0836557589
 30
0.0
 10
96.5292003801
 20
90.6263537173
 30
0.0
 10
96.5563681719
 20
89.999130556
 30
0.0
 10
96.5836399344
 20
89.2716469888
 30
0.0
 10
96.6109941016
 20
88.4505627923
 30
0.0
 10
96.6383944725
 20
87.5434045536
 30
0.0
 10
96.6658336138
 20
86.5584586789
 30
0.0
 10
96.6932949967
 20
85.5047676231
 30
0.0
 10
96.7306801727
 20
83.9907500461
 30
0.0
 10
96.7766802652
 20
82.0029593045
 30
0.0
 10
96.8309429806
 20
79.5549124505
 30
0.0
 10
96.885216561
 20
77.088411532
 30
0.0
 10
96.9394277876
 20
74.6935952189
 30
0.0
 10
96.9935103396
 20
72.4579817218
 30
0.0
 10
97.0399953575
 20
70.7322899883
 30
0.0
 10
97.0780726754
 20
69.4920384685
 30
0.0
 10
97.1054166918
 20
68.6875976588
 30
0.0
 10
97.1326651232
 20
67.9780273088
 30
0.0
 10
97.159824708
 20
67.3698524337
 30
0.0
 10
97.1866387824
 20
66.8685636658
 30
0.0
 10
97.2133515587
 20
66.4788361255
 30
0.0
 10
97.2364067952
 20
66.225376002
 30
0.0
 10
97.2568011859
 20
66.0813044608
 30
0.0
 10
97.2670379227
 20
66.0289026178
 30
0.0
 10
97.2729546076
 20
66.0079535056
 30
0.0
  0
SPLINE
  5
53C
100
AcDbEntity
  8
0
100
AcDbSpline
 62
7
  6
CONTINUOUS
 70
0
 71
3
 72
9
 73
5
 74
0
 42
0.0000001
 43
0.0000001
 44
0.0000000001
 40
0.0
 40
0.0
 40
0.0
 40
0.0
 40
0.2992755184
 40
1.0
 40
1.0
 40
1.0
 40
1.0
 10
97.2729546076
 20
66.0079535056
 30
0.0
 10
97.2737705112
 20
66.0050646488
 30
0.0
 10
97.2766457555
 20
65.9954649676
 30
0.0
 10
97.2800462683
 20
65.98595259
 30
0.0
 10
97.2832903281
 20
65.9797174535
 30
0.0
  0
SPLINE
  5
53D
100
AcDbEntity
  8
0
100
AcDbSpline
 62
7
  6
CONTINUOUS
 70
0
 71
3
 72
11
 73
7
 74
0
 42
0.0000001
 43
0.0000001
 44
0.0000000001
 40
0.0
 40
0.0
 40
0.0
 40
0.0
 40
0.0937845126
 40
0.2839976942
 40
0.5851602666
 40
1.0
 40
1.0
 40
1.0
 40
1.0
 10
96.4875002582
 20
64.7999621802
 30
0.0
 10
96.4835219765
 20
64.7999621802
 30
0.0
 10
96.4745229308
 20
64.8113345625
 30
0.0
 10
96.4673694066
 20
64.8337327368
 30
0.0
 10
96.4578882617
 20
64.8717451535
 30
0.0
 10
96.4529259473
 20
64.9015049911
 30
0.0
 10
96.4501913368
 20
64.9188884614
 30
0.0
  0
SPLINE
  5
53E
100
AcDbEntity
  8
0
100
AcDbSpline
 62
7
  6
CONTINUOUS
 70
0
 71
3
 72
9
 73
5
 74
0
 42
0.0000001
 43
0.0000001
 44
0.0000000001
 40
0.0
 40
0.0
 40
0.0
 40
0.0
 40
0.3954577144
 40
1.0
 40
1.0
 40
1.0
 40
1.0
 10
96.4501913368
 20
64.9188884614
 30
0.0
 10
96.4374616755
 20
64.9998088297
 30
0.0
 10
96.4170599096
 20
65.2061396815
 30
0.0
 10
96.4021693049
 20
65.4126950117
 30
0.0
 10
96.3941965762
 20
65.5376664488
 30
0.0
  0
SPLINE
  5
53F
100
AcDbEntity
  8
0
100
AcDbSpline
 62
7
  6
CONTINUOUS
 70
0
 71
3
 72
9
 73
5
 74
0
 42
0.0000001
 43
0.0000001
 44
0.0000000001
 40
0.0
 40
0.0
 40
0.0
 40
0.0
 40
0.4366068966
 40
1.0
 40
1.0
 40
1.0
 40
1.0
 10
96.3941965762
 20
65.5376664488
 30
0.0
 10
96.3805251808
 20
65.7519637109
 30
0.0
 10
96.3551298901
 20
66.2431571773
 30
0.0
 10
96.3349848288
 20
66.734567952
 30
0.0
 10
96.324499216
 20
67.0114586508
 30
0.0
  0
SPLINE
  5
540
100
AcDbEntity
  8
0
100
AcDbSpline
 62
7
  6
CONTINUOUS
 70
0
 71
3
 72
11
 73
7
 74
0
 42
0.0000001
 43
0.0000001
 44
0.0000000001
 40
0.0
 40
0.0
 40
0.0
 40
0.0
 40
0.0938868585
 40
0.2841098421
 40
0.5852327664
 40
1.0
 40
1.0
 40
1.0
 40
1.0
 10
98.3015002582
 20
64.7999621802
 30
0.0
 10
98.2975343817
 20
64.7999621802
 30
0.0
 10
98.288555547
 20
64.8112722496
 30
0.0
 10
98.2814139322
 20
64.8335818398
 30
0.0
 10
98.2719550521
 20
64.8714212726
 30
0.0
 10
98.2670031981
 20
64.9010509412
 30
0.0
 10
98.2642746694
 20
64.9183573617
 30
0.0
  0
SPLINE
  5
541
100
AcDbEntity
  8
0
100
AcDbSpline
 62
7
  6
CONTINUOUS
 70
0
 71
3
 72
29
 73
25
 74
0
 42
0.0000001
 43
0.0000001
 44
0.0000000001
 40
0.0
 40
0.0
 40
0.0
 40
0.0
 40
0.007909654
 40
0.0197928823
 40
0.0355576026
 40
0.0550865144
 40
0.0782157542
 40
0.104765037
 40
0.1672275225
 40
0.2404588204
 40
0.3220919685
 40
0.4094809195
 40
0.4997956284
 40
0.5901218025
 40
0.6775376904
 40
0.7592096581
 40
0.8324906372
 40
0.8950122506
 40
0.9215941305
 40
0.9447577156
 40
0.9643226992
 40
0.9801259539
 40
0.9920493995
 40
1.0
 40
1.0
 40
1.0
 40
1.0
 10
98.2642746694
 20
64.9183573617
 30
0.0
 10
98.2526637831
 20
64.9920025024
 30
0.0
 10
98.2336012876
 20
65.1777495167
 30
0.0
 10
98.2086561783
 20
65.5119336365
 30
0.0
 10
98.1835687211
 20
65.9559479664
 30
0.0
 10
98.1580683223
 20
66.5060339067
 30
0.0
 10
98.1324558559
 20
67.1578740361
 30
0.0
 10
98.096184577
 20
68.2142713938
 30
0.0
 10
98.052207828
 20
69.7429199282
 30
0.0
 10
98.001415055
 20
71.7907715678
 30
0.0
 10
97.9504279096
 20
74.0736358874
 30
0.0
 10
97.8993053967
 20
76.5175580649
 30
0.0
 10
97.84813179
 20
79.0434351025
 30
0.0
 10
97.7969572223
 20
81.5695660735
 30
0.0
 10
97.7458320927
 20
84.0142162296
 30
0.0
 10
97.6948421068
 20
86.2981688365
 30
0.0
 10
97.6440471526
 20
88.3474123738
 30
0.0
 10
97.6000707279
 20
89.8773942608
 30
0.0
 10
97.5638033919
 20
90.9349808003
 30
0.0
 10
97.538191132
 20
91.5877925434
 30
0.0
 10
97.5126904451
 20
92.1389068103
 30
0.0
 10
97.4875976839
 20
92.5840039624
 30
0.0
 10
97.4626514452
 20
92.919320912
 30
0.0
 10
97.4435824148
 20
93.1058332776
 30
0.0
 10
97.431991567
 20
93.1798722542
 30
0.0
  0
SPLINE
  5
542
100
AcDbEntity
  8
0
100
AcDbSpline
 62
7
  6
CONTINUOUS
 70
0
 71
3
 72
9
 73
5
 74
0
 42
0.0000001
 43
0.0000001
 44
0.0000000001
 40
0.0
 40
0.0
 40
0.0
 40
0.0
 40
0.6263567202
 40
1.0
 40
1.0
 40
1.0
 40
1.0
 10
97.431991567
 20
93.1798722542
 30
0.0
 10
97.4283555063
 20
93.2030983562
 30
0.0
 10
97.4216096804
 20
93.2398344236
 30
0.0
 10
97.4121939006
 20
93.2766911708
 30
0.0
 10
97.4057308755
 20
93.2891370404
 30
0.0
  0
LINE
  5
543
100
AcDbEntity
  8
0
100
AcDbLine
 62
7
  6
CONTINUOUS
 10
117.5745002581
 20
98.0489677757
 11
117.6186442479
 21
98.02728674
  0
SPLINE
  5
544
100
AcDbEntity
  8
0
100
AcDbSpline
 62
7
  6
CONTINUOUS
 70
0
 71
3
 72
11
 73
7
 74
0
 42
0.0000001
 43
0.0000001
 44
0.0000000001
 40
0.0
 40
0.0
 40
0.0
 40
0.0
 40
0.0937870689
 40
0.2839957758
 40
0.5851552017
 40
1.0
 40
1.0
 40
1.0
 40
1.0
 10
100.1155002582
 20
64.7999621802
 30
0.0
 10
100.1115225688
 20
64.7999621802
 30
0.0
 10
100.1025242106
 20
64.8113311998
 30
0.0
 10
100.0953711473
 20
64.8337255578
 30
0.0
 10
100.085890848
 20
64.8717306622
 30
0.0
 10
100.0809289983
 20
64.9014853724
 30
0.0
 10
100.0781946276
 20
64.9188659598
 30
0.0
  0
SPLINE
  5
545
100
AcDbEntity
  8
0
100
AcDbSpline
 62
7
  6
CONTINUOUS
 70
0
 71
3
 72
29
 73
25
 74
0
 42
0.0000001
 43
0.0000001
 44
0.0000000001
 40
0.0
 40
0.0
 40
0.0
 40
0.0
 40
0.0079209852
 40
0.0198147478
 40
0.0355885696
 40
0.0551254473
 40
0.0782611892
 40
0.1048153048
 40
0.1672829688
 40
0.2405133629
 40
0.3221395594
 40
0.4095172359
 40
0.4998214819
 40
0.5901361312
 40
0.6775407746
 40
0.7592030218
 40
0.8324769859
 40
0.8949948414
 40
0.921576328
 40
0.9447409582
 40
0.9643083527
 40
0.9801152102
 40
0.9920435709
 40
1.0
 40
1.0
 40
1.0
 40
1.0
 10
100.0781946276
 20
64.9188659598
 30
0.0
 10
100.0665916665
 20
64.9926183162
 30
0.0
 10
100.0475292497
 20
65.1785661996
 30
0.0
 10
100.0225868556
 20
65.5130341273
 30
0.0
 10
99.9974996639
 20
65.957296063
 30
0.0
 10
99.972002692
 20
66.5075889398
 30
0.0
 10
99.9463932023
 20
67.1595925943
 30
0.0
 10
99.9101278548
 20
68.216115764
 30
0.0
 10
99.8661581036
 20
69.7448067511
 30
0.0
 10
99.8153731547
 20
71.7925749464
 30
0.0
 10
99.7643946063
 20
74.0751940044
 30
0.0
 10
99.7132805546
 20
76.5187762065
 30
0.0
 10
99.6621150031
 20
79.0442678109
 30
0.0
 10
99.6109479801
 20
81.5700136136
 30
0.0
 10
99.5598303804
 20
84.0142879233
 30
0.0
 10
99.5088478842
 20
86.2979117775
 30
0.0
 10
99.4580602241
 20
88.3469038365
 30
0.0
 10
99.414090702
 20
89.876736976
 30
0.0
 10
99.3778293822
 20
90.9342642566
 30
0.0
 10
99.3522207774
 20
91.5870863727
 30
0.0
 10
99.3267238539
 20
92.1382517315
 30
0.0
 10
99.3016329283
 20
92.5834392696
 30
0.0
 10
99.2766898434
 20
92.9188827211
 30
0.0
 10
99.2576220939
 20
93.1054910845
 30
0.0
 10
99.2460365975
 20
93.1795843418
 30
0.0
  0
SPLINE
  5
546
100
AcDbEntity
  8
0
100
AcDbSpline
 62
7
  6
CONTINUOUS
 70
0
 71
3
 72
9
 73
5
 74
0
 42
0.0000001
 43
0.0000001
 44
0.0000000001
 40
0.0
 40
0.0
 40
0.0
 40
0.0
 40
0.6264705109
 40
1.0
 40
1.0
 40
1.0
 40
1.0
 10
99.2460365975
 20
93.1795843418
 30
0.0
 10
99.2423947226
 20
93.2028753913
 30
0.0
 10
99.2356377439
 20
93.239706906
 30
0.0
 10
99.226208659
 20
93.2766628773
 30
0.0
 10
99.2197308745
 20
93.2891371147
 30
0.0
  0
LINE
  5
547
100
AcDbEntity
  8
0
100
AcDbLine
 62
7
  6
CONTINUOUS
 10
114.0209468676
 20
94.6964087896
 11
115.339210199
 21
94.7233102791
  0
SPLINE
  5
548
100
AcDbEntity
  8
0
100
AcDbSpline
 62
7
  6
CONTINUOUS
 70
0
 71
3
 72
11
 73
7
 74
0
 42
0.0000001
 43
0.0000001
 44
0.0000000001
 40
0.0
 40
0.0
 40
0.0
 40
0.0
 40
0.0935047066
 40
0.2836810904
 40
0.584947389
 40
1.0
 40
1.0
 40
1.0
 40
1.0
 10
100.6245448883
 20
93.2999621802
 30
0.0
 10
100.6285568996
 20
93.2999621802
 30
0.0
 10
100.6376111709
 20
93.2884208662
 30
0.0
 10
100.6447973369
 20
93.2657810157
 30
0.0
 10
100.6543392659
 20
93.2272956314
 30
0.0
 10
100.6593300255
 20
93.1971792307
 30
0.0
 10
100.6620812276
 20
93.1795843418
 30
0.0
  0
SPLINE
  5
549
100
AcDbEntity
  8
0
100
AcDbSpline
 62
7
  6
CONTINUOUS
 70
0
 71
3
 72
29
 73
25
 74
0
 42
0.0000001
 43
0.0000001
 44
0.0000000001
 40
0.0
 40
0.0
 40
0.0
 40
0.0
 40
0.0079564291
 40
0.0198847898
 40
0.0356916473
 40
0.0552590418
 40
0.078423672
 40
0.1050051586
 40
0.1675230141
 40
0.2407969782
 40
0.3224592254
 40
0.4098638688
 40
0.5001785181
 40
0.5904827641
 40
0.6778604406
 40
0.7594866371
 40
0.8327170312
 40
0.8951846952
 40
0.9217388108
 40
0.9448745527
 40
0.9644114304
 40
0.9801852522
 40
0.9920790148
 40
1.0
 40
1.0
 40
1.0
 40
1.0
 10
100.6620812276
 20
93.1795843418
 30
0.0
 10
100.673666724
 20
93.1054910845
 30
0.0
 10
100.6927344735
 20
92.9188827211
 30
0.0
 10
100.7176775584
 20
92.5834392696
 30
0.0
 10
100.742768484
 20
92.1382517315
 30
0.0
 10
100.7682654075
 20
91.5870863727
 30
0.0
 10
100.7938740123
 20
90.9342642566
 30
0.0
 10
100.8301353321
 20
89.876736976
 30
0.0
 10
100.8741048542
 20
88.3469038365
 30
0.0
 10
100.9248925143
 20
86.2979117775
 30
0.0
 10
100.9758750105
 20
84.0142879233
 30
0.0
 10
101.0269926102
 20
81.5700136136
 30
0.0
 10
101.0781596332
 20
79.0442678109
 30
0.0
 10
101.1293251847
 20
76.5187762065
 30
0.0
 10
101.1804392364
 20
74.0751940044
 30
0.0
 10
101.2314177848
 20
71.7925749464
 30
0.0
 10
101.2822027337
 20
69.7448067511
 30
0.0
 10
101.3261724849
 20
68.216115764
 30
0.0
 10
101.3624378324
 20
67.1595925943
 30
0.0
 10
101.3880473221
 20
66.5075889398
 30
0.0
 10
101.413544294
 20
65.957296063
 30
0.0
 10
101.4386314857
 20
65.5130341273
 30
0.0
 10
101.4635738798
 20
65.1785661996
 30
0.0
 10
101.4826362966
 20
64.9926183162
 30
0.0
 10
101.4942392577
 20
64.9188659598
 30
0.0
  0
SPLINE
  5
54A
100
AcDbEntity
  8
0
100
AcDbSpline
 62
7
  6
CONTINUOUS
 70
0
 71
3
 72
9
 73
5
 74
0
 42
0.0000001
 43
0.0000001
 44
0.0000000001
 40
0.0
 40
0.0
 40
0.0
 40
0.0
 40
0.6258993326
 40
1.0
 40
1.0
 40
1.0
 40
1.0
 10
101.4942392577
 20
64.9188659598
 30
0.0
 10
101.4978513113
 20
64.895906522
 30
0.0
 10
101.5045510529
 20
64.8595633631
 30
0.0
 10
101.5139118814
 20
64.8231148304
 30
0.0
 10
101.520314272
 20
64.8107864979
 30
0.0
  0
SPLINE
  5
54B
100
AcDbEntity
  8
0
100
AcDbSpline
 62
7
  6
CONTINUOUS
 70
0
 71
3
 72
11
 73
7
 74
0
 42
0.0000001
 43
0.0000001
 44
0.0000000001
 40
0.0
 40
0.0
 40
0.0
 40
0.0
 40
0.0935600924
 40
0.2837445061
 40
0.5849906243
 40
1.0
 40
1.0
 40
1.0
 40
1.0
 10
98.8105448882
 20
93.2999621802
 30
0.0
 10
98.8145502255
 20
93.2999621802
 30
0.0
 10
98.8235935643
 20
93.2884542793
 30
0.0
 10
98.8307732553
 20
93.265862317
 30
0.0
 10
98.8403031481
 20
93.2274707649
 30
0.0
 10
98.8452882811
 20
93.1974251455
 30
0.0
 10
98.8480361971
 20
93.1798722542
 30
0.0
  0
SPLINE
  5
54C
100
AcDbEntity
  8
0
100
AcDbSpline
 62
7
  6
CONTINUOUS
 70
0
 71
3
 72
29
 73
25
 74
0
 42
0.0000001
 43
0.0000001
 44
0.0000000001
 40
0.0
 40
0.0
 40
0.0
 40
0.0
 40
0.0079506005
 40
0.0198740461
 40
0.0356773008
 40
0.0552422844
 40
0.0784058695
 40
0.1049877494
 40
0.1675093628
 40
0.2407903419
 40
0.3224623096
 40
0.4098781975
 40
0.5002043716
 40
0.5905190805
 40
0.6779080315
 40
0.7595411796
 40
0.8327724775
 40
0.895234963
 40
0.9217842458
 40
0.9449134856
 40
0.9644423974
 40
0.9802071177
 40
0.992090346
 40
1.0
 40
1.0
 40
1.0
 40
1.0
 10
98.8480361971
 20
93.1798722542
 30
0.0
 10
98.8596270448
 20
93.1058332776
 30
0.0
 10
98.8786960753
 20
92.919320912
 30
0.0
 10
98.903642314
 20
92.5840039624
 30
0.0
 10
98.9287350752
 20
92.1389068103
 30
0.0
 10
98.9542357621
 20
91.5877925434
 30
0.0
 10
98.979848022
 20
90.9349808003
 30
0.0
 10
99.016115358
 20
89.8773942608
 30
0.0
 10
99.0600917827
 20
88.3474123738
 30
0.0
 10
99.1108867369
 20
86.2981688365
 30
0.0
 10
99.1618767228
 20
84.0142162296
 30
0.0
 10
99.2130018524
 20
81.5695660735
 30
0.0
 10
99.2641764201
 20
79.0434351025
 30
0.0
 10
99.3153500268
 20
76.5175580649
 30
0.0
 10
99.3664725397
 20
74.0736358874
 30
0.0
 10
99.4174596851
 20
71.7907715678
 30
0.0
 10
99.4682524581
 20
69.7429199282
 30
0.0
 10
99.5122292071
 20
68.2142713938
 30
0.0
 10
99.548500486
 20
67.1578740361
 30
0.0
 10
99.5741129524
 20
66.5060339067
 30
0.0
 10
99.5996133512
 20
65.9559479664
 30
0.0
 10
99.6247008084
 20
65.5119336365
 30
0.0
 10
99.6496459177
 20
65.1777495167
 30
0.0
 10
99.6687084132
 20
64.9920025024
 30
0.0
 10
99.6803192995
 20
64.9183573617
 30
0.0
  0
SPLINE
  5
54D
100
AcDbEntity
  8
0
100
AcDbSpline
 62
7
  6
CONTINUOUS
 70
0
 71
3
 72
9
 73
5
 74
0
 42
0.0000001
 43
0.0000001
 44
0.0000000001
 40
0.0
 40
0.0
 40
0.0
 40
0.0
 40
0.6256955833
 40
1.0
 40
1.0
 40
1.0
 40
1.0
 10
99.6803192995
 20
64.9183573617
 30
0.0
 10
99.6839210117
 20
64.8955125425
 30
0.0
 10
99.6906009825
 20
64.8593380265
 30
0.0
 10
99.6999379856
 20
64.8230646872
 30
0.0
 10
99.7063142704
 20
64.810786578
 30
0.0
  0
SPLINE
  5
54E
100
AcDbEntity
  8
0
100
AcDbSpline
 62
7
  6
CONTINUOUS
 70
0
 71
3
 72
11
 73
7
 74
0
 42
0.0000001
 43
0.0000001
 44
0.0000000001
 40
0.0
 40
0.0
 40
0.0
 40
0.0
 40
0.0936981214
 40
0.2839009856
 40
0.585096076
 40
1.0
 40
1.0
 40
1.0
 40
1.0
 10
96.9965448882
 20
93.2999621802
 30
0.0
 10
97.000533586
 20
93.2999621802
 30
0.0
 10
97.0095496748
 20
93.2885376012
 30
0.0
 10
97.0167132532
 20
93.2660648834
 30
0.0
 10
97.0262131542
 20
93.2279067318
 30
0.0
 10
97.0311842556
 20
93.1980370881
 30
0.0
 10
97.0339239859
 20
93.18058855
 30
0.0
  0
SPLINE
  5
54F
100
AcDbEntity
  8
0
100
AcDbSpline
 62
7
  6
CONTINUOUS
 70
0
 71
3
 72
29
 73
25
 74
0
 42
0.0000001
 43
0.0000001
 44
0.0000000001
 40
0.0
 40
0.0
 40
0.0
 40
0.0
 40
0.0079333889
 40
0.0198398387
 40
0.0356271834
 40
0.0551774496
 40
0.0783273107
 40
0.1048964545
 40
0.1673956412
 40
0.240659053
 40
0.3223190267
 40
0.4097285584
 40
0.5000542313
 40
0.5903764111
 40
0.677778758
 40
0.7594285198
 40
0.832678811
 40
0.895162383
 40
0.9217229184
 40
0.9448637108
 40
0.9644044626
 40
0.980181628
 40
0.9920774347
 40
1.0
 40
1.0
 40
1.0
 40
1.0
 10
97.0339239859
 20
93.18058855
 30
0.0
 10
97.0455235006
 20
93.106714646
 30
0.0
 10
97.0645900628
 20
92.9205236308
 30
0.0
 10
97.0895363227
 20
92.585678795
 30
0.0
 10
97.1146266879
 20
92.141027771
 30
0.0
 10
97.1401282
 20
91.5903285024
 30
0.0
 10
97.165741291
 20
90.9379008344
 30
0.0
 10
97.2020113372
 20
89.880768458
 30
0.0
 10
97.245989428
 20
88.3512736736
 30
0.0
 10
97.2967854369
 20
86.3025067605
 30
0.0
 10
97.3477765812
 20
84.0188776714
 30
0.0
 10
97.3989031315
 20
81.5743890688
 30
0.0
 10
97.4500796809
 20
79.0482356089
 30
0.0
 10
97.5012559672
 20
76.5221498798
 30
0.0
 10
97.5523817326
 20
74.0778582076
 30
0.0
 10
97.6033721138
 20
71.7945168211
 30
0.0
 10
97.6541675672
 20
69.7461171204
 30
0.0
 10
97.6981457436
 20
68.2169744606
 30
0.0
 10
97.7344168235
 20
67.1601561168
 30
0.0
 10
97.7600300019
 20
66.507984917
 30
0.0
 10
97.7855314476
 20
65.9575571218
 30
0.0
 10
97.8106203828
 20
65.5131921843
 30
0.0
 10
97.8355663429
 20
65.1786468498
 30
0.0
 10
97.8546311685
 20
64.9926582607
 30
0.0
 10
97.8662359669
 20
64.9188884614
 30
0.0
  0
SPLINE
  5
550
100
AcDbEntity
  8
0
100
AcDbSpline
 62
7
  6
CONTINUOUS
 70
0
 71
3
 72
9
 73
5
 74
0
 42
0.0000001
 43
0.0000001
 44
0.0000000001
 40
0.0
 40
0.0
 40
0.0
 40
0.0
 40
0.6258999876
 40
1.0
 40
1.0
 40
1.0
 40
1.0
 10
97.8662359669
 20
64.9188884614
 30
0.0
 10
97.8698484635
 20
64.8959244132
 30
0.0
 10
97.8765491104
 20
64.8595740072
 30
0.0
 10
97.8859108552
 20
64.8231180084
 30
0.0
 10
97.8923142689
 20
64.8107871373
 30
0.0
  0
SPLINE
  5
551
100
AcDbEntity
  8
0
100
AcDbSpline
 62
7
  6
CONTINUOUS
 70
0
 71
3
 72
10
 73
6
 74
0
 42
0.0000001
 43
0.0000001
 44
0.0000000001
 40
0.0
 40
0.0
 40
0.0
 40
0.0
 40
0.3431031085
 40
0.6314275937
 40
1.0
 40
1.0
 40
1.0
 40
1.0
 10
117.0286276281
 20
135.4999621802
 30
0.0
 10
117.049272894
 20
135.4999551797
 30
0.0
 10
117.0794011232
 20
135.4647780151
 30
0.0
 10
117.1055112085
 20
135.413484483
 30
0.0
 10
117.1197256607
 20
135.3757632915
 30
0.0
 10
117.1266536291
 20
135.3546953409
 30
0.0
  0
SPLINE
  5
552
100
AcDbEntity
  8
0
100
AcDbSpline
 62
7
  6
CONTINUOUS
 70
0
 71
3
 72
9
 73
5
 74
0
 42
0.0000001
 43
0.0000001
 44
0.0000000001
 40
0.0
 40
0.0
 40
0.0
 40
0.0
 40
0.49615936
 40
1.0
 40
1.0
 40
1.0
 40
1.0
 10
116.8329250464
 20
135.2999621802
 30
0.0
 10
116.8830182926
 20
135.2999621802
 30
0.0
 10
116.9879482947
 20
135.3436612034
 30
0.0
 10
117.0286276302
 20
135.4490934166
 30
0.0
 10
117.0286276281
 20
135.4999621802
 30
0.0
  0
SPLINE
  5
553
100
AcDbEntity
  8
0
100
AcDbSpline
 62
7
  6
CONTINUOUS
 70
0
 71
3
 72
10
 73
6
 74
0
 42
0.0000001
 43
0.0000001
 44
0.0000000001
 40
0.0
 40
0.0
 40
0.0
 40
0.0
 40
0.3817806504
 40
0.6590983791
 40
1.0
 40
1.0
 40
1.0
 40
1.0
 10
116.8329250464
 20
135.2999621802
 30
0.0
 10
116.8518889486
 20
135.2999598793
 30
0.0
 10
116.8821919482
 20
135.2782076214
 30
0.0
 10
116.9110591303
 20
135.238848437
 30
0.0
 10
116.9258136101
 20
135.2115260082
 30
0.0
 10
116.9330147526
 20
135.1962001523
 30
0.0
  0
SPLINE
  5
554
100
AcDbEntity
  8
0
100
AcDbSpline
 62
7
  6
CONTINUOUS
 70
0
 71
3
 72
9
 73
5
 74
0
 42
0.0000001
 43
0.0000001
 44
0.0000000001
 40
0.0
 40
0.0
 40
0.0
 40
0.0
 40
0.4554352701
 40
1.0
 40
1.0
 40
1.0
 40
1.0
 10
117.1266536291
 20
135.3546953409
 30
0.0
 10
117.1533688692
 20
135.273456017
 30
0.0
 10
117.1899921523
 20
135.0882236675
 30
0.0
 10
117.2098109445
 20
134.9016564398
 30
0.0
 10
117.2205092069
 20
134.7999621802
 30
0.0
  0
SPLINE
  5
555
100
AcDbEntity
  8
0
100
AcDbSpline
 62
7
  6
CONTINUOUS
 70
0
 71
3
 72
9
 73
5
 74
0
 42
0.0000001
 43
0.0000001
 44
0.0000000001
 40
0.0
 40
0.0
 40
0.0
 40
0.0
 40
0.5285871072
 40
1.0
 40
1.0
 40
1.0
 40
1.0
 10
116.9330147526
 20
135.1962001417
 30
0.0
 10
116.9788408601
 20
135.2019239279
 30
0.0
 10
117.0641860758
 20
135.2360329062
 30
0.0
 10
117.1191050872
 20
135.314206059
 30
0.0
 10
117.1266536325
 20
135.3546953409
 30
0.0
  0
SPLINE
  5
556
100
AcDbEntity
  8
0
100
AcDbSpline
 62
7
  6
CONTINUOUS
 70
0
 71
3
 72
11
 73
7
 74
0
 42
0.0000001
 43
0.0000001
 44
0.0000000001
 40
0.0
 40
0.0
 40
0.0
 40
0.0
 40
0.2472767977
 40
0.5223726975
 40
0.7841446337
 40
1.0
 40
1.0
 40
1.0
 40
1.0
 10
116.9330147526
 20
135.1962001522
 30
0.0
 10
116.9543839709
 20
135.1618969812
 30
0.0
 10
116.998152677
 20
135.0885785066
 30
0.0
 10
117.0750232359
 20
134.9854639798
 30
0.0
 10
117.1578759533
 20
134.8950613556
 30
0.0
 10
117.2057703492
 20
134.83201516
 30
0.0
 10
117.2205091219
 20
134.7999621802
 30
0.0
  0
SPLINE
  5
557
100
AcDbEntity
  8
0
100
AcDbSpline
 62
7
  6
CONTINUOUS
 70
0
 71
3
 72
14
 73
10
 74
0
 42
0.0000001
 43
0.0000001
 44
0.0000000001
 40
0.0
 40
0.0
 40
0.0
 40
0.0
 40
0.1233675018
 40
0.2376517457
 40
0.3758608688
 40
0.5304710795
 40
0.692831794
 40
0.8525619762
 40
1.0
 40
1.0
 40
1.0
 40
1.0
 10
117.6186442479
 20
98.02728674
 30
0.0
 10
118.1297283628
 20
97.765670269
 30
0.0
 10
119.1278074102
 20
97.2872315757
 30
0.0
 10
120.7522468906
 20
96.634989615
 30
0.0
 10
122.5653963225
 20
96.0747282698
 30
0.0
 10
124.6541739139
 20
95.6860025763
 30
0.0
 10
126.8799861874
 20
95.5992900807
 30
0.0
 10
129.0587163178
 20
95.8480236728
 30
0.0
 10
130.4488858946
 20
96.1966381709
 30
0.0
 10
131.1046805927
 20
96.3985551902
 30
0.0
  0
SPLINE
  5
558
100
AcDbEntity
  8
0
100
AcDbSpline
 62
7
  6
CONTINUOUS
 70
0
 71
3
 72
11
 73
7
 74
0
 42
0.0000001
 43
0.0000001
 44
0.0000000001
 40
0.0
 40
0.0
 40
0.0
 40
0.0
 40
0.2491383945
 40
0.4993712613
 40
0.7499741021
 40
1.0
 40
1.0
 40
1.0
 40
1.0
 10
117.1211667533
 20
97.5278331379
 30
0.0
 10
117.185677031
 20
97.5281392254
 30
0.0
 10
117.3161223839
 20
97.5549906173
 30
0.0
 10
117.4814884344
 20
97.665796616
 30
0.0
 10
117.5917326329
 20
97.8317850313
 30
0.0
 10
117.6184185734
 20
97.9625466696
 30
0.0
 10
117.6187260278
 20
98.0272867504
 30
0.0
  0
SPLINE
  5
559
100
AcDbEntity
  8
0
100
AcDbSpline
 62
7
  6
CONTINUOUS
 70
0
 71
3
 72
14
 73
10
 74
0
 42
0.0000001
 43
0.0000001
 44
0.0000000001
 40
0.0
 40
0.0
 40
0.0
 40
0.0
 40
0.1247639199
 40
0.239974168
 40
0.3786322207
 40
0.5328974463
 40
0.6942558892
 40
0.8530110333
 40
1.0
 40
1.0
 40
1.0
 40
1.0
 10
117.1211667616
 20
97.5278834621
 30
0.0
 10
117.6733972717
 20
97.2670107453
 30
0.0
 10
118.7493682559
 20
96.793529589
 30
0.0
 10
120.4900477234
 20
96.1533273582
 30
0.0
 10
122.4161965681
 20
95.611798942
 30
0.0
 10
124.6149424096
 20
95.243337228
 30
0.0
 10
126.9436109629
 20
95.1662493611
 30
0.0
 10
129.2240687779
 20
95.4082124753
 30
0.0
 10
130.6855864055
 20
95.7457018533
 30
0.0
 10
131.3778337547
 20
95.9420132689
 30
0.0
  0
LINE
  5
55A
100
AcDbEntity
  8
0
100
AcDbLine
 62
7
  6
CONTINUOUS
 10
117.095799329
 20
97.5494216321
 11
117.1211667616
 21
97.5278834621
  0
SPLINE
  5
55B
100
AcDbEntity
  8
0
100
AcDbSpline
 62
7
  6
CONTINUOUS
 70
0
 71
3
 72
23
 73
19
 74
0
 42
0.0000001
 43
0.0000001
 44
0.0000000001
 40
0.0
 40
0.0
 40
0.0
 40
0.0
 40
0.216134239
 40
0.4113784285
 40
0.5829816288
 40
0.6591197651
 40
0.7283862928
 40
0.7904571785
 40
0.8450061884
 40
0.8917256171
 40
0.93036432
 40
0.9606803835
 40
0.9726453636
 40
0.9824594644
 40
0.9901123353
 40
0.9955936212
 40
0.9988929627
 40
1.0
 40
1.0
 40
1.0
 40
1.0
 10
132.2335091128
 20
97.5309887319
 30
0.0
 10
132.4433639237
 20
97.6059706215
 30
0.0
 10
132.840679007
 20
97.7546690703
 30
0.0
 10
133.3978967817
 20
97.9802427329
 30
0.0
 10
133.817402404
 20
98.1609723542
 30
0.0
 10
134.1157250249
 20
98.2945386253
 30
0.0
 10
134.3102729373
 20
98.3834994008
 30
0.0
 10
134.4839971956
 20
98.464458528
 30
0.0
 10
134.6361999893
 20
98.5365515474
 30
0.0
 10
134.7662613661
 20
98.5989516028
 30
0.0
 10
134.8735453147
 20
98.6510440786
 30
0.0
 10
134.9484998617
 20
98.6877200822
 30
0.0
 10
134.9966511145
 20
98.7114787384
 30
0.0
 10
135.0239666406
 20
98.7247938444
 30
0.0
 10
135.0449251318
 20
98.7355484917
 30
0.0
 10
135.0606821846
 20
98.742457165
 30
0.0
 10
135.068799156
 20
98.7480772795
 30
0.0
 10
135.0739165042
 20
98.7489813208
 30
0.0
 10
135.0745002581
 20
98.7499621802
 30
0.0
  0
SPLINE
  5
55C
100
AcDbEntity
  8
0
100
AcDbSpline
 62
7
  6
CONTINUOUS
 70
0
 71
3
 72
10
 73
6
 74
0
 42
0.0000001
 43
0.0000001
 44
0.0000000001
 40
0.0
 40
0.0
 40
0.0
 40
0.0
 40
0.459359214
 40
0.7271197378
 40
1.0
 40
1.0
 40
1.0
 40
1.0
 10
132.5711667615
 20
97.0619209132
 30
0.0
 10
132.4849310871
 20
97.0925148814
 30
0.0
 10
132.3701159167
 20
97.1986857969
 30
0.0
 10
132.2748956219
 20
97.3732257394
 30
0.0
 10
132.2433294767
 20
97.4775285109
 30
0.0
 10
132.2335006613
 20
97.5309887318
 30
0.0
  0
SPLINE
  5
55D
100
AcDbEntity
  8
0
100
AcDbSpline
 62
7
  6
CONTINUOUS
 70
0
 71
3
 72
19
 73
15
 74
0
 42
0.0000001
 43
0.0000001
 44
0.0000000001
 40
0.0
 40
0.0
 40
0.0
 40
0.0
 40
0.2155692339
 40
0.4105728185
 40
0.5821720394
 40
0.7277244233
 40
0.8445674603
 40
0.8914027269
 40
0.9301483077
 40
0.9605548402
 40
0.9824009406
 40
0.9900778215
 40
0.9955768393
 40
1.0
 40
1.0
 40
1.0
 40
1.0
 10
132.5711667616
 20
97.0619271443
 30
0.0
 10
132.7917033692
 20
97.1345791766
 30
0.0
 10
133.209829365
 20
97.2788132049
 30
0.0
 10
133.7974113377
 20
97.4979740638
 30
0.0
 10
134.3101686391
 20
97.7015467035
 30
0.0
 10
134.7416628576
 20
97.8814226028
 30
0.0
 10
135.0473423009
 20
98.0137395386
 30
0.0
 10
135.2467411618
 20
98.101947179
 30
0.0
 10
135.3607972204
 20
98.1529272936
 30
0.0
 10
135.4500857031
 20
98.1933774845
 30
0.0
 10
135.5089402193
 20
98.219857571
 30
0.0
 10
135.543156532
 20
98.2357927013
 30
0.0
 10
135.5605871618
 20
98.2431690921
 30
0.0
 10
135.5699354521
 20
98.2485979398
 30
0.0
 10
135.5745002581
 20
98.2499621802
 30
0.0
  0
SPLINE
  5
55E
100
AcDbEntity
  8
0
100
AcDbSpline
 62
7
  6
CONTINUOUS
 70
0
 71
3
 72
9
 73
5
 74
0
 42
0.0000001
 43
0.0000001
 44
0.0000000001
 40
0.0
 40
0.0
 40
0.0
 40
0.0
 40
0.2701896
 40
1.0
 40
1.0
 40
1.0
 40
1.0
 10
131.5007420642
 20
96.9365886981
 30
0.0
 10
131.5489922571
 20
97.0074564487
 30
0.0
 10
131.7454238765
 20
97.2563637908
 30
0.0
 10
132.0154398046
 20
97.4530563224
 30
0.0
 10
132.2335091128
 20
97.5309887319
 30
0.0
  0
SPLINE
  5
55F
100
AcDbEntity
  8
0
100
AcDbSpline
 62
7
  6
CONTINUOUS
 70
0
 71
3
 72
12
 73
8
 74
0
 42
0.0000001
 43
0.0000001
 44
0.0000000001
 40
0.0
 40
0.0
 40
0.0
 40
0.0
 40
0.0791790125
 40
0.1781313158
 40
0.4274869313
 40
0.7168801759
 40
1.0
 40
1.0
 40
1.0
 40
1.0
 10
132.1500806863
 20
96.6102646608
 30
0.0
 10
132.1310528384
 20
96.604786821
 30
0.0
 10
132.0858113477
 20
96.6013982002
 30
0.0
 10
131.9797065996
 20
96.6173239994
 30
0.0
 10
131.8301816804
 20
96.6781668291
 30
0.0
 10
131.6559624942
 20
96.7881742287
 30
0.0
 10
131.5481968507
 20
96.8840451498
 30
0.0
 10
131.5007420004
 20
96.9365886981
 30
0.0
  0
SPLINE
  5
560
100
AcDbEntity
  8
0
100
AcDbSpline
 62
7
  6
CONTINUOUS
 70
0
 71
3
 72
9
 73
5
 74
0
 42
0.0000001
 43
0.0000001
 44
0.0000000001
 40
0.0
 40
0.0
 40
0.0
 40
0.0
 40
0.5367720551
 40
1.0
 40
1.0
 40
1.0
 40
1.0
 10
132.1500807009
 20
96.6102646473
 30
0.0
 10
132.2049629737
 20
96.7071492682
 30
0.0
 10
132.3283339297
 20
96.8765400617
 30
0.0
 10
132.4889851059
 20
97.0121266884
 30
0.0
 10
132.5711667616
 20
97.0619271443
 30
0.0
  0
LINE
  5
561
100
AcDbEntity
  8
0
100
AcDbLine
 62
7
  6
CONTINUOUS
 10
131.1685628483
 20
96.4489427481
 11
131.5007420642
 21
96.9365886981
  0
SPLINE
  5
562
100
AcDbEntity
  8
0
100
AcDbSpline
 62
7
  6
CONTINUOUS
 70
0
 71
3
 72
12
 73
8
 74
0
 42
0.0000001
 43
0.0000001
 44
0.0000000001
 40
0.0
 40
0.0
 40
0.0
 40
0.0
 40
0.0775284973
 40
0.1754569172
 40
0.4238611477
 40
0.7138215593
 40
1.0
 40
1.0
 40
1.0
 40
1.0
 10
131.7989198141
 20
96.125657206
 30
0.0
 10
131.7805738199
 20
96.1215804476
 30
0.0
 10
131.7373494256
 20
96.1206650805
 30
0.0
 10
131.6360696078
 20
96.1396245387
 30
0.0
 10
131.4926998773
 20
96.2006910948
 30
0.0
 10
131.3232728193
 20
96.3074689066
 30
0.0
 10
131.2166717791
 20
96.3989629318
 30
0.0
 10
131.1685628642
 20
96.4489427481
 30
0.0
  0
LINE
  5
563
100
AcDbEntity
  8
0
100
AcDbLine
 62
7
  6
CONTINUOUS
 10
131.7989198154
 20
96.1256572048
 11
132.1500807009
 21
96.6102646473
  0
SPLINE
  5
564
100
AcDbEntity
  8
0
100
AcDbSpline
 62
7
  6
CONTINUOUS
 70
0
 71
3
 72
9
 73
5
 74
0
 42
0.0000001
 43
0.0000001
 44
0.0000000001
 40
0.0
 40
0.0
 40
0.0
 40
0.0
 40
0.2421147794
 40
1.0
 40
1.0
 40
1.0
 40
1.0
 10
131.1046805927
 20
96.3985551902
 30
0.0
 10
131.1110278709
 20
96.4005039134
 30
0.0
 10
131.1363260233
 20
96.4115180525
 30
0.0
 10
131.1568665251
 20
96.4317621756
 30
0.0
 10
131.1685628483
 20
96.4489427481
 30
0.0
  0
SPLINE
  5
565
100
AcDbEntity
  8
0
100
AcDbSpline
 62
7
  6
CONTINUOUS
 70
0
 71
3
 72
10
 73
6
 74
0
 42
0.0000001
 43
0.0000001
 44
0.0000000001
 40
0.0
 40
0.0
 40
0.0
 40
0.0
 40
0.2069987691
 40
0.4515775069
 40
1.0
 40
1.0
 40
1.0
 40
1.0
 10
131.3778337558
 20
95.9420175702
 30
0.0
 10
131.345234714
 20
95.9606252997
 30
0.0
 10
131.2820402423
 20
96.015009142
 30
0.0
 10
131.1754932928
 20
96.1626463896
 30
0.0
 10
131.1245885581
 20
96.301120556
 30
0.0
 10
131.1046805801
 20
96.3985551902
 30
0.0
  0
SPLINE
  5
566
100
AcDbEntity
  8
0
100
AcDbSpline
 62
7
  6
CONTINUOUS
 70
0
 71
3
 72
9
 73
5
 74
0
 42
0.0000001
 43
0.0000001
 44
0.0000000001
 40
0.0
 40
0.0
 40
0.0
 40
0.0
 40
0.5011687676
 40
1.0
 40
1.0
 40
1.0
 40
1.0
 10
131.3778337547
 20
95.9420132689
 30
0.0
 10
131.4557895163
 20
95.9457425421
 30
0.0
 10
131.611286337
 20
95.9816007632
 30
0.0
 10
131.7437517061
 20
96.0709689839
 30
0.0
 10
131.7989198154
 20
96.1256572048
 30
0.0
  0
SPLINE
  5
567
100
AcDbEntity
  8
0
100
AcDbSpline
 62
7
  6
CONTINUOUS
 70
0
 71
3
 72
9
 73
5
 74
0
 42
0.0000001
 43
0.0000001
 44
0.0000000001
 40
0.0
 40
0.0
 40
0.0
 40
0.0
 40
0.2589151745
 40
1.0
 40
1.0
 40
1.0
 40
1.0
 10
102.378393627
 20
93.9641748363
 30
0.0
 10
102.3736755463
 20
93.9672384081
 30
0.0
 10
102.355572532
 20
93.9792539741
 30
0.0
 10
102.337671593
 20
93.9915714071
 30
0.0
 10
102.3245011113
 20
94.0008341767
 30
0.0
  0
SPLINE
  5
568
100
AcDbEntity
  8
0
100
AcDbSpline
 62
7
  6
CONTINUOUS
 70
0
 71
3
 72
9
 73
5
 74
0
 42
0.0000001
 43
0.0000001
 44
0.0000000001
 40
0.0
 40
0.0
 40
0.0
 40
0.0
 40
0.4684481171
 40
1.0
 40
1.0
 40
1.0
 40
1.0
 10
115.3392000792
 20
94.7233201749
 30
0.0
 10
115.2323467006
 20
94.6766236
 30
0.0
 10
114.9974490934
 20
94.5928094616
 30
0.0
 10
114.7487315548
 20
94.5499622563
 30
0.0
 10
114.6164116715
 20
94.5499621947
 30
0.0
  0
SPLINE
  5
569
100
AcDbEntity
  8
0
100
AcDbSpline
 62
7
  6
CONTINUOUS
 70
0
 71
3
 72
10
 73
6
 74
0
 42
0.0000001
 43
0.0000001
 44
0.0000000001
 40
0.0
 40
0.0
 40
0.0
 40
0.0
 40
0.5030483467
 40
0.7523731585
 40
1.0
 40
1.0
 40
1.0
 40
1.0
 10
115.3392000792
 20
94.7233201749
 30
0.0
 10
115.2370122055
 20
94.5791912727
 30
0.0
 10
115.0739686922
 20
94.3700402578
 30
0.0
 10
114.828306059
 20
94.1188078618
 30
0.0
 10
114.6907744046
 20
94.0092820576
 30
0.0
 10
114.6164118099
 20
93.9641809076
 30
0.0
  0
SPLINE
  5
56A
100
AcDbEntity
  8
0
100
AcDbSpline
 62
7
  6
CONTINUOUS
 70
0
 71
3
 72
9
 73
5
 74
0
 42
0.0000001
 43
0.0000001
 44
0.0000000001
 40
0.0
 40
0.0
 40
0.0
 40
0.0
 40
0.2412401907
 40
1.0
 40
1.0
 40
1.0
 40
1.0
 10
102.3245011198
 20
64.0990887078
 30
0.0
 10
102.3287884188
 20
64.1021039609
 30
0.0
 10
102.3466268558
 20
64.1145070998
 30
0.0
 10
102.3645667165
 20
64.1267720986
 30
0.0
 10
102.3783934894
 20
64.1357496211
 30
0.0
  0
SPLINE
  5
56B
100
AcDbEntity
  8
0
100
AcDbSpline
 62
7
  6
CONTINUOUS
 70
0
 71
3
 72
10
 73
6
 74
0
 42
0.0000001
 43
0.0000001
 44
0.0000000001
 40
0.0
 40
0.0
 40
0.0
 40
0.0
 40
0.247629849
 40
0.4969534284
 40
1.0
 40
1.0
 40
1.0
 40
1.0
 10
114.6164118518
 20
64.1357429128
 30
0.0
 10
114.6907764575
 20
64.0906430894
 30
0.0
 10
114.8283084008
 20
63.9811160609
 30
0.0
 10
115.0739689757
 20
63.7298819115
 30
0.0
 10
115.2370094612
 20
63.5207303353
 30
0.0
 10
115.3392000865
 20
63.37660421
 30
0.0
  0
SPLINE
  5
56C
100
AcDbEntity
  8
0
100
AcDbSpline
 62
7
  6
CONTINUOUS
 70
0
 71
3
 72
9
 73
5
 74
0
 42
0.0000001
 43
0.0000001
 44
0.0000000001
 40
0.0
 40
0.0
 40
0.0
 40
0.0
 40
0.5315544429
 40
1.0
 40
1.0
 40
1.0
 40
1.0
 10
114.6164111641
 20
63.5499623415
 30
0.0
 10
114.7487317753
 20
63.5499624375
 30
0.0
 10
114.9974475583
 20
63.5071102689
 30
0.0
 10
115.2323505443
 20
63.4233081712
 30
0.0
 10
115.3392000865
 20
63.37660421
 30
0.0
  0
SPLINE
  5
56D
100
AcDbEntity
  8
0
100
AcDbSpline
 62
7
  6
CONTINUOUS
 70
0
 71
3
 72
8
 73
4
 74
0
 42
0.0000001
 43
0.0000001
 44
0.0000000001
 40
0.0
 40
0.0
 40
0.0
 40
0.0
 40
1.0
 40
1.0
 40
1.0
 40
1.0
 10
102.32450411
 20
72.0863370318
 30
0.0
 10
102.3416763127
 20
72.0712263652
 30
0.0
 10
102.3592506205
 20
72.0563709155
 30
0.0
 10
102.3784043666
 20
72.0438668841
 30
0.0
  0
SPLINE
  5
56E
100
AcDbEntity
  8
0
100
AcDbSpline
 62
7
  6
CONTINUOUS
 70
0
 71
3
 72
8
 73
4
 74
0
 42
0.0000001
 43
0.0000001
 44
0.0000000001
 40
0.0
 40
0.0
 40
0.0
 40
0.0
 40
1.0
 40
1.0
 40
1.0
 40
1.0
 10
102.3245011196
 20
73.4021187451
 30
0.0
 10
102.3414924477
 20
73.4216641142
 30
0.0
 10
102.3593244965
 20
73.4405607982
 30
0.0
 10
102.3783989873
 20
73.4580790882
 30
0.0
  0
SPLINE
  5
56F
100
AcDbEntity
  8
0
100
AcDbSpline
 62
7
  6
CONTINUOUS
 70
0
 71
3
 72
10
 73
6
 74
0
 42
0.0000001
 43
0.0000001
 44
0.0000000001
 40
0.0
 40
0.0
 40
0.0
 40
0.0
 40
0.252700149
 40
0.5036307404
 40
1.0
 40
1.0
 40
1.0
 40
1.0
 10
114.6163703726
 20
73.4580791391
 30
0.0
 10
114.6907639063
 20
73.3950435265
 30
0.0
 10
114.8265087995
 20
73.2549055216
 30
0.0
 10
115.0714824077
 20
72.9567474597
 30
0.0
 10
115.2357918474
 20
72.7190562202
 30
0.0
 10
115.3392179842
 20
72.5578496892
 30
0.0
  0
SPLINE
  5
570
100
AcDbEntity
  8
0
100
AcDbSpline
 62
7
  6
CONTINUOUS
 70
0
 71
3
 72
9
 73
5
 74
0
 42
0.0000001
 43
0.0000001
 44
0.0000000001
 40
0.0
 40
0.0
 40
0.0
 40
0.0
 40
0.5331429909
 40
1.0
 40
1.0
 40
1.0
 40
1.0
 10
114.6163845888
 20
72.0438667682
 30
0.0
 10
114.7512909203
 20
72.1255128914
 30
0.0
 10
114.9955121979
 20
72.2930888286
 30
0.0
 10
115.2310555696
 20
72.4720131189
 30
0.0
 10
115.3392179842
 20
72.5578496892
 30
0.0
  0
SPLINE
  5
571
100
AcDbEntity
  8
0
100
AcDbSpline
 62
7
  6
CONTINUOUS
 70
0
 71
3
 72
9
 73
5
 74
0
 42
0.0000001
 43
0.0000001
 44
0.0000000001
 40
0.0
 40
0.0
 40
0.0
 40
0.0
 40
0.4668571454
 40
1.0
 40
1.0
 40
1.0
 40
1.0
 10
115.339218049
 20
85.5420743017
 30
0.0
 10
115.2310551934
 20
85.6279099903
 30
0.0
 10
114.9955134162
 20
85.8068354635
 30
0.0
 10
114.7512921646
 20
85.9744106032
 30
0.0
 10
114.6163860841
 20
86.0560565275
 30
0.0
  0
SPLINE
  5
572
100
AcDbEntity
  8
0
100
AcDbSpline
 62
7
  6
CONTINUOUS
 70
0
 71
3
 72
10
 73
6
 74
0
 42
0.0000001
 43
0.0000001
 44
0.0000000001
 40
0.0
 40
0.0
 40
0.0
 40
0.0
 40
0.4963692512
 40
0.7472998486
 40
1.0
 40
1.0
 40
1.0
 40
1.0
 10
115.339218049
 20
85.5420743017
 30
0.0
 10
115.2357915612
 20
85.3808683692
 30
0.0
 10
115.0714828384
 20
85.1431772801
 30
0.0
 10
114.8265096865
 20
84.845019542
 30
0.0
 10
114.6907646069
 20
84.7048822791
 30
0.0
 10
114.616371595
 20
84.6418462942
 30
0.0
  0
SPLINE
  5
573
100
AcDbEntity
  8
0
100
AcDbSpline
 62
7
  6
CONTINUOUS
 70
0
 71
3
 72
8
 73
4
 74
0
 42
0.0000001
 43
0.0000001
 44
0.0000000001
 40
0.0
 40
0.0
 40
0.0
 40
0.0
 40
1.0
 40
1.0
 40
1.0
 40
1.0
 10
102.3783992989
 20
84.6418452723
 30
0.0
 10
102.3593256497
 20
84.6593648935
 30
0.0
 10
102.3414921711
 20
84.678260502
 30
0.0
 10
102.3245011112
 20
84.6978064761
 30
0.0
  0
SPLINE
  5
574
100
AcDbEntity
  8
0
100
AcDbSpline
 62
7
  6
CONTINUOUS
 70
0
 71
3
 72
8
 73
4
 74
0
 42
0.0000001
 43
0.0000001
 44
0.0000000001
 40
0.0
 40
0.0
 40
0.0
 40
0.0
 40
1.0
 40
1.0
 40
1.0
 40
1.0
 10
102.3784031215
 20
86.0560580407
 30
0.0
 10
102.3592534522
 20
86.0435482935
 30
0.0
 10
102.3416757545
 20
86.0286985791
 30
0.0
 10
102.3245040734
 20
86.0135877559
 30
0.0
  0
SPLINE
  5
575
100
AcDbEntity
  8
0
100
AcDbSpline
 62
7
  6
CONTINUOUS
 70
0
 71
3
 72
9
 73
5
 74
0
 42
0.0000001
 43
0.0000001
 44
0.0000000001
 40
0.0
 40
0.0
 40
0.0
 40
0.0
 40
0.3908154688
 40
1.0
 40
1.0
 40
1.0
 40
1.0
 10
99.8287548261
 20
92.1201849277
 30
0.0
 10
99.8337528287
 20
92.1105790944
 30
0.0
 10
99.8418817829
 20
92.0838094695
 30
0.0
 10
99.8476336728
 20
92.0567776778
 30
0.0
 10
99.8507323854
 20
92.040185922
 30
0.0
  0
SPLINE
  5
576
100
AcDbEntity
  8
0
100
AcDbSpline
 62
7
  6
CONTINUOUS
 70
0
 71
3
 72
36
 73
32
 74
0
 42
0.0000001
 43
0.0000001
 44
0.0000000001
 40
0.0
 40
0.0
 40
0.0
 40
0.0
 40
0.0078777104
 40
0.020102589
 40
0.036573549
 40
0.0571554637
 40
0.0816604346
 40
0.109878464
 40
0.1764057727
 40
0.2543746567
 40
0.3410130023
 40
0.4332392745
 40
0.5277726437
 40
0.6212499973
 40
0.710345825
 40
0.7522501193
 40
0.7918908189
 40
0.8289106754
 40
0.8629850106
 40
0.8938046858
 40
0.9211018792
 40
0.9446278406
 40
0.9641806598
 40
0.9724104736
 40
0.9795836036
 40
0.985687518
 40
0.9907106074
 40
0.9946425537
 40
0.9974791087
 40
0.9992340466
 40
1.0
 40
1.0
 40
1.0
 40
1.0
 10
99.8507323854
 20
92.040185922
 30
0.0
 10
99.8633139188
 20
91.9728193221
 30
0.0
 10
99.8831274903
 20
91.7988179036
 30
0.0
 10
99.9092738971
 20
91.4818148388
 30
0.0
 10
99.9354511446
 20
91.0538584049
 30
0.0
 10
99.9621751413
 20
90.519022458
 30
0.0
 10
99.9889986384
 20
89.8818658247
 30
0.0
 10
100.0270419494
 20
88.8451563531
 30
0.0
 10
100.0730995999
 20
87.3433385317
 30
0.0
 10
100.1262953986
 20
85.3333077735
 30
0.0
 10
100.1796975475
 20
83.0996449215
 30
0.0
 10
100.2332408808
 20
80.7218473099
 30
0.0
 10
100.2868253297
 20
78.2845405857
 30
0.0
 10
100.3403952945
 20
75.8744732683
 30
0.0
 10
100.3858289595
 20
73.9221799961
 30
0.0
 10
100.4227480373
 20
72.4381648733
 30
0.0
 10
100.4498489189
 20
71.407076641
 30
0.0
 10
100.4769299042
 20
70.444128874
 30
0.0
 10
100.50396853
 20
69.5579497694
 30
0.0
 10
100.5309676979
 20
68.7563945175
 30
0.0
 10
100.5578766899
 20
68.0466552828
 30
0.0
 10
100.5846947568
 20
67.4350150714
 30
0.0
 10
100.6080017617
 20
66.9892466581
 30
0.0
 10
100.6271281031
 20
66.6857715117
 30
0.0
 10
100.6406311107
 20
66.4991110816
 30
0.0
 10
100.6539907993
 20
66.340609238
 30
0.0
 10
100.6674845408
 20
66.2098924398
 30
0.0
 10
100.680188419
 20
66.1091303181
 30
0.0
 10
100.6940055484
 20
66.0337767466
 30
0.0
 10
100.704184977
 20
65.9928895001
 30
0.0
 10
100.7168591846
 20
65.9680128126
 30
0.0
 10
100.7235224969
 20
65.9679936552
 30
0.0
  0
LINE
  5
577
100
AcDbEntity
  8
0
100
AcDbLine
 62
7
  6
CONTINUOUS
 10
102.3784552353
 20
72.0438655258
 11
102.3601735485
 21
71.9794176403
  0
LINE
  5
578
100
AcDbEntity
  8
0
100
AcDbLine
 62
7
  6
CONTINUOUS
 10
102.3784157044
 20
84.6418452723
 11
102.3692559468
 21
84.5962810691
  0
LINE
  5
579
100
AcDbEntity
  8
0
100
AcDbLine
 62
7
  6
CONTINUOUS
 10
118.0038233696
 20
128.8392775432
 11
117.5757218045
 21
129.0949312597
  0
LINE
  5
57A
100
AcDbEntity
  8
0
100
AcDbLine
 62
7
  6
CONTINUOUS
 10
117.5757218045
 20
129.0949312597
 11
117.5745002132
 21
129.0956682894
  0
SPLINE
  5
57B
100
AcDbEntity
  8
0
100
AcDbSpline
 62
7
  6
CONTINUOUS
 70
0
 71
3
 72
9
 73
5
 74
0
 42
0.0000001
 43
0.0000001
 44
0.0000000001
 40
0.0
 40
0.0
 40
0.0
 40
0.0
 40
0.5000346632
 40
1.0
 40
1.0
 40
1.0
 40
1.0
 10
116.9330147527
 20
131.7466286837
 30
0.0
 10
116.9330224648
 20
131.6292287446
 30
0.0
 10
116.9825033413
 20
131.391908016
 30
0.0
 10
117.1221957388
 20
131.1945230893
 30
0.0
 10
117.2070467049
 20
131.1134105886
 30
0.0
  0
SPLINE
  5
57C
100
AcDbEntity
  8
0
100
AcDbSpline
 62
7
  6
CONTINUOUS
 70
0
 71
3
 72
9
 73
5
 74
0
 42
0.0000001
 43
0.0000001
 44
0.0000000001
 40
0.0
 40
0.0
 40
0.0
 40
0.0
 40
0.5005068567
 40
1.0
 40
1.0
 40
1.0
 40
1.0
 10
117.2205092069
 20
131.7466286837
 30
0.0
 10
117.220511692
 20
131.6679101488
 30
0.0
 10
117.2554067451
 20
131.5088131504
 30
0.0
 10
117.3519806128
 20
131.3786914346
 30
0.0
 10
117.4098315944
 20
131.3255426229
 30
0.0
  0
SPLINE
  5
57D
100
AcDbEntity
  8
0
100
AcDbSpline
 62
7
  6
CONTINUOUS
 70
0
 71
3
 72
9
 73
5
 74
0
 42
0.0000001
 43
0.0000001
 44
0.0000000001
 40
0.0
 40
0.0
 40
0.0
 40
0.0
 40
0.5001520262
 40
1.0
 40
1.0
 40
1.0
 40
1.0
 10
117.6275712032
 20
130.7122497031
 30
0.0
 10
117.6556702843
 20
130.6855068546
 30
0.0
 10
117.7020215632
 20
130.6204608692
 30
0.0
 10
117.7185447746
 20
130.5420630514
 30
0.0
 10
117.7185430191
 20
130.5032956768
 30
0.0
  0
LINE
  5
57E
100
AcDbEntity
  8
0
100
AcDbLine
 62
7
  6
CONTINUOUS
 10
102.3784070446
 20
93.9641757426
 11
102.3602950271
 21
93.9002476636
  0
SPLINE
  5
57F
100
AcDbEntity
  8
0
100
AcDbSpline
 62
7
  6
CONTINUOUS
 70
0
 71
3
 72
9
 73
5
 74
0
 42
0.0000001
 43
0.0000001
 44
0.0000000001
 40
0.0
 40
0.0
 40
0.0
 40
0.0
 40
0.3884568457
 40
1.0
 40
1.0
 40
1.0
 40
1.0
 10
98.014754723
 20
92.1202193408
 30
0.0
 10
98.0199729159
 20
92.1102121971
 30
0.0
 10
98.0283454493
 20
92.0820801165
 30
0.0
 10
98.034267096
 20
92.0537207463
 30
0.0
 10
98.0374609091
 20
92.0362428324
 30
0.0
  0
SPLINE
  5
580
100
AcDbEntity
  8
0
100
AcDbSpline
 62
7
  6
CONTINUOUS
 70
0
 71
3
 72
36
 73
32
 74
0
 42
0.0000001
 43
0.0000001
 44
0.0000000001
 40
0.0
 40
0.0
 40
0.0
 40
0.0
 40
0.0079876378
 40
0.0203126979
 40
0.0368770366
 40
0.0575384669
 40
0.0821168392
 40
0.1103923474
 40
0.1770068814
 40
0.2550201014
 40
0.3416628234
 40
0.4338583158
 40
0.5283321326
 40
0.6217287889
 40
0.7107311894
 40
0.7525875607
 40
0.7921787256
 40
0.8291529275
 40
0.8631798968
 40
0.8939599947
 40
0.9212158617
 40
0.9447112449
 40
0.9642322374
 40
0.9724506756
 40
0.9796155721
 40
0.985709671
 40
0.990723049
 40
0.9946489647
 40
0.9974839292
 40
0.9992365389
 40
1.0
 40
1.0
 40
1.0
 40
1.0
 10
98.0374609091
 20
92.0362428324
 30
0.0
 10
98.0499499375
 20
91.9678975177
 30
0.0
 10
98.0697938546
 20
91.7921025241
 30
0.0
 10
98.0959144294
 20
91.4724887989
 30
0.0
 10
98.1220887916
 20
91.0422234254
 30
0.0
 10
98.1488000406
 20
90.5053226057
 30
0.0
 10
98.1755980148
 20
89.8664320372
 30
0.0
 10
98.2136093997
 20
88.8279823574
 30
0.0
 10
98.2596225354
 20
87.3247494054
 30
0.0
 10
98.3127807378
 20
85.3138439436
 30
0.0
 10
98.3661412558
 20
83.0803675894
 30
0.0
 10
98.4196422709
 20
80.7036824836
 30
0.0
 10
98.4731837104
 20
78.2682375643
 30
0.0
 10
98.5267098996
 20
75.8605728889
 30
0.0
 10
98.5721093367
 20
73.9105109309
 30
0.0
 10
98.6089972634
 20
72.4283840882
 30
0.0
 10
98.6360784588
 20
71.3986991461
 30
0.0
 10
98.6631325112
 20
70.4371391679
 30
0.0
 10
98.6901549316
 20
69.5522497826
 30
0.0
 10
98.7171233349
 20
68.751933132
 30
0.0
 10
98.7440203521
 20
68.0432730758
 30
0.0
 10
98.7708041541
 20
67.4326286522
 30
0.0
 10
98.7941008171
 20
66.9875710022
 30
0.0
 10
98.8132109029
 20
66.6845899632
 30
0.0
 10
98.8266972603
 20
66.4982137785
 30
0.0
 10
98.8400455175
 20
66.3399776976
 30
0.0
 10
98.8535356433
 20
66.2095045563
 30
0.0
 10
98.8662255734
 20
66.1089084178
 30
0.0
 10
98.8800444235
 20
66.0336526754
 30
0.0
 10
98.8901638543
 20
65.99281984
 30
0.0
 10
98.9028819845
 20
65.968004011
 30
0.0
 10
98.9095226152
 20
65.9680135856
 30
0.0
  0
SPLINE
  5
581
100
AcDbEntity
  8
0
100
AcDbSpline
 62
7
  6
CONTINUOUS
 70
0
 71
3
 72
15
 73
11
 74
0
 42
0.0000001
 43
0.0000001
 44
0.0000000001
 40
0.0
 40
0.0
 40
0.0
 40
0.0
 40
0.1277594967
 40
0.2529718734
 40
0.3761083629
 40
0.498166395
 40
0.6205092618
 40
0.7444514276
 40
0.8708455041
 40
1.0
 40
1.0
 40
1.0
 40
1.0
 10
115.3392205875
 20
85.5420732175
 30
0.0
 10
115.1398182238
 20
85.9014166463
 30
0.0
 10
114.7748527104
 20
86.6303098467
 30
0.0
 10
114.3511011407
 20
87.7664392161
 30
0.0
 10
114.0825084749
 20
88.9313107374
 30
0.0
 10
113.9903166305
 20
90.114674394
 30
0.0
 10
114.0828839513
 20
91.3005755555
 30
0.0
 10
114.3516792278
 20
92.4728122338
 30
0.0
 10
114.7752403252
 20
93.6205328059
 30
0.0
 10
115.1398980295
 20
94.3587941926
 30
0.0
 10
115.339210199
 20
94.7233102791
 30
0.0
  0
SPLINE
  5
582
100
AcDbEntity
  8
0
100
AcDbSpline
 62
7
  6
CONTINUOUS
 70
0
 71
3
 72
13
 73
9
 74
0
 42
0.0000001
 43
0.0000001
 44
0.0000000001
 40
0.0
 40
0.0
 40
0.0
 40
0.0
 40
0.2530018413
 40
0.376963971
 40
0.5000028647
 40
0.6230421739
 40
0.7470034645
 40
1.0
 40
1.0
 40
1.0
 40
1.0
 10
114.6163854618
 20
86.0560560091
 30
0.0
 10
114.3243626441
 20
86.6819808037
 30
0.0
 10
113.9633947265
 20
87.6551221145
 30
0.0
 10
113.7103136843
 20
88.999229532
 30
0.0
 10
113.6460611855
 20
90.0101459557
 30
0.0
 10
113.7104254407
 20
91.0210419882
 30
0.0
 10
113.9633055212
 20
92.3651725972
 30
0.0
 10
114.3244045198
 20
93.3382598344
 30
0.0
 10
114.616409803
 20
93.9641768258
 30
0.0
  0
SPLINE
  5
583
100
AcDbEntity
  8
0
100
AcDbSpline
 62
7
  6
CONTINUOUS
 70
0
 71
3
 72
9
 73
5
 74
0
 42
0.0000001
 43
0.0000001
 44
0.0000000001
 40
0.0
 40
0.0
 40
0.0
 40
0.0
 40
0.5391670218
 40
1.0
 40
1.0
 40
1.0
 40
1.0
 10
117.6532123465
 20
129.2234191317
 30
0.0
 10
117.7346874323
 20
129.1763275696
 30
0.0
 10
117.8630041176
 20
129.0516299044
 30
0.0
 10
117.9629356862
 20
128.9085575782
 30
0.0
 10
118.0038234233
 20
128.8392924364
 30
0.0
  0
SPLINE
  5
584
100
AcDbEntity
  8
0
100
AcDbSpline
 62
7
  6
CONTINUOUS
 70
0
 71
3
 72
13
 73
9
 74
0
 42
0.0000001
 43
0.0000001
 44
0.0000000001
 40
0.0
 40
0.0
 40
0.0
 40
0.0
 40
0.3718757505
 40
0.538015058
 40
0.6829868784
 40
0.8031714826
 40
0.8957429558
 40
1.0
 40
1.0
 40
1.0
 40
1.0
 10
117.7877956251
 20
129.6564369009
 30
0.0
 10
117.7601266269
 20
129.6058157761
 30
0.0
 10
117.7225982628
 20
129.5311991308
 30
0.0
 10
117.6814130564
 20
129.4333796292
 30
0.0
 10
117.6589724758
 20
129.3706764967
 30
0.0
 10
117.6441859657
 20
129.3160533223
 30
0.0
 10
117.6368202923
 20
129.2703127723
 30
0.0
 10
117.6392057603
 20
129.2315060035
 30
0.0
 10
117.6532123465
 20
129.2234191317
 30
0.0
  0
SPLINE
  5
585
100
AcDbEntity
  8
0
100
AcDbSpline
 62
7
  6
CONTINUOUS
 70
0
 71
3
 72
10
 73
6
 74
0
 42
0.0000001
 43
0.0000001
 44
0.0000000001
 40
0.0
 40
0.0
 40
0.0
 40
0.0
 40
0.2526105002
 40
0.503127704
 40
1.0
 40
1.0
 40
1.0
 40
1.0
 10
117.7877954289
 20
129.6564369008
 30
0.0
 10
117.826824339
 20
129.5963481396
 30
0.0
 10
117.8834622422
 20
129.4635483134
 30
0.0
 10
117.959739088
 20
129.1904515744
 30
0.0
 10
117.9911047665
 20
128.9796825002
 30
0.0
 10
118.0038233696
 20
128.8393229356
 30
0.0
  0
LINE
  5
586
100
AcDbEntity
  8
0
100
AcDbLine
 62
7
  6
CONTINUOUS
 10
117.7185430191
 20
129.7630604093
 11
117.7877954289
 21
129.6564369008
  0
SPLINE
  5
587
100
AcDbEntity
  8
0
100
AcDbSpline
 62
7
  6
CONTINUOUS
 70
0
 71
3
 72
11
 73
7
 74
0
 42
0.0000001
 43
0.0000001
 44
0.0000000001
 40
0.0
 40
0.0
 40
0.0
 40
0.0
 40
0.2500382139
 40
0.5000000004
 40
0.749961762
 40
1.0
 40
1.0
 40
1.0
 40
1.0
 10
114.616394703
 20
73.4580756849
 30
0.0
 10
114.3192029509
 20
74.3588303558
 30
0.0
 10
113.8398822203
 20
76.2020659335
 30
0.0
 10
113.5811622747
 20
79.0499620441
 30
0.0
 10
113.8398822915
 20
81.8978581546
 30
0.0
 10
114.3192022615
 20
83.7410939557
 30
0.0
 10
114.6163942001
 20
84.6418486617
 30
0.0
  0
SPLINE
  5
588
100
AcDbEntity
  8
0
100
AcDbSpline
 62
7
  6
CONTINUOUS
 70
0
 71
3
 72
13
 73
9
 74
0
 42
0.0000001
 43
0.0000001
 44
0.0000000001
 40
0.0
 40
0.0
 40
0.0
 40
0.0
 40
0.2499024811
 40
0.3749516308
 40
0.5000000278
 40
0.6250484186
 40
0.7500975547
 40
1.0
 40
1.0
 40
1.0
 40
1.0
 10
115.3392205989
 20
72.5578503906
 30
0.0
 10
114.9366161699
 20
73.5915228828
 30
0.0
 10
114.4366841896
 20
75.1895745219
 30
0.0
 10
114.0819821493
 20
77.3838375734
 30
0.0
 10
113.9906233673
 20
79.049962164
 30
0.0
 10
114.0819822729
 20
80.7160866695
 30
0.0
 10
114.4366839211
 20
82.9103495492
 30
0.0
 10
114.9366163377
 20
84.5084008263
 30
0.0
 10
115.3392205875
 20
85.5420732175
 30
0.0
  0
SPLINE
  5
589
100
AcDbEntity
  8
0
100
AcDbSpline
 62
7
  6
CONTINUOUS
 70
0
 71
3
 72
13
 73
9
 74
0
 42
0.0000001
 43
0.0000001
 44
0.0000000001
 40
0.0
 40
0.0
 40
0.0
 40
0.0
 40
0.2529965812
 40
0.3769579108
 40
0.4999971905
 40
0.6230360421
 40
0.7469981461
 40
1.0
 40
1.0
 40
1.0
 40
1.0
 10
114.6164089427
 20
64.1357474437
 30
0.0
 10
114.3244043164
 20
64.7616648682
 30
0.0
 10
113.9633082086
 20
65.7347530031
 30
0.0
 10
113.7104232573
 20
67.0788827527
 30
0.0
 10
113.6460595758
 20
68.0897789743
 30
0.0
 10
113.7103153295
 20
69.100694798
 30
0.0
 10
113.9633942893
 20
70.4448023525
 30
0.0
 10
114.3243632558
 20
71.4179433503
 30
0.0
 10
114.6163856912
 20
72.0438683504
 30
0.0
  0
SPLINE
  5
58A
100
AcDbEntity
  8
0
100
AcDbSpline
 62
7
  6
CONTINUOUS
 70
0
 71
3
 72
15
 73
11
 74
0
 42
0.0000001
 43
0.0000001
 44
0.0000000001
 40
0.0
 40
0.0
 40
0.0
 40
0.0
 40
0.1291545375
 40
0.2555487522
 40
0.3794908602
 40
0.5018337569
 40
0.6238917809
 40
0.747028242
 40
0.8722406158
 40
1.0
 40
1.0
 40
1.0
 40
1.0
 10
115.3392101785
 20
63.376613998
 30
0.0
 10
115.1398977226
 20
63.7411300558
 30
0.0
 10
114.775240567
 20
64.4793922777
 30
0.0
 10
114.3516779566
 20
65.6271126883
 30
0.0
 10
114.082884573
 20
66.7993501333
 30
0.0
 10
113.9903164954
 20
67.9852509297
 30
0.0
 10
114.0825076872
 20
69.1686146551
 30
0.0
 10
114.3511014394
 20
70.3334857447
 30
0.0
 10
114.7748528628
 20
71.4696145745
 30
0.0
 10
115.1398184181
 20
72.1985072985
 30
0.0
 10
115.3392205989
 20
72.5578503906
 30
0.0
  0
LINE
  5
58B
100
AcDbEntity
  8
0
100
AcDbLine
 62
7
  6
CONTINUOUS
 10
115.3392101785
 20
63.376613998
 11
114.020946812
 21
63.4035156099
  0
ELLIPSE
  5
58C
100
AcDbEntity
  8
0
100
AcDbEllipse
 62
7
  6
CONTINUOUS
 10
138.2936951769
 20
144.4872299615
 30
0.0
 11
0.5486916773
 21
1.2874646535
 31
0.0
 40
0.7145358838
 41
-1.5707963268
 42
-1.3028918007
  0
ELLIPSE
  5
58D
100
AcDbEntity
  8
0
100
AcDbEllipse
 62
7
  6
CONTINUOUS
 10
139.7487042056
 20
144.4499621802
 30
0.0
 11
0.0
 21
1.0
 31
0.0
 40
0.383864035
 41
0.0
 42
1.0906723322
  0
ELLIPSE
  5
58E
100
AcDbEntity
  8
0
100
AcDbEllipse
 62
7
  6
CONTINUOUS
 10
139.3648401706
 20
145.4499621802
 30
0.0
 11
0.0
 21
3.0
 31
0.0
 40
0.383864035
 41
0.0
 42
1.5707963268
  0
ELLIPSE
  5
58F
100
AcDbEntity
  8
0
100
AcDbEllipse
 62
7
  6
CONTINUOUS
 10
120.8438870033
 20
145.4499621802
 30
0.0
 11
3.0
 21
-0.0
 31
0.0
 40
1.0
 41
-0.0
 42
1.5707963268
  0
ELLIPSE
  5
590
100
AcDbEntity
  8
0
100
AcDbEllipse
 62
7
  6
CONTINUOUS
 10
137.1421030718
 20
141.7851038098
 30
0.0
 11
-0.5486916773
 21
-1.2874646535
 31
0.0
 40
0.7145358838
 41
1.5707963268
 42
2.1085963504
  0
ELLIPSE
  5
591
100
AcDbEntity
  8
0
100
AcDbEllipse
 62
7
  6
CONTINUOUS
 10
125.2581005657
 20
143.7407368035
 30
0.0
 11
-1.2104221425
 21
1.2980188316
 31
0.0
 40
0.563438437
 41
0.5435120867
 42
1.5707963268
  0
ENDSEC
  0
SECTION
  2
OBJECTS
  0
DICTIONARY
  5
592
100
AcDbDictionary
  3
ACAD_GROUP
350
593
  3
ACAD_MLINESTYLE
350
594
  0
DICTIONARY
  5
593
102
{ACAD_REACTORS
330
592
102
}
100
AcDbDictionary
  0
DICTIONARY
  5
594
102
{ACAD_REACTORS
330
592
102
}
100
AcDbDictionary
  3
STANDARD
350
595
  0
MLINESTYLE
  5
595
102
{ACAD_REACTORS
330
594
102
}
100
AcDbMlineStyle
  2
STANDARD
 70
0
  3

 62
256
 51
90.0
 52
90.0
 71
2
 49
0.5
 62
256
  6
BYLAYER
 49
-0.5
 62
256
  6
BYLAYER
  0
ENDSEC
  0
EOF
