999
DXF file: C:\Users\64ciro\Desktop\FILE 3D-2D\ARMATEC\h36lll012_3082.dxf
999
Pro/ENGINEER 2017260 by Parametric Technology Corporation
  0
SECTION
  2
HEADER
  9
$ACADVER
  1
AC1014
  9
$DWGCODEPAGE
  3
ANSI_1252
  9
$EXTMAX
 10
297.0
 20
210.0
 30
0.0
  9
$EXTMIN
 10
0.0
 20
0.0
 30
0.0
  9
$LIMMIN
 10
0.0
 20
0.0
  9
$LIMMAX
 10
297.0
 20
210.0
  9
$VIEWCTR
 10
148.5
 20
105.0
  9
$VIEWSIZE
 40
210.0
  9
$CLAYER
  8
0
  9
$LTSCALE
 40
16.335
  9
$CELTYPE
  6
BYLAYER
  9
$DIMSCALE
 40
1.0
  9
$DIMASZ
 40
1.5
  9
$DIMEXO
 40
0.0625
  9
$DIMDLI
 40
11.286
  9
$DIMEXE
 40
0.125
  9
$DIMCEN
 40
2.673
  9
$DIMLFAC
 40
1.0
  9
$DIMBLK
  1
_CLOSED
  9
$DIMALT
 70
0
  9
$DIMALTF
 40
25.4
  9
$DIMTXT
 40
2.4
  9
$DIMTOL
 70
1
  9
$DIMLIM
 70
0
  9
$DIMTFAC
 40
1.0
  9
$DIMTP
 40
0.01
  9
$DIMTM
 40
0.01
  9
$DIMGAP
 40
0.625
  9
$AUNITS
 70
0
  9
$PDMODE
 70
3
  9
$PDSIZE
 40
0.3125
  9
$HANDSEED
  5
5AB
  9
$TILEMODE
 70
1
  9
$MEASUREMENT
 70
1
  0
ENDSEC
  0
SECTION
  2
CLASSES
  0
ENDSEC
  0
SECTION
  2
TABLES
  0
TABLE
  2
VPORT
  5
8
100
AcDbSymbolTable
 70
2
  0
VPORT
  5
1F4
100
AcDbSymbolTableRecord
100
AcDbViewportTableRecord
  2
*ACTIVE
 70
0
 10
0.0
 20
0.0
 11
1.0
 21
1.0
 12
148.5
 22
105.0
 13
0.0
 23
0.0
 14
1.0
 24
1.0
 15
0.0
 25
0.0
 16
0.0
 26
0.0
 36
1.0
 17
0.0
 27
0.0
 37
0.0
 40
210.0
 41
1.4142857143
 42
50.0
 43
0.0
 44
0.0
 50
0.0
 51
0.0
 71
0
 72
100
 73
1
 74
1
 75
0
 76
0
 77
0
 78
0
  0
ENDTAB
  0
TABLE
  2
LTYPE
  5
5
100
AcDbSymbolTable
 70
6
  0
LTYPE
  5
14
100
AcDbSymbolTableRecord
100
AcDbLinetypeTableRecord
  2
BYBLOCK
 70
0
  3

 72
65
 73
0
 40
0.0
  0
LTYPE
  5
15
100
AcDbSymbolTableRecord
100
AcDbLinetypeTableRecord
  2
BYLAYER
 70
0
  3

 72
65
 73
0
 40
0.0
  0
LTYPE
  5
16
100
AcDbSymbolTableRecord
100
AcDbLinetypeTableRecord
  2
CONTINUOUS
 70
64
  3
Solid line
 72
65
 73
0
 40
0.0
  0
LTYPE
  5
1F5
100
AcDbSymbolTableRecord
100
AcDbLinetypeTableRecord
  2
CENTER
 70
64
  3
____ _ ____ _ ____ _ ____ _ ____ _ ____ _ ____
 72
65
 73
4
 40
0.6
 49
0.375
 74
0
 49
-0.075
 74
0
 49
0.075
 74
0
 49
-0.075
 74
0
  0
LTYPE
  5
1F6
100
AcDbSymbolTableRecord
100
AcDbLinetypeTableRecord
  2
HIDDEN
 70
64
  3
- - - - - - - - - - - - - - - - - - - -
 72
65
 73
2
 40
0.2
 49
0.1
 74
0
 49
-0.1
 74
0
  0
LTYPE
  5
1F7
100
AcDbSymbolTableRecord
100
AcDbLinetypeTableRecord
  2
PHANTOM
 70
64
  3
_____ _ _ _____ _ _ _____ _ _ _____
 72
65
 73
6
 40
0.8
 49
0.45
 74
0
 49
-0.05
 74
0
 49
0.1
 74
0
 49
-0.05
 74
0
 49
0.1
 74
0
 49
-0.05
 74
0
  0
LTYPE
  5
1F8
100
AcDbSymbolTableRecord
100
AcDbLinetypeTableRecord
  2
DOT
 70
64
  3
. . . . . . . . . . . . . . . . . . . .
 72
65
 73
2
 40
0.2
 49
0.1
 74
0
 49
-0.1
 74
0
  0
LTYPE
  5
1F9
100
AcDbSymbolTableRecord
100
AcDbLinetypeTableRecord
  2
DASHED
 70
64
  3
- - - - - - - - - - - - - - - - - - - -
 72
65
 73
2
 40
0.2
 49
0.1
 74
0
 49
-0.1
 74
0
  0
ENDTAB
  0
TABLE
  2
LAYER
  5
2
100
AcDbSymbolTable
 70
36
  0
LAYER
  5
10
100
AcDbSymbolTableRecord
100
AcDbLayerTableRecord
  2
0
 70
0
 62
7
  6
CONTINUOUS
  0
LAYER
  5
1FA
100
AcDbSymbolTableRecord
100
AcDbLayerTableRecord
  2
DEFAULT_1
 70
0
 62
7
  6
CENTER
  0
LAYER
  5
1FB
100
AcDbSymbolTableRecord
100
AcDbLayerTableRecord
  2
DEFAULT_2
 70
0
 62
8
  6
HIDDEN
  0
LAYER
  5
1FC
100
AcDbSymbolTableRecord
100
AcDbLayerTableRecord
  2
DEFAULT_3
 70
0
 62
7
  6
PHANTOM
  0
LAYER
  5
1FD
100
AcDbSymbolTableRecord
100
AcDbLayerTableRecord
  2
ASSI
 70
0
 62
7
  6
CONTINUOUS
  0
LAYER
  5
1FE
100
AcDbSymbolTableRecord
100
AcDbLayerTableRecord
  2
COSMETICA
 70
0
 62
7
  6
CONTINUOUS
  0
LAYER
  5
1FF
100
AcDbSymbolTableRecord
100
AcDbLayerTableRecord
  2
CSYS
 70
0
 62
7
  6
CONTINUOUS
  0
LAYER
  5
200
100
AcDbSymbolTableRecord
100
AcDbLayerTableRecord
  2
CURVE
 70
0
 62
7
  6
CONTINUOUS
  0
LAYER
  5
201
100
AcDbSymbolTableRecord
100
AcDbLayerTableRecord
  2
DETTAGLI
 70
0
 62
7
  6
CONTINUOUS
  0
LAYER
  5
202
100
AcDbSymbolTableRecord
100
AcDbLayerTableRecord
  2
FILETTI
 70
0
 62
7
  6
CONTINUOUS
  0
LAYER
  5
203
100
AcDbSymbolTableRecord
100
AcDbLayerTableRecord
  2
GEOM
 70
0
 62
7
  6
CONTINUOUS
  0
LAYER
  5
204
100
AcDbSymbolTableRecord
100
AcDbLayerTableRecord
  2
GEOMETRIA_SOLIDA
 70
0
 62
7
  6
CONTINUOUS
  0
LAYER
  5
205
100
AcDbSymbolTableRecord
100
AcDbLayerTableRecord
  2
LAY0001
 70
0
 62
7
  6
CONTINUOUS
  0
LAYER
  5
206
100
AcDbSymbolTableRecord
100
AcDbLayerTableRecord
  2
LAY0002
 70
0
 62
7
  6
CONTINUOUS
  0
LAYER
  5
207
100
AcDbSymbolTableRecord
100
AcDbLayerTableRecord
  2
LAY0003
 70
0
 62
7
  6
CONTINUOUS
  0
LAYER
  5
208
100
AcDbSymbolTableRecord
100
AcDbLayerTableRecord
  2
NOGEOM
 70
0
 62
7
  6
CONTINUOUS
  0
LAYER
  5
209
100
AcDbSymbolTableRecord
100
AcDbLayerTableRecord
  2
PIANI
 70
0
 62
7
  6
CONTINUOUS
  0
LAYER
  5
20A
100
AcDbSymbolTableRecord
100
AcDbLayerTableRecord
  2
QUOTE
 70
0
 62
7
  6
CONTINUOUS
  0
LAYER
  5
20B
100
AcDbSymbolTableRecord
100
AcDbLayerTableRecord
  2
RACCORDI
 70
0
 62
7
  6
CONTINUOUS
  0
LAYER
  5
20C
100
AcDbSymbolTableRecord
100
AcDbLayerTableRecord
  2
RIF
 70
0
 62
7
  6
CONTINUOUS
  0
LAYER
  5
20D
100
AcDbSymbolTableRecord
100
AcDbLayerTableRecord
  2
SMUSSI
 70
0
 62
7
  6
CONTINUOUS
  0
LAYER
  5
20E
100
AcDbSymbolTableRecord
100
AcDbLayerTableRecord
  2
TABELLE
 70
0
 62
7
  6
CONTINUOUS
  0
ENDTAB
  0
TABLE
  2
STYLE
  5
3
100
AcDbSymbolTable
 70
1
  0
STYLE
  5
11
100
AcDbSymbolTableRecord
100
AcDbTextStyleTableRecord
  2
STANDARD
 70
0
 40
0.0
 41
0.8
 50
0.0
 71
0
 42
0.2
  3
txt
  4

  0
STYLE
  5
20F
100
AcDbSymbolTableRecord
100
AcDbTextStyleTableRecord
  2
TEXTSTYLE_1
 70
0
 40
0.0
 41
0.8
 50
0.0
 71
0
 42
0.2
  3
gdt
  4

  0
ENDTAB
  0
TABLE
  2
VIEW
  5
6
100
AcDbSymbolTable
 70
0
  0
ENDTAB
  0
TABLE
  2
UCS
  5
7
100
AcDbSymbolTable
 70
0
  0
ENDTAB
  0
TABLE
  2
APPID
  5
9
100
AcDbSymbolTable
 70
1
  0
APPID
  5
210
100
AcDbSymbolTableRecord
100
AcDbRegAppTableRecord
  2
ACAD
 70
0
  0
ENDTAB
  0
TABLE
  2
BLOCK_RECORD
  5
1
100
AcDbSymbolTable
 70
0
  0
BLOCK_RECORD
  5
1F
100
AcDbSymbolTableRecord
100
AcDbBlockTableRecord
  2
*MODEL_SPACE
  0
BLOCK_RECORD
  5
1B
100
AcDbSymbolTableRecord
100
AcDbBlockTableRecord
  2
*PAPER_SPACE
  0
ENDTAB
  0
TABLE
  2
DIMSTYLE
  5
A
100
AcDbSymbolTable
 70
1
  0
DIMSTYLE
105
211
100
AcDbSymbolTableRecord
100
AcDbDimStyleTableRecord
  2
STANDARD
 70
0
  3

  4

  5
_CLOSED
  6
_CLOSED
  7
_CLOSED
 40
1.0
 41
1.5
 42
0.0625
 43
0.38
 44
0.125
 45
0.0
 46
0.0
 47
0.01
 48
0.01
140
2.4
141
0.09
142
0.0
143
25.4
144
1.0
145
0.0
146
1.0
147
0.625
 71
1.0
 72
0.0
 73
0
 74
0
 75
0
 76
0
 77
1
 78
8
 79
2
170
0
171
1
172
0
173
0
174
0
175
0
176
0
177
0
178
0
270
2
179
2
271
2
272
2
273
2
274
2
275
0
280
0
281
0
282
0
283
1
284
8
285
0
286
0
287
3
288
0
340
11
  0
ENDTAB
  0
ENDSEC
  0
SECTION
  2
BLOCKS
  0
BLOCK
  5
20
100
AcDbEntity
  8
0
100
AcDbBlockBegin
  2
*MODEL_SPACE
 70
0
 10
0.0
 20
0.0
 30
0.0
  3
*MODEL_SPACE
  1

  0
ENDBLK
  5
21
100
AcDbEntity
  8
0
100
AcDbBlockEnd
  0
BLOCK
  5
1C
100
AcDbEntity
  8
0
100
AcDbBlockBegin
  2
*PAPER_SPACE
 70
0
 10
0.0
 20
0.0
 30
0.0
  3
*PAPER_SPACE
  1

  0
ENDBLK
  5
1D
100
AcDbEntity
  8
0
100
AcDbBlockEnd
  0
ENDSEC
  0
SECTION
  2
ENTITIES
  0
LINE
  5
212
100
AcDbEntity
  8
0
100
AcDbLine
 62
7
  6
CONTINUOUS
 10
0.0
 20
0.0
 11
0.0
 21
210.0
  0
LINE
  5
213
100
AcDbEntity
  8
0
100
AcDbLine
 62
7
  6
CONTINUOUS
 10
0.0
 20
0.0
 11
297.0
 21
0.0
  0
LINE
  5
214
100
AcDbEntity
  8
0
100
AcDbLine
 62
7
  6
CONTINUOUS
 10
0.0
 20
210.0
 11
297.0
 21
210.0
  0
LINE
  5
215
100
AcDbEntity
  8
0
100
AcDbLine
 62
7
  6
CONTINUOUS
 10
297.0
 20
0.0
 11
297.0
 21
210.0
  0
LINE
  5
216
100
AcDbEntity
  8
0
100
AcDbLine
 62
7
  6
CONTINUOUS
 10
85.0536698541
 20
68.8311830041
 11
85.9485627714
 21
67.2811830041
  0
LINE
  5
217
100
AcDbEntity
  8
0
100
AcDbLine
 62
7
  6
CONTINUOUS
 10
82.9093322868
 20
88.1811830041
 11
82.9093322868
 21
69.5811830041
  0
LINE
  5
218
100
AcDbEntity
  8
0
100
AcDbLine
 62
7
  6
CONTINUOUS
 10
83.4093322868
 20
69.0811830041
 11
83.4093322868
 21
88.6811830041
  0
LINE
  5
219
100
AcDbEntity
  8
0
100
AcDbLine
 62
7
  6
CONTINUOUS
 10
96.1067127483
 20
70.5600246235
 11
96.1170568794
 21
70.5501830041
  0
LINE
  5
21A
100
AcDbEntity
  8
0
100
AcDbLine
 62
7
  6
CONTINUOUS
 10
97.4437127483
 20
70.5600246235
 11
97.4540568794
 21
70.5501830041
  0
LINE
  5
21B
100
AcDbEntity
  8
0
100
AcDbLine
 62
7
  6
CONTINUOUS
 10
98.7807127483
 20
70.5600246235
 11
98.7910568794
 21
70.5501830041
  0
LINE
  5
21C
100
AcDbEntity
  8
0
100
AcDbLine
 62
7
  6
CONTINUOUS
 10
100.1177127483
 20
70.5600246235
 11
100.1280568794
 21
70.5501830041
  0
LINE
  5
21D
100
AcDbEntity
  8
0
100
AcDbLine
 62
7
  6
CONTINUOUS
 10
95.9093322868
 20
70.935513694
 11
96.1067127483
 21
70.5600246235
  0
LINE
  5
21E
100
AcDbEntity
  8
0
100
AcDbLine
 62
7
  6
CONTINUOUS
 10
96.9931203352
 20
71.417146943
 11
97.4437127483
 21
70.5600246235
  0
LINE
  5
21F
100
AcDbEntity
  8
0
100
AcDbLine
 62
7
  6
CONTINUOUS
 10
84.6206571522
 20
88.6811830041
 11
84.6206571522
 21
69.0811830041
  0
LINE
  5
220
100
AcDbEntity
  8
0
100
AcDbLine
 62
7
  6
CONTINUOUS
 10
85.0536698541
 20
88.9311830041
 11
85.0536698541
 21
68.8311830041
  0
LINE
  5
221
100
AcDbEntity
  8
0
100
AcDbLine
 62
7
  6
CONTINUOUS
 10
85.9485627714
 20
67.2811830041
 11
85.9485627714
 21
67.2867187458
  0
LINE
  5
222
100
AcDbEntity
  8
0
100
AcDbLine
 62
7
  6
CONTINUOUS
 10
85.9485627714
 20
72.7736301982
 11
85.9485627714
 21
73.3942715516
  0
LINE
  5
223
100
AcDbEntity
  8
0
100
AcDbLine
 62
7
  6
CONTINUOUS
 10
85.9485627714
 20
84.3680944565
 11
85.9485627714
 21
84.9887358099
  0
LINE
  5
224
100
AcDbEntity
  8
0
100
AcDbLine
 62
7
  6
CONTINUOUS
 10
85.9485627714
 20
90.4756472624
 11
85.9485627714
 21
90.4811830041
  0
LINE
  5
225
100
AcDbEntity
  8
0
100
AcDbLine
 62
7
  6
CONTINUOUS
 10
86.3815754733
 20
90.7311830041
 11
86.3815754733
 21
90.7210257633
  0
LINE
  5
226
100
AcDbEntity
  8
0
100
AcDbLine
 62
7
  6
CONTINUOUS
 10
86.3815754733
 20
67.0413402449
 11
86.3815754733
 21
67.0311830041
  0
LINE
  5
227
100
AcDbEntity
  8
0
100
AcDbLine
 62
7
  6
CONTINUOUS
 10
86.3815754733
 20
72.5364468676
 11
86.3815754733
 21
73.3860763935
  0
LINE
  5
228
100
AcDbEntity
  8
0
100
AcDbLine
 62
7
  6
CONTINUOUS
 10
86.3815754733
 20
84.3762896142
 11
86.3815754733
 21
85.2259191411
  0
LINE
  5
229
100
AcDbEntity
  8
0
100
AcDbLine
 62
7
  6
CONTINUOUS
 10
110.0558070195
 20
68.7347082714
 11
110.7775277913
 21
68.0129874995
  0
LINE
  5
22A
100
AcDbEntity
  8
0
100
AcDbLine
 62
7
  6
CONTINUOUS
 10
98.3301203352
 20
71.417146943
 11
98.7807127483
 21
70.5600246235
  0
LINE
  5
22B
100
AcDbEntity
  8
0
100
AcDbLine
 62
7
  6
CONTINUOUS
 10
99.6671203352
 20
71.417146943
 11
100.1177127483
 21
70.5600246235
  0
LINE
  5
22C
100
AcDbEntity
  8
0
100
AcDbLine
 62
7
  6
CONTINUOUS
 10
101.0041203352
 20
71.417146943
 11
101.4547127483
 21
70.5600246235
  0
LINE
  5
22D
100
AcDbEntity
  8
0
100
AcDbLine
 62
7
  6
CONTINUOUS
 10
97.0418539626
 20
87.2020007153
 11
97.0313322868
 21
87.2121830041
  0
LINE
  5
22E
100
AcDbEntity
  8
0
100
AcDbLine
 62
7
  6
CONTINUOUS
 10
98.3788539626
 20
87.2020007153
 11
98.3683322868
 21
87.2121830041
  0
LINE
  5
22F
100
AcDbEntity
  8
0
100
AcDbLine
 62
7
  6
CONTINUOUS
 10
95.9093322868
 20
88.7811830041
 11
94.787941213
 21
90.723489319
  0
LINE
  5
230
100
AcDbEntity
  8
0
100
AcDbLine
 62
7
  6
CONTINUOUS
 10
96.1478710907
 20
86.3448397143
 11
95.9093322868
 21
86.8063397935
  0
LINE
  5
231
100
AcDbEntity
  8
0
100
AcDbLine
 62
7
  6
CONTINUOUS
 10
97.4848710907
 20
86.3448397143
 11
97.0418539626
 21
87.2020007153
  0
LINE
  5
232
100
AcDbEntity
  8
0
100
AcDbLine
 62
7
  6
CONTINUOUS
 10
98.8218710907
 20
86.3448397143
 11
98.3788539626
 21
87.2020007153
  0
LINE
  5
233
100
AcDbEntity
  8
0
100
AcDbLine
 62
7
  6
CONTINUOUS
 10
100.1588710907
 20
86.3448397143
 11
99.7158539626
 21
87.2020007153
  0
LINE
  5
234
100
AcDbEntity
  8
0
100
AcDbLine
 62
7
  6
CONTINUOUS
 10
94.7834992619
 20
90.7311830041
 11
94.7834992619
 21
90.7209247573
  0
LINE
  5
235
100
AcDbEntity
  8
0
100
AcDbLine
 62
7
  6
CONTINUOUS
 10
94.7834992619
 20
85.2279747303
 11
94.7834992619
 21
84.3741330311
  0
LINE
  5
236
100
AcDbEntity
  8
0
100
AcDbLine
 62
7
  6
CONTINUOUS
 10
94.7834992619
 20
73.388232977
 11
94.7834992619
 21
72.5343912779
  0
LINE
  5
237
100
AcDbEntity
  8
0
100
AcDbLine
 62
7
  6
CONTINUOUS
 10
94.7834992619
 20
67.0414412508
 11
94.7834992619
 21
67.0311830041
  0
LINE
  5
238
100
AcDbEntity
  8
0
100
AcDbLine
 62
7
  6
CONTINUOUS
 10
95.9093322868
 20
88.7811830041
 11
95.9093322868
 21
68.9811830041
  0
LINE
  5
239
100
AcDbEntity
  8
0
100
AcDbLine
 62
7
  6
CONTINUOUS
 10
104.726214295
 20
138.7811830041
 11
103.5093322868
 21
137.4762368147
  0
LINE
  5
23A
100
AcDbEntity
  8
0
100
AcDbLine
 62
7
  6
CONTINUOUS
 10
122.266439068
 20
66.3811830041
 11
128.2402723945
 21
66.3811830041
  0
LINE
  5
23B
100
AcDbEntity
  8
0
100
AcDbLine
 62
7
  6
CONTINUOUS
 10
149.6370891004
 20
67.0311830041
 11
141.2351653117
 21
67.0311830041
  0
LINE
  5
23C
100
AcDbEntity
  8
0
100
AcDbLine
 62
7
  6
CONTINUOUS
 10
86.3815754733
 20
67.0311830041
 11
94.7834992619
 21
67.0311830041
  0
LINE
  5
23D
100
AcDbEntity
  8
0
100
AcDbLine
 62
7
  6
CONTINUOUS
 10
149.602842779
 20
67.0414412508
 11
141.2351653117
 21
67.0414412508
  0
LINE
  5
23E
100
AcDbEntity
  8
0
100
AcDbLine
 62
7
  6
CONTINUOUS
 10
86.4158217947
 20
67.0414412508
 11
94.7834992619
 21
67.0414412508
  0
LINE
  5
23F
100
AcDbEntity
  8
0
100
AcDbLine
 62
7
  6
CONTINUOUS
 10
99.7158539626
 20
87.2020007153
 11
99.7053322868
 21
87.2121830041
  0
LINE
  5
240
100
AcDbEntity
  8
0
100
AcDbLine
 62
7
  6
CONTINUOUS
 10
120.7057554878
 20
67.7347598031
 11
121.9128856774
 21
66.5276296135
  0
LINE
  5
241
100
AcDbEntity
  8
0
100
AcDbLine
 62
7
  6
CONTINUOUS
 10
102.0093322868
 20
68.9937224086
 11
102.0093322868
 21
88.7686435995
  0
LINE
  5
242
100
AcDbEntity
  8
0
100
AcDbLine
 62
7
  6
CONTINUOUS
 10
102.7772647013
 20
88.8811830041
 11
102.7772647013
 21
88.7347363947
  0
LINE
  5
243
100
AcDbEntity
  8
0
100
AcDbLine
 62
7
  6
CONTINUOUS
 10
102.7772647013
 20
83.1697652372
 11
102.7772647013
 21
82.8162118466
  0
LINE
  5
244
100
AcDbEntity
  8
0
100
AcDbLine
 62
7
  6
CONTINUOUS
 10
102.7772647013
 20
74.9461541615
 11
102.7772647013
 21
74.5926007709
  0
LINE
  5
245
100
AcDbEntity
  8
0
100
AcDbLine
 62
7
  6
CONTINUOUS
 10
102.7772647013
 20
69.0276296135
 11
102.7772647013
 21
68.8811830041
  0
LINE
  5
246
100
AcDbEntity
  8
0
100
AcDbLine
 62
7
  6
CONTINUOUS
 10
103.0093322868
 20
128.3311830041
 11
103.0093322868
 21
125.8832555983
  0
LINE
  5
247
100
AcDbEntity
  8
0
100
AcDbLine
 62
7
  6
CONTINUOUS
 10
103.3593322868
 20
125.8832555983
 11
103.3593322868
 21
128.6811830041
  0
LINE
  5
248
100
AcDbEntity
  8
0
100
AcDbLine
 62
7
  6
CONTINUOUS
 10
103.5093322868
 20
124.7811830041
 11
103.5093322868
 21
125.3925078695
  0
LINE
  5
249
100
AcDbEntity
  8
0
100
AcDbLine
 62
7
  6
CONTINUOUS
 10
103.5093322868
 20
128.6811830041
 11
103.5093322868
 21
138.7811830041
  0
LINE
  5
24A
100
AcDbEntity
  8
0
100
AcDbLine
 62
7
  6
CONTINUOUS
 10
103.3593322868
 20
125.8832555983
 11
103.1843322868
 21
125.580146707
  0
LINE
  5
24B
100
AcDbEntity
  8
0
100
AcDbLine
 62
7
  6
CONTINUOUS
 10
105.3977545653
 20
138.7811830041
 11
103.5093322868
 21
136.7560980413
  0
LINE
  5
24C
100
AcDbEntity
  8
0
100
AcDbLine
 62
7
  6
CONTINUOUS
 10
113.0093322868
 20
144.1358835424
 11
111.3093322868
 21
143.1543880848
  0
LINE
  5
24D
100
AcDbEntity
  8
0
100
AcDbLine
 62
7
  6
CONTINUOUS
 10
111.0957281726
 20
67.8811830041
 11
120.3522255056
 21
67.8811830041
  0
LINE
  5
24E
100
AcDbEntity
  8
GEOM
100
AcDbLine
 62
7
  6
CONTINUOUS
 10
128.8680843427
 20
67.8811830041
 11
133.8093322868
 21
67.8811830041
  0
LINE
  5
24F
100
AcDbEntity
  8
GEOM
100
AcDbLine
 62
7
  6
CONTINUOUS
 10
128.8464901771
 20
67.9008336591
 11
133.5031145042
 21
67.9008336591
  0
LINE
  5
250
100
AcDbEntity
  8
GEOM
100
AcDbLine
 62
7
  6
CONTINUOUS
 10
133.5031145042
 20
68.1593345662
 11
128.8464901771
 21
68.1593345662
  0
LINE
  5
251
100
AcDbEntity
  8
GEOM
100
AcDbLine
 62
7
  6
CONTINUOUS
 10
133.5031145042
 20
68.2209518536
 11
128.8680844897
 21
68.2209518527
  0
LINE
  5
252
100
AcDbEntity
  8
0
100
AcDbLine
 62
7
  6
CONTINUOUS
 10
102.3253576906
 20
68.8811830041
 11
110.416404153
 21
68.8811830041
  0
LINE
  5
253
100
AcDbEntity
  8
0
100
AcDbLine
 62
7
  6
CONTINUOUS
 10
102.7770050037
 20
69.0276296135
 11
110.4163726925
 21
69.0276296135
  0
LINE
  5
254
100
AcDbEntity
  8
0
100
AcDbLine
 62
7
  6
CONTINUOUS
 10
152.6093322868
 20
69.0811830041
 11
151.3980074214
 21
69.0811830041
  0
LINE
  5
255
100
AcDbEntity
  8
0
100
AcDbLine
 62
7
  6
CONTINUOUS
 10
83.4093322868
 20
69.0811830041
 11
84.6206571522
 21
69.0811830041
  0
LINE
  5
256
100
AcDbEntity
  8
0
100
AcDbLine
 62
7
  6
CONTINUOUS
 10
102.0093322868
 20
70.5501830041
 11
101.4650568794
 21
70.5501830041
  0
LINE
  5
257
100
AcDbEntity
  8
0
100
AcDbLine
 62
7
  6
CONTINUOUS
 10
100.3738322868
 20
70.5501830041
 11
100.1280568794
 21
70.5501830041
  0
LINE
  5
258
100
AcDbEntity
  8
0
100
AcDbLine
 62
7
  6
CONTINUOUS
 10
99.0368322868
 20
70.5501830041
 11
98.7910568794
 21
70.5501830041
  0
LINE
  5
259
100
AcDbEntity
  8
0
100
AcDbLine
 62
7
  6
CONTINUOUS
 10
97.6998322868
 20
70.5501830041
 11
97.4540568794
 21
70.5501830041
  0
LINE
  5
25A
100
AcDbEntity
  8
0
100
AcDbLine
 62
7
  6
CONTINUOUS
 10
96.3628322868
 20
70.5501830041
 11
96.1170568794
 21
70.5501830041
  0
LINE
  5
25B
100
AcDbEntity
  8
0
100
AcDbLine
 62
7
  6
CONTINUOUS
 10
139.6909113102
 20
70.5511830041
 11
139.4442384433
 21
70.5511830041
  0
LINE
  5
25C
100
AcDbEntity
  8
0
100
AcDbLine
 62
7
  6
CONTINUOUS
 10
138.3540687815
 20
70.5511830041
 11
138.1073970344
 21
70.5511830041
  0
LINE
  5
25D
100
AcDbEntity
  8
0
100
AcDbLine
 62
7
  6
CONTINUOUS
 10
137.0172273549
 20
70.5511830041
 11
136.770554506
 21
70.5511830041
  0
LINE
  5
25E
100
AcDbEntity
  8
0
100
AcDbLine
 62
7
  6
CONTINUOUS
 10
135.6803848279
 20
70.5511830041
 11
135.4337122244
 21
70.5511830041
  0
LINE
  5
25F
100
AcDbEntity
  8
0
100
AcDbLine
 62
7
  6
CONTINUOUS
 10
134.3435425665
 20
70.5511830041
 11
134.0093322868
 21
70.5511830041
  0
LINE
  5
260
100
AcDbEntity
  8
0
100
AcDbLine
 62
7
  6
CONTINUOUS
 10
96.8046468322
 20
71.4061830041
 11
96.9931203352
 21
71.4061830041
  0
LINE
  5
261
100
AcDbEntity
  8
0
100
AcDbLine
 62
7
  6
CONTINUOUS
 10
98.1416468322
 20
71.4061830041
 11
98.3301203352
 21
71.4061830041
  0
LINE
  5
262
100
AcDbEntity
  8
0
100
AcDbLine
 62
7
  6
CONTINUOUS
 10
99.4786468322
 20
71.4061830041
 11
99.6671203352
 21
71.4061830041
  0
LINE
  5
263
100
AcDbEntity
  8
0
100
AcDbLine
 62
7
  6
CONTINUOUS
 10
100.8156468322
 20
71.4061830041
 11
101.0041203352
 21
71.4061830041
  0
LINE
  5
264
100
AcDbEntity
  8
0
100
AcDbLine
 62
7
  6
CONTINUOUS
 10
134.7886273954
 20
71.4061830053
 11
134.9828178071
 21
71.4061830053
  0
LINE
  5
265
100
AcDbEntity
  8
0
100
AcDbLine
 62
7
  6
CONTINUOUS
 10
136.1254696668
 20
71.4061830227
 11
136.319660067
 21
71.4061830227
  0
LINE
  5
266
100
AcDbEntity
  8
0
100
AcDbLine
 62
7
  6
CONTINUOUS
 10
137.4623121947
 20
71.406183024
 11
137.6565026018
 21
71.406183024
  0
LINE
  5
267
100
AcDbEntity
  8
0
100
AcDbLine
 62
7
  6
CONTINUOUS
 10
138.7991536123
 20
71.4061830087
 11
138.9933440193
 21
71.4061830087
  0
LINE
  5
268
100
AcDbEntity
  8
0
100
AcDbLine
 62
7
  6
CONTINUOUS
 10
149.602842779
 20
72.5343912779
 11
141.2351653117
 21
72.5343912779
  0
LINE
  5
269
100
AcDbEntity
  8
0
100
AcDbLine
 62
7
  6
CONTINUOUS
 10
86.4158217947
 20
72.5343912779
 11
94.7834992619
 21
72.5343912779
  0
LINE
  5
26A
100
AcDbEntity
  8
GEOM
100
AcDbLine
 62
7
  6
CONTINUOUS
 10
128.8680844901
 20
74.8053395329
 11
128.6082768683
 21
74.8562341475
  0
LINE
  5
26B
100
AcDbEntity
  8
0
100
AcDbLine
 62
7
  6
CONTINUOUS
 10
112.5653549848
 20
79.5824330041
 11
113.4630538499
 21
77.8205997806
  0
LINE
  5
26C
100
AcDbEntity
  8
0
100
AcDbLine
 62
7
  6
CONTINUOUS
 10
113.0423436358
 20
79.5824330041
 11
113.7015481754
 21
78.2886712494
  0
LINE
  5
26D
100
AcDbEntity
  8
0
100
AcDbLine
 62
7
  6
CONTINUOUS
 10
106.5093322868
 20
128.6811830041
 11
106.5093322868
 21
138.2811830041
  0
LINE
  5
26E
100
AcDbEntity
  8
0
100
AcDbLine
 62
7
  6
CONTINUOUS
 10
107.3093322868
 20
131.9311830041
 11
107.3093322868
 21
129.3811830041
  0
LINE
  5
26F
100
AcDbEntity
  8
0
100
AcDbLine
 62
7
  6
CONTINUOUS
 10
107.5806526338
 20
128.3311830041
 11
107.5806526338
 21
125.0054470728
  0
LINE
  5
270
100
AcDbEntity
  8
0
100
AcDbLine
 62
7
  6
CONTINUOUS
 10
107.91568186
 20
128.3311829764
 11
107.91568186
 21
125.0054470728
  0
LINE
  5
271
100
AcDbEntity
  8
0
100
AcDbLine
 62
7
  6
CONTINUOUS
 10
108.2593322868
 20
122.4480214966
 11
108.2593322868
 21
89.3811830041
  0
LINE
  5
272
100
AcDbEntity
  8
0
100
AcDbLine
 62
7
  6
CONTINUOUS
 10
108.3671392781
 20
123.986214933
 11
108.3671392781
 21
122.9919968838
  0
LINE
  5
273
100
AcDbEntity
  8
0
100
AcDbLine
 62
7
  6
CONTINUOUS
 10
108.6995313169
 20
123.9862082572
 11
108.6995313169
 21
122.9919969125
  0
LINE
  5
274
100
AcDbEntity
  8
0
100
AcDbLine
 62
7
  6
CONTINUOUS
 10
109.0093322868
 20
134.1811830041
 11
109.0093322868
 21
134.1462621629
  0
LINE
  5
275
100
AcDbEntity
  8
0
100
AcDbLine
 62
7
  6
CONTINUOUS
 10
109.0093322868
 20
133.2961052186
 11
109.0093322868
 21
132.8102610206
  0
LINE
  5
276
100
AcDbEntity
  8
0
100
AcDbLine
 62
7
  6
CONTINUOUS
 10
85.0536698541
 20
88.9311830041
 11
85.9485627714
 21
90.4811830041
  0
LINE
  5
277
100
AcDbEntity
  8
0
100
AcDbLine
 62
7
  6
CONTINUOUS
 10
112.9955294853
 20
138.7673802026
 11
112.6093322868
 21
138.3811830041
  0
LINE
  5
278
100
AcDbEntity
  8
0
100
AcDbLine
 62
7
  6
CONTINUOUS
 10
109.7093322868
 20
134.8811830041
 11
109.0093322868
 21
134.1811830041
  0
LINE
  5
279
100
AcDbEntity
  8
0
100
AcDbLine
 62
7
  6
CONTINUOUS
 10
108.0093322868
 20
132.6311830041
 11
107.3093322868
 21
131.9311830041
  0
LINE
  5
27A
100
AcDbEntity
  8
0
100
AcDbLine
 62
7
  6
CONTINUOUS
 10
149.6028427848
 20
73.388232977
 11
141.2351653117
 21
73.388232977
  0
LINE
  5
27B
100
AcDbEntity
  8
0
100
AcDbLine
 62
7
  6
CONTINUOUS
 10
86.415821791
 20
73.388232977
 11
94.7834992619
 21
73.388232977
  0
LINE
  5
27C
100
AcDbEntity
  8
GEOM
100
AcDbLine
 62
7
  6
CONTINUOUS
 10
128.8680844102
 20
73.9850649667
 11
133.5031145042
 21
73.9850649684
  0
LINE
  5
27D
100
AcDbEntity
  8
GEOM
100
AcDbLine
 62
7
  6
CONTINUOUS
 10
128.8464901771
 20
74.0744724787
 11
133.5031145042
 21
74.0744724787
  0
LINE
  5
27E
100
AcDbEntity
  8
0
100
AcDbLine
 62
7
  6
CONTINUOUS
 10
102.7768610853
 20
74.5926007709
 11
110.4165331587
 21
74.5926007709
  0
LINE
  5
27F
100
AcDbEntity
  8
GEOM
100
AcDbLine
 62
7
  6
CONTINUOUS
 10
133.5031145042
 20
74.6985488744
 11
128.8464901771
 21
74.6985488744
  0
LINE
  5
280
100
AcDbEntity
  8
GEOM
100
AcDbLine
 62
7
  6
CONTINUOUS
 10
133.5031145042
 20
74.8053395331
 11
128.8680844899
 21
74.8053395319
  0
LINE
  5
281
100
AcDbEntity
  8
0
100
AcDbLine
 62
7
  6
CONTINUOUS
 10
102.7769944851
 20
74.9461541615
 11
110.4159985696
 21
74.9461541615
  0
LINE
  5
282
100
AcDbEntity
  8
0
100
AcDbLine
 62
7
  6
CONTINUOUS
 10
111.5453549848
 20
76.3524330041
 11
120.0453549848
 21
76.3524330041
  0
LINE
  5
283
100
AcDbEntity
  8
0
100
AcDbLine
 62
7
  6
CONTINUOUS
 10
133.8926050592
 20
76.7021930915
 11
133.8093322868
 21
76.7021930915
  0
LINE
  5
284
100
AcDbEntity
  8
0
100
AcDbLine
 62
7
  6
CONTINUOUS
 10
111.9703549848
 20
76.7774330041
 11
119.6203549848
 21
76.7774330041
  0
LINE
  5
285
100
AcDbEntity
  8
0
100
AcDbLine
 62
7
  6
CONTINUOUS
 10
113.637947224
 20
77.4149330041
 11
114.114935875
 21
77.4149330041
  0
LINE
  5
286
100
AcDbEntity
  8
0
100
AcDbLine
 62
7
  6
CONTINUOUS
 10
115.8143322868
 20
77.4149330041
 11
116.2393322868
 21
77.4149330041
  0
LINE
  5
287
100
AcDbEntity
  8
0
100
AcDbLine
 62
7
  6
CONTINUOUS
 10
116.8343322868
 20
77.4149330041
 11
117.2593322868
 21
77.4149330041
  0
LINE
  5
288
100
AcDbEntity
  8
0
100
AcDbLine
 62
7
  6
CONTINUOUS
 10
133.8914390151
 20
76.6927336425
 11
133.8093322868
 21
76.7021930915
  0
LINE
  5
289
100
AcDbEntity
  8
0
100
AcDbLine
 62
7
  6
CONTINUOUS
 10
133.5912109892
 20
74.7872340703
 11
133.5031145042
 21
74.8053395331
  0
LINE
  5
28A
100
AcDbEntity
  8
0
100
AcDbLine
 62
7
  6
CONTINUOUS
 10
135.4232811276
 20
70.5611919399
 11
135.4337122994
 21
70.5511830041
  0
LINE
  5
28B
100
AcDbEntity
  8
0
100
AcDbLine
 62
7
  6
CONTINUOUS
 10
136.7601233885
 20
70.5611919598
 11
136.7705545328
 21
70.5511830041
  0
LINE
  5
28C
100
AcDbEntity
  8
0
100
AcDbLine
 62
7
  6
CONTINUOUS
 10
138.0969659296
 20
70.5611919477
 11
138.107397032
 21
70.5511830041
  0
LINE
  5
28D
100
AcDbEntity
  8
0
100
AcDbLine
 62
7
  6
CONTINUOUS
 10
110.5093322868
 20
134.8811830041
 11
110.5093322868
 21
137.8811830041
  0
LINE
  5
28E
100
AcDbEntity
  8
0
100
AcDbLine
 62
7
  6
CONTINUOUS
 10
110.7775269829
 20
83.3595055482
 11
110.7775156436
 21
87.4211528546
  0
LINE
  5
28F
100
AcDbEntity
  8
0
100
AcDbLine
 62
7
  6
CONTINUOUS
 10
110.7775269579
 20
75.0456112712
 11
110.7775318917
 21
82.7167626342
  0
LINE
  5
290
100
AcDbEntity
  8
0
100
AcDbLine
 62
7
  6
CONTINUOUS
 10
110.777526982
 20
68.9785427952
 11
110.7775318961
 21
74.4028643792
  0
LINE
  5
291
100
AcDbEntity
  8
0
100
AcDbLine
 62
7
  6
CONTINUOUS
 10
110.7775277915
 20
68.0129874994
 11
110.7775318973
 21
68.7123044253
  0
LINE
  5
292
100
AcDbEntity
  8
0
100
AcDbLine
 62
7
  6
CONTINUOUS
 10
110.9782578542
 20
137.4481703022
 11
110.9782578542
 21
134.8811830041
  0
LINE
  5
293
100
AcDbEntity
  8
0
100
AcDbLine
 62
7
  6
CONTINUOUS
 10
111.0093322868
 20
142.6347728425
 11
111.0093322868
 21
141.9811830041
  0
LINE
  5
294
100
AcDbEntity
  8
0
100
AcDbLine
 62
7
  6
CONTINUOUS
 10
111.0957284769
 20
83.4138079362
 11
111.0957172686
 21
87.5247294014
  0
LINE
  5
295
100
AcDbEntity
  8
0
100
AcDbLine
 62
7
  6
CONTINUOUS
 10
111.0957284769
 20
74.9990860594
 11
111.0957300034
 21
82.7632752023
  0
LINE
  5
296
100
AcDbEntity
  8
0
100
AcDbLine
 62
7
  6
CONTINUOUS
 10
111.0957284769
 20
68.8584433049
 11
111.0957300034
 21
74.3485530949
  0
LINE
  5
297
100
AcDbEntity
  8
0
100
AcDbLine
 62
7
  6
CONTINUOUS
 10
111.0957281726
 20
67.8811830041
 11
111.0957300034
 21
68.5889840454
  0
LINE
  5
298
100
AcDbEntity
  8
0
100
AcDbLine
 62
7
  6
CONTINUOUS
 10
111.5453549848
 20
81.4524330041
 11
111.5453549848
 21
76.3524330041
  0
LINE
  5
299
100
AcDbEntity
  8
0
100
AcDbLine
 62
7
  6
CONTINUOUS
 10
111.9703549848
 20
81.0274330041
 11
111.9703549848
 21
76.7774330041
  0
LINE
  5
29A
100
AcDbEntity
  8
0
100
AcDbLine
 62
7
  6
CONTINUOUS
 10
112.6093322868
 20
138.3811830041
 11
112.6093322868
 21
137.8811830041
  0
LINE
  5
29B
100
AcDbEntity
  8
0
100
AcDbLine
 62
7
  6
CONTINUOUS
 10
113.0093322868
 20
143.7786179525
 11
113.0093322868
 21
146.9811830041
  0
LINE
  5
29C
100
AcDbEntity
  8
0
100
AcDbLine
 62
7
  6
CONTINUOUS
 10
114.528719032
 20
138.7811830041
 11
114.528719032
 21
137.8302368141
  0
LINE
  5
29D
100
AcDbEntity
  8
0
100
AcDbLine
 62
7
  6
CONTINUOUS
 10
114.5336180011
 20
119.4145163374
 11
114.5336180011
 21
118.3478496707
  0
LINE
  5
29E
100
AcDbEntity
  8
0
100
AcDbLine
 62
7
  6
CONTINUOUS
 10
115.1552303206
 20
141.9811830041
 11
115.137234814
 21
141.7811830041
  0
LINE
  5
29F
100
AcDbEntity
  8
0
100
AcDbLine
 62
7
  6
CONTINUOUS
 10
117.0093322868
 20
141.9811830041
 11
116.9578457274
 21
141.7811830041
  0
LINE
  5
2A0
100
AcDbEntity
  8
0
100
AcDbLine
 62
7
  6
CONTINUOUS
 10
118.8634342531
 20
141.9811830041
 11
118.7834965039
 21
141.7811830041
  0
LINE
  5
2A1
100
AcDbEntity
  8
0
100
AcDbLine
 62
7
  6
CONTINUOUS
 10
123.0093322868
 20
141.9811830041
 11
122.9091076329
 21
141.7811830041
  0
LINE
  5
2A2
100
AcDbEntity
  8
0
100
AcDbLine
 62
7
  6
CONTINUOUS
 10
120.5360438006
 20
141.9811830041
 11
120.4354797255
 21
141.7811830041
  0
LINE
  5
2A3
100
AcDbEntity
  8
0
100
AcDbLine
 62
7
  6
CONTINUOUS
 10
96.7752127483
 20
87.2023413847
 11
96.3303848817
 21
86.3561830041
  0
LINE
  5
2A4
100
AcDbEntity
  8
0
100
AcDbLine
 62
7
  6
CONTINUOUS
 10
122.7156713846
 20
141.9811830041
 11
122.6044418525
 21
141.7811830041
  0
LINE
  5
2A5
100
AcDbEntity
  8
0
100
AcDbLine
 62
7
  6
CONTINUOUS
 10
121.8634342531
 20
141.9811830041
 11
121.7520877645
 21
141.7811830041
  0
LINE
  5
2A6
100
AcDbEntity
  8
0
100
AcDbLine
 62
7
  6
CONTINUOUS
 10
108.367139278
 20
123.9862082572
 11
108.6021759427
 21
124.2336956306
  0
LINE
  5
2A7
100
AcDbEntity
  8
0
100
AcDbLine
 62
7
  6
CONTINUOUS
 10
107.7797197761
 20
124.5458276648
 11
108.0161840081
 21
124.7933087465
  0
LINE
  5
2A8
100
AcDbEntity
  8
0
100
AcDbLine
 62
7
  6
CONTINUOUS
 10
109.6668248087
 20
133.644280859
 11
109.0197394438
 21
133.3069522277
  0
LINE
  5
2A9
100
AcDbEntity
  8
0
100
AcDbLine
 62
7
  6
CONTINUOUS
 10
133.8914390161
 20
81.0696323564
 11
133.8093322868
 21
81.0601729167
  0
LINE
  5
2AA
100
AcDbEntity
  8
0
100
AcDbLine
 62
7
  6
CONTINUOUS
 10
135.0995019433
 20
78.8811830041
 11
134.0093322868
 21
78.8811830041
  0
LINE
  5
2AB
100
AcDbEntity
  8
0
100
AcDbLine
 62
7
  6
CONTINUOUS
 10
118.1943322868
 20
78.8811830041
 11
118.4493322868
 21
78.8811830041
  0
LINE
  5
2AC
100
AcDbEntity
  8
0
100
AcDbLine
 62
7
  6
CONTINUOUS
 10
118.4493322868
 20
79.3274330041
 11
118.8743322868
 21
79.3274330041
  0
LINE
  5
2AD
100
AcDbEntity
  8
0
100
AcDbLine
 62
7
  6
CONTINUOUS
 10
112.5653549848
 20
79.5824330041
 11
113.0423436358
 21
79.5824330041
  0
LINE
  5
2AE
100
AcDbEntity
  8
0
100
AcDbLine
 62
7
  6
CONTINUOUS
 10
114.7423436358
 20
79.5824330041
 11
115.2193322868
 21
79.5824330041
  0
LINE
  5
2AF
100
AcDbEntity
  8
0
100
AcDbLine
 62
7
  6
CONTINUOUS
 10
115.8143322868
 20
79.5824330041
 11
116.2393322868
 21
79.5824330041
  0
LINE
  5
2B0
100
AcDbEntity
  8
0
100
AcDbLine
 62
7
  6
CONTINUOUS
 10
116.8343322868
 20
79.5824330041
 11
117.2593322868
 21
79.5824330041
  0
LINE
  5
2B1
100
AcDbEntity
  8
0
100
AcDbLine
 62
7
  6
CONTINUOUS
 10
115.8143322868
 20
80.0074330041
 11
116.2393322868
 21
80.0074330041
  0
LINE
  5
2B2
100
AcDbEntity
  8
0
100
AcDbLine
 62
7
  6
CONTINUOUS
 10
115.8143322868
 20
80.4324330041
 11
116.2393322868
 21
80.4324330041
  0
LINE
  5
2B3
100
AcDbEntity
  8
0
100
AcDbLine
 62
7
  6
CONTINUOUS
 10
111.9703549848
 20
81.0274330041
 11
119.6203549848
 21
81.0274330041
  0
LINE
  5
2B4
100
AcDbEntity
  8
0
100
AcDbLine
 62
7
  6
CONTINUOUS
 10
133.8926050592
 20
81.0601729167
 11
133.8093322868
 21
81.0601729167
  0
LINE
  5
2B5
100
AcDbEntity
  8
0
100
AcDbLine
 62
7
  6
CONTINUOUS
 10
111.5453549848
 20
81.4524330041
 11
120.0453549848
 21
81.4524330041
  0
LINE
  5
2B6
100
AcDbEntity
  8
0
100
AcDbLine
 62
7
  6
CONTINUOUS
 10
102.7768397914
 20
82.8162118466
 11
110.4168217619
 21
82.8162118466
  0
LINE
  5
2B7
100
AcDbEntity
  8
GEOM
100
AcDbLine
 62
7
  6
CONTINUOUS
 10
128.8680841102
 20
82.9570264601
 11
133.5031145042
 21
82.9570264751
  0
LINE
  5
2B8
100
AcDbEntity
  8
GEOM
100
AcDbLine
 62
7
  6
CONTINUOUS
 10
128.8464901771
 20
83.0638171337
 11
133.5031145042
 21
83.0638171337
  0
LINE
  5
2B9
100
AcDbEntity
  8
0
100
AcDbLine
 62
7
  6
CONTINUOUS
 10
139.433807338
 20
70.5611919481
 11
139.4442384427
 21
70.5511830041
  0
LINE
  5
2BA
100
AcDbEntity
  8
0
100
AcDbLine
 62
7
  6
CONTINUOUS
 10
113.4826207731
 20
141.9811830041
 11
113.499877845
 21
141.7811830041
  0
LINE
  5
2BB
100
AcDbEntity
  8
0
100
AcDbLine
 62
7
  6
CONTINUOUS
 10
115.0002846678
 20
119.4145163374
 11
115.0002846678
 21
118.3478496707
  0
LINE
  5
2BC
100
AcDbEntity
  8
0
100
AcDbLine
 62
7
  6
CONTINUOUS
 10
115.1393322868
 20
103.7211830041
 11
115.1393322868
 21
100.5711830041
  0
LINE
  5
2BD
100
AcDbEntity
  8
0
100
AcDbLine
 62
7
  6
CONTINUOUS
 10
115.6293322868
 20
103.2311830041
 11
115.6293322868
 21
102.1911830041
  0
LINE
  5
2BE
100
AcDbEntity
  8
0
100
AcDbLine
 62
7
  6
CONTINUOUS
 10
115.6293322868
 20
101.7011830041
 11
115.6293322868
 21
100.5711830041
  0
LINE
  5
2BF
100
AcDbEntity
  8
0
100
AcDbLine
 62
7
  6
CONTINUOUS
 10
115.8143322868
 20
80.4324330041
 11
115.8143322868
 21
80.0074330041
  0
LINE
  5
2C0
100
AcDbEntity
  8
0
100
AcDbLine
 62
7
  6
CONTINUOUS
 10
115.8143322868
 20
79.5824330041
 11
115.8143322868
 21
77.4149330041
  0
LINE
  5
2C1
100
AcDbEntity
  8
0
100
AcDbLine
 62
7
  6
CONTINUOUS
 10
115.8193322868
 20
98.2768644347
 11
115.8193322868
 21
95.8811830041
  0
LINE
  5
2C2
100
AcDbEntity
  8
0
100
AcDbLine
 62
7
  6
CONTINUOUS
 10
116.2393322868
 20
80.4324330041
 11
116.2393322868
 21
80.0074330041
  0
LINE
  5
2C3
100
AcDbEntity
  8
0
100
AcDbLine
 62
7
  6
CONTINUOUS
 10
116.2393322868
 20
79.5824330041
 11
116.2393322868
 21
77.4149330041
  0
LINE
  5
2C4
100
AcDbEntity
  8
0
100
AcDbLine
 62
7
  6
CONTINUOUS
 10
116.3093322868
 20
99.0311830041
 11
116.3093322868
 21
95.8811830041
  0
LINE
  5
2C5
100
AcDbEntity
  8
0
100
AcDbLine
 62
7
  6
CONTINUOUS
 10
116.3693322868
 20
102.9811830041
 11
116.3693322868
 21
102.4411830041
  0
LINE
  5
2C6
100
AcDbEntity
  8
0
100
AcDbLine
 62
7
  6
CONTINUOUS
 10
116.5404067195
 20
134.9649658849
 11
116.5404067195
 21
134.8811830041
  0
LINE
  5
2C7
100
AcDbEntity
  8
0
100
AcDbLine
 62
7
  6
CONTINUOUS
 10
116.7526656202
 20
120.4145163374
 11
116.7526656202
 21
117.3478496707
  0
LINE
  5
2C8
100
AcDbEntity
  8
0
100
AcDbLine
 62
7
  6
CONTINUOUS
 10
116.8343322868
 20
79.5824330041
 11
116.8343322868
 21
78.7655255106
  0
LINE
  5
2C9
100
AcDbEntity
  8
0
100
AcDbLine
 62
7
  6
CONTINUOUS
 10
116.8343322868
 20
77.5211830041
 11
116.8343322868
 21
77.4149330041
  0
LINE
  5
2CA
100
AcDbEntity
  8
0
100
AcDbLine
 62
7
  6
CONTINUOUS
 10
116.8593322868
 20
102.9811830041
 11
116.8593322868
 21
102.4411830041
  0
LINE
  5
2CB
100
AcDbEntity
  8
0
100
AcDbLine
 62
7
  6
CONTINUOUS
 10
117.0093322868
 20
98.0511830041
 11
117.0093322868
 21
96.8611830041
  0
LINE
  5
2CC
100
AcDbEntity
  8
0
100
AcDbLine
 62
7
  6
CONTINUOUS
 10
117.0093322868
 20
143.7786179525
 11
117.0093322868
 21
146.6239174142
  0
LINE
  5
2CD
100
AcDbEntity
  8
0
100
AcDbLine
 62
7
  6
CONTINUOUS
 10
117.1793322868
 20
103.7211830041
 11
117.1793322868
 21
100.5711830041
  0
LINE
  5
2CE
100
AcDbEntity
  8
0
100
AcDbLine
 62
7
  6
CONTINUOUS
 10
117.2193322868
 20
120.4145163374
 11
117.2193322868
 21
119.0811830041
  0
LINE
  5
2CF
100
AcDbEntity
  8
0
100
AcDbLine
 62
7
  6
CONTINUOUS
 10
117.2193322868
 20
118.6281183085
 11
117.2193322868
 21
116.8811830041
  0
LINE
  5
2D0
100
AcDbEntity
  8
0
100
AcDbLine
 62
7
  6
CONTINUOUS
 10
117.2593322868
 20
79.5824330041
 11
117.2593322868
 21
79.1574330041
  0
LINE
  5
2D1
100
AcDbEntity
  8
0
100
AcDbLine
 62
7
  6
CONTINUOUS
 10
117.4993322868
 20
98.0511830041
 11
117.4993322868
 21
97.7098878998
  0
LINE
  5
2D2
100
AcDbEntity
  8
0
100
AcDbLine
 62
7
  6
CONTINUOUS
 10
117.6693322868
 20
102.3201884515
 11
117.6693322868
 21
100.5711830041
  0
LINE
  5
2D3
100
AcDbEntity
  8
0
100
AcDbLine
 62
7
  6
CONTINUOUS
 10
118.4093322868
 20
103.7211830041
 11
118.4093322868
 21
101.9721775566
  0
LINE
  5
2D4
100
AcDbEntity
  8
0
100
AcDbLine
 62
7
  6
CONTINUOUS
 10
118.4493322868
 20
79.3274330041
 11
118.4493322868
 21
78.8811830041
  0
LINE
  5
2D5
100
AcDbEntity
  8
0
100
AcDbLine
 62
7
  6
CONTINUOUS
 10
118.8743322868
 20
79.3274330041
 11
118.8743322868
 21
78.7635966945
  0
LINE
  5
2D6
100
AcDbEntity
  8
0
100
AcDbLine
 62
7
  6
CONTINUOUS
 10
118.8993322868
 20
103.7211830041
 11
118.8993322868
 21
100.5711830041
  0
LINE
  5
2D7
100
AcDbEntity
  8
0
100
AcDbLine
 62
7
  6
CONTINUOUS
 10
119.5093322868
 20
124.7811830041
 11
119.5093322868
 21
131.7811830041
  0
LINE
  5
2D8
100
AcDbEntity
  8
0
100
AcDbLine
 62
7
  6
CONTINUOUS
 10
119.6203549848
 20
81.0274330041
 11
119.6203549848
 21
76.7774330041
  0
LINE
  5
2D9
100
AcDbEntity
  8
0
100
AcDbLine
 62
7
  6
CONTINUOUS
 10
120.0453549848
 20
81.4524330041
 11
120.0453549848
 21
76.3524330041
  0
LINE
  5
2DA
100
AcDbEntity
  8
0
100
AcDbLine
 62
7
  6
CONTINUOUS
 10
98.1122127483
 20
87.2023413847
 11
97.6673848817
 21
86.3561830041
  0
LINE
  5
2DB
100
AcDbEntity
  8
0
100
AcDbLine
 62
7
  6
CONTINUOUS
 10
99.4492127483
 20
87.2023413847
 11
99.0043848817
 21
86.3561830041
  0
LINE
  5
2DC
100
AcDbEntity
  8
0
100
AcDbLine
 62
7
  6
CONTINUOUS
 10
100.7862127483
 20
87.2023413847
 11
100.3413848817
 21
86.3561830041
  0
LINE
  5
2DD
100
AcDbEntity
  8
0
100
AcDbLine
 62
7
  6
CONTINUOUS
 10
133.591210985
 20
82.9751319585
 11
133.5031145042
 21
82.9570264751
  0
LINE
  5
2DE
100
AcDbEntity
  8
GEOM
100
AcDbLine
 62
7
  6
CONTINUOUS
 10
128.868084121
 20
82.9570264029
 11
128.6082765209
 21
82.9061317926
  0
LINE
  5
2DF
100
AcDbEntity
  8
0
100
AcDbLine
 62
7
  6
CONTINUOUS
 10
102.7770069064
 20
83.1697652372
 11
110.416455913
 21
83.1697652372
  0
LINE
  5
2E0
100
AcDbEntity
  8
GEOM
100
AcDbLine
 62
7
  6
CONTINUOUS
 10
133.5031145042
 20
83.6878935294
 11
128.8464901771
 21
83.6878935294
  0
LINE
  5
2E1
100
AcDbEntity
  8
GEOM
100
AcDbLine
 62
7
  6
CONTINUOUS
 10
133.5031145042
 20
83.7773010397
 11
128.86808449
 21
83.7773010394
  0
LINE
  5
2E2
100
AcDbEntity
  8
0
100
AcDbLine
 62
7
  6
CONTINUOUS
 10
149.6028427827
 20
84.3741330311
 11
141.2351653117
 21
84.3741330311
  0
LINE
  5
2E3
100
AcDbEntity
  8
0
100
AcDbLine
 62
7
  6
CONTINUOUS
 10
86.4158217888
 20
84.3741330311
 11
94.7834992619
 21
84.3741330311
  0
LINE
  5
2E4
100
AcDbEntity
  8
0
100
AcDbLine
 62
7
  6
CONTINUOUS
 10
149.602842779
 20
85.2279747303
 11
141.2351653117
 21
85.2279747303
  0
LINE
  5
2E5
100
AcDbEntity
  8
0
100
AcDbLine
 62
7
  6
CONTINUOUS
 10
86.4158217947
 20
85.2279747303
 11
94.7834992619
 21
85.2279747303
  0
LINE
  5
2E6
100
AcDbEntity
  8
0
100
AcDbLine
 62
7
  6
CONTINUOUS
 10
139.6675747857
 20
86.35618299
 11
139.4733843904
 21
86.35618299
  0
LINE
  5
2E7
100
AcDbEntity
  8
0
100
AcDbLine
 62
7
  6
CONTINUOUS
 10
138.330732895
 20
86.3561830041
 11
138.136542484
 21
86.3561830041
  0
LINE
  5
2E8
100
AcDbEntity
  8
0
100
AcDbLine
 62
7
  6
CONTINUOUS
 10
136.9938910307
 20
86.3561829798
 11
136.7997006352
 21
86.3561829798
  0
LINE
  5
2E9
100
AcDbEntity
  8
0
100
AcDbLine
 62
7
  6
CONTINUOUS
 10
135.6570483671
 20
86.3561829951
 11
135.4628579695
 21
86.3561829951
  0
LINE
  5
2EA
100
AcDbEntity
  8
0
100
AcDbLine
 62
7
  6
CONTINUOUS
 10
100.3471468322
 20
86.3561830041
 11
100.1588710907
 21
86.3561830041
  0
LINE
  5
2EB
100
AcDbEntity
  8
0
100
AcDbLine
 62
7
  6
CONTINUOUS
 10
99.0101468322
 20
86.3561830041
 11
98.8218710907
 21
86.3561830041
  0
LINE
  5
2EC
100
AcDbEntity
  8
0
100
AcDbLine
 62
7
  6
CONTINUOUS
 10
97.6731468322
 20
86.3561830041
 11
97.4848710907
 21
86.3561830041
  0
LINE
  5
2ED
100
AcDbEntity
  8
0
100
AcDbLine
 62
7
  6
CONTINUOUS
 10
96.3361468322
 20
86.3561830041
 11
96.1478710907
 21
86.3561830041
  0
LINE
  5
2EE
100
AcDbEntity
  8
0
100
AcDbLine
 62
7
  6
CONTINUOUS
 10
139.0224899494
 20
87.2111830041
 11
138.7758177234
 21
87.2111830041
  0
LINE
  5
2EF
100
AcDbEntity
  8
0
100
AcDbLine
 62
7
  6
CONTINUOUS
 10
137.685648067
 20
87.2111830041
 11
137.438975873
 21
87.2111830041
  0
LINE
  5
2F0
100
AcDbEntity
  8
0
100
AcDbLine
 62
7
  6
CONTINUOUS
 10
136.3488061884
 20
87.2111830041
 11
136.1021332006
 21
87.2111830041
  0
LINE
  5
2F1
100
AcDbEntity
  8
0
100
AcDbLine
 62
7
  6
CONTINUOUS
 10
135.0119635338
 20
87.2111830041
 11
134.0093322868
 21
87.2111830041
  0
LINE
  5
2F2
100
AcDbEntity
  8
0
100
AcDbLine
 62
7
  6
CONTINUOUS
 10
102.0093322868
 20
87.2121830041
 11
100.7965568794
 21
87.2121830041
  0
LINE
  5
2F3
100
AcDbEntity
  8
0
100
AcDbLine
 62
7
  6
CONTINUOUS
 10
99.7053322868
 20
87.2121830041
 11
99.4595568794
 21
87.2121830041
  0
LINE
  5
2F4
100
AcDbEntity
  8
0
100
AcDbLine
 62
7
  6
CONTINUOUS
 10
98.3683322868
 20
87.2121830041
 11
98.1225568794
 21
87.2121830041
  0
LINE
  5
2F5
100
AcDbEntity
  8
0
100
AcDbLine
 62
7
  6
CONTINUOUS
 10
97.0313322868
 20
87.2121830041
 11
96.7855568794
 21
87.2121830041
  0
LINE
  5
2F6
100
AcDbEntity
  8
0
100
AcDbLine
 62
7
  6
CONTINUOUS
 10
115.4280104787
 20
97.7179989744
 11
115.026625977
 21
97.9990514283
  0
LINE
  5
2F7
100
AcDbEntity
  8
0
100
AcDbLine
 62
7
  6
CONTINUOUS
 10
135.0223946447
 20
87.201174055
 11
135.0119634651
 21
87.2111830041
  0
LINE
  5
2F8
100
AcDbEntity
  8
0
100
AcDbLine
 62
7
  6
CONTINUOUS
 10
136.3592373032
 20
87.2011740513
 11
136.3488058808
 21
87.2111830041
  0
LINE
  5
2F9
100
AcDbEntity
  8
0
100
AcDbLine
 62
7
  6
CONTINUOUS
 10
140.1093322868
 20
68.9811830041
 11
141.2307233606
 21
67.0388766891
  0
LINE
  5
2FA
100
AcDbEntity
  8
0
100
AcDbLine
 62
7
  6
CONTINUOUS
 10
128.2402723945
 20
91.3811830041
 11
129.0159468414
 21
90.0376754519
  0
LINE
  5
2FB
100
AcDbEntity
  8
0
100
AcDbLine
 62
7
  6
CONTINUOUS
 10
118.5992949793
 20
100.5711830041
 11
117.6693322868
 21
102.3201884515
  0
LINE
  5
2FC
100
AcDbEntity
  8
0
100
AcDbLine
 62
7
  6
CONTINUOUS
 10
118.4093322868
 20
101.9721775566
 11
117.4793695944
 21
103.7211830041
  0
LINE
  5
2FD
100
AcDbEntity
  8
0
100
AcDbLine
 62
7
  6
CONTINUOUS
 10
134.9770054261
 20
71.4173319205
 11
135.4232811276
 21
70.5611919399
  0
LINE
  5
2FE
100
AcDbEntity
  8
0
100
AcDbLine
 62
7
  6
CONTINUOUS
 10
136.3138476745
 20
71.41733196
 11
136.7601233885
 21
70.5611919598
  0
LINE
  5
2FF
100
AcDbEntity
  8
0
100
AcDbLine
 62
7
  6
CONTINUOUS
 10
137.650690216
 20
71.4173319483
 11
138.0969659296
 21
70.5611919477
  0
LINE
  5
300
100
AcDbEntity
  8
0
100
AcDbLine
 62
7
  6
CONTINUOUS
 10
138.9875316335
 20
71.4173319329
 11
139.433807338
 21
70.5611919481
  0
LINE
  5
301
100
AcDbEntity
  8
0
100
AcDbLine
 62
7
  6
CONTINUOUS
 10
112.1552303206
 20
141.9811830041
 11
112.2060507285
 21
141.7811830041
  0
LINE
  5
302
100
AcDbEntity
  8
0
100
AcDbLine
 62
7
  6
CONTINUOUS
 10
120.3521767308
 20
86.1570394893
 11
120.3522255056
 21
67.8811830041
  0
LINE
  5
303
100
AcDbEntity
  8
0
100
AcDbLine
 62
7
  6
CONTINUOUS
 10
120.7057674704
 20
86.2540596949
 11
120.7057554066
 21
67.7347598843
  0
LINE
  5
304
100
AcDbEntity
  8
0
100
AcDbLine
 62
7
  6
CONTINUOUS
 10
121.0093322868
 20
143.7786179525
 11
121.0093322868
 21
146.9811830041
  0
LINE
  5
305
100
AcDbEntity
  8
0
100
AcDbLine
 62
7
  6
CONTINUOUS
 10
121.9128856774
 20
66.5276296135
 11
121.9128831651
 21
88.4367673633
  0
LINE
  5
306
100
AcDbEntity
  8
0
100
AcDbLine
 62
7
  6
CONTINUOUS
 10
122.2664362976
 20
88.5500482397
 11
122.266439068
 21
66.3811830041
  0
LINE
  5
307
100
AcDbEntity
  8
0
100
AcDbLine
 62
7
  6
CONTINUOUS
 10
123.0093322868
 20
142.6347728425
 11
123.0093322868
 21
141.9811830041
  0
LINE
  5
308
100
AcDbEntity
  8
0
100
AcDbLine
 62
7
  6
CONTINUOUS
 10
130.0930727661
 20
138.2430721586
 11
128.8980800941
 21
135.4391097698
  0
LINE
  5
309
100
AcDbEntity
  8
0
100
AcDbLine
 62
7
  6
CONTINUOUS
 10
129.8984668996
 20
137.4263908927
 11
124.5093322868
 21
124.7811830041
  0
LINE
  5
30A
100
AcDbEntity
  8
0
100
AcDbLine
 62
7
  6
CONTINUOUS
 10
96.3733539626
 20
70.5603652928
 11
96.8105076086
 21
71.4061830041
  0
LINE
  5
30B
100
AcDbEntity
  8
0
100
AcDbLine
 62
7
  6
CONTINUOUS
 10
97.7103539626
 20
70.5603652928
 11
98.1475076086
 21
71.4061830041
  0
LINE
  5
30C
100
AcDbEntity
  8
0
100
AcDbLine
 62
7
  6
CONTINUOUS
 10
99.0473539626
 20
70.5603652928
 11
99.4845076086
 21
71.4061830041
  0
LINE
  5
30D
100
AcDbEntity
  8
0
100
AcDbLine
 62
7
  6
CONTINUOUS
 10
100.3843539626
 20
70.5603652928
 11
100.8215076086
 21
71.4061830041
  0
LINE
  5
30E
100
AcDbEntity
  8
0
100
AcDbLine
 62
7
  6
CONTINUOUS
 10
95.9093322868
 20
68.9811830041
 11
94.7834992619
 21
67.0311830041
  0
LINE
  5
30F
100
AcDbEntity
  8
0
100
AcDbLine
 62
7
  6
CONTINUOUS
 10
149.8804861663
 20
158.3523334428
 11
136.2753767299
 21
142.1383953944
  0
LINE
  5
310
100
AcDbEntity
  8
0
100
AcDbLine
 62
7
  6
CONTINUOUS
 10
138.5735100593
 20
140.2100325653
 11
151.8788827107
 21
156.0667582234
  0
LINE
  5
311
100
AcDbEntity
  8
0
100
AcDbLine
 62
7
  6
CONTINUOUS
 10
126.7093322868
 20
129.3811830041
 11
126.5972002525
 21
129.2690509697
  0
LINE
  5
312
100
AcDbEntity
  8
0
100
AcDbLine
 62
7
  6
CONTINUOUS
 10
126.4214643212
 20
124.7933150384
 11
125.8472002525
 21
124.2190509697
  0
LINE
  5
313
100
AcDbEntity
  8
0
100
AcDbLine
 62
7
  6
CONTINUOUS
 10
152.6093322868
 20
88.6811830041
 11
151.3980074214
 21
88.6811830041
  0
LINE
  5
314
100
AcDbEntity
  8
0
100
AcDbLine
 62
7
  6
CONTINUOUS
 10
83.4093322868
 20
88.6811830041
 11
84.6206571522
 21
88.6811830041
  0
LINE
  5
315
100
AcDbEntity
  8
0
100
AcDbLine
 62
7
  6
CONTINUOUS
 10
102.7768427037
 20
88.7347363947
 11
109.0091359557
 21
88.7347363947
  0
LINE
  5
316
100
AcDbEntity
  8
0
100
AcDbLine
 62
7
  6
CONTINUOUS
 10
102.3253576906
 20
88.8811830041
 11
108.6380690606
 21
88.8811830041
  0
LINE
  5
317
100
AcDbEntity
  8
0
100
AcDbLine
 62
7
  6
CONTINUOUS
 10
108.2593322868
 20
89.3811830041
 11
109.0905697752
 21
89.3811830041
  0
LINE
  5
318
100
AcDbEntity
  8
GEOM
100
AcDbLine
 62
7
  6
CONTINUOUS
 10
128.868084481
 20
89.5414141548
 11
133.5031145042
 21
89.5414141545
  0
LINE
  5
319
100
AcDbEntity
  8
GEOM
100
AcDbLine
 62
7
  6
CONTINUOUS
 10
128.8464901771
 20
89.603031442
 11
133.5031145042
 21
89.603031442
  0
LINE
  5
31A
100
AcDbEntity
  8
GEOM
100
AcDbLine
 62
7
  6
CONTINUOUS
 10
133.5031145042
 20
89.861532349
 11
128.8464901771
 21
89.861532349
  0
LINE
  5
31B
100
AcDbEntity
  8
GEOM
100
AcDbLine
 62
7
  6
CONTINUOUS
 10
133.8093322868
 20
89.8811830041
 11
128.8680841653
 21
89.8811830041
  0
LINE
  5
31C
100
AcDbEntity
  8
0
100
AcDbLine
 62
7
  6
CONTINUOUS
 10
149.602842779
 20
90.7209247573
 11
141.2351653117
 21
90.7209247573
  0
LINE
  5
31D
100
AcDbEntity
  8
0
100
AcDbLine
 62
7
  6
CONTINUOUS
 10
86.4158217947
 20
90.7209247573
 11
94.7834992619
 21
90.7209247573
  0
LINE
  5
31E
100
AcDbEntity
  8
0
100
AcDbLine
 62
7
  6
CONTINUOUS
 10
149.6370891004
 20
90.7311830041
 11
141.2351653117
 21
90.7311830041
  0
LINE
  5
31F
100
AcDbEntity
  8
0
100
AcDbLine
 62
7
  6
CONTINUOUS
 10
86.3815754733
 20
90.7311830041
 11
94.7834992619
 21
90.7311830041
  0
LINE
  5
320
100
AcDbEntity
  8
0
100
AcDbLine
 62
7
  6
CONTINUOUS
 10
126.2593322868
 20
91.3811830041
 11
128.2402723945
 21
91.3811830041
  0
LWPOLYLINE
  5
321
100
AcDbEntity
  8
0
100
AcDbPolyline
 62
7
  6
CONTINUOUS
 90
13
 70
0
 10
126.2593324533
 20
91.3811679552
 10
126.2048476746
 20
91.3841430381
 10
126.1383591301
 20
91.3960177571
 10
126.0740776472
 20
91.416744939
 10
126.0131761552
 20
91.4459463582
 10
125.9567658922
 20
91.4830891772
 10
125.9058761627
 20
91.5274956541
 10
125.8614355546
 20
91.5783554943
 10
125.8242549711
 20
91.6347406505
 10
125.7950128308
 20
91.6956222736
 10
125.7742427128
 20
91.7598894452
 10
125.7623236039
 20
91.8263694364
 10
125.7593120265
 20
91.881184167
  0
LINE
  5
322
100
AcDbEntity
  8
0
100
AcDbLine
 62
7
  6
CONTINUOUS
 10
137.6960791537
 20
87.2011740779
 11
137.6856395236
 21
87.2111829973
  0
LINE
  5
323
100
AcDbEntity
  8
0
100
AcDbLine
 62
7
  6
CONTINUOUS
 10
139.0329210644
 20
87.201174051
 11
139.0224901022
 21
87.2111830041
  0
LWPOLYLINE
  5
324
100
AcDbEntity
  8
0
100
AcDbPolyline
 62
7
  6
CONTINUOUS
 90
8
 70
0
 10
108.152464715
 20
122.6997939465
 10
108.1814135703
 20
122.6681949463
 10
108.2062842675
 20
122.6332938313
 10
108.2267035496
 20
122.5956135956
 10
108.2423648551
 20
122.5557189511
 10
108.2530329
 20
122.5142079125
 10
108.25854723
 20
122.4717028769
 10
108.2593500316
 20
122.4480215586
  0
LINE
  5
325
100
AcDbEntity
  8
0
100
AcDbLine
 62
7
  6
CONTINUOUS
 10
119.0023823653
 20
116.8811830041
 11
117.9107760337
 21
118.6281183085
  0
LINE
  5
326
100
AcDbEntity
  8
0
100
AcDbLine
 62
7
  6
CONTINUOUS
 10
119.5526656202
 20
116.8811830041
 11
118.4610592886
 21
118.6281183085
  0
LINE
  5
327
100
AcDbEntity
  8
0
100
AcDbLine
 62
7
  6
CONTINUOUS
 10
135.4686703532
 20
86.3450340636
 11
135.0223946447
 21
87.201174055
  0
LINE
  5
328
100
AcDbEntity
  8
0
100
AcDbLine
 62
7
  6
CONTINUOUS
 10
136.8055130209
 20
86.3450340443
 11
136.3592373032
 21
87.2011740513
  0
LINE
  5
329
100
AcDbEntity
  8
0
100
AcDbLine
 62
7
  6
CONTINUOUS
 10
111.3029931891
 20
141.9811830041
 11
111.3824022774
 21
141.7811830041
  0
LINE
  5
32A
100
AcDbEntity
  8
0
100
AcDbLine
 62
7
  6
CONTINUOUS
 10
125.7593322868
 20
124.0069189353
 11
125.7593322868
 21
91.8811830041
  0
LINE
  5
32B
100
AcDbEntity
  8
0
100
AcDbLine
 62
7
  6
CONTINUOUS
 10
126.5093322868
 20
129.0569189353
 11
126.5093322868
 21
125.0054470728
  0
LINE
  5
32C
100
AcDbEntity
  8
0
100
AcDbLine
 62
7
  6
CONTINUOUS
 10
126.7093322868
 20
129.9433211494
 11
126.7093322868
 21
129.3811830041
  0
LINE
  5
32D
100
AcDbEntity
  8
0
100
AcDbLine
 62
7
  6
CONTINUOUS
 10
127.0093322868
 20
91.3811830041
 11
127.0093322868
 21
66.3814240207
  0
LINE
  5
32E
100
AcDbEntity
  8
0
100
AcDbLine
 62
7
  6
CONTINUOUS
 10
128.2402723945
 20
66.3811830041
 11
128.2402723945
 21
91.3811830041
  0
LINE
  5
32F
100
AcDbEntity
  8
GEOM
100
AcDbLine
 62
7
  6
CONTINUOUS
 10
128.586682556
 20
90.0017070215
 11
128.586682556
 21
89.7399061029
  0
LINE
  5
330
100
AcDbEntity
  8
GEOM
100
AcDbLine
 62
7
  6
CONTINUOUS
 10
128.586682556
 20
83.7492557914
 11
128.586682556
 21
83.117212463
  0
LINE
  5
331
100
AcDbEntity
  8
GEOM
100
AcDbLine
 62
7
  6
CONTINUOUS
 10
128.586682556
 20
74.6451535451
 11
128.586682556
 21
74.0131102167
  0
LINE
  5
332
100
AcDbEntity
  8
GEOM
100
AcDbLine
 62
7
  6
CONTINUOUS
 10
128.586682556
 20
68.0224599052
 11
128.586682556
 21
67.7606589866
  0
LINE
  5
333
100
AcDbEntity
  8
GEOM
100
AcDbLine
 62
7
  6
CONTINUOUS
 10
128.8464901771
 20
89.861532349
 11
128.8464901771
 21
89.603031442
  0
LINE
  5
334
100
AcDbEntity
  8
GEOM
100
AcDbLine
 62
7
  6
CONTINUOUS
 10
128.8464901771
 20
83.6878935294
 11
128.8464901771
 21
83.0638171337
  0
LINE
  5
335
100
AcDbEntity
  8
GEOM
100
AcDbLine
 62
7
  6
CONTINUOUS
 10
128.8464901771
 20
74.6985488744
 11
128.8464901771
 21
74.0744724787
  0
LINE
  5
336
100
AcDbEntity
  8
GEOM
100
AcDbLine
 62
7
  6
CONTINUOUS
 10
128.8464901771
 20
68.1593345662
 11
128.8464901771
 21
67.9008336591
  0
LINE
  5
337
100
AcDbEntity
  8
0
100
AcDbLine
 62
7
  6
CONTINUOUS
 10
128.8980800941
 20
138.7811830041
 11
128.8980800941
 21
135.4391097698
  0
LINE
  5
338
100
AcDbEntity
  8
0
100
AcDbLine
 62
7
  6
CONTINUOUS
 10
115.7493322868
 20
99.0311830041
 11
115.026625977
 21
97.9990514283
  0
LINE
  5
339
100
AcDbEntity
  8
0
100
AcDbLine
 62
7
  6
CONTINUOUS
 10
115.8193322868
 20
98.2768644347
 11
115.4280104787
 21
97.7179989744
  0
LINE
  5
33A
100
AcDbEntity
  8
0
100
AcDbLine
 62
7
  6
CONTINUOUS
 10
116.3093322868
 20
95.8811830041
 11
115.8193322868
 21
95.8811830041
  0
LINE
  5
33B
100
AcDbEntity
  8
0
100
AcDbLine
 62
7
  6
CONTINUOUS
 10
118.9693322868
 20
98.0511830041
 11
118.4793322868
 21
98.0511830041
  0
LINE
  5
33C
100
AcDbEntity
  8
0
100
AcDbLine
 62
7
  6
CONTINUOUS
 10
107.3093322868
 20
129.3811830041
 11
107.4214643212
 21
129.2690509697
  0
LINE
  5
33D
100
AcDbEntity
  8
0
100
AcDbLine
 62
7
  6
CONTINUOUS
 10
138.1423548542
 20
86.3450340982
 11
137.6960791537
 21
87.2011740779
  0
LINE
  5
33E
100
AcDbEntity
  8
0
100
AcDbLine
 62
7
  6
CONTINUOUS
 10
139.4791967763
 20
86.3450340541
 11
139.0329210644
 21
87.201174051
  0
LINE
  5
33F
100
AcDbEntity
  8
0
100
AcDbLine
 62
7
  6
CONTINUOUS
 10
111.0093322868
 20
141.9811830041
 11
111.1095569407
 21
141.7811830041
  0
LINE
  5
340
100
AcDbEntity
  8
0
100
AcDbLine
 62
7
  6
CONTINUOUS
 10
130.8861825529
 20
141.7811830041
 11
130.8861825529
 21
138.7811830041
  0
LINE
  5
341
100
AcDbEntity
  8
0
100
AcDbLine
 62
7
  6
CONTINUOUS
 10
131.3529727661
 20
141.7811830041
 11
131.3529727661
 21
138.7811830041
  0
LINE
  5
342
100
AcDbEntity
  8
GEOM
100
AcDbLine
 62
7
  6
CONTINUOUS
 10
133.5031145042
 20
67.8811830041
 11
133.5031145042
 21
68.2209518536
  0
LINE
  5
343
100
AcDbEntity
  8
GEOM
100
AcDbLine
 62
7
  6
CONTINUOUS
 10
133.5031145042
 20
73.9850649684
 11
133.5031145042
 21
74.8053395331
  0
LINE
  5
344
100
AcDbEntity
  8
GEOM
100
AcDbLine
 62
7
  6
CONTINUOUS
 10
133.5031145042
 20
82.9570264751
 11
133.5031145042
 21
83.7773010397
  0
LINE
  5
345
100
AcDbEntity
  8
GEOM
100
AcDbLine
 62
7
  6
CONTINUOUS
 10
133.5031145042
 20
89.5414141545
 11
133.5031145042
 21
89.8811830041
  0
LINE
  5
346
100
AcDbEntity
  8
0
100
AcDbLine
 62
7
  6
CONTINUOUS
 10
133.5824926178
 20
89.8515406923
 11
133.5824926178
 21
89.5932750102
  0
LINE
  5
347
100
AcDbEntity
  8
0
100
AcDbLine
 62
7
  6
CONTINUOUS
 10
133.5824926178
 20
83.6835196247
 11
133.5824926178
 21
83.0600111123
  0
LINE
  5
348
100
AcDbEntity
  8
0
100
AcDbLine
 62
7
  6
CONTINUOUS
 10
133.5824926178
 20
74.7023548958
 11
133.5824926178
 21
74.0788463834
  0
LINE
  5
349
100
AcDbEntity
  8
0
100
AcDbLine
 62
7
  6
CONTINUOUS
 10
133.5824926178
 20
68.169090998
 11
133.5824926178
 21
67.9108253159
  0
LINE
  5
34A
100
AcDbEntity
  8
GEOM
100
AcDbLine
 62
7
  6
CONTINUOUS
 10
133.8093322868
 20
88.2001361405
 11
133.8093322868
 21
85.1185790538
  0
LINE
  5
34B
100
AcDbEntity
  8
GEOM
100
AcDbLine
 62
7
  6
CONTINUOUS
 10
133.8093322868
 20
81.0601729167
 11
133.8093322868
 21
76.7021930915
  0
LINE
  5
34C
100
AcDbEntity
  8
GEOM
100
AcDbLine
 62
7
  6
CONTINUOUS
 10
133.8093322868
 20
72.6437869543
 11
133.8093322868
 21
69.5622298677
  0
LINE
  5
34D
100
AcDbEntity
  8
0
100
AcDbLine
 62
7
  6
CONTINUOUS
 10
134.0093322868
 20
67.9575762063
 11
134.0093322868
 21
89.8047898018
  0
LINE
  5
34E
100
AcDbEntity
  8
0
100
AcDbLine
 62
7
  6
CONTINUOUS
 10
113.7015481754
 20
78.2886712494
 11
113.4630538499
 21
77.8205997806
  0
LINE
  5
34F
100
AcDbEntity
  8
0
100
AcDbLine
 62
7
  6
CONTINUOUS
 10
114.7423436358
 20
79.5824330041
 11
113.637947224
 21
77.4149330041
  0
LINE
  5
350
100
AcDbEntity
  8
0
100
AcDbLine
 62
7
  6
CONTINUOUS
 10
115.2193322868
 20
79.5824330041
 11
114.114935875
 21
77.4149330041
  0
LINE
  5
351
100
AcDbEntity
  8
0
100
AcDbLine
 62
7
  6
CONTINUOUS
 10
116.3093322868
 20
99.0311830041
 11
115.7493322868
 21
99.0311830041
  0
LINE
  5
352
100
AcDbEntity
  8
0
100
AcDbLine
 62
7
  6
CONTINUOUS
 10
118.8993322868
 20
100.5711830041
 11
118.5992949793
 21
100.5711830041
  0
LINE
  5
353
100
AcDbEntity
  8
0
100
AcDbLine
 62
7
  6
CONTINUOUS
 10
117.6693322868
 20
100.5711830041
 11
117.1793322868
 21
100.5711830041
  0
LINE
  5
354
100
AcDbEntity
  8
0
100
AcDbLine
 62
7
  6
CONTINUOUS
 10
115.6293322868
 20
100.5711830041
 11
115.1393322868
 21
100.5711830041
  0
LINE
  5
355
100
AcDbEntity
  8
0
100
AcDbLine
 62
7
  6
CONTINUOUS
 10
116.1193322868
 20
101.7011830041
 11
115.6293322868
 21
101.7011830041
  0
LINE
  5
356
100
AcDbEntity
  8
0
100
AcDbLine
 62
7
  6
CONTINUOUS
 10
116.1193322868
 20
102.1911830041
 11
115.6293322868
 21
102.1911830041
  0
LINE
  5
357
100
AcDbEntity
  8
0
100
AcDbLine
 62
7
  6
CONTINUOUS
 10
116.1193322868
 20
103.2311830041
 11
115.6293322868
 21
103.2311830041
  0
LINE
  5
358
100
AcDbEntity
  8
0
100
AcDbLine
 62
7
  6
CONTINUOUS
 10
118.8993322868
 20
103.7211830041
 11
118.4093322868
 21
103.7211830041
  0
LINE
  5
359
100
AcDbEntity
  8
0
100
AcDbLine
 62
7
  6
CONTINUOUS
 10
117.4793695944
 20
103.7211830041
 11
117.1793322868
 21
103.7211830041
  0
LINE
  5
35A
100
AcDbEntity
  8
0
100
AcDbLine
 62
7
  6
CONTINUOUS
 10
116.1193322868
 20
103.7211830041
 11
115.1393322868
 21
103.7211830041
  0
LINE
  5
35B
100
AcDbEntity
  8
0
100
AcDbLine
 62
7
  6
CONTINUOUS
 10
103.1843322868
 20
125.580146707
 11
108.3422910869
 21
122.6021978053
  0
LINE
  5
35C
100
AcDbEntity
  8
0
100
AcDbLine
 62
7
  6
CONTINUOUS
 10
103.3593322868
 20
125.8832555983
 11
108.3671392781
 21
122.9919968838
  0
LINE
  5
35D
100
AcDbEntity
  8
0
100
AcDbLine
 62
7
  6
CONTINUOUS
 10
140.1093322868
 20
88.7811830041
 11
140.1093322868
 21
68.9811830041
  0
LINE
  5
35E
100
AcDbEntity
  8
0
100
AcDbLine
 62
7
  6
CONTINUOUS
 10
119.5093322868
 20
131.7811830041
 11
112.9817266839
 21
138.7811830041
  0
LINE
  5
35F
100
AcDbEntity
  8
0
100
AcDbLine
 62
7
  6
CONTINUOUS
 10
114.528719032
 20
137.8302368141
 11
113.6419473638
 21
138.7811830041
  0
LINE
  5
360
100
AcDbEntity
  8
0
100
AcDbLine
 62
7
  6
CONTINUOUS
 10
150.9649947195
 20
88.9311830041
 11
150.0701018023
 21
90.4811830041
  0
LINE
  5
361
100
AcDbEntity
  8
0
100
AcDbLine
 62
7
  6
CONTINUOUS
 10
141.2351653117
 20
67.0311830041
 11
141.2351653117
 21
67.0414412508
  0
LINE
  5
362
100
AcDbEntity
  8
0
100
AcDbLine
 62
7
  6
CONTINUOUS
 10
141.2351653117
 20
72.5343912779
 11
141.2351653117
 21
73.388232977
  0
LINE
  5
363
100
AcDbEntity
  8
0
100
AcDbLine
 62
7
  6
CONTINUOUS
 10
141.2351653117
 20
84.3741330311
 11
141.2351653117
 21
85.2279747303
  0
LINE
  5
364
100
AcDbEntity
  8
0
100
AcDbLine
 62
7
  6
CONTINUOUS
 10
141.2351653117
 20
90.7209247573
 11
141.2351653117
 21
90.7311830041
  0
LINE
  5
365
100
AcDbEntity
  8
0
100
AcDbLine
 62
7
  6
CONTINUOUS
 10
109.0197394488
 20
132.7994140065
 11
109.3424699033
 21
132.6311830041
  0
LWPOLYLINE
  5
366
100
AcDbEntity
  8
0
100
AcDbPolyline
 62
7
  6
CONTINUOUS
 90
16
 70
0
 10
109.6670366016
 20
133.7979750052
 10
109.6695908539
 20
133.7964917531
 10
109.6735833004
 20
133.7937606423
 10
109.6800981514
 20
133.7883057537
 10
109.6890489286
 20
133.7785268575
 10
109.6982314314
 20
133.7644348955
 10
109.7053791079
 20
133.7471945278
 10
109.7091708
 20
133.7264078602
 10
109.7075410873
 20
133.7036877272
 10
109.7012304211
 20
133.6840728152
 10
109.6928620153
 20
133.669046769
 10
109.6836786546
 20
133.6576190639
 10
109.6754461821
 20
133.6500394965
 10
109.6699276464
 20
133.646087
 10
109.6671868725
 20
133.644472765
 10
109.6668639621
 20
133.6443012548
  0
LINE
  5
367
100
AcDbEntity
  8
0
100
AcDbLine
 62
7
  6
CONTINUOUS
 10
149.6370891004
 20
85.2259191405
 11
149.6370891004
 21
84.3762896147
  0
LINE
  5
368
100
AcDbEntity
  8
0
100
AcDbLine
 62
7
  6
CONTINUOUS
 10
149.6370891004
 20
73.3860763939
 11
149.6370891004
 21
72.536446867
  0
LINE
  5
369
100
AcDbEntity
  8
0
100
AcDbLine
 62
7
  6
CONTINUOUS
 10
149.6370891004
 20
67.0311830041
 11
149.6370891004
 21
67.0413402449
  0
LINE
  5
36A
100
AcDbEntity
  8
0
100
AcDbLine
 62
7
  6
CONTINUOUS
 10
149.6370891004
 20
90.7210257632
 11
149.6370891004
 21
90.7311830041
  0
LINE
  5
36B
100
AcDbEntity
  8
0
100
AcDbLine
 62
7
  6
CONTINUOUS
 10
150.0701018023
 20
90.4811830041
 11
150.0701018023
 21
90.4756472624
  0
LINE
  5
36C
100
AcDbEntity
  8
0
100
AcDbLine
 62
7
  6
CONTINUOUS
 10
150.0701018023
 20
84.9887358099
 11
150.0701018023
 21
84.3680944565
  0
LINE
  5
36D
100
AcDbEntity
  8
0
100
AcDbLine
 62
7
  6
CONTINUOUS
 10
150.0701018023
 20
73.3942715516
 11
150.0701018023
 21
72.7736301982
  0
LINE
  5
36E
100
AcDbEntity
  8
0
100
AcDbLine
 62
7
  6
CONTINUOUS
 10
150.0701018023
 20
67.2867187458
 11
150.0701018023
 21
67.2811830041
  0
LINE
  5
36F
100
AcDbEntity
  8
0
100
AcDbLine
 62
7
  6
CONTINUOUS
 10
150.9649947195
 20
68.8311830041
 11
150.9649947195
 21
88.9311830041
  0
LINE
  5
370
100
AcDbEntity
  8
0
100
AcDbLine
 62
7
  6
CONTINUOUS
 10
151.3980074214
 20
69.0811830041
 11
151.3980074214
 21
88.6811830041
  0
LINE
  5
371
100
AcDbEntity
  8
0
100
AcDbLine
 62
7
  6
CONTINUOUS
 10
151.5093322868
 20
157.117858046
 11
151.5093322868
 21
159.4445079621
  0
LINE
  5
372
100
AcDbEntity
  8
0
100
AcDbLine
 62
7
  6
CONTINUOUS
 10
151.5093322868
 20
159.7811830041
 11
151.5093322868
 21
159.9811830041
  0
LINE
  5
373
100
AcDbEntity
  8
0
100
AcDbLine
 62
7
  6
CONTINUOUS
 10
136.0917020894
 20
87.2011740543
 11
135.6512387708
 21
86.3561829951
  0
LINE
  5
374
100
AcDbEntity
  8
0
100
AcDbLine
 62
7
  6
CONTINUOUS
 10
137.4285447577
 20
87.2011740504
 11
136.988081432
 21
86.3561829798
  0
LINE
  5
375
100
AcDbEntity
  8
0
100
AcDbLine
 62
7
  6
CONTINUOUS
 10
119.5526656202
 20
116.8811830041
 11
119.0023823653
 21
116.8811830041
  0
LINE
  5
376
100
AcDbEntity
  8
0
100
AcDbLine
 62
7
  6
CONTINUOUS
 10
117.2193322868
 20
116.8811830041
 11
116.0002846678
 21
116.8811830041
  0
LINE
  5
377
100
AcDbEntity
  8
0
100
AcDbLine
 62
7
  6
CONTINUOUS
 10
116.7526656202
 20
117.3478496707
 11
116.0002846678
 21
117.3478496707
  0
LINE
  5
378
100
AcDbEntity
  8
0
100
AcDbLine
 62
7
  6
CONTINUOUS
 10
117.9107760337
 20
118.6281183085
 11
117.2193322868
 21
118.6281183085
  0
LINE
  5
379
100
AcDbEntity
  8
0
100
AcDbLine
 62
7
  6
CONTINUOUS
 10
118.2859989535
 20
119.0811830041
 11
117.2193322868
 21
119.0811830041
  0
LINE
  5
37A
100
AcDbEntity
  8
0
100
AcDbLine
 62
7
  6
CONTINUOUS
 10
109.0197394444
 20
134.1354151536
 11
109.6668248089
 21
133.7980865223
  0
LINE
  5
37B
100
AcDbEntity
  8
0
100
AcDbLine
 62
7
  6
CONTINUOUS
 10
122.7156713846
 20
141.9811830041
 11
122.9073105042
 21
141.7811830041
  0
LINE
  5
37C
100
AcDbEntity
  8
0
100
AcDbLine
 62
7
  6
CONTINUOUS
 10
152.6093322868
 20
88.6811830041
 11
152.6093322868
 21
69.0811830041
  0
LINE
  5
37D
100
AcDbEntity
  8
0
100
AcDbLine
 62
7
  6
CONTINUOUS
 10
152.8093322868
 20
155.2811830041
 11
152.8093322868
 21
161.2811830041
  0
LINE
  5
37E
100
AcDbEntity
  8
0
100
AcDbLine
 62
7
  6
CONTINUOUS
 10
153.1093322868
 20
88.1811830041
 11
153.1093322868
 21
69.5811830041
  0
LINE
  5
37F
100
AcDbEntity
  8
GEOM
100
AcDbLine
 62
7
  6
CONTINUOUS
 10
155.0111903307
 20
161.2811830041
 11
155.0111903307
 21
161.3311830041
  0
LINE
  5
380
100
AcDbEntity
  8
GEOM
100
AcDbLine
 62
7
  6
CONTINUOUS
 10
156.0211903307
 20
161.2811830041
 11
156.0211903307
 21
161.3311830041
  0
LINE
  5
381
100
AcDbEntity
  8
GEOM
100
AcDbLine
 62
7
  6
CONTINUOUS
 10
156.7802613088
 20
161.2811830041
 11
156.7802613088
 21
161.3311830041
  0
LINE
  5
382
100
AcDbEntity
  8
0
100
AcDbLine
 62
7
  6
CONTINUOUS
 10
138.7661686099
 20
87.2026182333
 11
138.3249233123
 21
86.3561830041
  0
LINE
  5
383
100
AcDbEntity
  8
0
100
AcDbLine
 62
7
  6
CONTINUOUS
 10
140.1022285067
 20
87.2011740502
 11
139.661765187
 21
86.35618299
  0
LINE
  5
384
100
AcDbEntity
  8
0
100
AcDbLine
 62
7
  6
CONTINUOUS
 10
134.3539736632
 20
70.5611919396
 11
134.7944369899
 21
71.4061830053
  0
LINE
  5
385
100
AcDbEntity
  8
0
100
AcDbLine
 62
7
  6
CONTINUOUS
 10
135.6908159448
 20
70.5611919589
 11
136.1312792726
 21
71.4061830227
  0
LINE
  5
386
100
AcDbEntity
  8
0
100
AcDbLine
 62
7
  6
CONTINUOUS
 10
138.7653866368
 20
87.2011740784
 11
138.7661687356
 21
87.2026184564
  0
LINE
  5
387
100
AcDbEntity
  8
0
100
AcDbLine
 62
7
  6
CONTINUOUS
 10
140.1093322868
 20
88.7811830041
 11
141.2351653117
 21
90.7311830041
  0
LINE
  5
388
100
AcDbEntity
  8
0
100
AcDbLine
 62
7
  6
CONTINUOUS
 10
128.2402723945
 20
66.3811830041
 11
129.0195291877
 21
67.7308953621
  0
LINE
  5
389
100
AcDbEntity
  8
0
100
AcDbLine
 62
7
  6
CONTINUOUS
 10
118.2859989535
 20
120.4145163374
 11
117.2193322868
 21
120.4145163374
  0
LINE
  5
38A
100
AcDbEntity
  8
0
100
AcDbLine
 62
7
  6
CONTINUOUS
 10
116.7526656202
 20
120.4145163374
 11
116.0002846678
 21
120.4145163374
  0
LINE
  5
38B
100
AcDbEntity
  8
0
100
AcDbLine
 62
7
  6
CONTINUOUS
 10
118.2859989535
 20
120.8811830041
 11
116.0002846678
 21
120.8811830041
  0
LINE
  5
38C
100
AcDbEntity
  8
0
100
AcDbLine
 62
7
  6
CONTINUOUS
 10
108.3671392781
 20
122.9919968869
 11
108.6995313169
 21
122.9919969125
  0
LINE
  5
38D
100
AcDbEntity
  8
0
100
AcDbLine
 62
7
  6
CONTINUOUS
 10
108.3671392781
 20
123.9862082572
 11
108.6995313169
 21
123.9862082572
  0
LINE
  5
38E
100
AcDbEntity
  8
0
100
AcDbLine
 62
7
  6
CONTINUOUS
 10
125.7593322868
 20
124.0069189353
 11
108.7068213529
 21
124.0069189353
  0
LINE
  5
38F
100
AcDbEntity
  8
0
100
AcDbLine
 62
7
  6
CONTINUOUS
 10
108.6234363073
 20
124.2190552298
 11
125.8472002525
 21
124.2190509697
  0
LINE
  5
390
100
AcDbEntity
  8
0
100
AcDbLine
 62
7
  6
CONTINUOUS
 10
103.5093322868
 20
124.7811830041
 11
104.5681780136
 21
124.7811830041
  0
LINE
  5
391
100
AcDbEntity
  8
0
100
AcDbLine
 62
7
  6
CONTINUOUS
 10
119.5093322868
 20
124.7811830041
 11
124.5093322868
 21
124.7811830041
  0
LINE
  5
392
100
AcDbEntity
  8
0
100
AcDbLine
 62
7
  6
CONTINUOUS
 10
126.4214643212
 20
124.7933150384
 11
124.5145027171
 21
124.7933150384
  0
LINE
  5
393
100
AcDbEntity
  8
0
100
AcDbLine
 62
7
  6
CONTINUOUS
 10
119.5093322868
 20
124.7933150384
 11
108.0161900198
 21
124.7933150384
  0
LINE
  5
394
100
AcDbEntity
  8
0
100
AcDbLine
 62
7
  6
CONTINUOUS
 10
107.5806526338
 20
125.0054470728
 11
119.5093322868
 21
125.0054470728
  0
LINE
  5
395
100
AcDbEntity
  8
0
100
AcDbLine
 62
7
  6
CONTINUOUS
 10
124.6049091461
 20
125.0054470728
 11
126.5093322868
 21
125.0054470728
  0
LINE
  5
396
100
AcDbEntity
  8
0
100
AcDbLine
 62
7
  6
CONTINUOUS
 10
111.0093322868
 20
141.9811830041
 11
111.3522958511
 21
141.7811830041
  0
LINE
  5
397
100
AcDbEntity
  8
GEOM
100
AcDbLine
 62
7
  6
CONTINUOUS
 10
159.5902613088
 20
161.2811830041
 11
159.5902613088
 21
161.3311830041
  0
LINE
  5
398
100
AcDbEntity
  8
GEOM
100
AcDbLine
 62
7
  6
CONTINUOUS
 10
160.3493322868
 20
161.2811830041
 11
160.3493322868
 21
161.3311830041
  0
LINE
  5
399
100
AcDbEntity
  8
GEOM
100
AcDbLine
 62
7
  6
CONTINUOUS
 10
161.3593322868
 20
161.2811830041
 11
161.3593322868
 21
161.3311830041
  0
LINE
  5
39A
100
AcDbEntity
  8
GEOM
100
AcDbLine
 62
7
  6
CONTINUOUS
 10
161.633630356
 20
161.2811830041
 11
161.633630356
 21
161.3311830041
  0
LINE
  5
39B
100
AcDbEntity
  8
GEOM
100
AcDbLine
 62
7
  6
CONTINUOUS
 10
162.0193322868
 20
161.2811830041
 11
162.0193322868
 21
161.3311830041
  0
LINE
  5
39C
100
AcDbEntity
  8
GEOM
100
AcDbLine
 62
7
  6
CONTINUOUS
 10
162.1389586093
 20
161.3311830041
 11
162.1389586093
 21
161.2811830041
  0
LINE
  5
39D
100
AcDbEntity
  8
0
100
AcDbLine
 62
7
  6
CONTINUOUS
 10
139.701342427
 20
70.5611919588
 11
140.1093322868
 21
71.343893737
  0
LINE
  5
39E
100
AcDbEntity
  8
0
100
AcDbLine
 62
7
  6
CONTINUOUS
 10
137.0276584594
 20
70.561191947
 11
137.4681217935
 21
71.406183024
  0
LINE
  5
39F
100
AcDbEntity
  8
0
100
AcDbLine
 62
7
  6
CONTINUOUS
 10
138.3644998865
 20
70.5611919476
 11
138.8049632114
 21
71.4061830087
  0
LINE
  5
3A0
100
AcDbEntity
  8
0
100
AcDbLine
 62
7
  6
CONTINUOUS
 10
137.4285447577
 20
87.2011740504
 11
137.4389755654
 21
87.2111830041
  0
LINE
  5
3A1
100
AcDbEntity
  8
0
100
AcDbLine
 62
7
  6
CONTINUOUS
 10
136.0917020894
 20
87.2011740543
 11
136.1021331319
 21
87.2111830041
  0
LINE
  5
3A2
100
AcDbEntity
  8
0
100
AcDbLine
 62
7
  6
CONTINUOUS
 10
138.7661687356
 20
87.2026184564
 11
138.7758091611
 21
87.2111829973
  0
LINE
  5
3A3
100
AcDbEntity
  8
0
100
AcDbLine
 62
7
  6
CONTINUOUS
 10
103.3593322868
 20
125.8832555983
 11
103.0093322868
 21
125.8832555983
  0
LINE
  5
3A4
100
AcDbEntity
  8
0
100
AcDbLine
 62
7
  6
CONTINUOUS
 10
107.91568186
 20
128.3311829764
 11
103.0093322868
 21
128.3311830041
  0
LINE
  5
3A5
100
AcDbEntity
  8
0
100
AcDbLine
 62
7
  6
CONTINUOUS
 10
107.396916063
 20
128.6811830041
 11
103.3593322868
 21
128.6811830041
  0
LINE
  5
3A6
100
AcDbEntity
  8
0
100
AcDbLine
 62
7
  6
CONTINUOUS
 10
107.5093322868
 20
129.0311830041
 11
107.7384010392
 21
129.0311830041
  0
LINE
  5
3A7
100
AcDbEntity
  8
0
100
AcDbLine
 62
7
  6
CONTINUOUS
 10
126.5093322868
 20
129.0569189353
 11
126.3315653972
 21
129.0569189353
  0
LINE
  5
3A8
100
AcDbEntity
  8
0
100
AcDbLine
 62
7
  6
CONTINUOUS
 10
119.5093322868
 20
129.0569189353
 11
107.5093322868
 21
129.0569189353
  0
LINE
  5
3A9
100
AcDbEntity
  8
0
100
AcDbLine
 62
7
  6
CONTINUOUS
 10
126.5972002525
 20
129.2690509697
 11
126.4219733809
 21
129.2690546178
  0
LINE
  5
3AA
100
AcDbEntity
  8
0
100
AcDbLine
 62
7
  6
CONTINUOUS
 10
119.5093322868
 20
129.2690508836
 11
107.4214643212
 21
129.2690509697
  0
LINE
  5
3AB
100
AcDbEntity
  8
0
100
AcDbLine
 62
7
  6
CONTINUOUS
 10
126.7093322868
 20
129.3811830041
 11
126.4697602558
 21
129.3811830041
  0
LINE
  5
3AC
100
AcDbEntity
  8
0
100
AcDbLine
 62
7
  6
CONTINUOUS
 10
119.5093322868
 20
129.3811830041
 11
107.3093322868
 21
129.3811830041
  0
LINE
  5
3AD
100
AcDbEntity
  8
0
100
AcDbLine
 62
7
  6
CONTINUOUS
 10
121.0093322868
 20
144.1358835424
 11
122.7093322868
 21
143.1543880848
  0
LINE
  5
3AE
100
AcDbEntity
  8
GEOM
100
AcDbLine
 62
7
  6
CONTINUOUS
 10
162.8293322868
 20
161.2811830041
 11
162.8293322868
 21
161.3311830041
  0
LINE
  5
3AF
100
AcDbEntity
  8
GEOM
100
AcDbLine
 62
7
  6
CONTINUOUS
 10
163.2393322868
 20
161.2811830041
 11
163.2393322868
 21
161.3311830041
  0
LINE
  5
3B0
100
AcDbEntity
  8
GEOM
100
AcDbLine
 62
7
  6
CONTINUOUS
 10
163.7193322868
 20
161.2811830041
 11
163.7193322868
 21
161.3311830041
  0
LINE
  5
3B1
100
AcDbEntity
  8
GEOM
100
AcDbLine
 62
7
  6
CONTINUOUS
 10
164.2593322868
 20
161.2811830041
 11
164.2593322868
 21
161.3311830041
  0
LINE
  5
3B2
100
AcDbEntity
  8
GEOM
100
AcDbLine
 62
7
  6
CONTINUOUS
 10
164.6593322868
 20
161.2811830041
 11
164.6593322868
 21
161.3311830041
  0
LINE
  5
3B3
100
AcDbEntity
  8
GEOM
100
AcDbLine
 62
7
  6
CONTINUOUS
 10
165.1993322868
 20
161.2811830041
 11
165.1993322868
 21
161.3311830041
  0
LINE
  5
3B4
100
AcDbEntity
  8
GEOM
100
AcDbLine
 62
7
  6
CONTINUOUS
 10
165.9293322868
 20
161.2811830041
 11
165.9293322868
 21
161.3311830041
  0
LINE
  5
3B5
100
AcDbEntity
  8
GEOM
100
AcDbLine
 62
7
  6
CONTINUOUS
 10
165.9693322868
 20
161.2811830041
 11
165.9693322868
 21
161.3311830041
  0
LINE
  5
3B6
100
AcDbEntity
  8
GEOM
100
AcDbLine
 62
7
  6
CONTINUOUS
 10
166.0437611995
 20
161.2811830041
 11
166.0437611995
 21
161.3311830041
  0
LINE
  5
3B7
100
AcDbEntity
  8
GEOM
100
AcDbLine
 62
7
  6
CONTINUOUS
 10
166.5793322868
 20
161.2811830041
 11
166.5793322868
 21
161.3311830041
  0
LINE
  5
3B8
100
AcDbEntity
  8
0
100
AcDbLine
 62
7
  6
CONTINUOUS
 10
103.5093322868
 20
131.7811830041
 11
106.5093322868
 21
131.7811830041
  0
LINE
  5
3B9
100
AcDbEntity
  8
0
100
AcDbLine
 62
7
  6
CONTINUOUS
 10
107.3093322868
 20
131.9311830041
 11
119.3694550239
 21
131.9311830041
  0
LINE
  5
3BA
100
AcDbEntity
  8
0
100
AcDbLine
 62
7
  6
CONTINUOUS
 10
108.0093322868
 20
132.6311830041
 11
118.7166944636
 21
132.6311830041
  0
LINE
  5
3BB
100
AcDbEntity
  8
0
100
AcDbLine
 62
7
  6
CONTINUOUS
 10
109.1169786373
 20
134.1811830041
 11
109.0093322868
 21
134.1811830041
  0
LINE
  5
3BC
100
AcDbEntity
  8
0
100
AcDbLine
 62
7
  6
CONTINUOUS
 10
109.7093322868
 20
134.8811830041
 11
116.6185355198
 21
134.8811830041
  0
LINE
  5
3BD
100
AcDbEntity
  8
0
100
AcDbLine
 62
7
  6
CONTINUOUS
 10
111.3029931891
 20
141.9811830041
 11
112.146987774
 21
141.7811830041
  0
LINE
  5
3BE
100
AcDbEntity
  8
0
100
AcDbLine
 62
7
  6
CONTINUOUS
 10
121.8634342531
 20
141.9811830041
 11
122.5709170843
 21
141.7811830041
  0
LINE
  5
3BF
100
AcDbEntity
  8
GEOM
100
AcDbLine
 62
7
  6
CONTINUOUS
 10
169.8093322868
 20
161.2811830041
 11
169.8093322868
 21
161.3311830041
  0
LINE
  5
3C0
100
AcDbEntity
  8
GEOM
100
AcDbLine
 62
7
  6
CONTINUOUS
 10
169.9093322868
 20
161.2811830041
 11
169.9093322868
 21
161.3311830041
  0
LINE
  5
3C1
100
AcDbEntity
  8
GEOM
100
AcDbLine
 62
7
  6
CONTINUOUS
 10
170.0093322868
 20
161.2811830041
 11
170.0093322868
 21
161.3311830041
  0
LINE
  5
3C2
100
AcDbEntity
  8
GEOM
100
AcDbLine
 62
7
  6
CONTINUOUS
 10
170.8793322868
 20
161.2811830041
 11
170.8793322868
 21
161.3311830041
  0
LINE
  5
3C3
100
AcDbEntity
  8
GEOM
100
AcDbLine
 62
7
  6
CONTINUOUS
 10
170.9193322868
 20
161.2811830041
 11
170.9193322868
 21
161.3311830041
  0
LINE
  5
3C4
100
AcDbEntity
  8
GEOM
100
AcDbLine
 62
7
  6
CONTINUOUS
 10
170.9393322868
 20
161.2811830041
 11
170.9393322868
 21
161.3311830041
  0
LINE
  5
3C5
100
AcDbEntity
  8
GEOM
100
AcDbLine
 62
7
  6
CONTINUOUS
 10
171.1893322868
 20
161.2811830041
 11
171.1893322868
 21
161.3311830041
  0
LINE
  5
3C6
100
AcDbEntity
  8
GEOM
100
AcDbLine
 62
7
  6
CONTINUOUS
 10
171.34007597
 20
161.2811830041
 11
171.34007597
 21
161.3311830041
  0
LINE
  5
3C7
100
AcDbEntity
  8
GEOM
100
AcDbLine
 62
7
  6
CONTINUOUS
 10
171.94007597
 20
161.2811830041
 11
171.94007597
 21
161.3311830041
  0
LINE
  5
3C8
100
AcDbEntity
  8
GEOM
100
AcDbLine
 62
7
  6
CONTINUOUS
 10
172.0888994388
 20
161.2811830041
 11
172.0888994388
 21
161.3311830041
  0
LINE
  5
3C9
100
AcDbEntity
  8
GEOM
100
AcDbLine
 62
7
  6
CONTINUOUS
 10
172.3588994388
 20
161.2811830041
 11
172.3588994388
 21
161.3311830041
  0
LINE
  5
3CA
100
AcDbEntity
  8
GEOM
100
AcDbLine
 62
7
  6
CONTINUOUS
 10
172.5099299363
 20
161.3311830041
 11
172.5099299363
 21
161.2811830041
  0
LINE
  5
3CB
100
AcDbEntity
  8
0
100
AcDbLine
 62
7
  6
CONTINUOUS
 10
134.3539736632
 20
70.5611919396
 11
134.3435426415
 21
70.5511830041
  0
LINE
  5
3CC
100
AcDbEntity
  8
0
100
AcDbLine
 62
7
  6
CONTINUOUS
 10
135.6908159448
 20
70.5611919589
 11
135.6803848547
 21
70.5511830041
  0
LINE
  5
3CD
100
AcDbEntity
  8
0
100
AcDbLine
 62
7
  6
CONTINUOUS
 10
137.0276584594
 20
70.561191947
 11
137.0172273525
 21
70.5511830041
  0
LINE
  5
3CE
100
AcDbEntity
  8
0
100
AcDbLine
 62
7
  6
CONTINUOUS
 10
138.3644998865
 20
70.5611919476
 11
138.3540687809
 21
70.5511830041
  0
LINE
  5
3CF
100
AcDbEntity
  8
0
100
AcDbLine
 62
7
  6
CONTINUOUS
 10
110.7689100413
 20
75.070224511
 11
110.4154957038
 21
74.9462007393
  0
LINE
  5
3D0
100
AcDbEntity
  8
0
100
AcDbLine
 62
7
  6
CONTINUOUS
 10
110.5093322868
 20
137.4481703022
 11
110.9782578542
 21
137.4481703022
  0
LINE
  5
3D1
100
AcDbEntity
  8
0
100
AcDbLine
 62
7
  6
CONTINUOUS
 10
113.8209902614
 20
137.8811830041
 11
110.5093322868
 21
137.8811830041
  0
LINE
  5
3D2
100
AcDbEntity
  8
0
100
AcDbLine
 62
7
  6
CONTINUOUS
 10
113.3547327183
 20
138.3811830041
 11
112.6093322868
 21
138.3811830041
  0
LINE
  5
3D3
100
AcDbEntity
  8
0
100
AcDbLine
 62
7
  6
CONTINUOUS
 10
104.726214295
 20
138.7811830041
 11
113.6419473638
 21
138.7811830041
  0
LINE
  5
3D4
100
AcDbEntity
  8
0
100
AcDbLine
 62
7
  6
CONTINUOUS
 10
114.528719032
 20
138.7811830041
 11
128.8980800941
 21
138.7811830041
  0
LINE
  5
3D5
100
AcDbEntity
  8
0
100
AcDbLine
 62
7
  6
CONTINUOUS
 10
130.4335362343
 20
138.7811830041
 11
135.5093322868
 21
138.7811830041
  0
LINE
  5
3D6
100
AcDbEntity
  8
0
100
AcDbLine
 62
7
  6
CONTINUOUS
 10
115.1552303206
 20
141.9811830041
 11
116.8548882918
 21
141.7811830041
  0
LINE
  5
3D7
100
AcDbEntity
  8
0
100
AcDbLine
 62
7
  6
CONTINUOUS
 10
117.0093322868
 20
141.9811830041
 11
118.6850228206
 21
141.7811830041
  0
LINE
  5
3D8
100
AcDbEntity
  8
0
100
AcDbLine
 62
7
  6
CONTINUOUS
 10
113.4826207731
 20
141.9811830041
 11
115.0398718173
 21
141.7811830041
  0
LINE
  5
3D9
100
AcDbEntity
  8
0
100
AcDbLine
 62
7
  6
CONTINUOUS
 10
118.8634342531
 20
141.9811830041
 11
120.3511290847
 21
141.7811830041
  0
LINE
  5
3DA
100
AcDbEntity
  8
0
100
AcDbLine
 62
7
  6
CONTINUOUS
 10
112.1552303206
 20
141.9811830041
 11
113.4176398557
 21
141.7811830041
  0
LINE
  5
3DB
100
AcDbEntity
  8
0
100
AcDbLine
 62
7
  6
CONTINUOUS
 10
120.5360438006
 20
141.9811830041
 11
121.6901169945
 21
141.7811830041
  0
LINE
  5
3DC
100
AcDbEntity
  8
GEOM
100
AcDbLine
 62
7
  6
CONTINUOUS
 10
173.2593322868
 20
161.2811830041
 11
173.2593322868
 21
161.3311830041
  0
LINE
  5
3DD
100
AcDbEntity
  8
GEOM
100
AcDbLine
 62
7
  6
CONTINUOUS
 10
173.7693322868
 20
161.2811830041
 11
173.7693322868
 21
161.3311830041
  0
LINE
  5
3DE
100
AcDbEntity
  8
GEOM
100
AcDbLine
 62
7
  6
CONTINUOUS
 10
173.7772877655
 20
161.3311830041
 11
173.7772877655
 21
161.2811830041
  0
LINE
  5
3DF
100
AcDbEntity
  8
GEOM
100
AcDbLine
 62
7
  6
CONTINUOUS
 10
174.1893322868
 20
161.2811830041
 11
174.1893322868
 21
161.3311830041
  0
LINE
  5
3E0
100
AcDbEntity
  8
GEOM
100
AcDbLine
 62
7
  6
CONTINUOUS
 10
174.7193322868
 20
161.2811830041
 11
174.7193322868
 21
161.3311830041
  0
LINE
  5
3E1
100
AcDbEntity
  8
GEOM
100
AcDbLine
 62
7
  6
CONTINUOUS
 10
174.9893322868
 20
161.2811830041
 11
174.9893322868
 21
161.3311830041
  0
LINE
  5
3E2
100
AcDbEntity
  8
GEOM
100
AcDbLine
 62
7
  6
CONTINUOUS
 10
175.335645478
 20
161.2811830041
 11
175.335645478
 21
161.3311830041
  0
LINE
  5
3E3
100
AcDbEntity
  8
GEOM
100
AcDbLine
 62
7
  6
CONTINUOUS
 10
175.6893322868
 20
161.2811830041
 11
175.6893322868
 21
161.3311830041
  0
LINE
  5
3E4
100
AcDbEntity
  8
GEOM
100
AcDbLine
 62
7
  6
CONTINUOUS
 10
176.5593322868
 20
161.2811830041
 11
176.5593322868
 21
161.3311830041
  0
LINE
  5
3E5
100
AcDbEntity
  8
GEOM
100
AcDbLine
 62
7
  6
CONTINUOUS
 10
176.5993322868
 20
161.2811830041
 11
176.5993322868
 21
161.3311830041
  0
LINE
  5
3E6
100
AcDbEntity
  8
GEOM
100
AcDbLine
 62
7
  6
CONTINUOUS
 10
176.9093322868
 20
161.2811830041
 11
176.9093322868
 21
161.3311830041
  0
LINE
  5
3E7
100
AcDbEntity
  8
GEOM
100
AcDbLine
 62
7
  6
CONTINUOUS
 10
177.1593322868
 20
161.2811830041
 11
177.1593322868
 21
161.3311830041
  0
LINE
  5
3E8
100
AcDbEntity
  8
GEOM
100
AcDbLine
 62
7
  6
CONTINUOUS
 10
177.7093322868
 20
161.2811830041
 11
177.7093322868
 21
161.3311830041
  0
LINE
  5
3E9
100
AcDbEntity
  8
0
100
AcDbLine
 62
7
  6
CONTINUOUS
 10
150.9649947195
 20
68.8311830041
 11
150.0701018023
 21
67.2811830041
  0
LINE
  5
3EA
100
AcDbEntity
  8
0
100
AcDbLine
 62
7
  6
CONTINUOUS
 10
139.701342427
 20
70.5611919588
 11
139.6909113082
 21
70.5511830041
  0
LINE
  5
3EB
100
AcDbEntity
  8
0
100
AcDbLine
 62
7
  6
CONTINUOUS
 10
106.5093322868
 20
141.7811830041
 11
135.5093322868
 21
141.7811830041
  0
LINE
  5
3EC
100
AcDbEntity
  8
0
100
AcDbLine
 62
7
  6
CONTINUOUS
 10
123.0093322868
 20
141.9811830041
 11
111.0093322868
 21
141.9811830041
  0
LINE
  5
3ED
100
AcDbEntity
  8
0
100
AcDbLine
 62
7
  6
CONTINUOUS
 10
123.0093322868
 20
142.6347728425
 11
111.0093322868
 21
142.6347728425
  0
LINE
  5
3EE
100
AcDbEntity
  8
0
100
AcDbLine
 62
7
  6
CONTINUOUS
 10
122.7093322868
 20
143.1543880848
 11
111.3093322868
 21
143.1543880848
  0
LINE
  5
3EF
100
AcDbEntity
  8
0
100
AcDbLine
 62
7
  6
CONTINUOUS
 10
113.0093322868
 20
146.9811830041
 11
121.0093322868
 21
146.9811830041
  0
LINE
  5
3F0
100
AcDbEntity
  8
0
100
AcDbLine
 62
7
  6
CONTINUOUS
 10
152.8093322868
 20
155.2811830041
 11
206.0093322868
 21
155.2811830041
  0
LINE
  5
3F1
100
AcDbEntity
  8
GEOM
100
AcDbLine
 62
7
  6
CONTINUOUS
 10
190.9909157894
 20
161.2811830041
 11
190.9909157894
 21
161.3311830041
  0
LINE
  5
3F2
100
AcDbEntity
  8
GEOM
100
AcDbLine
 62
7
  6
CONTINUOUS
 10
191.1473527461
 20
161.2811830041
 11
191.1473527461
 21
161.3311830041
  0
LINE
  5
3F3
100
AcDbEntity
  8
GEOM
100
AcDbLine
 62
7
  6
CONTINUOUS
 10
191.5611844603
 20
161.2811830041
 11
191.5611844603
 21
161.3311830041
  0
LINE
  5
3F4
100
AcDbEntity
  8
GEOM
100
AcDbLine
 62
7
  6
CONTINUOUS
 10
191.9723653305
 20
161.2811830041
 11
191.9723653305
 21
161.3311830041
  0
LINE
  5
3F5
100
AcDbEntity
  8
GEOM
100
AcDbLine
 62
7
  6
CONTINUOUS
 10
192.1257422532
 20
161.2811830041
 11
192.1257422532
 21
161.3311830041
  0
LINE
  5
3F6
100
AcDbEntity
  8
GEOM
100
AcDbLine
 62
7
  6
CONTINUOUS
 10
192.3207269123
 20
161.2811830041
 11
192.3207269123
 21
161.3311830041
  0
LINE
  5
3F7
100
AcDbEntity
  8
GEOM
100
AcDbLine
 62
7
  6
CONTINUOUS
 10
192.3305169377
 20
161.2811830041
 11
192.3305169377
 21
161.3311830041
  0
LINE
  5
3F8
100
AcDbEntity
  8
GEOM
100
AcDbLine
 62
7
  6
CONTINUOUS
 10
192.5752674276
 20
161.2811830041
 11
192.5752674276
 21
161.3311830041
  0
LINE
  5
3F9
100
AcDbEntity
  8
GEOM
100
AcDbLine
 62
7
  6
CONTINUOUS
 10
193.099849415
 20
161.2811830041
 11
193.099849415
 21
161.3311830041
  0
LINE
  5
3FA
100
AcDbEntity
  8
GEOM
100
AcDbLine
 62
7
  6
CONTINUOUS
 10
193.1749062281
 20
161.2811830041
 11
193.1749062281
 21
161.3311830041
  0
LINE
  5
3FB
100
AcDbEntity
  8
GEOM
100
AcDbLine
 62
7
  6
CONTINUOUS
 10
193.2883072951
 20
161.2811830041
 11
193.2883072951
 21
161.3311830041
  0
LINE
  5
3FC
100
AcDbEntity
  8
GEOM
100
AcDbLine
 62
7
  6
CONTINUOUS
 10
193.3470473038
 20
161.2811830041
 11
193.3470473038
 21
161.3311830041
  0
LINE
  5
3FD
100
AcDbEntity
  8
GEOM
100
AcDbLine
 62
7
  6
CONTINUOUS
 10
193.5917977937
 20
161.2811830041
 11
193.5917977937
 21
161.3311830041
  0
LINE
  5
3FE
100
AcDbEntity
  8
0
100
AcDbLine
 62
7
  6
CONTINUOUS
 10
151.5093322868
 20
157.7811830041
 11
208.5093322868
 21
157.7811830041
  0
LINE
  5
3FF
100
AcDbEntity
  8
0
100
AcDbLine
 62
7
  6
CONTINUOUS
 10
151.5093322868
 20
158.7811830041
 11
208.5093322868
 21
158.7811830041
  0
LINE
  5
400
100
AcDbEntity
  8
0
100
AcDbLine
 62
7
  6
CONTINUOUS
 10
151.5093322868
 20
159.7811830041
 11
151.5271027638
 21
159.7811830041
  0
LINE
  5
401
100
AcDbEntity
  8
0
100
AcDbLine
 62
7
  6
CONTINUOUS
 10
152.8093322868
 20
161.2811830041
 11
206.0093322868
 21
161.2811830041
  0
LINE
  5
402
100
AcDbEntity
  8
GEOM
100
AcDbLine
 62
7
  6
CONTINUOUS
 10
155.0111903307
 20
161.3311830041
 11
161.6333834798
 21
161.3311830041
  0
LINE
  5
403
100
AcDbEntity
  8
GEOM
100
AcDbLine
 62
7
  6
CONTINUOUS
 10
162.0193322868
 20
161.3311830041
 11
166.0435155441
 21
161.3311830041
  0
LINE
  5
404
100
AcDbEntity
  8
GEOM
100
AcDbLine
 62
7
  6
CONTINUOUS
 10
166.5793322868
 20
161.3311830041
 11
170.9193322868
 21
161.3311830041
  0
LINE
  5
405
100
AcDbEntity
  8
GEOM
100
AcDbLine
 62
7
  6
CONTINUOUS
 10
170.9393322868
 20
161.3311830041
 11
173.7693322868
 21
161.3311830041
  0
LINE
  5
406
100
AcDbEntity
  8
GEOM
100
AcDbLine
 62
7
  6
CONTINUOUS
 10
173.7773668929
 20
161.3311830041
 11
177.7093322868
 21
161.3311830041
  0
LINE
  5
407
100
AcDbEntity
  8
GEOM
100
AcDbLine
 62
7
  6
CONTINUOUS
 10
190.9909157894
 20
161.3311830041
 11
192.1257422532
 21
161.3311830041
  0
LINE
  5
408
100
AcDbEntity
  8
GEOM
100
AcDbLine
 62
7
  6
CONTINUOUS
 10
192.3207269123
 20
161.3311830041
 11
193.2883072951
 21
161.3311830041
  0
LINE
  5
409
100
AcDbEntity
  8
GEOM
100
AcDbLine
 62
7
  6
CONTINUOUS
 10
193.3470473038
 20
161.3311830041
 11
194.1914365943
 21
161.3311830041
  0
LINE
  5
40A
100
AcDbEntity
  8
GEOM
100
AcDbLine
 62
7
  6
CONTINUOUS
 10
195.2810997869
 20
161.3311830041
 11
198.4439572868
 21
161.3311830041
  0
LINE
  5
40B
100
AcDbEntity
  8
GEOM
100
AcDbLine
 62
7
  6
CONTINUOUS
 10
194.1163797812
 20
161.2811830041
 11
194.1163797812
 21
161.3311830041
  0
LINE
  5
40C
100
AcDbEntity
  8
GEOM
100
AcDbLine
 62
7
  6
CONTINUOUS
 10
194.1914365943
 20
161.2811830041
 11
194.1914365943
 21
161.3311830041
  0
LINE
  5
40D
100
AcDbEntity
  8
GEOM
100
AcDbLine
 62
7
  6
CONTINUOUS
 10
195.2810997869
 20
161.2811830041
 11
195.2810997869
 21
161.3311830041
  0
LINE
  5
40E
100
AcDbEntity
  8
GEOM
100
AcDbLine
 62
7
  6
CONTINUOUS
 10
196.6258872869
 20
161.2811830041
 11
196.6258872869
 21
161.3311830041
  0
LINE
  5
40F
100
AcDbEntity
  8
GEOM
100
AcDbLine
 62
7
  6
CONTINUOUS
 10
198.4439572868
 20
161.2811830041
 11
198.4439572868
 21
161.3311830041
  0
LINE
  5
410
100
AcDbEntity
  8
0
100
AcDbLine
 62
7
  6
CONTINUOUS
 10
199.0093322868
 20
155.2811830041
 11
199.0093322868
 21
161.2811830041
  0
LINE
  5
411
100
AcDbEntity
  8
0
100
AcDbLine
 62
7
  6
CONTINUOUS
 10
208.5093322868
 20
157.7811830041
 11
208.5093322868
 21
158.7811830041
  0
ARC
  5
412
100
AcDbEntity
  8
0
100
AcDbCircle
 62
7
  6
CONTINUOUS
 10
86.4155476194
 20
96.4336671172
 40
5.7127423665
100
AcDbArc
 50
269.6592753631
 51
270.0027502872
  0
ARC
  5
413
100
AcDbEntity
  8
0
100
AcDbCircle
 62
7
  6
CONTINUOUS
 10
86.4155476148
 20
61.3286991407
 40
5.7127421166
100
AcDbArc
 50
89.9972496877
 51
90.3407246056
  0
ARC
  5
414
100
AcDbEntity
  8
0
100
AcDbCircle
 62
7
  6
CONTINUOUS
 10
86.3815754733
 20
67.5311830041
 40
0.5
100
AcDbArc
 50
210.0
 51
270.0
  0
ARC
  5
415
100
AcDbEntity
  8
0
100
AcDbCircle
 62
7
  6
CONTINUOUS
 10
86.3815754733
 20
90.2311830041
 40
0.5
100
AcDbArc
 50
90.0
 51
150.0
  0
ARC
  5
416
100
AcDbEntity
  8
0
100
AcDbCircle
 62
7
  6
CONTINUOUS
 10
83.4093322868
 20
88.1811830041
 40
0.5
100
AcDbArc
 50
90.0
 51
180.0
  0
ARC
  5
417
100
AcDbEntity
  8
0
100
AcDbCircle
 62
7
  6
CONTINUOUS
 10
83.4093322868
 20
69.5811830041
 40
0.5
100
AcDbArc
 50
180.0
 51
270.0
  0
ARC
  5
418
100
AcDbEntity
  8
0
100
AcDbCircle
 62
7
  6
CONTINUOUS
 10
84.6206571522
 20
89.1811830041
 40
0.5
100
AcDbArc
 50
270.0
 51
330.0
  0
ARC
  5
419
100
AcDbEntity
  8
0
100
AcDbCircle
 62
7
  6
CONTINUOUS
 10
84.6206571522
 20
68.5811830041
 40
0.5
100
AcDbArc
 50
30.0
 51
90.0
  0
ARC
  5
41A
100
AcDbEntity
  8
0
100
AcDbCircle
 62
7
  6
CONTINUOUS
 10
107.7593322868
 20
89.3811830041
 40
0.5
100
AcDbArc
 50
270.0
 51
360.0
  0
ARC
  5
41B
100
AcDbEntity
  8
0
100
AcDbCircle
 62
7
  6
CONTINUOUS
 10
102.3253611102
 20
69.3811830041
 40
0.5
100
AcDbArc
 50
230.7978955758
 51
269.9996144468
  0
ARC
  5
41C
100
AcDbEntity
  8
0
100
AcDbCircle
 62
7
  6
CONTINUOUS
 10
102.3253609085
 20
88.3811830041
 40
0.5
100
AcDbArc
 50
90.0003655893
 51
129.2020763436
  0
ARC
  5
41D
100
AcDbEntity
  8
0
100
AcDbCircle
 62
7
  6
CONTINUOUS
 10
86.415582963
 20
72.8167135977
 40
0.2823224209
100
AcDbArc
 50
263.0815673423
 51
270.0484791075
  0
ARC
  5
41E
100
AcDbEntity
  8
0
100
AcDbCircle
 62
7
  6
CONTINUOUS
 10
86.4155829571
 20
84.945652426
 40
0.2823224053
100
AcDbArc
 50
89.9515202524
 51
96.9184318541
  0
ARC
  5
41F
100
AcDbEntity
  8
0
100
AcDbCircle
 62
7
  6
CONTINUOUS
 10
98.5712663446
 20
86.24471768
 40
0.2705029776
100
AcDbArc
 50
15.7866946891
 51
17.0107566775
  0
ARC
  5
420
100
AcDbEntity
  8
0
100
AcDbCircle
 62
7
  6
CONTINUOUS
 10
86.4155926818
 20
84.643487101
 40
0.2693541673
100
AcDbArc
 50
262.7446412977
 51
270.0487345865
  0
ARC
  5
421
100
AcDbEntity
  8
0
100
AcDbCircle
 62
7
  6
CONTINUOUS
 10
86.4155926849
 20
73.1188789184
 40
0.269354156
100
AcDbArc
 50
89.9512655935
 51
97.2553596584
  0
ARC
  5
422
100
AcDbEntity
  8
0
100
AcDbCircle
 62
7
  6
CONTINUOUS
 10
100.7965537377
 20
87.2067043912
 40
0.0054786137
100
AcDbArc
 50
79.6135091353
 51
89.9671442644
  0
ARC
  5
423
100
AcDbEntity
  8
0
100
AcDbCircle
 62
7
  6
CONTINUOUS
 10
61.7431611269
 20
147.9085206785
 40
55.5831179998
100
AcDbArc
 50
353.6709999501
 51
353.8783855052
  0
ARC
  5
424
100
AcDbEntity
  8
0
100
AcDbCircle
 62
7
  6
CONTINUOUS
 10
106.5093322868
 20
138.7811830041
 40
3.0
100
AcDbArc
 50
90.0
 51
180.0
  0
ARC
  5
425
100
AcDbEntity
  8
0
100
AcDbCircle
 62
7
  6
CONTINUOUS
 10
107.0093322868
 20
138.2811830041
 40
0.5
100
AcDbArc
 50
90.0
 51
180.0
  0
ARC
  5
426
100
AcDbEntity
  8
0
100
AcDbCircle
 62
7
  6
CONTINUOUS
 10
107.1593322868
 20
129.0311830041
 40
0.35
100
AcDbArc
 50
277.5
 51
360.0
  0
ARC
  5
427
100
AcDbEntity
  8
0
100
AcDbCircle
 62
7
  6
CONTINUOUS
 10
103.3593322868
 20
125.8832555983
 40
0.35
100
AcDbArc
 50
180.0
 51
240.0
  0
ARC
  5
428
100
AcDbEntity
  8
0
100
AcDbCircle
 62
7
  6
CONTINUOUS
 10
103.3593322868
 20
128.3311830041
 40
0.35
100
AcDbArc
 50
90.0
 51
180.0
  0
ARC
  5
429
100
AcDbEntity
  8
0
100
AcDbCircle
 62
7
  6
CONTINUOUS
 10
107.2093322868
 20
129.0569189353
 40
0.3
100
AcDbArc
 50
0.0
 51
45.0000000507
  0
ARC
  5
42A
100
AcDbEntity
  8
0
100
AcDbCircle
 62
7
  6
CONTINUOUS
 10
111.6780896863
 20
78.5461275888
 40
22.3562287687
100
AcDbArc
 50
6.481190646
 51
11.4264897775
  0
ARC
  5
42B
100
AcDbEntity
  8
0
100
AcDbCircle
 62
7
  6
CONTINUOUS
 10
111.6781071666
 20
79.2162356656
 40
22.3562110894
100
AcDbArc
 50
348.5735083189
 51
353.5188112856
  0
ARC
  5
42C
100
AcDbEntity
  8
GEOM
100
AcDbCircle
 62
7
  6
CONTINUOUS
 10
112.1027387856
 20
79.2332443333
 40
21.8536592318
100
AcDbArc
 50
348.31001244
 51
353.3491808068
  0
ARC
  5
42D
100
AcDbEntity
  8
GEOM
100
AcDbCircle
 62
7
  6
CONTINUOUS
 10
112.1028222778
 20
78.5291351533
 40
21.8535747403
100
AcDbArc
 50
6.6508094455
 51
11.6899973076
  0
ARC
  5
42E
100
AcDbEntity
  8
0
100
AcDbCircle
 62
7
  6
CONTINUOUS
 10
118.6299572868
 20
77.4149330041
 40
1.370625
100
AcDbArc
 50
79.7295607216
 51
180.0
  0
ARC
  5
42F
100
AcDbEntity
  8
0
100
AcDbCircle
 62
7
  6
CONTINUOUS
 10
118.1943322868
 20
77.5211830041
 40
1.36
100
AcDbArc
 50
90.0
 51
180.0
  0
ARC
  5
430
100
AcDbEntity
  8
0
100
AcDbCircle
 62
7
  6
CONTINUOUS
 10
117.6192526148
 20
78.3407239938
 40
0.8925
100
AcDbArc
 50
113.7828917797
 51
151.5775992543
  0
ARC
  5
431
100
AcDbEntity
  8
0
100
AcDbCircle
 62
7
  6
CONTINUOUS
 10
122.266439068
 20
66.8811830041
 40
0.5
100
AcDbArc
 50
225.0
 51
269.9999999999
  0
ARC
  5
432
100
AcDbEntity
  8
0
100
AcDbCircle
 62
7
  6
CONTINUOUS
 10
120.3522255056
 20
67.3811830041
 40
0.5
100
AcDbArc
 50
45.0037932842
 51
90.0
  0
ARC
  5
433
100
AcDbEntity
  8
0
100
AcDbCircle
 62
7
  6
CONTINUOUS
 10
109.7022255056
 20
68.3811830041
 40
0.5
100
AcDbArc
 50
45.0
 51
89.9121615487
  0
ARC
  5
434
100
AcDbEntity
  8
0
100
AcDbCircle
 62
7
  6
CONTINUOUS
 10
111.0957283899
 20
68.3311830041
 40
0.45
100
AcDbArc
 50
224.999541374
 51
270.0
  0
ARC
  5
435
100
AcDbEntity
  8
GEOM
100
AcDbCircle
 62
7
  6
CONTINUOUS
 10
129.2795029035
 20
67.5811830041
 40
0.3000000007
100
AcDbArc
 50
90.0072929494
 51
150.0
  0
ARC
  5
436
100
AcDbEntity
  8
0
100
AcDbCircle
 62
7
  6
CONTINUOUS
 10
117.584835462
 20
93.5542330174
 40
9.2878225581
100
AcDbArc
 50
208.738815631
 51
218.2985804161
  0
ARC
  5
437
100
AcDbEntity
  8
0
100
AcDbCircle
 62
7
  6
CONTINUOUS
 10
116.9368442413
 20
93.3219987223
 40
9.1592321908
100
AcDbArc
 50
210.0552460699
 51
219.9206731994
  0
ARC
  5
438
100
AcDbEntity
  8
0
100
AcDbCircle
 62
7
  6
CONTINUOUS
 10
117.9893322868
 20
98.0511830041
 40
0.98
100
AcDbArc
 50
0.0
 51
180.0
  0
ARC
  5
439
100
AcDbEntity
  8
0
100
AcDbCircle
 62
7
  6
CONTINUOUS
 10
117.9893322868
 20
96.8611830041
 40
0.98
100
AcDbArc
 50
180.0
 51
120.0
  0
ARC
  5
43A
100
AcDbEntity
  8
0
100
AcDbCircle
 62
7
  6
CONTINUOUS
 10
116.1193322868
 20
102.9811830041
 40
0.74
100
AcDbArc
 50
0.0
 51
90.0
  0
ARC
  5
43B
100
AcDbEntity
  8
0
100
AcDbCircle
 62
7
  6
CONTINUOUS
 10
116.1193322868
 20
102.4411830041
 40
0.74
100
AcDbArc
 50
270.0
 51
360.0
  0
CIRCLE
  5
43C
100
AcDbEntity
  8
0
100
AcDbCircle
 62
7
  6
CONTINUOUS
 10
117.9893322868
 20
96.8611830041
 40
0.49
  0
ARC
  5
43D
100
AcDbEntity
  8
0
100
AcDbCircle
 62
7
  6
CONTINUOUS
 10
117.9893322868
 20
98.0511830041
 40
0.49
100
AcDbArc
 50
0.0
 51
180.0
  0
ARC
  5
43E
100
AcDbEntity
  8
GEOM
100
AcDbCircle
 62
7
  6
CONTINUOUS
 10
129.2795023675
 20
90.1811830041
 40
0.299999986
100
AcDbArc
 50
210.0000000042
 51
269.9982103213
  0
ARC
  5
43F
100
AcDbEntity
  8
0
100
AcDbCircle
 62
7
  6
CONTINUOUS
 10
116.1193322868
 20
102.4411830041
 40
0.25
100
AcDbArc
 50
270.0
 51
360.0
  0
ARC
  5
440
100
AcDbEntity
  8
0
100
AcDbCircle
 62
7
  6
CONTINUOUS
 10
116.1193322868
 20
102.9811830041
 40
0.25
100
AcDbArc
 50
0.0
 51
90.0
  0
ARC
  5
441
100
AcDbEntity
  8
0
100
AcDbCircle
 62
7
  6
CONTINUOUS
 10
149.6031169542
 20
61.328698889
 40
5.7127423684
100
AcDbArc
 50
89.6592753632
 51
90.0027502872
  0
ARC
  5
442
100
AcDbEntity
  8
0
100
AcDbCircle
 62
7
  6
CONTINUOUS
 10
133.5039212165
 20
75.5113793162
 40
0.812830842
100
AcDbArc
 50
269.9431355005
 51
275.54709522
  0
ARC
  5
443
100
AcDbEntity
  8
0
100
AcDbCircle
 62
7
  6
CONTINUOUS
 10
149.6370891004
 20
67.5311830041
 40
0.5
100
AcDbArc
 50
270.0
 51
330.0
  0
ARC
  5
444
100
AcDbEntity
  8
0
100
AcDbCircle
 62
7
  6
CONTINUOUS
 10
152.6093322868
 20
69.5811830041
 40
0.5
100
AcDbArc
 50
270.0
 51
360.0
  0
ARC
  5
445
100
AcDbEntity
  8
0
100
AcDbCircle
 62
7
  6
CONTINUOUS
 10
151.3980074214
 20
68.5811830041
 40
0.5
100
AcDbArc
 50
90.0
 51
150.0
  0
ARC
  5
446
100
AcDbEntity
  8
0
100
AcDbCircle
 62
7
  6
CONTINUOUS
 10
134.3290918273
 20
76.6435867982
 40
0.4404036743
100
AcDbArc
 50
172.3527347162
 51
173.5927319839
  0
ARC
  5
447
100
AcDbEntity
  8
0
100
AcDbCircle
 62
7
  6
CONTINUOUS
 10
134.3290918267
 20
81.1187792098
 40
0.4404036737
100
AcDbArc
 50
186.4072692224
 51
187.6472652843
  0
ARC
  5
448
100
AcDbEntity
  8
0
100
AcDbCircle
 62
7
  6
CONTINUOUS
 10
133.4408366298
 20
74.4115533348
 40
0.4310114387
100
AcDbArc
 50
278.3078859225
 51
290.4192637296
  0
ARC
  5
449
100
AcDbEntity
  8
0
100
AcDbCircle
 62
7
  6
CONTINUOUS
 10
133.7747349078
 20
73.068164442
 40
0.4257854279
100
AcDbArc
 50
274.6607316636
 51
285.9078726508
  0
ARC
  5
44A
100
AcDbEntity
  8
0
100
AcDbCircle
 62
7
  6
CONTINUOUS
 10
133.8098590666
 20
69.9770636514
 40
0.4148341182
100
AcDbArc
 50
269.9272425699
 51
281.5058312219
  0
ARC
  5
44B
100
AcDbEntity
  8
0
100
AcDbCircle
 62
7
  6
CONTINUOUS
 10
133.8098612911
 20
73.058598516
 40
0.414811899
100
AcDbArc
 50
269.9269314092
 51
281.5061423827
  0
ARC
  5
44C
100
AcDbEntity
  8
0
100
AcDbCircle
 62
7
  6
CONTINUOUS
 10
133.5030828663
 20
68.4873794766
 40
0.328044912
100
AcDbArc
 50
270.0055258187
 51
284.0087312368
  0
ARC
  5
44D
100
AcDbEntity
  8
0
100
AcDbCircle
 62
7
  6
CONTINUOUS
 10
133.5030467586
 20
68.2216750025
 40
0.3208413506
100
AcDbArc
 50
270.0120979936
 51
284.3365591521
  0
ARC
  5
44E
100
AcDbEntity
  8
0
100
AcDbCircle
 62
7
  6
CONTINUOUS
 10
133.8093322868
 20
68.1811830041
 40
0.3
100
AcDbArc
 50
270.0
 51
311.8103148958
  0
ARC
  5
44F
100
AcDbEntity
  8
0
100
AcDbCircle
 62
7
  6
CONTINUOUS
 10
134.1861404249
 20
69.5168388979
 40
0.2984117934
100
AcDbArc
 50
169.6277321443
 51
170.9553850311
  0
ARC
  5
450
100
AcDbEntity
  8
0
100
AcDbCircle
 62
7
  6
CONTINUOUS
 10
133.8091166128
 20
68.1788545661
 40
0.2976716402
100
AcDbArc
 50
270.0415129014
 51
286.0546677539
  0
ARC
  5
451
100
AcDbEntity
  8
0
100
AcDbCircle
 62
7
  6
CONTINUOUS
 10
133.5028018753
 20
68.1713007169
 40
0.2901178813
100
AcDbArc
 50
270.0617415239
 51
287.7422300941
  0
ARC
  5
452
100
AcDbEntity
  8
0
100
AcDbCircle
 62
7
  6
CONTINUOUS
 10
149.6030816165
 20
72.8167135821
 40
0.2823224053
100
AcDbArc
 50
269.9515202524
 51
276.9184318541
  0
ARC
  5
453
100
AcDbEntity
  8
0
100
AcDbCircle
 62
7
  6
CONTINUOUS
 10
149.6030718918
 20
73.1188789071
 40
0.2693541673
100
AcDbArc
 50
82.7446412977
 51
90.0487345865
  0
ARC
  5
454
100
AcDbEntity
  8
0
100
AcDbCircle
 62
7
  6
CONTINUOUS
 10
134.066215584
 20
72.6863571596
 40
0.1769536521
100
AcDbArc
 50
188.9968761873
 51
191.1550224453
  0
ARC
  5
455
100
AcDbEntity
  8
0
100
AcDbCircle
 62
7
  6
CONTINUOUS
 10
149.6031169588
 20
96.4336668712
 40
5.7127421205
100
AcDbArc
 50
269.9972496878
 51
270.3407246055
  0
ARC
  5
456
100
AcDbEntity
  8
0
100
AcDbCircle
 62
7
  6
CONTINUOUS
 10
133.5033020554
 20
82.2380735129
 40
0.8257436421
100
AcDbArc
 50
84.4967556805
 51
90.0130135991
  0
ARC
  5
457
100
AcDbEntity
  8
0
100
AcDbCircle
 62
7
  6
CONTINUOUS
 10
133.5038833322
 20
82.9793778968
 40
0.7085160498
100
AcDbArc
 50
83.6299645989
 51
90.0621730565
  0
ARC
  5
458
100
AcDbEntity
  8
0
100
AcDbCircle
 62
7
  6
CONTINUOUS
 10
149.6370891004
 20
90.2311830041
 40
0.5
100
AcDbArc
 50
30.0
 51
90.0
  0
ARC
  5
459
100
AcDbEntity
  8
0
100
AcDbCircle
 62
7
  6
CONTINUOUS
 10
152.6093322868
 20
88.1811830041
 40
0.5
100
AcDbArc
 50
0.0
 51
90.0
  0
ARC
  5
45A
100
AcDbEntity
  8
0
100
AcDbCircle
 62
7
  6
CONTINUOUS
 10
151.3980074214
 20
89.1811830041
 40
0.5
100
AcDbArc
 50
210.0
 51
270.0
  0
ARC
  5
45B
100
AcDbEntity
  8
0
100
AcDbCircle
 62
7
  6
CONTINUOUS
 10
133.440836703
 20
83.350812668
 40
0.4310114334
100
AcDbArc
 50
69.5807457958
 51
81.6921238049
  0
ARC
  5
45C
100
AcDbEntity
  8
0
100
AcDbCircle
 62
7
  6
CONTINUOUS
 10
133.7747348761
 20
84.6942015728
 40
0.4257854238
100
AcDbArc
 50
74.0921228922
 51
85.3392640071
  0
ARC
  5
45D
100
AcDbEntity
  8
0
100
AcDbCircle
 62
7
  6
CONTINUOUS
 10
133.8098590666
 20
84.70374527
 40
0.4148341182
100
AcDbArc
 50
78.4941687781
 51
90.07275743
  0
ARC
  5
45E
100
AcDbEntity
  8
0
100
AcDbCircle
 62
7
  6
CONTINUOUS
 10
133.8098612911
 20
87.7853245788
 40
0.414811899
100
AcDbArc
 50
78.4938576173
 51
90.0730685908
  0
ARC
  5
45F
100
AcDbEntity
  8
0
100
AcDbCircle
 62
7
  6
CONTINUOUS
 10
133.5030828668
 20
89.2749865352
 40
0.3280449083
100
AcDbArc
 50
75.991268684
 51
89.9944742605
  0
ARC
  5
460
100
AcDbEntity
  8
0
100
AcDbCircle
 62
7
  6
CONTINUOUS
 10
133.5030467554
 20
89.5406909807
 40
0.3208413755
100
AcDbArc
 50
75.6634414074
 51
89.9879014469
  0
ARC
  5
461
100
AcDbEntity
  8
0
100
AcDbCircle
 62
7
  6
CONTINUOUS
 10
133.8093322868
 20
89.5811830041
 40
0.3
100
AcDbArc
 50
48.1896851042
 51
90.0
  0
ARC
  5
462
100
AcDbEntity
  8
0
100
AcDbCircle
 62
7
  6
CONTINUOUS
 10
134.1861404387
 20
88.2455271126
 40
0.2984118074
100
AcDbArc
 50
189.0446160169
 51
190.3722678344
  0
ARC
  5
463
100
AcDbEntity
  8
0
100
AcDbCircle
 62
7
  6
CONTINUOUS
 10
133.8091166128
 20
89.5835114383
 40
0.2976716438
100
AcDbArc
 50
73.9453323478
 51
89.958487102
  0
ARC
  5
464
100
AcDbEntity
  8
0
100
AcDbCircle
 62
7
  6
CONTINUOUS
 10
133.5028018752
 20
89.5910652963
 40
0.2901178762
100
AcDbArc
 50
72.2577697446
 51
89.938258471
  0
ARC
  5
465
100
AcDbEntity
  8
0
100
AcDbCircle
 62
7
  6
CONTINUOUS
 10
149.6030816107
 20
84.9456524105
 40
0.2823224209
100
AcDbArc
 50
83.0815673421
 51
90.0484791076
  0
ARC
  5
466
100
AcDbEntity
  8
0
100
AcDbCircle
 62
7
  6
CONTINUOUS
 10
149.6030718888
 20
84.6434870898
 40
0.269354156
100
AcDbArc
 50
269.9512655936
 51
277.2553596583
  0
ARC
  5
467
100
AcDbEntity
  8
0
100
AcDbCircle
 62
7
  6
CONTINUOUS
 10
134.066215593
 20
85.0760088469
 40
0.1769536612
100
AcDbArc
 50
168.8449775911
 51
171.0031258102
  0
ARC
  5
468
100
AcDbEntity
  8
0
100
AcDbCircle
 62
7
  6
CONTINUOUS
 10
113.7593160224
 20
129.4735672661
 40
8.407615738
100
AcDbArc
 50
89.5740950709
 51
89.999889163
  0
ARC
  5
469
100
AcDbEntity
  8
0
100
AcDbCircle
 62
7
  6
CONTINUOUS
 10
152.9446639388
 20
155.7811830041
 40
4.0
100
AcDbArc
 50
111.0331393818
 51
140.0
  0
ARC
  5
46A
100
AcDbEntity
  8
0
100
AcDbCircle
 62
7
  6
CONTINUOUS
 10
135.5093322868
 20
142.7811830041
 40
4.0
100
AcDbArc
 50
270.0
 51
320.0
  0
ARC
  5
46B
100
AcDbEntity
  8
0
100
AcDbCircle
 62
7
  6
CONTINUOUS
 10
155.3646837316
 20
159.4454965806
 40
3.8553515715
100
AcDbArc
 50
179.0238597861
 51
180.0146922186
  0
ARC
  5
46C
100
AcDbEntity
  8
0
100
AcDbCircle
 62
7
  6
CONTINUOUS
 10
116.0002846678
 20
119.4145163374
 40
1.4666666667
100
AcDbArc
 50
90.0
 51
180.0
  0
ARC
  5
46D
100
AcDbEntity
  8
0
100
AcDbCircle
 62
7
  6
CONTINUOUS
 10
116.0002846678
 20
118.3478496707
 40
1.4666666667
100
AcDbArc
 50
180.0
 51
270.0
  0
ARC
  5
46E
100
AcDbEntity
  8
0
100
AcDbCircle
 62
7
  6
CONTINUOUS
 10
152.8093322868
 20
156.5811830041
 40
1.3
100
AcDbArc
 50
212.8904173777
 51
270.0
  0
ARC
  5
46F
100
AcDbEntity
  8
0
100
AcDbCircle
 62
7
  6
CONTINUOUS
 10
152.8093322868
 20
159.9811830041
 40
1.3
100
AcDbArc
 50
90.0
 51
180.0
  0
ARC
  5
470
100
AcDbEntity
  8
0
100
AcDbCircle
 62
7
  6
CONTINUOUS
 10
118.2859989535
 20
119.7478496707
 40
1.1333333333
100
AcDbArc
 50
278.8857694273
 51
90.0
  0
ARC
  5
471
100
AcDbEntity
  8
0
100
AcDbCircle
 62
7
  6
CONTINUOUS
 10
116.0002846678
 20
118.3478496707
 40
1.0
100
AcDbArc
 50
180.0
 51
270.0
  0
ARC
  5
472
100
AcDbEntity
  8
0
100
AcDbCircle
 62
7
  6
CONTINUOUS
 10
116.0002846678
 20
119.4145163374
 40
1.0
100
AcDbArc
 50
90.0
 51
180.0
  0
ARC
  5
473
100
AcDbEntity
  8
0
100
AcDbCircle
 62
7
  6
CONTINUOUS
 10
135.5093322868
 20
142.7811830041
 40
1.0
100
AcDbArc
 50
270.0
 51
320.0
  0
ARC
  5
474
100
AcDbEntity
  8
0
100
AcDbCircle
 62
7
  6
CONTINUOUS
 10
118.2859989535
 20
119.7478496707
 40
0.6666666667
100
AcDbArc
 50
270.0
 51
90.0
  0
ARC
  5
475
100
AcDbEntity
  8
0
100
AcDbCircle
 62
7
  6
CONTINUOUS
 10
122.4093322868
 20
142.6347728425
 40
0.6
100
AcDbArc
 50
0.0
 51
60.0
  0
ARC
  5
476
100
AcDbEntity
  8
0
100
AcDbCircle
 62
7
  6
CONTINUOUS
 10
111.6093322868
 20
142.6347728425
 40
0.6
100
AcDbArc
 50
120.0
 51
180.0
  0
ARC
  5
477
100
AcDbEntity
  8
0
100
AcDbCircle
 62
7
  6
CONTINUOUS
 10
126.2093322868
 20
125.0054470728
 40
0.3
100
AcDbArc
 50
315.0
 51
359.9999999996
  0
ARC
  5
478
100
AcDbEntity
  8
0
100
AcDbCircle
 62
7
  6
CONTINUOUS
 10
126.0593322868
 20
124.0069189353
 40
0.3
100
AcDbArc
 50
135.0
 51
180.0
  0
ARC
  5
479
100
AcDbEntity
  8
0
100
AcDbCircle
 62
7
  6
CONTINUOUS
 10
126.8093322868
 20
129.0569189353
 40
0.3
100
AcDbArc
 50
134.9999999576
 51
180.0
  0
ARC
  5
47A
100
AcDbEntity
  8
0
100
AcDbCircle
 62
7
  6
CONTINUOUS
 10
206.0093322868
 20
158.7811830041
 40
2.5
100
AcDbArc
 50
0.0
 51
90.0
  0
ARC
  5
47B
100
AcDbEntity
  8
0
100
AcDbCircle
 62
7
  6
CONTINUOUS
 10
206.0093322868
 20
157.7811830041
 40
2.5
100
AcDbArc
 50
270.0
 51
360.0
  0
ARC
  5
47C
100
AcDbEntity
  8
0
100
AcDbCircle
 62
7
  6
CONTINUOUS
 10
305.7441128409
 20
331.2578092186
 40
285.8739561769
100
AcDbArc
 50
226.2382486938
 51
226.4006477006
  0
ARC
  5
47D
100
AcDbEntity
  8
0
100
AcDbCircle
 62
7
  6
CONTINUOUS
 10
290.4084785674
 20
315.6611730267
 40
264.3451130066
100
AcDbArc
 50
226.3007885425
 51
226.4766374685
  0
SPLINE
  5
47E
100
AcDbEntity
  8
0
100
AcDbSpline
 62
7
  6
CONTINUOUS
 70
0
 71
3
 72
9
 73
5
 74
0
 42
0.0000001
 43
0.0000001
 44
0.0000000001
 40
0.0
 40
0.0
 40
0.0
 40
0.0
 40
0.6125601337
 40
1.0
 40
1.0
 40
1.0
 40
1.0
 10
109.0197529281
 20
133.3069522186
 30
0.0
 10
109.0169408477
 20
133.3054873066
 30
0.0
 10
109.0124177387
 20
133.3029766676
 30
0.0
 10
109.0093322868
 20
133.2981107059
 30
0.0
 10
109.0093322868
 20
133.2961052186
 30
0.0
  0
SPLINE
  5
47F
100
AcDbEntity
  8
0
100
AcDbSpline
 62
7
  6
CONTINUOUS
 70
0
 71
3
 72
9
 73
5
 74
0
 42
0.0000001
 43
0.0000001
 44
0.0000000001
 40
0.0
 40
0.0
 40
0.0
 40
0.0
 40
0.612560664
 40
1.0
 40
1.0
 40
1.0
 40
1.0
 10
109.0197529721
 20
132.7994140156
 30
0.0
 10
109.0169408807
 20
132.8008789283
 30
0.0
 10
109.0124177575
 20
132.8033895629
 30
0.0
 10
109.0093322868
 20
132.8082555315
 30
0.0
 10
109.0093322868
 20
132.8102610206
 30
0.0
  0
SPLINE
  5
480
100
AcDbEntity
  8
0
100
AcDbSpline
 62
7
  6
CONTINUOUS
 70
0
 71
3
 72
9
 73
5
 74
0
 42
0.0000001
 43
0.0000001
 44
0.0000000001
 40
0.0
 40
0.0
 40
0.0
 40
0.0
 40
0.3876155666
 40
1.0
 40
1.0
 40
1.0
 40
1.0
 10
109.0093301335
 20
134.1462629794
 30
0.0
 10
109.0093300505
 20
134.1442574731
 30
0.0
 10
109.0124087893
 20
134.1393913938
 30
0.0
 10
109.016929896
 20
134.1368796461
 30
0.0
 10
109.019739573
 20
134.1354151339
 30
0.0
  0
SPLINE
  5
481
100
AcDbEntity
  8
0
100
AcDbSpline
 62
7
  6
CONTINUOUS
 70
0
 71
3
 72
9
 73
5
 74
0
 42
0.0000001
 43
0.0000001
 44
0.0000000001
 40
0.0
 40
0.0
 40
0.0
 40
0.0
 40
0.27918513
 40
1.0
 40
1.0
 40
1.0
 40
1.0
 10
109.1169786373
 20
134.1811830041
 30
0.0
 10
109.1121476261
 20
134.1803976398
 30
0.0
 10
109.0948600161
 20
134.1774900143
 30
0.0
 10
109.0776302337
 20
134.1742021971
 30
0.0
 10
109.065302227
 20
134.1714261377
 30
0.0
  0
SPLINE
  5
482
100
AcDbEntity
  8
0
100
AcDbSpline
 62
7
  6
CONTINUOUS
 70
0
 71
3
 72
12
 73
8
 74
0
 42
0.0000001
 43
0.0000001
 44
0.0000000001
 40
0.0
 40
0.0
 40
0.0
 40
0.0
 40
0.3987430043
 40
0.6923398698
 40
0.8011414878
 40
0.8863010623
 40
1.0
 40
1.0
 40
1.0
 40
1.0
 10
109.065302227
 20
134.1714261377
 30
0.0
 10
109.057089972
 20
134.1695768763
 30
0.0
 10
109.0428982137
 20
134.1660272593
 30
0.0
 10
109.0268304461
 20
134.1606914869
 30
0.0
 10
109.0175582322
 20
134.1560425841
 30
0.0
 10
109.0122475349
 20
134.1525142708
 30
0.0
 10
109.0093302328
 20
134.1486632857
 30
0.0
 10
109.0093301335
 20
134.1462629794
 30
0.0
  0
SPLINE
  5
483
100
AcDbEntity
  8
0
100
AcDbSpline
 62
7
  6
CONTINUOUS
 70
0
 71
3
 72
26
 73
22
 74
0
 42
0.0000001
 43
0.0000001
 44
0.0000000001
 40
0.0
 40
0.0
 40
0.0
 40
0.0
 40
0.0017114323
 40
0.0039585623
 40
0.0101015301
 40
0.0184628739
 40
0.0290405684
 40
0.0418188058
 40
0.056768655
 40
0.073858175
 40
0.0930486236
 40
0.1375409333
 40
0.1898230397
 40
0.2493921699
 40
0.3156719101
 40
0.3880223314
 40
0.4657439595
 40
0.5480828877
 40
0.634241859
 40
0.8146529305
 40
1.0
 40
1.0
 40
1.0
 40
1.0
 10
109.6668695438
 20
133.6443012458
 30
0.0
 10
109.6708182192
 20
133.6463571371
 30
0.0
 10
109.6804002438
 20
133.6502278093
 30
0.0
 10
109.7055564219
 20
133.6578500917
 30
0.0
 10
109.7482779581
 20
133.6667605687
 30
0.0
 10
109.8127218659
 20
133.6769308481
 30
0.0
 10
109.8946042053
 20
133.687167685
 30
0.0
 10
109.9937124338
 20
133.6974879401
 30
0.0
 10
110.1098362543
 20
133.707844521
 30
0.0
 10
110.2426929779
 20
133.7182303694
 30
0.0
 10
110.4522941597
 20
133.7328296809
 30
0.0
 10
110.7534217443
 20
133.7507057154
 30
0.0
 10
111.1595849713
 20
133.7713521307
 30
0.0
 10
111.6224833321
 20
133.7920587545
 30
0.0
 10
112.1376277846
 20
133.8128138075
 30
0.0
 10
112.7000246172
 20
133.8335987475
 30
0.0
 10
113.304220516
 20
133.854405106
 30
0.0
 10
113.9443549682
 20
133.8752276836
 30
0.0
 10
114.8515078919
 20
133.9034380105
 30
0.0
 10
116.0265342063
 20
133.9381593128
 30
0.0
 10
116.9775596327
 20
133.9655460371
 30
0.0
 10
117.4594871537
 20
133.9795068372
 30
0.0
  0
SPLINE
  5
484
100
AcDbEntity
  8
0
100
AcDbSpline
 62
7
  6
CONTINUOUS
 70
0
 71
3
 72
10
 73
6
 74
0
 42
0.0000001
 43
0.0000001
 44
0.0000000001
 40
0.0
 40
0.0
 40
0.0
 40
0.0
 40
0.3232590576
 40
0.6129627465
 40
1.0
 40
1.0
 40
1.0
 40
1.0
 10
109.0093322868
 20
132.8102610206
 30
0.0
 10
109.0093322868
 20
132.8144936723
 30
0.0
 10
109.0174634337
 20
132.8203913065
 30
0.0
 10
109.0288245773
 20
132.8253095632
 30
0.0
 10
109.0374420334
 20
132.8281428519
 30
0.0
 10
109.0423050613
 20
132.8295686782
 30
0.0
  0
SPLINE
  5
485
100
AcDbEntity
  8
0
100
AcDbSpline
 62
7
  6
CONTINUOUS
 70
0
 71
3
 72
23
 73
19
 74
0
 42
0.0000001
 43
0.0000001
 44
0.0000000001
 40
0.0
 40
0.0
 40
0.0
 40
0.0
 40
0.0052870215
 40
0.0127758196
 40
0.0224632289
 40
0.0343336921
 40
0.0483613363
 40
0.0645103663
 40
0.1030108332
 40
0.1494441073
 40
0.2033335898
 40
0.2641240567
 40
0.3311863082
 40
0.4038243148
 40
0.4812863298
 40
0.64743466
 40
0.8227574024
 40
1.0
 40
1.0
 40
1.0
 40
1.0
 10
109.0423050613
 20
132.8295686782
 30
0.0
 10
109.0578220634
 20
132.8341182203
 30
0.0
 10
109.0961440021
 20
132.842145657
 30
0.0
 10
109.1640391651
 20
132.8525965696
 30
0.0
 10
109.2522703858
 20
132.8631437495
 30
0.0
 10
109.3605861143
 20
132.8737975943
 30
0.0
 10
109.4887452265
 20
132.884494926
 30
0.0
 10
109.6982428167
 20
132.8997112367
 30
0.0
 10
110.0068581797
 20
132.9182135523
 30
0.0
 10
110.4309143186
 20
132.9394988292
 30
0.0
 10
110.9232143123
 20
132.9608656653
 30
0.0
 10
111.4786557968
 20
132.9822996008
 30
0.0
 10
112.0914760827
 20
133.0037723113
 30
0.0
 10
112.755313326
 20
133.0252748605
 30
0.0
 10
113.7221042559
 20
133.0546589731
 30
0.0
 10
115.0028931846
 20
133.0907222119
 30
0.0
 10
116.5887970711
 20
133.1331555644
 30
0.0
 10
117.6667309028
 20
133.1616902943
 30
0.0
 10
118.2086267432
 20
133.1762578853
 30
0.0
  0
SPLINE
  5
486
100
AcDbEntity
  8
0
100
AcDbSpline
 62
7
  6
CONTINUOUS
 70
0
 71
3
 72
9
 73
5
 74
0
 42
0.0000001
 43
0.0000001
 44
0.0000000001
 40
0.0
 40
0.0
 40
0.0
 40
0.0
 40
0.2520543237
 40
1.0
 40
1.0
 40
1.0
 40
1.0
 10
117.0335751498
 20
132.6311827426
 30
0.0
 10
117.1712617375
 20
132.6351638935
 30
0.0
 10
117.7175192659
 20
132.6509605667
 30
0.0
 10
118.2637739313
 20
132.6668586438
 30
0.0
 10
118.6723357415
 20
132.678986074
 30
0.0
  0
SPLINE
  5
487
100
AcDbEntity
  8
0
100
AcDbSpline
 62
7
  6
CONTINUOUS
 70
0
 71
3
 72
36
 73
32
 74
0
 42
0.0000001
 43
0.0000001
 44
0.0000000001
 40
0.0
 40
0.0
 40
0.0
 40
0.0
 40
0.0012787909
 40
0.0021066421
 40
0.0024692466
 40
0.0028823845
 40
0.0033946277
 40
0.0040322198
 40
0.0057302147
 40
0.0080302043
 40
0.0109506156
 40
0.0144987009
 40
0.018676434
 40
0.0234837414
 40
0.0349816219
 40
0.0489741715
 40
0.0654260028
 40
0.0842967407
 40
0.1055387235
 40
0.129093324
 40
0.154899987
 40
0.1828891961
 40
0.2129843165
 40
0.2791682278
 40
0.352737141
 40
0.4328968903
 40
0.5187823917
 40
0.6094651537
 40
0.7039639965
 40
0.8012573321
 40
1.0
 40
1.0
 40
1.0
 40
1.0
 10
109.6667843184
 20
133.7981092494
 30
0.0
 10
109.6638837476
 20
133.7996238151
 30
0.0
 10
109.6592263007
 20
133.8022894069
 30
0.0
 10
109.6551875544
 20
133.8079032499
 30
0.0
 10
109.6556955589
 20
133.8121478138
 30
0.0
 10
109.6574464716
 20
133.8150142344
 30
0.0
 10
109.6603748125
 20
133.817777738
 30
0.0
 10
109.666469808
 20
133.8218131275
 30
0.0
 10
109.6774019494
 20
133.8265742365
 30
0.0
 10
109.694272025
 20
133.8319538973
 30
0.0
 10
109.7160612207
 20
133.8373695179
 30
0.0
 10
109.7427552763
 20
133.8428214852
 30
0.0
 10
109.7743591143
 20
133.8482939408
 30
0.0
 10
109.8261922167
 20
133.8560817383
 30
0.0
 10
109.9031477572
 20
133.8655675157
 30
0.0
 10
110.0099200302
 20
133.8764590259
 30
0.0
 10
110.1356375686
 20
133.8873924661
 30
0.0
 10
110.2799617051
 20
133.8983587277
 30
0.0
 10
110.442505324
 20
133.9093436637
 30
0.0
 10
110.6228316498
 20
133.9203453328
 30
0.0
 10
110.8204513823
 20
133.9313565515
 30
0.0
 10
111.0348303841
 20
133.9423763534
 30
0.0
 10
111.3524474021
 20
133.957564035
 30
0.0
 10
111.7866535574
 20
133.9763319255
 30
0.0
 10
112.3489430676
 20
133.998250884
 30
0.0
 10
112.9616790637
 20
134.0202005902
 30
0.0
 10
113.6182312773
 20
134.0421740769
 30
0.0
 10
114.3114933554
 20
134.0641634095
 30
0.0
 10
115.0339595725
 20
134.0861643176
 30
0.0
 10
116.032828837
 20
134.1157170474
 30
0.0
 10
116.7900158816
 20
134.1375343485
 30
0.0
 10
117.298348745
 20
134.1522438109
 30
0.0
  0
SPLINE
  5
488
100
AcDbEntity
  8
0
100
AcDbSpline
 62
7
  6
CONTINUOUS
 70
0
 71
3
 72
11
 73
7
 74
0
 42
0.0000001
 43
0.0000001
 44
0.0000000001
 40
0.0
 40
0.0
 40
0.0
 40
0.0
 40
0.2094455545
 40
0.4571887158
 40
0.7267021848
 40
1.0
 40
1.0
 40
1.0
 40
1.0
 10
111.5776449237
 20
132.6311827426
 30
0.0
 10
112.0615177107
 20
132.65193687
 30
0.0
 10
113.1180175949
 20
132.6906703358
 30
0.0
 10
114.7975934148
 20
132.743648214
 30
0.0
 10
116.624881754
 20
132.796880343
 30
0.0
 10
117.8795487832
 20
132.8329601232
 30
0.0
 10
118.5112416385
 20
132.8516184582
 30
0.0
  0
SPLINE
  5
489
100
AcDbEntity
  8
0
100
AcDbSpline
 62
7
  6
CONTINUOUS
 70
0
 71
3
 72
18
 73
14
 74
0
 42
0.0000001
 43
0.0000001
 44
0.0000000001
 40
0.0
 40
0.0
 40
0.0
 40
0.0
 40
0.1749546395
 40
0.3451990731
 40
0.5053485402
 40
0.6503873378
 40
0.7758196778
 40
0.8299550528
 40
0.8778057745
 40
0.9190133949
 40
0.9532699056
 40
0.9803314543
 40
1.0
 40
1.0
 40
1.0
 40
1.0
 10
117.086645165
 20
134.3792580664
 30
0.0
 10
116.6217696521
 20
134.3709240433
 30
0.0
 10
115.7045329955
 20
134.3545478034
 30
0.0
 10
114.3617696066
 20
134.3300056641
 30
0.0
 10
113.0985201366
 20
134.3055915421
 30
0.0
 10
111.954382125
 20
134.2813302842
 30
0.0
 10
111.0919751369
 20
134.2604306403
 30
0.0
 10
110.4878419768
 20
134.2432992687
 30
0.0
 10
110.1074906992
 20
134.2311414631
 30
0.0
 10
109.7799981537
 20
134.2190486225
 30
0.0
 10
109.5077879143
 20
134.2070809568
 30
0.0
 10
109.2928899253
 20
134.195228006
 30
0.0
 10
109.169005982
 20
134.1862146579
 30
0.0
 10
109.1169786373
 20
134.1811830041
 30
0.0
  0
SPLINE
  5
48A
100
AcDbEntity
  8
0
100
AcDbSpline
 62
7
  6
CONTINUOUS
 70
0
 71
3
 72
26
 73
22
 74
0
 42
0.0000001
 43
0.0000001
 44
0.0000000001
 40
0.0
 40
0.0
 40
0.0
 40
0.0
 40
0.1841145324
 40
0.3642729566
 40
0.4505686882
 40
0.5331626992
 40
0.6112158626
 40
0.6839358425
 40
0.7505841689
 40
0.8104843378
 40
0.8630282977
 40
0.9076847611
 40
0.9269130273
 40
0.9440073468
 40
0.9589281455
 40
0.9716386637
 40
0.982110055
 40
0.9903251098
 40
0.996276493
 40
0.9984113543
 40
1.0
 40
1.0
 40
1.0
 40
1.0
 10
117.76657924
 20
133.6502623468
 30
0.0
 10
117.2293204074
 20
133.6359181625
 30
0.0
 10
116.166339899
 20
133.6078049548
 30
0.0
 10
114.851559866
 20
133.5723044074
 30
0.0
 10
113.8330589625
 20
133.5434466306
 30
0.0
 10
113.1125209974
 20
133.5221246115
 30
0.0
 10
112.4316297969
 20
133.5008190702
 30
0.0
 10
111.7973091802
 20
133.4795357697
 30
0.0
 10
111.2160101816
 20
133.4582836002
 30
0.0
 10
110.6936478662
 20
133.4370819233
 30
0.0
 10
110.2355391052
 20
133.4159439166
 30
0.0
 10
109.8961579969
 20
133.3976381225
 30
0.0
 10
109.6602430939
 20
133.3826804436
 30
0.0
 10
109.511035081
 20
133.3720456371
 30
0.0
 10
109.380902995
 20
133.3614452957
 30
0.0
 10
109.2701785009
 20
133.3508816825
 30
0.0
 10
109.1791094075
 20
133.3404138383
 30
0.0
 10
109.1079509712
 20
133.3300173826
 30
0.0
 10
109.061167474
 20
133.3209177372
 30
0.0
 10
109.0340289206
 20
133.3130764462
 30
0.0
 10
109.0238657573
 20
133.3090947367
 30
0.0
 10
109.0197529281
 20
133.3069522186
 30
0.0
  0
SPLINE
  5
48B
100
AcDbEntity
  8
0
100
AcDbSpline
 62
7
  6
CONTINUOUS
 70
0
 71
3
 72
10
 73
6
 74
0
 42
0.0000001
 43
0.0000001
 44
0.0000000001
 40
0.0
 40
0.0
 40
0.0
 40
0.0
 40
0.2491739154
 40
0.4987551285
 40
1.0
 40
1.0
 40
1.0
 40
1.0
 10
113.7593322867
 20
137.8811830041
 30
0.0
 10
113.5248464048
 20
137.8811830041
 30
0.0
 10
113.055243366
 20
137.861485282
 30
0.0
 10
112.1205343502
 20
137.7460023464
 30
0.0
 10
111.4306445106
 20
137.5817567807
 30
0.0
 10
110.9782578542
 20
137.4481703022
 30
0.0
  0
SPLINE
  5
48C
100
AcDbEntity
  8
0
100
AcDbSpline
 62
7
  6
CONTINUOUS
 70
0
 71
3
 72
15
 73
11
 74
0
 42
0.0000001
 43
0.0000001
 44
0.0000000001
 40
0.0
 40
0.0
 40
0.0
 40
0.0
 40
0.1257074555
 40
0.2508731029
 40
0.375574375
 40
0.5000000233
 40
0.6244256674
 40
0.7491269306
 40
0.874292556
 40
1.0
 40
1.0
 40
1.0
 40
1.0
 10
121.0093322868
 20
143.7786179525
 30
0.0
 10
120.8471341211
 20
143.8326840078
 30
0.0
 10
120.5203797893
 20
143.9317837922
 30
0.0
 10
120.0221005098
 20
144.0463606783
 30
0.0
 10
119.5175829142
 20
144.1191685456
 30
0.0
 10
119.009332198
 20
144.1442210315
 30
0.0
 10
118.5010814961
 20
144.1191685132
 30
0.0
 10
117.9965639498
 20
144.0463606441
 30
0.0
 10
117.4982847253
 20
143.9317837762
 30
0.0
 10
117.1715304378
 20
143.8326840028
 30
0.0
 10
117.0093322868
 20
143.7786179525
 30
0.0
  0
LINE
  5
48D
100
AcDbEntity
  8
0
100
AcDbLine
 62
7
  6
CONTINUOUS
 10
116.2160706458
 20
141.7811830041
 11
116.2238377223
 21
141.8554391796
  0
SPLINE
  5
48E
100
AcDbEntity
  8
0
100
AcDbSpline
 62
7
  6
CONTINUOUS
 70
0
 71
3
 72
9
 73
5
 74
0
 42
0.0000001
 43
0.0000001
 44
0.0000000001
 40
0.0
 40
0.0
 40
0.0
 40
0.0
 40
0.253023751
 40
1.0
 40
1.0
 40
1.0
 40
1.0
 10
117.0093322868
 20
141.9811830041
 30
0.0
 10
117.0691427232
 20
141.96405036
 30
0.0
 10
117.3057842399
 20
141.8972470629
 30
0.0
 10
117.5429122189
 20
141.8321576701
 30
0.0
 10
117.7193706486
 20
141.7811830041
 30
0.0
  0
SPLINE
  5
48F
100
AcDbEntity
  8
0
100
AcDbSpline
 62
7
  6
CONTINUOUS
 70
0
 71
3
 72
11
 73
7
 74
0
 42
0.0000001
 43
0.0000001
 44
0.0000000001
 40
0.0
 40
0.0
 40
0.0
 40
0.0
 40
0.2514178059
 40
0.5017501979
 40
0.7511495642
 40
1.0
 40
1.0
 40
1.0
 40
1.0
 10
113.0093322868
 20
146.6239174142
 30
0.0
 10
113.1715323705
 20
146.6779841087
 30
0.0
 10
113.4982871107
 20
146.7770848221
 30
0.0
 10
113.996577749
 20
146.8916600646
 30
0.0
 10
114.5010553376
 20
146.9644709833
 30
0.0
 10
114.8401042989
 20
146.9811830041
 30
0.0
 10
115.0093322875
 20
146.9811830041
 30
0.0
  0
SPLINE
  5
490
100
AcDbEntity
  8
0
100
AcDbSpline
 62
7
  6
CONTINUOUS
 70
0
 71
3
 72
11
 73
7
 74
0
 42
0.0000001
 43
0.0000001
 44
0.0000000001
 40
0.0
 40
0.0
 40
0.0
 40
0.0
 40
0.2488504827
 40
0.4982499007
 40
0.7485823605
 40
1.0
 40
1.0
 40
1.0
 40
1.0
 10
115.0093322875
 20
146.9811830041
 30
0.0
 10
115.1785603079
 20
146.981183004
 30
0.0
 10
115.517609338
 20
146.9644709949
 30
0.0
 10
116.022087029
 20
146.8916599973
 30
0.0
 10
116.5203776398
 20
146.7770847841
 30
0.0
 10
116.8471323107
 20
146.6779840729
 30
0.0
 10
117.0093322868
 20
146.6239174142
 30
0.0
  0
SPLINE
  5
491
100
AcDbEntity
  8
0
100
AcDbSpline
 62
7
  6
CONTINUOUS
 70
0
 71
3
 72
15
 73
11
 74
0
 42
0.0000001
 43
0.0000001
 44
0.0000000001
 40
0.0
 40
0.0
 40
0.0
 40
0.0
 40
0.1257074555
 40
0.2508731029
 40
0.375574375
 40
0.5000000233
 40
0.6244256674
 40
0.7491269306
 40
0.874292556
 40
1.0
 40
1.0
 40
1.0
 40
1.0
 10
117.0093322868
 20
143.7786179525
 30
0.0
 10
116.8471341211
 20
143.8326840078
 30
0.0
 10
116.5203797893
 20
143.9317837922
 30
0.0
 10
116.0221005098
 20
144.0463606783
 30
0.0
 10
115.5175829142
 20
144.1191685456
 30
0.0
 10
115.009332198
 20
144.1442210315
 30
0.0
 10
114.5010814961
 20
144.1191685132
 30
0.0
 10
113.9965639498
 20
144.0463606441
 30
0.0
 10
113.4982847253
 20
143.9317837762
 30
0.0
 10
113.1715304378
 20
143.8326840028
 30
0.0
 10
113.0093322868
 20
143.7786179525
 30
0.0
  0
SPLINE
  5
492
100
AcDbEntity
  8
0
100
AcDbSpline
 62
7
  6
CONTINUOUS
 70
0
 71
3
 72
11
 73
7
 74
0
 42
0.0000001
 43
0.0000001
 44
0.0000000001
 40
0.0
 40
0.0
 40
0.0
 40
0.0
 40
0.2514175677
 40
0.5017500004
 40
0.7511494403
 40
1.0
 40
1.0
 40
1.0
 40
1.0
 10
117.0093322868
 20
146.6239174142
 30
0.0
 10
117.1715322167
 20
146.6779840574
 30
0.0
 10
117.4982868213
 20
146.777084756
 30
0.0
 10
117.9965773797
 20
146.891659961
 30
0.0
 10
118.5010551144
 20
146.9644710035
 30
0.0
 10
118.8401042133
 20
146.981183004
 30
0.0
 10
119.0093322861
 20
146.9811830041
 30
0.0
  0
SPLINE
  5
493
100
AcDbEntity
  8
0
100
AcDbSpline
 62
7
  6
CONTINUOUS
 70
0
 71
3
 72
11
 73
7
 74
0
 42
0.0000001
 43
0.0000001
 44
0.0000000001
 40
0.0
 40
0.0
 40
0.0
 40
0.0
 40
0.2488505601
 40
0.4982499613
 40
0.7485822917
 40
1.0
 40
1.0
 40
1.0
 40
1.0
 10
119.0093322861
 20
146.9811830041
 30
0.0
 10
119.1785603594
 20
146.9811830041
 30
0.0
 10
119.5176094318
 20
146.9644710008
 30
0.0
 10
120.0220870775
 20
146.8916600043
 30
0.0
 10
120.5203776326
 20
146.7770847824
 30
0.0
 10
120.847132266
 20
146.6779840878
 30
0.0
 10
121.0093322868
 20
146.6239174142
 30
0.0
  0
SPLINE
  5
494
100
AcDbEntity
  8
0
100
AcDbSpline
 62
7
  6
CONTINUOUS
 70
0
 71
3
 72
13
 73
9
 74
0
 42
0.0000001
 43
0.0000001
 44
0.0000000001
 40
0.0
 40
0.0
 40
0.0
 40
0.0
 40
0.2499501088
 40
0.3749753146
 40
0.5000000151
 40
0.6250247132
 40
0.7500499144
 40
1.0
 40
1.0
 40
1.0
 40
1.0
 10
141.2351653117
 20
84.3741330311
 30
0.0
 10
140.9955580627
 20
83.4788233457
 30
0.0
 10
140.7001094002
 20
82.1159039535
 30
0.0
 10
140.4914544261
 20
80.2723208152
 30
0.0
 10
140.4378864897
 20
78.8811828446
 30
0.0
 10
140.4914544495
 20
77.4900448918
 30
0.0
 10
140.7001094445
 20
75.6464618692
 30
0.0
 10
140.995558085
 20
74.2835425792
 30
0.0
 10
141.2351653117
 20
73.388232977
 30
0.0
  0
SPLINE
  5
495
100
AcDbEntity
  8
0
100
AcDbSpline
 62
7
  6
CONTINUOUS
 70
0
 71
3
 72
15
 73
11
 74
0
 42
0.0000001
 43
0.0000001
 44
0.0000000001
 40
0.0
 40
0.0
 40
0.0
 40
0.0
 40
0.1301220917
 40
0.2562964044
 40
0.3791284759
 40
0.5000000147
 40
0.6208715512
 40
0.7437036189
 40
0.869877914
 40
1.0
 40
1.0
 40
1.0
 40
1.0
 10
141.2351653117
 20
90.7209247573
 30
0.0
 10
141.1171532928
 20
90.5004445674
 30
0.0
 10
140.9015158922
 20
90.0567414821
 30
0.0
 10
140.6507684692
 20
89.3709841453
 30
0.0
 10
140.4921560089
 20
88.6757413293
 30
0.0
 10
140.4376821309
 20
87.9744496634
 30
0.0
 10
140.492156033
 20
87.2731580067
 30
0.0
 10
140.6507685063
 20
86.5779152407
 30
0.0
 10
140.9015159213
 20
85.8921579577
 30
0.0
 10
141.1171532979
 20
85.4484549106
 30
0.0
 10
141.2351653117
 20
85.2279747303
 30
0.0
  0
SPLINE
  5
496
100
AcDbEntity
  8
0
100
AcDbSpline
 62
7
  6
CONTINUOUS
 70
0
 71
3
 72
15
 73
11
 74
0
 42
0.0000001
 43
0.0000001
 44
0.0000000001
 40
0.0
 40
0.0
 40
0.0
 40
0.0
 40
0.1301220917
 40
0.2562964044
 40
0.3791284759
 40
0.5000000147
 40
0.6208715512
 40
0.7437036189
 40
0.869877914
 40
1.0
 40
1.0
 40
1.0
 40
1.0
 10
141.2351653117
 20
72.5343912779
 30
0.0
 10
141.1171532928
 20
72.3139110879
 30
0.0
 10
140.9015158922
 20
71.8702080026
 30
0.0
 10
140.6507684692
 20
71.1844506658
 30
0.0
 10
140.4921560089
 20
70.4892078499
 30
0.0
 10
140.4376821309
 20
69.7879161839
 30
0.0
 10
140.492156033
 20
69.0866245273
 30
0.0
 10
140.6507685063
 20
68.3913817612
 30
0.0
 10
140.9015159213
 20
67.7056244782
 30
0.0
 10
141.1171532979
 20
67.2619214311
 30
0.0
 10
141.2351653117
 20
67.0414412508
 30
0.0
  0
SPLINE
  5
497
100
AcDbEntity
  8
0
100
AcDbSpline
 62
7
  6
CONTINUOUS
 70
0
 71
3
 72
15
 73
11
 74
0
 42
0.0000001
 43
0.0000001
 44
0.0000000001
 40
0.0
 40
0.0
 40
0.0
 40
0.0
 40
0.1304640899
 40
0.2567580914
 40
0.3794513575
 40
0.4999998773
 40
0.6205483887
 40
0.7432416797
 40
0.8695357368
 40
1.0
 40
1.0
 40
1.0
 40
1.0
 10
149.602842779
 20
67.0414412508
 30
0.0
 10
149.7251561327
 20
67.2614611263
 30
0.0
 10
149.9492069566
 20
67.7041850197
 30
0.0
 10
150.2113616791
 20
68.3895185936
 30
0.0
 10
150.3780789359
 20
69.0852876201
 30
0.0
 10
150.4355374718
 20
69.7879155585
 30
0.0
 10
150.3780794749
 20
70.4905436078
 30
0.0
 10
150.2113622378
 20
71.1863128018
 30
0.0
 10
149.9492073107
 20
71.8716468161
 30
0.0
 10
149.7251563355
 20
72.3143711326
 30
0.0
 10
149.602842779
 20
72.5343912779
 30
0.0
  0
SPLINE
  5
498
100
AcDbEntity
  8
0
100
AcDbSpline
 62
7
  6
CONTINUOUS
 70
0
 71
3
 72
10
 73
6
 74
0
 42
0.0000001
 43
0.0000001
 44
0.0000000001
 40
0.0
 40
0.0
 40
0.0
 40
0.0
 40
0.2656773072
 40
0.5262524847
 40
1.0
 40
1.0
 40
1.0
 40
1.0
 10
149.6370891004
 20
72.536446867
 30
0.0
 10
149.681475068
 20
72.5418758414
 30
0.0
 10
149.7686525646
 20
72.5612823741
 30
0.0
 10
149.9237366294
 20
72.6273899216
 30
0.0
 10
150.0236898505
 20
72.7087919566
 30
0.0
 10
150.0701018023
 20
72.7736302407
 30
0.0
  0
SPLINE
  5
499
100
AcDbEntity
  8
0
100
AcDbSpline
 62
7
  6
CONTINUOUS
 70
0
 71
3
 72
15
 73
11
 74
0
 42
0.0000001
 43
0.0000001
 44
0.0000000001
 40
0.0
 40
0.0
 40
0.0
 40
0.0
 40
0.1285942657
 40
0.2534132791
 40
0.3752912898
 40
0.4958105463
 40
0.6170081733
 40
0.7407646461
 40
0.8682868854
 40
1.0
 40
1.0
 40
1.0
 40
1.0
 10
150.0701018023
 20
67.2867187458
 30
0.0
 10
150.1883455717
 20
67.5034677679
 30
0.0
 10
150.4044127463
 20
67.9403063714
 30
0.0
 10
150.6552412434
 20
68.6175088445
 30
0.0
 10
150.8134928724
 20
69.3069592484
 30
0.0
 10
150.8675167548
 20
70.0057418216
 30
0.0
 10
150.8129314624
 20
70.7080438508
 30
0.0
 10
150.6545720809
 20
71.4077107056
 30
0.0
 10
150.4040298944
 20
72.1006631729
 30
0.0
 10
150.1883099916
 20
72.5500648386
 30
0.0
 10
150.0701018023
 20
72.7736301982
 30
0.0
  0
SPLINE
  5
49A
100
AcDbEntity
  8
0
100
AcDbSpline
 62
7
  6
CONTINUOUS
 70
0
 71
3
 72
11
 73
7
 74
0
 42
0.0000001
 43
0.0000001
 44
0.0000000001
 40
0.0
 40
0.0
 40
0.0
 40
0.0
 40
0.254019785
 40
0.50515159
 40
0.7535081185
 40
1.0
 40
1.0
 40
1.0
 40
1.0
 10
149.6370891004
 20
67.0413402449
 30
0.0
 10
149.681099171
 20
67.0410764106
 30
0.0
 10
149.7691058136
 20
67.0522027111
 30
0.0
 10
149.8913593353
 20
67.1020066909
 30
0.0
 10
149.995337764
 20
67.1811760278
 30
0.0
 10
150.048576746
 20
67.2498334466
 30
0.0
 10
150.0701018023
 20
67.2867187444
 30
0.0
  0
SPLINE
  5
49B
100
AcDbEntity
  8
0
100
AcDbSpline
 62
7
  6
CONTINUOUS
 70
0
 71
3
 72
13
 73
9
 74
0
 42
0.0000001
 43
0.0000001
 44
0.0000000001
 40
0.0
 40
0.0
 40
0.0
 40
0.0
 40
0.2499454819
 40
0.3749736878
 40
0.5
 40
0.6250263122
 40
0.7500545181
 40
1.0
 40
1.0
 40
1.0
 40
1.0
 10
149.6028427848
 20
73.388232977
 30
0.0
 10
149.8513165997
 20
74.2821473275
 30
0.0
 10
150.1597518984
 20
75.6439528802
 30
0.0
 10
150.3788881302
 20
77.4884814292
 30
0.0
 10
150.4352960386
 20
78.8811830047
 30
0.0
 10
150.3788881272
 20
80.273884578
 30
0.0
 10
150.1597519198
 20
82.1184131351
 30
0.0
 10
149.8513164805
 20
83.4802186481
 30
0.0
 10
149.6028427827
 20
84.3741330311
 30
0.0
  0
SPLINE
  5
49C
100
AcDbEntity
  8
0
100
AcDbSpline
 62
7
  6
CONTINUOUS
 70
0
 71
3
 72
11
 73
7
 74
0
 42
0.0000001
 43
0.0000001
 44
0.0000000001
 40
0.0
 40
0.0
 40
0.0
 40
0.0
 40
0.3021062167
 40
0.5796409905
 40
0.8160321623
 40
1.0
 40
1.0
 40
1.0
 40
1.0
 10
149.6370891004
 20
84.3762896147
 30
0.0
 10
149.6805908471
 20
84.3818712158
 30
0.0
 10
149.7644198354
 20
84.3899022652
 30
0.0
 10
149.8829868327
 20
84.3931014047
 30
0.0
 10
149.984194663
 20
84.3870383132
 30
0.0
 10
150.0446397087
 20
84.3761554239
 30
0.0
 10
150.0701018023
 20
84.3680945859
 30
0.0
  0
SPLINE
  5
49D
100
AcDbEntity
  8
0
100
AcDbSpline
 62
7
  6
CONTINUOUS
 70
0
 71
3
 72
13
 73
9
 74
0
 42
0.0000001
 43
0.0000001
 44
0.0000000001
 40
0.0
 40
0.0
 40
0.0
 40
0.0
 40
0.2499441733
 40
0.3749723075
 40
0.5
 40
0.6250276925
 40
0.7500558267
 40
1.0
 40
1.0
 40
1.0
 40
1.0
 10
150.0701018023
 20
73.3942715516
 30
0.0
 10
150.3101808546
 20
74.2884108984
 30
0.0
 10
150.6056702365
 20
75.6498491195
 30
0.0
 10
150.8139001211
 20
77.4914923046
 30
0.0
 10
150.8673145323
 20
78.8811830042
 30
0.0
 10
150.81390012
 20
80.2708737031
 30
0.0
 10
150.6056702428
 20
82.1125168904
 30
0.0
 10
150.3101808221
 20
83.4739551009
 30
0.0
 10
150.0701018023
 20
84.3680944565
 30
0.0
  0
SPLINE
  5
49E
100
AcDbEntity
  8
0
100
AcDbSpline
 62
7
  6
CONTINUOUS
 70
0
 71
3
 72
11
 73
7
 74
0
 42
0.0000001
 43
0.0000001
 44
0.0000000001
 40
0.0
 40
0.0
 40
0.0
 40
0.0
 40
0.3021062255
 40
0.5796410185
 40
0.8160321935
 40
1.0
 40
1.0
 40
1.0
 40
1.0
 10
149.6370891004
 20
73.3860763939
 30
0.0
 10
149.6805908476
 20
73.3804947934
 30
0.0
 10
149.7644198376
 20
73.3724637343
 30
0.0
 10
149.8829868401
 20
73.3692646357
 30
0.0
 10
149.9841946613
 20
73.3753277415
 30
0.0
 10
150.0446397135
 20
73.3862105755
 30
0.0
 10
150.0701018023
 20
73.3942714116
 30
0.0
  0
SPLINE
  5
49F
100
AcDbEntity
  8
0
100
AcDbSpline
 62
7
  6
CONTINUOUS
 70
0
 71
3
 72
15
 73
11
 74
0
 42
0.0000001
 43
0.0000001
 44
0.0000000001
 40
0.0
 40
0.0
 40
0.0
 40
0.0
 40
0.1304642633
 40
0.2567583203
 40
0.3794516114
 40
0.5000001228
 40
0.6205486425
 40
0.7432419086
 40
0.8695359102
 40
1.0
 40
1.0
 40
1.0
 40
1.0
 10
149.602842779
 20
85.2279747303
 30
0.0
 10
149.7251563009
 20
85.447994895
 30
0.0
 10
149.9492073301
 20
85.8907191818
 30
0.0
 10
150.2113622312
 20
86.5760532095
 30
0.0
 10
150.3780794771
 20
87.2718223993
 30
0.0
 10
150.4355374716
 20
87.97445045
 30
0.0
 10
150.3780789342
 20
88.6770783872
 30
0.0
 10
150.2113616847
 20
89.3728474172
 30
0.0
 10
149.9492069402
 20
90.0581809798
 30
0.0
 10
149.7251561617
 20
90.5009048982
 30
0.0
 10
149.602842779
 20
90.7209247573
 30
0.0
  0
SPLINE
  5
4A0
100
AcDbEntity
  8
0
100
AcDbSpline
 62
7
  6
CONTINUOUS
 70
0
 71
3
 72
11
 73
7
 74
0
 42
0.0000001
 43
0.0000001
 44
0.0000000001
 40
0.0
 40
0.0
 40
0.0
 40
0.0
 40
0.2540197871
 40
0.5051516038
 40
0.7535081325
 40
1.0
 40
1.0
 40
1.0
 40
1.0
 10
149.6370891004
 20
90.7210257632
 30
0.0
 10
149.6810991713
 20
90.7212895975
 30
0.0
 10
149.7691058166
 20
90.7101632977
 30
0.0
 10
149.8913593387
 20
90.6603593127
 30
0.0
 10
149.9953377676
 20
90.5811899771
 30
0.0
 10
150.0485767469
 20
90.5125325594
 30
0.0
 10
150.0701018023
 20
90.4756472639
 30
0.0
  0
SPLINE
  5
4A1
100
AcDbEntity
  8
0
100
AcDbSpline
 62
7
  6
CONTINUOUS
 70
0
 71
3
 72
15
 73
11
 74
0
 42
0.0000001
 43
0.0000001
 44
0.0000000001
 40
0.0
 40
0.0
 40
0.0
 40
0.0
 40
0.1317131146
 40
0.259235354
 40
0.3829918267
 40
0.5041894537
 40
0.6247087102
 40
0.7465867209
 40
0.8714057344
 40
1.0
 40
1.0
 40
1.0
 40
1.0
 10
150.0701018023
 20
84.9887358099
 30
0.0
 10
150.1883099763
 20
85.2123011775
 30
0.0
 10
150.4040299036
 20
85.6617028306
 30
0.0
 10
150.6545720778
 20
86.3546553038
 30
0.0
 10
150.8129314634
 20
87.0543221569
 30
0.0
 10
150.8675167547
 20
87.7566241867
 30
0.0
 10
150.8134928718
 20
88.4554067594
 30
0.0
 10
150.6552412453
 20
89.1448571646
 30
0.0
 10
150.4044127408
 20
89.822059634
 30
0.0
 10
150.188345581
 20
90.2588982455
 30
0.0
 10
150.0701018023
 20
90.4756472624
 30
0.0
  0
SPLINE
  5
4A2
100
AcDbEntity
  8
0
100
AcDbSpline
 62
7
  6
CONTINUOUS
 70
0
 71
3
 72
10
 73
6
 74
0
 42
0.0000001
 43
0.0000001
 44
0.0000000001
 40
0.0
 40
0.0
 40
0.0
 40
0.0
 40
0.2656773118
 40
0.5262524997
 40
1.0
 40
1.0
 40
1.0
 40
1.0
 10
149.6370891004
 20
85.2259191405
 30
0.0
 10
149.6814750676
 20
85.2204901657
 30
0.0
 10
149.768652568
 20
85.2010836395
 30
0.0
 10
149.923736608
 20
85.1349760514
 30
0.0
 10
150.0236898537
 20
85.0535740572
 30
0.0
 10
150.0701018023
 20
84.9887357764
 30
0.0
  0
SPLINE
  5
4A3
100
AcDbEntity
  8
0
100
AcDbSpline
 62
7
  6
CONTINUOUS
 70
0
 71
3
 72
15
 73
11
 74
0
 42
0.0000001
 43
0.0000001
 44
0.0000000001
 40
0.0
 40
0.0
 40
0.0
 40
0.0
 40
0.1301220917
 40
0.2562964044
 40
0.3791284759
 40
0.5000000147
 40
0.6208715512
 40
0.7437036189
 40
0.869877914
 40
1.0
 40
1.0
 40
1.0
 40
1.0
 10
94.7834992619
 20
85.2279747303
 30
0.0
 10
94.9015112808
 20
85.4484549202
 30
0.0
 10
95.1171486814
 20
85.8921580055
 30
0.0
 10
95.3678961044
 20
86.5779153423
 30
0.0
 10
95.5265085647
 20
87.2731581583
 30
0.0
 10
95.5809824427
 20
87.9744498242
 30
0.0
 10
95.5265085406
 20
88.6757414808
 30
0.0
 10
95.3678960674
 20
89.3709842469
 30
0.0
 10
95.1171486523
 20
90.0567415299
 30
0.0
 10
94.9015112757
 20
90.500444577
 30
0.0
 10
94.7834992619
 20
90.7209247573
 30
0.0
  0
SPLINE
  5
4A4
100
AcDbEntity
  8
0
100
AcDbSpline
 62
7
  6
CONTINUOUS
 70
0
 71
3
 72
13
 73
9
 74
0
 42
0.0000001
 43
0.0000001
 44
0.0000000001
 40
0.0
 40
0.0
 40
0.0
 40
0.0
 40
0.2499501088
 40
0.3749753146
 40
0.5000000151
 40
0.6250247132
 40
0.7500499144
 40
1.0
 40
1.0
 40
1.0
 40
1.0
 10
94.7834992619
 20
73.388232977
 30
0.0
 10
95.0231065109
 20
74.2835426624
 30
0.0
 10
95.3185551735
 20
75.6464620546
 30
0.0
 10
95.5272101476
 20
77.4900451929
 30
0.0
 10
95.580778084
 20
78.8811831635
 30
0.0
 10
95.5272101241
 20
80.2723211163
 30
0.0
 10
95.3185551292
 20
82.1159041389
 30
0.0
 10
95.0231064887
 20
83.4788234289
 30
0.0
 10
94.7834992619
 20
84.3741330311
 30
0.0
  0
SPLINE
  5
4A5
100
AcDbEntity
  8
0
100
AcDbSpline
 62
7
  6
CONTINUOUS
 70
0
 71
3
 72
15
 73
11
 74
0
 42
0.0000001
 43
0.0000001
 44
0.0000000001
 40
0.0
 40
0.0
 40
0.0
 40
0.0
 40
0.1301220917
 40
0.2562964044
 40
0.3791284759
 40
0.5000000147
 40
0.6208715512
 40
0.7437036189
 40
0.869877914
 40
1.0
 40
1.0
 40
1.0
 40
1.0
 10
94.7834992619
 20
67.0414412508
 30
0.0
 10
94.9015112808
 20
67.2619214407
 30
0.0
 10
95.1171486814
 20
67.705624526
 30
0.0
 10
95.3678961044
 20
68.3913818628
 30
0.0
 10
95.5265085647
 20
69.0866246788
 30
0.0
 10
95.5809824427
 20
69.7879163448
 30
0.0
 10
95.5265085406
 20
70.4892080014
 30
0.0
 10
95.3678960674
 20
71.1844507674
 30
0.0
 10
95.1171486523
 20
71.8702080505
 30
0.0
 10
94.9015112757
 20
72.3139110975
 30
0.0
 10
94.7834992619
 20
72.5343912779
 30
0.0
  0
SPLINE
  5
4A6
100
AcDbEntity
  8
0
100
AcDbSpline
 62
7
  6
CONTINUOUS
 70
0
 71
3
 72
15
 73
11
 74
0
 42
0.0000001
 43
0.0000001
 44
0.0000000001
 40
0.0
 40
0.0
 40
0.0
 40
0.0
 40
0.1304640899
 40
0.2567580914
 40
0.3794513575
 40
0.4999998773
 40
0.6205483887
 40
0.7432416797
 40
0.8695357368
 40
1.0
 40
1.0
 40
1.0
 40
1.0
 10
86.4158217947
 20
90.7209247573
 30
0.0
 10
86.2935084409
 20
90.5009048819
 30
0.0
 10
86.069457617
 20
90.0581809884
 30
0.0
 10
85.8073028945
 20
89.3728474145
 30
0.0
 10
85.6405856377
 20
88.677078388
 30
0.0
 10
85.5831271019
 20
87.9744504496
 30
0.0
 10
85.6405850987
 20
87.2718224003
 30
0.0
 10
85.8073023358
 20
86.5760532063
 30
0.0
 10
86.0694572629
 20
85.890719192
 30
0.0
 10
86.2935082381
 20
85.4479948755
 30
0.0
 10
86.4158217947
 20
85.2279747303
 30
0.0
  0
SPLINE
  5
4A7
100
AcDbEntity
  8
0
100
AcDbSpline
 62
7
  6
CONTINUOUS
 70
0
 71
3
 72
10
 73
6
 74
0
 42
0.0000001
 43
0.0000001
 44
0.0000000001
 40
0.0
 40
0.0
 40
0.0
 40
0.0
 40
0.2656773072
 40
0.5262524847
 40
1.0
 40
1.0
 40
1.0
 40
1.0
 10
86.3815754733
 20
85.2259191411
 30
0.0
 10
86.3371895056
 20
85.2204901668
 30
0.0
 10
86.2500120091
 20
85.201083634
 30
0.0
 10
86.0949279442
 20
85.1349760866
 30
0.0
 10
85.9949747231
 20
85.0535740515
 30
0.0
 10
85.9485627714
 20
84.9887357674
 30
0.0
  0
SPLINE
  5
4A8
100
AcDbEntity
  8
0
100
AcDbSpline
 62
7
  6
CONTINUOUS
 70
0
 71
3
 72
15
 73
11
 74
0
 42
0.0000001
 43
0.0000001
 44
0.0000000001
 40
0.0
 40
0.0
 40
0.0
 40
0.0
 40
0.1285942657
 40
0.2534132791
 40
0.3752912898
 40
0.4958105463
 40
0.6170081733
 40
0.7407646461
 40
0.8682868854
 40
1.0
 40
1.0
 40
1.0
 40
1.0
 10
85.9485627714
 20
90.4756472624
 30
0.0
 10
85.8303190019
 20
90.2588982402
 30
0.0
 10
85.6142518273
 20
89.8220596367
 30
0.0
 10
85.3634233302
 20
89.1448571636
 30
0.0
 10
85.2051717012
 20
88.4554067597
 30
0.0
 10
85.1511478188
 20
87.7566241866
 30
0.0
 10
85.2057331112
 20
87.0543221573
 30
0.0
 10
85.3640924927
 20
86.3546553025
 30
0.0
 10
85.6146346792
 20
85.6617028352
 30
0.0
 10
85.8303545821
 20
85.2123011695
 30
0.0
 10
85.9485627714
 20
84.9887358099
 30
0.0
  0
SPLINE
  5
4A9
100
AcDbEntity
  8
0
100
AcDbSpline
 62
7
  6
CONTINUOUS
 70
0
 71
3
 72
11
 73
7
 74
0
 42
0.0000001
 43
0.0000001
 44
0.0000000001
 40
0.0
 40
0.0
 40
0.0
 40
0.0
 40
0.254019785
 40
0.50515159
 40
0.7535081185
 40
1.0
 40
1.0
 40
1.0
 40
1.0
 10
86.3815754733
 20
90.7210257633
 30
0.0
 10
86.3375654026
 20
90.7212895975
 30
0.0
 10
86.24955876
 20
90.7101632971
 30
0.0
 10
86.1273052383
 20
90.6603593172
 30
0.0
 10
86.0233268096
 20
90.5811899803
 30
0.0
 10
85.9700878276
 20
90.5125325616
 30
0.0
 10
85.9485627714
 20
90.4756472637
 30
0.0
  0
SPLINE
  5
4AA
100
AcDbEntity
  8
0
100
AcDbSpline
 62
7
  6
CONTINUOUS
 70
0
 71
3
 72
13
 73
9
 74
0
 42
0.0000001
 43
0.0000001
 44
0.0000000001
 40
0.0
 40
0.0
 40
0.0
 40
0.0
 40
0.2499454819
 40
0.3749736878
 40
0.5
 40
0.6250263122
 40
0.7500545181
 40
1.0
 40
1.0
 40
1.0
 40
1.0
 10
86.4158217888
 20
84.3741330311
 30
0.0
 10
86.1673479739
 20
83.4802186807
 30
0.0
 10
85.8589126753
 20
82.1184131279
 30
0.0
 10
85.6397764434
 20
80.2738845789
 30
0.0
 10
85.583368535
 20
78.8811830034
 30
0.0
 10
85.6397764465
 20
77.4884814301
 30
0.0
 10
85.8589126538
 20
75.643952873
 30
0.0
 10
86.1673480931
 20
74.28214736
 30
0.0
 10
86.415821791
 20
73.388232977
 30
0.0
  0
SPLINE
  5
4AB
100
AcDbEntity
  8
0
100
AcDbSpline
 62
7
  6
CONTINUOUS
 70
0
 71
3
 72
11
 73
7
 74
0
 42
0.0000001
 43
0.0000001
 44
0.0000000001
 40
0.0
 40
0.0
 40
0.0
 40
0.0
 40
0.3021062167
 40
0.5796409905
 40
0.8160321623
 40
1.0
 40
1.0
 40
1.0
 40
1.0
 10
86.3815754733
 20
73.3860763935
 30
0.0
 10
86.3380737265
 20
73.3804947923
 30
0.0
 10
86.2542447382
 20
73.3724637429
 30
0.0
 10
86.135677741
 20
73.3692646034
 30
0.0
 10
86.0344699106
 20
73.3753276949
 30
0.0
 10
85.9740248649
 20
73.3862105843
 30
0.0
 10
85.9485627714
 20
73.3942714222
 30
0.0
  0
SPLINE
  5
4AC
100
AcDbEntity
  8
0
100
AcDbSpline
 62
7
  6
CONTINUOUS
 70
0
 71
3
 72
13
 73
9
 74
0
 42
0.0000001
 43
0.0000001
 44
0.0000000001
 40
0.0
 40
0.0
 40
0.0
 40
0.0
 40
0.2499441733
 40
0.3749723075
 40
0.5
 40
0.6250276925
 40
0.7500558267
 40
1.0
 40
1.0
 40
1.0
 40
1.0
 10
85.9485627714
 20
84.3680944565
 30
0.0
 10
85.708483719
 20
83.4739551097
 30
0.0
 10
85.4129943371
 20
82.1125168886
 30
0.0
 10
85.2047644526
 20
80.2708737035
 30
0.0
 10
85.1513500413
 20
78.881183004
 30
0.0
 10
85.2047644536
 20
77.491492305
 30
0.0
 10
85.4129943308
 20
75.6498491177
 30
0.0
 10
85.7084837515
 20
74.2884109072
 30
0.0
 10
85.9485627714
 20
73.3942715516
 30
0.0
  0
SPLINE
  5
4AD
100
AcDbEntity
  8
0
100
AcDbSpline
 62
7
  6
CONTINUOUS
 70
0
 71
3
 72
11
 73
7
 74
0
 42
0.0000001
 43
0.0000001
 44
0.0000000001
 40
0.0
 40
0.0
 40
0.0
 40
0.0
 40
0.3021062255
 40
0.5796410185
 40
0.8160321935
 40
1.0
 40
1.0
 40
1.0
 40
1.0
 10
86.3815754733
 20
84.3762896142
 30
0.0
 10
86.338073726
 20
84.3818712148
 30
0.0
 10
86.2542447361
 20
84.3899022739
 30
0.0
 10
86.1356777335
 20
84.3931013724
 30
0.0
 10
86.0344699123
 20
84.3870382667
 30
0.0
 10
85.9740248602
 20
84.3761554327
 30
0.0
 10
85.9485627714
 20
84.3680945965
 30
0.0
  0
SPLINE
  5
4AE
100
AcDbEntity
  8
0
100
AcDbSpline
 62
7
  6
CONTINUOUS
 70
0
 71
3
 72
15
 73
11
 74
0
 42
0.0000001
 43
0.0000001
 44
0.0000000001
 40
0.0
 40
0.0
 40
0.0
 40
0.0
 40
0.1304642633
 40
0.2567583203
 40
0.3794516114
 40
0.5000001228
 40
0.6205486425
 40
0.7432419086
 40
0.8695359102
 40
1.0
 40
1.0
 40
1.0
 40
1.0
 10
86.4158217947
 20
72.5343912779
 30
0.0
 10
86.2935082728
 20
72.3143711131
 30
0.0
 10
86.0694572435
 20
71.8716468263
 30
0.0
 10
85.8073023425
 20
71.1863127986
 30
0.0
 10
85.6405850966
 20
70.4905436088
 30
0.0
 10
85.583127102
 20
69.7879155581
 30
0.0
 10
85.6405856395
 20
69.0852876209
 30
0.0
 10
85.8073028889
 20
68.3895185909
 30
0.0
 10
86.0694576335
 20
67.7041850283
 30
0.0
 10
86.2935084119
 20
67.26146111
 30
0.0
 10
86.4158217947
 20
67.0414412508
 30
0.0
  0
SPLINE
  5
4AF
100
AcDbEntity
  8
0
100
AcDbSpline
 62
7
  6
CONTINUOUS
 70
0
 71
3
 72
11
 73
7
 74
0
 42
0.0000001
 43
0.0000001
 44
0.0000000001
 40
0.0
 40
0.0
 40
0.0
 40
0.0
 40
0.2540197871
 40
0.5051516038
 40
0.7535081325
 40
1.0
 40
1.0
 40
1.0
 40
1.0
 10
86.3815754733
 20
67.0413402449
 30
0.0
 10
86.3375654023
 20
67.0410764106
 30
0.0
 10
86.249558757
 20
67.0522027104
 30
0.0
 10
86.1273052349
 20
67.1020066954
 30
0.0
 10
86.023326806
 20
67.181176031
 30
0.0
 10
85.9700878267
 20
67.2498334487
 30
0.0
 10
85.9485627714
 20
67.2867187442
 30
0.0
  0
SPLINE
  5
4B0
100
AcDbEntity
  8
0
100
AcDbSpline
 62
7
  6
CONTINUOUS
 70
0
 71
3
 72
15
 73
11
 74
0
 42
0.0000001
 43
0.0000001
 44
0.0000000001
 40
0.0
 40
0.0
 40
0.0
 40
0.0
 40
0.1317131146
 40
0.259235354
 40
0.3829918267
 40
0.5041894537
 40
0.6247087102
 40
0.7465867209
 40
0.8714057344
 40
1.0
 40
1.0
 40
1.0
 40
1.0
 10
85.9485627714
 20
72.7736301982
 30
0.0
 10
85.8303545973
 20
72.5500648306
 30
0.0
 10
85.6146346701
 20
72.1006631776
 30
0.0
 10
85.3640924959
 20
71.4077107043
 30
0.0
 10
85.2057331103
 20
70.7080438512
 30
0.0
 10
85.1511478189
 20
70.0057418214
 30
0.0
 10
85.2051717018
 20
69.3069592487
 30
0.0
 10
85.3634233283
 20
68.6175088435
 30
0.0
 10
85.6142518329
 20
67.9403063741
 30
0.0
 10
85.8303189926
 20
67.5034677626
 30
0.0
 10
85.9485627714
 20
67.2867187458
 30
0.0
  0
SPLINE
  5
4B1
100
AcDbEntity
  8
0
100
AcDbSpline
 62
7
  6
CONTINUOUS
 70
0
 71
3
 72
10
 73
6
 74
0
 42
0.0000001
 43
0.0000001
 44
0.0000000001
 40
0.0
 40
0.0
 40
0.0
 40
0.0
 40
0.2656773118
 40
0.5262524997
 40
1.0
 40
1.0
 40
1.0
 40
1.0
 10
86.3815754733
 20
72.5364468676
 30
0.0
 10
86.337189506
 20
72.5418758424
 30
0.0
 10
86.2500120057
 20
72.5612823687
 30
0.0
 10
86.0949279656
 20
72.6273899567
 30
0.0
 10
85.9949747199
 20
72.7087919509
 30
0.0
 10
85.9485627714
 20
72.7736302317
 30
0.0
  0
SPLINE
  5
4B2
100
AcDbEntity
  8
0
100
AcDbSpline
 62
7
  6
CONTINUOUS
 70
0
 71
3
 72
8
 73
4
 74
0
 42
0.0000001
 43
0.0000001
 44
0.0000000001
 40
0.0
 40
0.0
 40
0.0
 40
0.0
 40
1.0
 40
1.0
 40
1.0
 40
1.0
 10
151.5093322868
 20
157.117858046
 30
0.0
 10
151.5093322868
 20
157.005476813
 30
0.0
 10
151.5139186596
 20
156.8927882052
 30
0.0
 10
151.5271027638
 20
156.7811830041
 30
0.0
  0
SPLINE
  5
4B3
100
AcDbEntity
  8
0
100
AcDbSpline
 62
7
  6
CONTINUOUS
 70
0
 71
3
 72
8
 73
4
 74
0
 42
0.0000001
 43
0.0000001
 44
0.0000000001
 40
0.0
 40
0.0
 40
0.0
 40
0.0
 40
1.0
 40
1.0
 40
1.0
 40
1.0
 10
151.5271027638
 20
159.7811830041
 30
0.0
 10
151.5165226498
 20
159.6916209276
 30
0.0
 10
151.5114512071
 20
159.6013478398
 30
0.0
 10
151.5098916633
 20
159.5111764909
 30
0.0
  0
SPLINE
  5
4B4
100
AcDbEntity
  8
0
100
AcDbSpline
 62
7
  6
CONTINUOUS
 70
0
 71
3
 72
9
 73
5
 74
0
 42
0.0000001
 43
0.0000001
 44
0.0000000001
 40
0.0
 40
0.0
 40
0.0
 40
0.0
 40
0.3115092771
 40
1.0
 40
1.0
 40
1.0
 40
1.0
 10
140.1022284923
 20
87.2011644631
 30
0.0
 10
140.102781312
 20
87.2022257056
 30
0.0
 10
140.104660996
 20
87.2055416295
 30
0.0
 10
140.1070779036
 20
87.2087807121
 30
0.0
 10
140.1093326044
 20
87.2101630005
 30
0.0
  0
SPLINE
  5
4B5
100
AcDbEntity
  8
GEOM
100
AcDbSpline
 62
7
  6
CONTINUOUS
 70
0
 71
3
 72
11
 73
7
 74
0
 42
0.0000001
 43
0.0000001
 44
0.0000000001
 40
0.0
 40
0.0
 40
0.0
 40
0.0
 40
0.2504604416
 40
0.4989307321
 40
0.747985944
 40
1.0
 40
1.0
 40
1.0
 40
1.0
 10
128.6082772189
 20
73.8367176393
 30
0.0
 10
128.7385932589
 20
73.3733940831
 30
0.0
 10
128.9462893751
 20
72.4342847452
 30
0.0
 10
129.0563304218
 20
70.9957846616
 30
0.0
 10
128.9458266822
 20
69.5543691499
 30
0.0
 10
128.738425123
 20
68.6110528491
 30
0.0
 10
128.6082768668
 20
68.1445818315
 30
0.0
  0
LINE
  5
4B6
100
AcDbEntity
  8
GEOM
100
AcDbLine
 62
7
  6
CONTINUOUS
 10
128.6082777585
 20
67.7222846933
 11
129.0196952447
 21
67.7311830114
  0
SPLINE
  5
4B7
100
AcDbEntity
  8
0
100
AcDbSpline
 62
7
  6
CONTINUOUS
 70
0
 71
3
 72
43
 73
39
 74
0
 42
0.0000001
 43
0.0000001
 44
0.0000000001
 40
0.0
 40
0.0
 40
0.0
 40
0.0
 40
0.0008982566
 40
0.0017009993
 40
0.0027732316
 40
0.0041225881
 40
0.0057522805
 40
0.0098568976
 40
0.0150896214
 40
0.021443397
 40
0.0289042638
 40
0.037456929
 40
0.0577623942
 40
0.0821735206
 40
0.1104680022
 40
0.1423841191
 40
0.1776254806
 40
0.2158671182
 40
0.2567521875
 40
0.2999026081
 40
0.3913768801
 40
0.486898989
 40
0.5829269953
 40
0.6759003781
 40
0.7623724732
 40
0.8021561144
 40
0.8391385986
 40
0.8729755935
 40
0.90335561
 40
0.9299951976
 40
0.9526507771
 40
0.9711146551
 40
0.9787214319
 40
0.9852214493
 40
0.9906036133
 40
0.994858933
 40
0.9979849561
 40
1.0
 40
1.0
 40
1.0
 40
1.0
 10
136.9938910166
 20
86.356171135
 30
0.0
 10
136.9983719467
 20
86.3561746238
 30
0.0
 10
137.0046573272
 20
86.3476444282
 30
0.0
 10
137.0098957785
 20
86.3356252752
 30
0.0
 10
137.0150295818
 20
86.3200819526
 30
0.0
 10
137.0200093773
 20
86.3005884599
 30
0.0
 10
137.0273541374
 20
86.2659695015
 30
0.0
 10
137.0361324408
 20
86.2119750171
 30
0.0
 10
137.0461831565
 20
86.1343307227
 30
0.0
 10
137.0562750301
 20
86.0398485574
 30
0.0
 10
137.0664228355
 20
85.9287280681
 30
0.0
 10
137.0808205814
 20
85.7481220621
 30
0.0
 10
137.0983535928
 20
85.482958264
 30
0.0
 10
137.1185333575
 20
85.1193005253
 30
0.0
 10
137.1387851856
 20
84.6976499968
 30
0.0
 10
137.1590977717
 20
84.2219221866
 30
0.0
 10
137.1794473425
 20
83.696534119
 30
0.0
 10
137.1998215821
 20
83.1263750617
 30
0.0
 10
137.2202162916
 20
82.5167392073
 30
0.0
 10
137.2479660959
 20
81.6416525449
 30
0.0
 10
137.2821101735
 20
80.4940777852
 30
0.0
 10
137.3223979756
 20
79.0827924366
 30
0.0
 10
137.3626882484
 20
77.6640257322
 30
0.0
 10
137.4029379801
 20
76.2904222564
 30
0.0
 10
137.4372574097
 20
75.1973397888
 30
0.0
 10
137.4652212052
 20
74.3835094728
 30
0.0
 10
137.4855866468
 20
73.8321437101
 30
0.0
 10
137.5059215772
 20
73.3277208339
 30
0.0
 10
137.5262124632
 20
72.8749376389
 30
0.0
 10
137.5464308305
 20
72.4779900975
 30
0.0
 10
137.5665601807
 20
72.1405725847
 30
0.0
 10
137.5840993181
 20
71.8981202555
 30
0.0
 10
137.5985828212
 20
71.7362880144
 30
0.0
 10
137.6086878856
 20
71.6395822919
 30
0.0
 10
137.6187469921
 20
71.5597235598
 30
0.0
 10
137.6286280751
 20
71.4967570357
 30
0.0
 10
137.6384415262
 20
71.451003215
 30
0.0
 10
137.6460446147
 20
71.4262581982
 30
0.0
 10
137.6506902031
 20
71.4173440986
 30
0.0
  0
SPLINE
  5
4B8
100
AcDbEntity
  8
0
100
AcDbSpline
 62
7
  6
CONTINUOUS
 70
0
 71
3
 72
9
 73
5
 74
0
 42
0.0000001
 43
0.0000001
 44
0.0000000001
 40
0.0
 40
0.0
 40
0.0
 40
0.0
 40
0.2488245097
 40
1.0
 40
1.0
 40
1.0
 40
1.0
 10
133.8914390161
 20
72.6586850386
 30
0.0
 10
133.8734687846
 20
72.7719281126
 30
0.0
 10
133.7938253474
 20
73.2258508932
 30
0.0
 10
133.6856519089
 20
73.6746103262
 30
0.0
 10
133.591210985
 20
74.0076246114
 30
0.0
  0
SPLINE
  5
4B9
100
AcDbEntity
  8
0
100
AcDbSpline
 62
7
  6
CONTINUOUS
 70
0
 71
3
 72
42
 73
38
 74
0
 42
0.0000001
 43
0.0000001
 44
0.0000000001
 40
0.0
 40
0.0
 40
0.0
 40
0.0
 40
0.0008991102
 40
0.0017020992
 40
0.0027739765
 40
0.0057511574
 40
0.0098564481
 40
0.0150899451
 40
0.0214426362
 40
0.028903291
 40
0.0374572172
 40
0.05776125
 40
0.0821735834
 40
0.1104673557
 40
0.1423835518
 40
0.1776254376
 40
0.2158662007
 40
0.2567520643
 40
0.2999018927
 40
0.3913764207
 40
0.4868984803
 40
0.5829264755
 40
0.6759000295
 40
0.762372116
 40
0.8021553865
 40
0.8391376742
 40
0.8729753673
 40
0.9033542433
 40
0.9299951039
 40
0.9526497733
 40
0.9711138095
 40
0.978720026
 40
0.9852211748
 40
0.9906033296
 40
0.9948574059
 40
0.9979842096
 40
1.0
 40
1.0
 40
1.0
 40
1.0
 10
135.6570483651
 20
86.3561829484
 30
0.0
 10
135.6615335559
 20
86.3561837527
 30
0.0
 10
135.6678091192
 20
86.3476366727
 30
0.0
 10
135.6730565446
 20
86.3356137407
 30
0.0
 10
135.6807422745
 20
86.3122532777
 30
0.0
 10
135.6893223984
 20
86.2726833874
 30
0.0
 10
135.6993334675
 20
86.2119466146
 30
0.0
 10
135.709322584
 20
86.1343390059
 30
0.0
 10
135.7194390053
 20
86.0398459174
 30
0.0
 10
135.7295793076
 20
85.928730214
 30
0.0
 10
135.7439766837
 20
85.748123815
 30
0.0
 10
135.7615127925
 20
85.4829562982
 30
0.0
 10
135.7816893376
 20
85.1193023739
 30
0.0
 10
135.8019431283
 20
84.6976491095
 30
0.0
 10
135.8222551742
 20
84.2219215775
 30
0.0
 10
135.8426041455
 20
83.6965346842
 30
0.0
 10
135.8629795663
 20
83.1263732538
 30
0.0
 10
135.8833730943
 20
82.5167405115
 30
0.0
 10
135.9111239472
 20
81.6416513011
 30
0.0
 10
135.9452672795
 20
80.494078055
 30
0.0
 10
135.9855553755
 20
79.0827912642
 30
0.0
 10
136.0258456355
 20
77.6640235283
 30
0.0
 10
136.0660953174
 20
76.2904188312
 30
0.0
 10
136.1004146576
 20
75.1973370313
 30
0.0
 10
136.1283785349
 20
74.3835093153
 30
0.0
 10
136.1487445668
 20
73.8321427385
 30
0.0
 10
136.1690779195
 20
73.3277228108
 30
0.0
 10
136.1893713417
 20
72.8749354391
 30
0.0
 10
136.2095866923
 20
72.4779914776
 30
0.0
 10
136.2297189095
 20
72.1405714441
 30
0.0
 10
136.2472552094
 20
71.8981253523
 30
0.0
 10
136.2617418793
 20
71.7362897066
 30
0.0
 10
136.2718446335
 20
71.6395808868
 30
0.0
 10
136.2819022402
 20
71.5597225827
 30
0.0
 10
136.2917880958
 20
71.4967588929
 30
0.0
 10
136.3016013896
 20
71.451004404
 30
0.0
 10
136.3091995888
 20
71.4262491176
 30
0.0
 10
136.3138476708
 20
71.4173321147
 30
0.0
  0
SPLINE
  5
4BA
100
AcDbEntity
  8
0
100
AcDbSpline
 62
7
  6
CONTINUOUS
 70
0
 71
3
 72
9
 73
5
 74
0
 42
0.0000001
 43
0.0000001
 44
0.0000000001
 40
0.0
 40
0.0
 40
0.0
 40
0.0
 40
0.2274723683
 40
1.0
 40
1.0
 40
1.0
 40
1.0
 10
133.591210985
 20
74.0076246114
 30
0.0
 10
133.5897238629
 20
74.0128684494
 30
0.0
 10
133.5842552289
 20
74.0362233748
 30
0.0
 10
133.5824926178
 20
74.0603352894
 30
0.0
 10
133.5824926178
 20
74.0788463834
 30
0.0
  0
SPLINE
  5
4BB
100
AcDbEntity
  8
0
100
AcDbSpline
 62
7
  6
CONTINUOUS
 70
0
 71
3
 72
9
 73
5
 74
0
 42
0.0000001
 43
0.0000001
 44
0.0000000001
 40
0.0
 40
0.0
 40
0.0
 40
0.0
 40
0.2426551544
 40
1.0
 40
1.0
 40
1.0
 40
1.0
 10
133.5824926178
 20
74.7023548958
 30
0.0
 10
133.5824926178
 20
74.7092628167
 30
0.0
 10
133.5832767082
 20
74.7377273939
 30
0.0
 10
133.586966005
 20
74.7660959628
 30
0.0
 10
133.5912109892
 20
74.7872340703
 30
0.0
  0
SPLINE
  5
4BC
100
AcDbEntity
  8
GEOM
100
AcDbSpline
 62
7
  6
CONTINUOUS
 70
0
 71
3
 72
11
 73
7
 74
0
 42
0.0000001
 43
0.0000001
 44
0.0000000001
 40
0.0
 40
0.0
 40
0.0
 40
0.0
 40
0.2520160172
 40
0.5010743785
 40
0.7495418596
 40
1.0
 40
1.0
 40
1.0
 40
1.0
 10
128.6082768943
 20
89.6177840697
 30
0.0
 10
128.7384262425
 20
89.1513093359
 30
0.0
 10
128.9458302524
 20
88.2079830781
 30
0.0
 10
129.0563278202
 20
86.7665623089
 30
0.0
 10
128.9462877262
 20
85.3280658821
 30
0.0
 10
128.7385919078
 20
84.3889662529
 30
0.0
 10
128.6082768661
 20
83.9256469021
 30
0.0
  0
SPLINE
  5
4BD
100
AcDbEntity
  8
GEOM
100
AcDbSpline
 62
7
  6
CONTINUOUS
 70
0
 71
3
 72
9
 73
5
 74
0
 42
0.0000001
 43
0.0000001
 44
0.0000000001
 40
0.0
 40
0.0
 40
0.0
 40
0.0
 40
0.4999852128
 40
1.0
 40
1.0
 40
1.0
 40
1.0
 10
129.0196952579
 20
78.8811830041
 30
0.0
 10
129.0196946397
 20
79.5563137466
 30
0.0
 10
128.9469571806
 20
80.9075315595
 30
0.0
 10
128.7394556489
 20
82.2438910239
 30
0.0
 10
128.6082659614
 20
82.906193605
 30
0.0
  0
SPLINE
  5
4BE
100
AcDbEntity
  8
GEOM
100
AcDbSpline
 62
7
  6
CONTINUOUS
 70
0
 71
3
 72
11
 73
7
 74
0
 42
0.0000001
 43
0.0000001
 44
0.0000000001
 40
0.0
 40
0.0
 40
0.0
 40
0.0
 40
0.2512100771
 40
0.5000038668
 40
0.7487931892
 40
1.0
 40
1.0
 40
1.0
 40
1.0
 10
128.8680844102
 20
73.9850649667
 30
0.0
 10
128.9985562651
 20
73.5141064533
 30
0.0
 10
129.2060750132
 20
72.5607506902
 30
0.0
 10
129.3160350475
 20
71.1029943674
 30
0.0
 10
129.2060722571
 20
69.645244756
 30
0.0
 10
128.9985548728
 20
68.6919041803
 30
0.0
 10
128.8680844897
 20
68.2209518527
 30
0.0
  0
SPLINE
  5
4BF
100
AcDbEntity
  8
GEOM
100
AcDbSpline
 62
7
  6
CONTINUOUS
 70
0
 71
3
 72
9
 73
5
 74
0
 42
0.0000001
 43
0.0000001
 44
0.0000000001
 40
0.0
 40
0.0
 40
0.0
 40
0.0
 40
0.251355074
 40
1.0
 40
1.0
 40
1.0
 40
1.0
 10
133.5031145042
 20
73.9850649684
 30
0.0
 10
133.5352970179
 20
73.8743380025
 30
0.0
 10
133.6573921447
 20
73.4321333281
 30
0.0
 10
133.7541036868
 20
72.9827577867
 30
0.0
 10
133.8093322868
 20
72.6437869543
 30
0.0
  0
SPLINE
  5
4C0
100
AcDbEntity
  8
GEOM
100
AcDbSpline
 62
7
  6
CONTINUOUS
 70
0
 71
3
 72
9
 73
5
 74
0
 42
0.0000001
 43
0.0000001
 44
0.0000000001
 40
0.0
 40
0.0
 40
0.0
 40
0.0
 40
0.2488271976
 40
1.0
 40
1.0
 40
1.0
 40
1.0
 10
133.8093322868
 20
69.5622298677
 30
0.0
 10
133.7909755052
 20
69.44956343
 30
0.0
 10
133.7096393074
 20
68.9980171226
 30
0.0
 10
133.5992939059
 20
68.5518664371
 30
0.0
 10
133.5031145042
 20
68.2209518536
 30
0.0
  0
SPLINE
  5
4C1
100
AcDbEntity
  8
GEOM
100
AcDbSpline
 62
7
  6
CONTINUOUS
 70
0
 71
3
 72
9
 73
5
 74
0
 42
0.0000001
 43
0.0000001
 44
0.0000000001
 40
0.0
 40
0.0
 40
0.0
 40
0.0
 40
0.5000188776
 40
1.0
 40
1.0
 40
1.0
 40
1.0
 10
128.8680844899
 20
74.8053395319
 30
0.0
 10
128.9994990615
 20
75.4761862209
 30
0.0
 10
129.2069489777
 20
76.829589397
 30
0.0
 10
129.2795024581
 20
78.1976374663
 30
0.0
 10
129.279502879
 20
78.8811830041
 30
0.0
  0
SPLINE
  5
4C2
100
AcDbEntity
  8
GEOM
100
AcDbSpline
 62
7
  6
CONTINUOUS
 70
0
 71
3
 72
9
 73
5
 74
0
 42
0.0000001
 43
0.0000001
 44
0.0000000001
 40
0.0
 40
0.0
 40
0.0
 40
0.0
 40
0.4999853767
 40
1.0
 40
1.0
 40
1.0
 40
1.0
 10
129.279502879
 20
78.8811830041
 30
0.0
 10
129.2795019021
 20
79.5647343589
 30
0.0
 10
129.2069492675
 20
80.9327826506
 30
0.0
 10
128.9994953166
 20
82.2861850379
 30
0.0
 10
128.8680841102
 20
82.9570264601
 30
0.0
  0
SPLINE
  5
4C3
100
AcDbEntity
  8
GEOM
100
AcDbSpline
 62
7
  6
CONTINUOUS
 70
0
 71
3
 72
11
 73
7
 74
0
 42
0.0000001
 43
0.0000001
 44
0.0000000001
 40
0.0
 40
0.0
 40
0.0
 40
0.0
 40
0.2512096254
 40
0.5000017461
 40
0.7487917579
 40
1.0
 40
1.0
 40
1.0
 40
1.0
 10
128.868084481
 20
89.5414141548
 30
0.0
 10
128.9985564223
 20
89.0704565814
 30
0.0
 10
129.2060749164
 20
88.1171049306
 30
0.0
 10
129.3160341088
 20
86.6593514436
 30
0.0
 10
129.2060732454
 20
85.2016008703
 30
0.0
 10
128.9985556229
 20
84.2482560444
 30
0.0
 10
128.86808449
 20
83.7773010394
 30
0.0
  0
SPLINE
  5
4C4
100
AcDbEntity
  8
GEOM
100
AcDbSpline
 62
7
  6
CONTINUOUS
 70
0
 71
3
 72
9
 73
5
 74
0
 42
0.0000001
 43
0.0000001
 44
0.0000000001
 40
0.0
 40
0.0
 40
0.0
 40
0.0
 40
0.2513557082
 40
1.0
 40
1.0
 40
1.0
 40
1.0
 10
133.5031145042
 20
89.5414141545
 30
0.0
 10
133.5352970952
 20
89.4306869082
 30
0.0
 10
133.6573921077
 20
88.9884822033
 30
0.0
 10
133.7541037408
 20
88.5391066864
 30
0.0
 10
133.8093322868
 20
88.2001361405
 30
0.0
  0
SPLINE
  5
4C5
100
AcDbEntity
  8
GEOM
100
AcDbSpline
 62
7
  6
CONTINUOUS
 70
0
 71
3
 72
9
 73
5
 74
0
 42
0.0000001
 43
0.0000001
 44
0.0000000001
 40
0.0
 40
0.0
 40
0.0
 40
0.0
 40
0.2488267206
 40
1.0
 40
1.0
 40
1.0
 40
1.0
 10
133.8093322868
 20
85.1185790538
 30
0.0
 10
133.7909755351
 20
85.0059128325
 30
0.0
 10
133.7096395734
 20
84.5543664806
 30
0.0
 10
133.5992939441
 20
84.108215841
 30
0.0
 10
133.5031145042
 20
83.7773010397
 30
0.0
  0
SPLINE
  5
4C6
100
AcDbEntity
  8
0
100
AcDbSpline
 62
7
  6
CONTINUOUS
 70
0
 71
3
 72
42
 73
38
 74
0
 42
0.0000001
 43
0.0000001
 44
0.0000000001
 40
0.0
 40
0.0
 40
0.0
 40
0.0
 40
0.0020156464
 40
0.0051426648
 40
0.0093967991
 40
0.0147786653
 40
0.0212799497
 40
0.0288863422
 40
0.047350122
 40
0.0700049452
 40
0.096645781
 40
0.1270245176
 40
0.1608624274
 40
0.1978445249
 40
0.2376279428
 40
0.3240999325
 40
0.4170734965
 40
0.5131015101
 40
0.6086235541
 40
0.7000980762
 40
0.7432479602
 40
0.78413388
 40
0.822374507
 40
0.8576165961
 40
0.8895325573
 40
0.9178264977
 40
0.9422388228
 40
0.9625427346
 40
0.9710966469
 40
0.9785575673
 40
0.9849100948
 40
0.9901434377
 40
0.994249008
 40
0.9972261579
 40
0.9982979188
 40
0.9991008138
 40
1.0
 40
1.0
 40
1.0
 40
1.0
 10
136.8055130167
 20
86.3450338354
 30
0.0
 10
136.810162068
 20
86.3361181485
 30
0.0
 10
136.8177595051
 20
86.3113618401
 30
0.0
 10
136.8275723096
 20
86.2656068847
 30
0.0
 10
136.8374580508
 20
86.2026431573
 30
0.0
 10
136.8475165872
 20
86.122785493
 30
0.0
 10
136.8576187174
 20
86.0260764733
 30
0.0
 10
136.8721051558
 20
85.8642405535
 30
0.0
 10
136.8896421304
 20
85.6217941501
 30
0.0
 10
136.9097738075
 20
85.2843747373
 30
0.0
 10
136.929989313
 20
84.8874308585
 30
0.0
 10
136.9502829003
 20
84.4346432538
 30
0.0
 10
136.9706159196
 20
83.9302239023
 30
0.0
 10
136.9909822721
 20
83.3788564978
 30
0.0
 10
137.0189458493
 20
82.5650295099
 30
0.0
 10
137.0532654111
 20
81.4719474709
 30
0.0
 10
137.0935149952
 20
80.0983431818
 30
0.0
 10
137.1338052573
 20
78.6795754547
 30
0.0
 10
137.1740933493
 20
77.2682887508
 30
0.0
 10
137.2082366893
 20
76.1207153935
 30
0.0
 10
137.2359875375
 20
75.2456256991
 30
0.0
 10
137.2563809522
 20
74.6359931049
 30
0.0
 10
137.276756621
 20
74.0658310975
 30
0.0
 10
137.2971052126
 20
73.5404450528
 30
0.0
 10
137.3174176687
 20
73.0647168823
 30
0.0
 10
137.3376711527
 20
72.6430639989
 30
0.0
 10
137.3578477705
 20
72.2794099058
 30
0.0
 10
137.3753838143
 20
72.014243108
 30
0.0
 10
137.3897815504
 20
71.8336360994
 30
0.0
 10
137.3999212175
 20
71.7225198958
 30
0.0
 10
137.4100378311
 20
71.6280271076
 30
0.0
 10
137.4200278025
 20
71.5504197455
 30
0.0
 10
137.4300377339
 20
71.4896825127
 30
0.0
 10
137.4386179877
 20
71.4501115317
 30
0.0
 10
137.4463037559
 20
71.4267529449
 30
0.0
 10
137.4515524797
 20
71.4147299662
 30
0.0
 10
137.4578266195
 20
71.4061856155
 30
0.0
 10
137.4623121889
 20
71.4061834191
 30
0.0
  0
SPLINE
  5
4C7
100
AcDbEntity
  8
0
100
AcDbSpline
 62
7
  6
CONTINUOUS
 70
0
 71
3
 72
9
 73
5
 74
0
 42
0.0000001
 43
0.0000001
 44
0.0000000001
 40
0.0
 40
0.0
 40
0.0
 40
0.0
 40
0.5007066007
 40
1.0
 40
1.0
 40
1.0
 40
1.0
 10
133.8926050592
 20
76.7021930915
 30
0.0
 10
133.9124288723
 20
76.8498299554
 30
0.0
 10
133.9513016899
 20
77.1447811879
 30
0.0
 10
133.9888206666
 20
77.4399183593
 30
0.0
 10
134.0093322868
 20
77.5870367495
 30
0.0
  0
SPLINE
  5
4C8
100
AcDbEntity
  8
0
100
AcDbSpline
 62
7
  6
CONTINUOUS
 70
0
 71
3
 72
43
 73
39
 74
0
 42
0.0000001
 43
0.0000001
 44
0.0000000001
 40
0.0
 40
0.0
 40
0.0
 40
0.0
 40
0.0020152635
 40
0.0051412543
 40
0.0093963351
 40
0.0147786854
 40
0.0212788291
 40
0.0288853193
 40
0.0473494653
 40
0.0700047822
 40
0.0966445881
 40
0.1270244907
 40
0.1608614161
 40
0.1978440455
 40
0.2376275166
 40
0.3240996551
 40
0.4170730545
 40
0.5131010357
 40
0.6086231485
 40
0.7000974421
 40
0.7432477092
 40
0.7841328789
 40
0.8223744865
 40
0.8576157634
 40
0.8895320691
 40
0.917826275
 40
0.9422376196
 40
0.9625429509
 40
0.9710958055
 40
0.9785564696
 40
0.9849101511
 40
0.9901431692
 40
0.9942476748
 40
0.9958772462
 40
0.9972265261
 40
0.9982987889
 40
0.9991017034
 40
1.0
 40
1.0
 40
1.0
 40
1.0
 10
135.4686703705
 20
86.3450236715
 30
0.0
 10
135.4733159475
 20
86.3361083287
 30
0.0
 10
135.4809183128
 20
86.3113621763
 30
0.0
 10
135.4907323967
 20
86.265608759
 30
0.0
 10
135.5006141562
 20
86.202642741
 30
0.0
 10
135.5106725177
 20
86.1227835232
 30
0.0
 10
135.5207774468
 20
86.0260776466
 30
0.0
 10
135.5352619325
 20
85.8642449192
 30
0.0
 10
135.5527998365
 20
85.6217938515
 30
0.0
 10
135.5729301813
 20
85.2843752229
 30
0.0
 10
135.5931478993
 20
84.8874283546
 30
0.0
 10
135.613439103
 20
84.434644914
 30
0.0
 10
135.6337740381
 20
83.9302221279
 30
0.0
 10
135.6541393049
 20
83.3788567225
 30
0.0
 10
135.6821033519
 20
82.5650261629
 30
0.0
 10
135.7164226115
 20
81.4719440248
 30
0.0
 10
135.7566723996
 20
80.098340107
 30
0.0
 10
135.796962676
 20
78.6795731477
 30
0.0
 10
135.8372505196
 20
77.2682875218
 30
0.0
 10
135.8713944723
 20
76.1207131724
 30
0.0
 10
135.8991444619
 20
75.245626501
 30
0.0
 10
135.9195390562
 20
74.6359909384
 30
0.0
 10
135.9399132884
 20
74.0658318396
 30
0.0
 10
135.9602630714
 20
73.5404433082
 30
0.0
 10
135.9805752197
 20
73.0647162401
 30
0.0
 10
136.0008276725
 20
72.6430650057
 30
0.0
 10
136.0210067367
 20
72.2794081085
 30
0.0
 10
136.0385405188
 20
72.0142429447
 30
0.0
 10
136.05293756
 20
71.8336375852
 30
0.0
 10
136.0630856558
 20
71.7225176315
 30
0.0
 10
136.0731780616
 20
71.6280355292
 30
0.0
 10
136.0832277903
 20
71.5503906413
 30
0.0
 10
136.0920063032
 20
71.4963958639
 30
0.0
 10
136.0993513854
 20
71.4617785168
 30
0.0
 10
136.104331211
 20
71.4422859489
 30
0.0
 10
136.1094656088
 20
71.426741952
 30
0.0
 10
136.1147026578
 20
71.4147217569
 30
0.0
 10
136.1209885555
 20
71.4061883538
 30
0.0
 10
136.1254696849
 20
71.4061929918
 30
0.0
  0
SPLINE
  5
4C9
100
AcDbEntity
  8
0
100
AcDbSpline
 62
7
  6
CONTINUOUS
 70
0
 71
3
 72
9
 73
5
 74
0
 42
0.0000001
 43
0.0000001
 44
0.0000000001
 40
0.0
 40
0.0
 40
0.0
 40
0.0
 40
0.4992933992
 40
1.0
 40
1.0
 40
1.0
 40
1.0
 10
134.0093322868
 20
80.1753292586
 30
0.0
 10
133.9888206666
 20
80.3224476488
 30
0.0
 10
133.9513016899
 20
80.6175848202
 30
0.0
 10
133.9124288723
 20
80.9125360527
 30
0.0
 10
133.8926050592
 20
81.0601729167
 30
0.0
  0
SPLINE
  5
4CA
100
AcDbEntity
  8
0
100
AcDbSpline
 62
7
  6
CONTINUOUS
 70
0
 71
3
 72
9
 73
5
 74
0
 42
0.0000001
 43
0.0000001
 44
0.0000000001
 40
0.0
 40
0.0
 40
0.0
 40
0.0
 40
0.2552803262
 40
1.0
 40
1.0
 40
1.0
 40
1.0
 10
133.591210985
 20
82.9751319585
 30
0.0
 10
133.5897801584
 20
82.9822568318
 30
0.0
 10
133.584842172
 20
83.0102934161
 30
0.0
 10
133.5824926178
 20
83.0388110069
 30
0.0
 10
133.5824926178
 20
83.0600111123
 30
0.0
  0
SPLINE
  5
4CB
100
AcDbEntity
  8
0
100
AcDbSpline
 62
7
  6
CONTINUOUS
 70
0
 71
3
 72
9
 73
5
 74
0
 42
0.0000001
 43
0.0000001
 44
0.0000000001
 40
0.0
 40
0.0
 40
0.0
 40
0.0
 40
0.2712976056
 40
1.0
 40
1.0
 40
1.0
 40
1.0
 10
133.5824926178
 20
83.6835196247
 30
0.0
 10
133.5824926178
 20
83.6900190349
 30
0.0
 10
133.5831513678
 20
83.7139534769
 30
0.0
 10
133.586448015
 20
83.7379463838
 30
0.0
 10
133.5912109892
 20
83.7547414114
 30
0.0
  0
SPLINE
  5
4CC
100
AcDbEntity
  8
0
100
AcDbSpline
 62
7
  6
CONTINUOUS
 70
0
 71
3
 72
26
 73
22
 74
0
 42
0.0000001
 43
0.0000001
 44
0.0000000001
 40
0.0
 40
0.0
 40
0.0
 40
0.0
 40
0.0017657328
 40
0.0033556746
 40
0.0054816714
 40
0.0113936643
 40
0.0195523765
 40
0.0299614198
 40
0.0426060488
 40
0.057467014
 40
0.0745215032
 40
0.1150721622
 40
0.1639529024
 40
0.2207844285
 40
0.2851309767
 40
0.3564879688
 40
0.4343054997
 40
0.5179735456
 40
0.6068439459
 40
0.7973881067
 40
1.0
 40
1.0
 40
1.0
 40
1.0
 10
134.3435426413
 20
70.5511830045
 30
0.0
 10
134.3393985424
 20
70.5511830252
 30
0.0
 10
134.3336686587
 20
70.5592300437
 30
0.0
 10
134.3288774523
 20
70.5704174461
 30
0.0
 10
134.3218355103
 20
70.5922821768
 30
0.0
 10
134.313979453
 20
70.6292822552
 30
0.0
 10
134.3048084559
 20
70.6861154004
 30
0.0
 10
134.295660017
 20
70.7587664838
 30
0.0
 10
134.2863941591
 20
70.8472846171
 30
0.0
 10
134.2771056213
 20
70.9514504154
 30
0.0
 10
134.2639097912
 20
71.1210170772
 30
0.0
 10
134.2478385061
 20
71.3704258052
 30
0.0
 10
134.2293525217
 20
71.7132040139
 30
0.0
 10
134.210796765
 20
72.1118959171
 30
0.0
 10
134.1921876795
 20
72.563385546
 30
0.0
 10
134.173543046
 20
73.0641643607
 30
0.0
 10
134.1548759044
 20
73.6103175538
 30
0.0
 10
134.1361893268
 20
74.1975954533
 30
0.0
 10
134.1106625947
 20
75.0493526344
 30
0.0
 10
134.0792227555
 20
76.180212103
 30
0.0
 10
134.055049132
 20
77.1026158298
 30
0.0
 10
134.0427560386
 20
77.5779782902
 30
0.0
  0
LINE
  5
4CD
100
AcDbEntity
  8
0
100
AcDbLine
 62
7
  6
CONTINUOUS
 10
134.0427560386
 20
77.5779782902
 11
134.0425007361
 21
77.5878515404
  0
LINE
  5
4CE
100
AcDbEntity
  8
0
100
AcDbLine
 62
7
  6
CONTINUOUS
 10
134.0425007361
 20
77.5878515404
 11
134.0093322868
 21
78.8811830041
  0
SPLINE
  5
4CF
100
AcDbEntity
  8
0
100
AcDbSpline
 62
7
  6
CONTINUOUS
 70
0
 71
3
 72
9
 73
5
 74
0
 42
0.0000001
 43
0.0000001
 44
0.0000000001
 40
0.0
 40
0.0
 40
0.0
 40
0.0
 40
0.2513514577
 40
1.0
 40
1.0
 40
1.0
 40
1.0
 10
133.5912109892
 20
83.7547414114
 30
0.0
 10
133.6228112675
 20
83.8661691718
 30
0.0
 10
133.7426422827
 20
84.3111142195
 30
0.0
 10
133.8373724284
 20
84.7629692785
 30
0.0
 10
133.8914390151
 20
85.1036809632
 30
0.0
  0
SPLINE
  5
4D0
100
AcDbEntity
  8
0
100
AcDbSpline
 62
7
  6
CONTINUOUS
 70
0
 71
3
 72
27
 73
23
 74
0
 42
0.0000001
 43
0.0000001
 44
0.0000000001
 40
0.0
 40
0.0
 40
0.0
 40
0.0
 40
0.0006944555
 40
0.0017927648
 40
0.0034207407
 40
0.0056139076
 40
0.0117395709
 40
0.0202096897
 40
0.0310182924
 40
0.0441447649
 40
0.0595646037
 40
0.0772430124
 40
0.1191997172
 40
0.1696236648
 40
0.2280320793
 40
0.2938645332
 40
0.3664919403
 40
0.4452127432
 40
0.529273105
 40
0.6178675208
 40
0.8051881013
 40
1.0
 40
1.0
 40
1.0
 40
1.0
 10
135.680384856
 20
70.5511830276
 30
0.0
 10
135.6784531457
 20
70.5511827596
 30
0.0
 10
135.6737797535
 20
70.5541644522
 30
0.0
 10
135.6690603896
 20
70.5624304824
 30
0.0
 10
135.6639333196
 20
70.5751715875
 30
0.0
 10
135.656375735
 20
70.6018077179
 30
0.0
 10
135.647464022
 20
70.6477097462
 30
0.0
 10
135.6373711388
 20
70.7176522394
 30
0.0
 10
135.62717317
 20
70.8072261455
 30
0.0
 10
135.6168910211
 20
70.9162151196
 30
0.0
 10
135.6065691035
 20
71.0443833038
 30
0.0
 10
135.5919193327
 20
71.2526452571
 30
0.0
 10
135.5740761713
 20
71.5582765083
 30
0.0
 10
135.5535438627
 20
71.9772142698
 30
0.0
 10
135.5329350865
 20
72.4626307297
 30
0.0
 10
135.5122639524
 20
73.0098542534
 30
0.0
 10
135.4915574122
 20
73.6136140471
 30
0.0
 10
135.4708234903
 20
74.2681031699
 30
0.0
 10
135.4500715312
 20
74.9670265533
 30
0.0
 10
135.4218502489
 20
75.9679433013
 30
0.0
 10
135.3871841883
 20
77.2768677746
 30
0.0
 10
135.3599608896
 20
78.3394659657
 30
0.0
 10
135.3461741563
 20
78.8811830041
 30
0.0
  0
SPLINE
  5
4D1
100
AcDbEntity
  8
0
100
AcDbSpline
 62
7
  6
CONTINUOUS
 70
0
 71
3
 72
27
 73
23
 74
0
 42
0.0000001
 43
0.0000001
 44
0.0000000001
 40
0.0
 40
0.0
 40
0.0
 40
0.0
 40
0.0006944716
 40
0.0017927914
 40
0.0034207668
 40
0.0056139303
 40
0.0117396184
 40
0.0202098215
 40
0.031018484
 40
0.044145002
 40
0.0595648778
 40
0.0772432878
 40
0.1192000361
 40
0.1696241985
 40
0.2280332867
 40
0.2938666138
 40
0.3664947067
 40
0.4452158461
 40
0.5292763201
 40
0.617870458
 40
0.8051889642
 40
1.0
 40
1.0
 40
1.0
 40
1.0
 10
137.0172273532
 20
70.5511830098
 30
0.0
 10
137.0152955979
 20
70.5511828816
 30
0.0
 10
137.0106223199
 20
70.5541647749
 30
0.0
 10
137.0059028662
 20
70.5624308122
 30
0.0
 10
137.0007757977
 20
70.575171952
 30
0.0
 10
136.9932181508
 20
70.6018081152
 30
0.0
 10
136.9843064308
 20
70.6477104523
 30
0.0
 10
136.9742135769
 20
70.7176534177
 30
0.0
 10
136.9640155605
 20
70.8072278488
 30
0.0
 10
136.9537333989
 20
70.9162172171
 30
0.0
 10
136.9434114963
 20
71.044385634
 30
0.0
 10
136.9287617285
 20
71.2526478114
 30
0.0
 10
136.9109185907
 20
71.5582797814
 30
0.0
 10
136.89038619
 20
71.977220126
 30
0.0
 10
136.8697772402
 20
72.4626414743
 30
0.0
 10
136.8491059099
 20
73.0098711956
 30
0.0
 10
136.8283994857
 20
73.6136362576
 30
0.0
 10
136.807665289
 20
74.2681285144
 30
0.0
 10
136.786912014
 20
74.9670523253
 30
0.0
 10
136.7586991823
 20
75.9679630482
 30
0.0
 10
136.7239921421
 20
77.2768774872
 30
0.0
 10
136.6968545842
 20
78.3394696782
 30
0.0
 10
136.6830168121
 20
78.8811830041
 30
0.0
  0
SPLINE
  5
4D2
100
AcDbEntity
  8
0
100
AcDbSpline
 62
7
  6
CONTINUOUS
 70
0
 71
3
 72
10
 73
6
 74
0
 42
0.0000001
 43
0.0000001
 44
0.0000000001
 40
0.0
 40
0.0
 40
0.0
 40
0.0
 40
0.5107393327
 40
0.7589377537
 40
1.0
 40
1.0
 40
1.0
 40
1.0
 10
133.8926050592
 20
85.1102430515
 30
0.0
 10
133.9121264433
 20
85.2090571443
 30
0.0
 10
133.9408783576
 20
85.3559427385
 30
0.0
 10
133.9793231801
 20
85.549367817
 30
0.0
 10
133.9988849215
 20
85.6438616346
 30
0.0
 10
134.0093322868
 20
85.6902398533
 30
0.0
  0
SPLINE
  5
4D3
100
AcDbEntity
  8
0
100
AcDbSpline
 62
7
  6
CONTINUOUS
 70
0
 71
3
 72
27
 73
23
 74
0
 42
0.0000001
 43
0.0000001
 44
0.0000000001
 40
0.0
 40
0.0
 40
0.0
 40
0.0
 40
0.0006944792
 40
0.0017927961
 40
0.0034207576
 40
0.0056139056
 40
0.0117395969
 40
0.0202098544
 40
0.0310185218
 40
0.0441450181
 40
0.059564853
 40
0.0772431575
 40
0.1191999564
 40
0.1696245695
 40
0.2280342321
 40
0.2938680731
 40
0.366496553
 40
0.4452178427
 40
0.5292782692
 40
0.6178720632
 40
0.8051889663
 40
1.0
 40
1.0
 40
1.0
 40
1.0
 10
138.3540687811
 20
70.5511830044
 30
0.0
 10
138.3521370047
 20
70.5511829741
 30
0.0
 10
138.3474638136
 20
70.5541649138
 30
0.0
 10
138.342744289
 20
70.5624308881
 30
0.0
 10
138.3376172297
 20
70.5751719354
 30
0.0
 10
138.3300595366
 20
70.6018080094
 30
0.0
 10
138.3211478352
 20
70.6477104744
 30
0.0
 10
138.3110550323
 20
70.7176536192
 30
0.0
 10
138.3008569708
 20
70.8072281497
 30
0.0
 10
138.290574813
 20
70.9162173564
 30
0.0
 10
138.2802529582
 20
71.044385307
 30
0.0
 10
138.2656031559
 20
71.2526472131
 30
0.0
 10
138.247760032
 20
71.558280285
 30
0.0
 10
138.2272274738
 20
71.977223614
 30
0.0
 10
138.206618371
 20
72.462649237
 30
0.0
 10
138.1859469395
 20
73.0098830566
 30
0.0
 10
138.165240456
 20
73.6136510374
 30
0.0
 10
138.1445062558
 20
74.2681446526
 30
0.0
 10
138.1237531688
 20
74.9670677924
 30
0.0
 10
138.0955398735
 20
75.9679729449
 30
0.0
 10
138.0608362227
 20
77.276882038
 30
0.0
 10
138.0336921201
 20
78.3394695861
 30
0.0
 10
138.0198583512
 20
78.8811830041
 30
0.0
  0
SPLINE
  5
4D4
100
AcDbEntity
  8
0
100
AcDbSpline
 62
7
  6
CONTINUOUS
 70
0
 71
3
 72
9
 73
5
 74
0
 42
0.0000001
 43
0.0000001
 44
0.0000000001
 40
0.0
 40
0.0
 40
0.0
 40
0.0
 40
0.508059766
 40
1.0
 40
1.0
 40
1.0
 40
1.0
 10
134.0093322868
 20
87.5204390382
 30
0.0
 10
133.9894046718
 20
87.6341088916
 30
0.0
 10
133.9522195108
 20
87.8581932277
 30
0.0
 10
133.9126985671
 20
88.0818796711
 30
0.0
 10
133.8926050592
 20
88.1918001382
 30
0.0
  0
SPLINE
  5
4D5
100
AcDbEntity
  8
0
100
AcDbSpline
 62
7
  6
CONTINUOUS
 70
0
 71
3
 72
27
 73
23
 74
0
 42
0.0000001
 43
0.0000001
 44
0.0000000001
 40
0.0
 40
0.0
 40
0.0
 40
0.0
 40
0.0006944885
 40
0.0017927981
 40
0.0034207353
 40
0.0056138542
 40
0.0117395273
 40
0.0202098095
 40
0.0310184091
 40
0.0441448362
 40
0.059564652
 40
0.0772428743
 40
0.1191998964
 40
0.169625247
 40
0.2280356597
 40
0.2938700797
 40
0.3664989236
 40
0.4452202929
 40
0.5292804692
 40
0.6178734024
 40
0.8051889199
 40
1.0
 40
1.0
 40
1.0
 40
1.0
 10
139.6909113076
 20
70.5511830076
 30
0.0
 10
139.6889795054
 20
70.5511831101
 30
0.0
 10
139.6843064397
 20
70.554165096
 30
0.0
 10
139.6795868195
 20
70.5624309559
 30
0.0
 10
139.6744597795
 20
70.5751718292
 30
0.0
 10
139.666902033
 20
70.6018076805
 30
0.0
 10
139.6579903865
 20
70.6477100992
 30
0.0
 10
139.6478976713
 20
70.7176530795
 30
0.0
 10
139.6376995441
 20
70.807227288
 30
0.0
 10
139.6274173914
 20
70.9162160585
 30
0.0
 10
139.6170956021
 20
71.0443835371
 30
0.0
 10
139.6024456714
 20
71.252645772
 30
0.0
 10
139.5846024679
 20
71.5582812852
 30
0.0
 10
139.5640696687
 20
71.9772293626
 30
0.0
 10
139.5434603215
 20
72.4626607248
 30
0.0
 10
139.5227887726
 20
73.0098992483
 30
0.0
 10
139.5020822538
 20
73.613670069
 30
0.0
 10
139.4813480287
 20
74.2681642155
 30
0.0
 10
139.4605949208
 20
74.967084479
 30
0.0
 10
139.4323826131
 20
75.9679827021
 30
0.0
 10
139.3976750363
 20
77.2768855602
 30
0.0
 10
139.3705394909
 20
78.339469592
 30
0.0
 10
139.356700622
 20
78.8811830041
 30
0.0
  0
SPLINE
  5
4D6
100
AcDbEntity
  8
0
100
AcDbSpline
 62
7
  6
CONTINUOUS
 70
0
 71
3
 72
9
 73
5
 74
0
 42
0.0000001
 43
0.0000001
 44
0.0000000001
 40
0.0
 40
0.0
 40
0.0
 40
0.0
 40
0.2464959073
 40
1.0
 40
1.0
 40
1.0
 40
1.0
 10
133.8914390162
 20
88.198615724
 30
0.0
 10
133.8847351104
 20
88.1994371214
 30
0.0
 10
133.8574529867
 20
88.2020438565
 30
0.0
 10
133.8299102856
 20
88.2018125294
 30
0.0
 10
133.8093322868
 20
88.2001361405
 30
0.0
  0
SPLINE
  5
4D7
100
AcDbEntity
  8
0
100
AcDbSpline
 62
7
  6
CONTINUOUS
 70
0
 71
3
 72
9
 73
5
 74
0
 42
0.0000001
 43
0.0000001
 44
0.0000000001
 40
0.0
 40
0.0
 40
0.0
 40
0.0
 40
0.2489279043
 40
1.0
 40
1.0
 40
1.0
 40
1.0
 10
133.8914390162
 20
88.198615724
 30
0.0
 10
133.8734715847
 20
88.3116538621
 30
0.0
 10
133.7938635531
 20
88.7645612607
 30
0.0
 10
133.6856851908
 20
89.2122898797
 30
0.0
 10
133.5912109855
 20
89.5444595302
 30
0.0
  0
SPLINE
  5
4D8
100
AcDbEntity
  8
0
100
AcDbSpline
 62
7
  6
CONTINUOUS
 70
0
 71
3
 72
9
 73
5
 74
0
 42
0.0000001
 43
0.0000001
 44
0.0000000001
 40
0.0
 40
0.0
 40
0.0
 40
0.0
 40
0.2446877485
 40
1.0
 40
1.0
 40
1.0
 40
1.0
 10
133.5912109855
 20
89.5444595302
 30
0.0
 10
133.5840364699
 20
89.5450444418
 30
0.0
 10
133.5546470831
 20
89.546547118
 30
0.0
 10
133.5251035922
 20
89.5446096906
 30
0.0
 10
133.5031145042
 20
89.5414141545
 30
0.0
  0
SPLINE
  5
4D9
100
AcDbEntity
  8
0
100
AcDbSpline
 62
7
  6
CONTINUOUS
 70
0
 71
3
 72
9
 73
5
 74
0
 42
0.0000001
 43
0.0000001
 44
0.0000000001
 40
0.0
 40
0.0
 40
0.0
 40
0.0
 40
0.5689980572
 40
1.0
 40
1.0
 40
1.0
 40
1.0
 10
133.5912109855
 20
89.5444595302
 30
0.0
 10
133.5886327473
 20
89.5535245706
 30
0.0
 10
133.5846548123
 20
89.5696087868
 30
0.0
 10
133.5824926178
 20
89.5861361417
 30
0.0
 10
133.5824926178
 20
89.5932750102
 30
0.0
  0
SPLINE
  5
4DA
100
AcDbEntity
  8
GEOM
100
AcDbSpline
 62
7
  6
CONTINUOUS
 70
0
 71
3
 72
10
 73
6
 74
0
 42
0.0000001
 43
0.0000001
 44
0.0000000001
 40
0.0
 40
0.0
 40
0.0
 40
0.0
 40
0.5588045019
 40
0.7999990253
 40
1.0
 40
1.0
 40
1.0
 40
1.0
 10
128.8464901771
 20
74.0744724787
 30
0.0
 10
128.7961892009
 20
74.0744724787
 30
0.0
 10
128.723595685
 20
74.0675684573
 30
0.0
 10
128.6372350132
 20
74.0415338775
 30
0.0
 10
128.6013720676
 20
74.0235184755
 30
0.0
 10
128.586682556
 20
74.0131102167
 30
0.0
  0
SPLINE
  5
4DB
100
AcDbEntity
  8
GEOM
100
AcDbSpline
 62
7
  6
CONTINUOUS
 70
0
 71
3
 72
10
 73
6
 74
0
 42
0.0000001
 43
0.0000001
 44
0.0000000001
 40
0.0
 40
0.0
 40
0.0
 40
0.0
 40
0.5630071306
 40
0.8036971763
 40
1.0
 40
1.0
 40
1.0
 40
1.0
 10
128.8464901771
 20
74.6985488744
 30
0.0
 10
128.796261721
 20
74.6985488744
 30
0.0
 10
128.724101659
 20
74.6926364639
 30
0.0
 10
128.6376707501
 20
74.6700144936
 30
0.0
 10
128.6015899138
 20
74.6543447683
 30
0.0
 10
128.586682556
 20
74.6451535451
 30
0.0
  0
SPLINE
  5
4DC
100
AcDbEntity
  8
GEOM
100
AcDbSpline
 62
7
  6
CONTINUOUS
 70
0
 71
3
 72
9
 73
5
 74
0
 42
0.0000001
 43
0.0000001
 44
0.0000000001
 40
0.0
 40
0.0
 40
0.0
 40
0.0
 40
0.2658808881
 40
1.0
 40
1.0
 40
1.0
 40
1.0
 10
128.8680844126
 20
73.9850649565
 30
0.0
 10
128.8414286608
 20
73.9813725657
 30
0.0
 10
128.7431917617
 20
73.9582261906
 30
0.0
 10
128.6496744489
 20
73.8984195379
 30
0.0
 10
128.608276793
 20
73.8367190863
 30
0.0
  0
SPLINE
  5
4DD
100
AcDbEntity
  8
GEOM
100
AcDbSpline
 62
7
  6
CONTINUOUS
 70
0
 71
3
 72
10
 73
6
 74
0
 42
0.0000001
 43
0.0000001
 44
0.0000000001
 40
0.0
 40
0.0
 40
0.0
 40
0.0
 40
0.280768738
 40
0.545024189
 40
1.0
 40
1.0
 40
1.0
 40
1.0
 10
128.8680844899
 20
68.2209518537
 30
0.0
 10
128.8421240862
 20
68.2245478264
 30
0.0
 10
128.7907962717
 20
68.2267355112
 30
0.0
 10
128.6985744971
 20
68.2122345873
 30
0.0
 10
128.6352865044
 20
68.1773559847
 30
0.0
 10
128.6082768686
 20
68.1445818366
 30
0.0
  0
SPLINE
  5
4DE
100
AcDbEntity
  8
GEOM
100
AcDbSpline
 62
7
  6
CONTINUOUS
 70
0
 71
3
 72
9
 73
5
 74
0
 42
0.0000001
 43
0.0000001
 44
0.0000000001
 40
0.0
 40
0.0
 40
0.0
 40
0.0
 40
0.5071171034
 40
1.0
 40
1.0
 40
1.0
 40
1.0
 10
128.8464901771
 20
67.9008336591
 30
0.0
 10
128.7949455854
 20
67.9008336591
 30
0.0
 10
128.6915779616
 20
67.8759010052
 30
0.0
 10
128.613013886
 20
67.8032788168
 30
0.0
 10
128.586682556
 20
67.7606589866
 30
0.0
  0
SPLINE
  5
4DF
100
AcDbEntity
  8
GEOM
100
AcDbSpline
 62
7
  6
CONTINUOUS
 70
0
 71
3
 72
9
 73
5
 74
0
 42
0.0000001
 43
0.0000001
 44
0.0000000001
 40
0.0
 40
0.0
 40
0.0
 40
0.0
 40
0.5095145777
 40
1.0
 40
1.0
 40
1.0
 40
1.0
 10
128.8464901771
 20
68.1593345662
 30
0.0
 10
128.7950163534
 20
68.1593345662
 30
0.0
 10
128.6923300611
 20
68.1353159223
 30
0.0
 10
128.6131766289
 20
68.0643335874
 30
0.0
 10
128.586682556
 20
68.0224599052
 30
0.0
  0
SPLINE
  5
4E0
100
AcDbEntity
  8
GEOM
100
AcDbSpline
 62
7
  6
CONTINUOUS
 70
0
 71
3
 72
9
 73
5
 74
0
 42
0.0000001
 43
0.0000001
 44
0.0000000001
 40
0.0
 40
0.0
 40
0.0
 40
0.0
 40
0.4978453983
 40
1.0
 40
1.0
 40
1.0
 40
1.0
 10
128.868084347
 20
67.8811829988
 30
0.0
 10
128.8156075557
 20
67.8811829988
 30
0.0
 10
128.7081510299
 20
67.8511695887
 30
0.0
 10
128.6328085049
 20
67.769187799
 30
0.0
 10
128.6082767306
 20
67.7222848739
 30
0.0
  0
SPLINE
  5
4E1
100
AcDbEntity
  8
0
100
AcDbSpline
 62
7
  6
CONTINUOUS
 70
0
 71
3
 72
11
 73
7
 74
0
 42
0.0000001
 43
0.0000001
 44
0.0000000001
 40
0.0
 40
0.0
 40
0.0
 40
0.0
 40
0.3420524573
 40
0.6023980605
 40
0.8047973749
 40
1.0
 40
1.0
 40
1.0
 40
1.0
 10
133.5824926178
 20
89.8515406923
 30
0.0
 10
133.5824926178
 20
89.8538304878
 30
0.0
 10
133.5827363963
 20
89.8578739406
 30
0.0
 10
133.584200539
 20
89.8631330737
 30
0.0
 10
133.5871392198
 20
89.8667032333
 30
0.0
 10
133.5899042806
 20
89.8673749265
 30
0.0
 10
133.5912109881
 20
89.8673843345
 30
0.0
  0
LINE
  5
4E2
100
AcDbEntity
  8
0
100
AcDbLine
 62
7
  6
CONTINUOUS
 10
133.5912109881
 20
89.8673843345
 11
133.710183785
 21
89.8682455288
  0
LINE
  5
4E3
100
AcDbEntity
  8
0
100
AcDbLine
 62
7
  6
CONTINUOUS
 10
133.710183785
 20
89.8682455288
 11
133.8666444333
 21
89.8693907478
  0
LINE
  5
4E4
100
AcDbEntity
  8
0
100
AcDbLine
 62
7
  6
CONTINUOUS
 10
133.8666444333
 20
89.8693907478
 11
133.8914390155
 21
89.8695733714
  0
LINE
  5
4E5
100
AcDbEntity
  8
0
100
AcDbLine
 62
7
  6
CONTINUOUS
 10
133.8914390155
 20
89.8695733714
 11
133.8926050592
 21
89.8693941166
  0
SPLINE
  5
4E6
100
AcDbEntity
  8
0
100
AcDbSpline
 62
7
  6
CONTINUOUS
 70
0
 71
3
 72
27
 73
23
 74
0
 42
0.0000001
 43
0.0000001
 44
0.0000000001
 40
0.0
 40
0.0
 40
0.0
 40
0.0
 40
0.0006944573
 40
0.0017927029
 40
0.0034205531
 40
0.005613571
 40
0.0117390343
 40
0.0202090502
 40
0.0310172584
 40
0.0441433938
 40
0.0595631453
 40
0.0772412363
 40
0.1191979708
 40
0.1696222853
 40
0.2280304883
 40
0.2938619725
 40
0.3664883898
 40
0.4452086279
 40
0.5292687279
 40
0.6178633975
 40
0.8051855984
 40
1.0
 40
1.0
 40
1.0
 40
1.0
 10
136.102133132
 20
87.2111830034
 30
0.0
 10
136.1040648475
 20
87.2111829673
 30
0.0
 10
136.1087378078
 20
87.208201365
 30
0.0
 10
136.1134573637
 20
87.1999360043
 30
0.0
 10
136.118584294
 20
87.1871958592
 30
0.0
 10
136.1261419359
 20
87.1605611158
 30
0.0
 10
136.1350533796
 20
87.1146602957
 30
0.0
 10
136.1451459211
 20
87.0447197271
 30
0.0
 10
136.1553440588
 20
86.9551481765
 30
0.0
 10
136.1656261676
 20
86.846161486
 30
0.0
 10
136.1759478363
 20
86.7179953552
 30
0.0
 10
136.1905979268
 20
86.5097344748
 30
0.0
 10
136.2084410095
 20
86.204103001
 30
0.0
 10
136.2289735498
 20
85.7851647428
 30
0.0
 10
136.2495823541
 20
85.299750557
 30
0.0
 10
136.2702533013
 20
84.7525330773
 30
0.0
 10
136.2909594175
 20
84.1487803034
 30
0.0
 10
136.3116935089
 20
83.4942962533
 30
0.0
 10
136.3324474004
 20
82.7953745248
 30
0.0
 10
136.3606574731
 20
81.7944530035
 30
0.0
 10
136.395380745
 20
80.4855178547
 30
0.0
 10
136.4224864891
 20
79.4229051976
 30
0.0
 10
136.4363438289
 20
78.8811830041
 30
0.0
  0
SPLINE
  5
4E7
100
AcDbEntity
  8
0
100
AcDbSpline
 62
7
  6
CONTINUOUS
 70
0
 71
3
 72
27
 73
23
 74
0
 42
0.0000001
 43
0.0000001
 44
0.0000000001
 40
0.0
 40
0.0
 40
0.0
 40
0.0
 40
0.0006944321
 40
0.0017926302
 40
0.0034204211
 40
0.0056133723
 40
0.0117386918
 40
0.0202085415
 40
0.031016552
 40
0.0441425247
 40
0.0595621784
 40
0.0772401524
 40
0.1191968403
 40
0.1696213776
 40
0.228030281
 40
0.293862357
 40
0.3664886377
 40
0.4452086555
 40
0.5292687902
 40
0.6178634594
 40
0.8051856277
 40
1.0
 40
1.0
 40
1.0
 40
1.0
 10
137.4389755651
 20
87.2111830072
 30
0.0
 10
137.4409072106
 20
87.2111830807
 30
0.0
 10
137.4455801653
 20
87.2082018342
 30
0.0
 10
137.4502996793
 20
87.1999368293
 30
0.0
 10
137.4554265634
 20
87.187197202
 30
0.0
 10
137.4629841573
 20
87.1605632122
 30
0.0
 10
137.4718955288
 20
87.1146634494
 30
0.0
 10
137.4819880113
 20
87.044724294
 30
0.0
 10
137.4921861438
 20
86.9551542148
 30
0.0
 10
137.5024682341
 20
86.8461687983
 30
0.0
 10
137.512789864
 20
86.7180037136
 30
0.0
 10
137.5274400525
 20
86.5097435623
 30
0.0
 10
137.5452832113
 20
86.204111917
 30
0.0
 10
137.5658159721
 20
85.7851712146
 30
0.0
 10
137.5864249185
 20
85.2997528006
 30
0.0
 10
137.6070960203
 20
84.7525320921
 30
0.0
 10
137.6278022436
 20
84.1487786479
 30
0.0
 10
137.6485361828
 20
83.494295467
 30
0.0
 10
137.669289538
 20
82.7953742189
 30
0.0
 10
137.6975029302
 20
81.7944527488
 30
0.0
 10
137.7322095515
 20
80.4855172973
 30
0.0
 10
137.7593498025
 20
79.4229056617
 30
0.0
 10
137.7731864961
 20
78.8811830041
 30
0.0
  0
SPLINE
  5
4E8
100
AcDbEntity
  8
GEOM
100
AcDbSpline
 62
7
  6
CONTINUOUS
 70
0
 71
3
 72
9
 73
5
 74
0
 42
0.0000001
 43
0.0000001
 44
0.0000000001
 40
0.0
 40
0.0
 40
0.0
 40
0.0
 40
0.4978457182
 40
1.0
 40
1.0
 40
1.0
 40
1.0
 10
128.8680841741
 20
89.8811830153
 30
0.0
 10
128.8156073444
 20
89.8811830153
 30
0.0
 10
128.708150802
 20
89.9111963629
 30
0.0
 10
128.6328082328
 20
89.9931781896
 30
0.0
 10
128.608276563
 20
90.0400811367
 30
0.0
  0
SPLINE
  5
4E9
100
AcDbEntity
  8
GEOM
100
AcDbSpline
 62
7
  6
CONTINUOUS
 70
0
 71
3
 72
9
 73
5
 74
0
 42
0.0000001
 43
0.0000001
 44
0.0000000001
 40
0.0
 40
0.0
 40
0.0
 40
0.0
 40
0.5095145779
 40
1.0
 40
1.0
 40
1.0
 40
1.0
 10
128.8464901771
 20
89.603031442
 30
0.0
 10
128.7950163534
 20
89.603031442
 30
0.0
 10
128.6923300611
 20
89.6270500858
 30
0.0
 10
128.6131766289
 20
89.6980324208
 30
0.0
 10
128.586682556
 20
89.7399061029
 30
0.0
  0
SPLINE
  5
4EA
100
AcDbEntity
  8
GEOM
100
AcDbSpline
 62
7
  6
CONTINUOUS
 70
0
 71
3
 72
9
 73
5
 74
0
 42
0.0000001
 43
0.0000001
 44
0.0000000001
 40
0.0
 40
0.0
 40
0.0
 40
0.0
 40
0.5071171031
 40
1.0
 40
1.0
 40
1.0
 40
1.0
 10
128.8464901771
 20
89.861532349
 30
0.0
 10
128.7949455854
 20
89.861532349
 30
0.0
 10
128.6915779616
 20
89.886465003
 30
0.0
 10
128.613013886
 20
89.9590871913
 30
0.0
 10
128.586682556
 20
90.0017070215
 30
0.0
  0
SPLINE
  5
4EB
100
AcDbEntity
  8
GEOM
100
AcDbSpline
 62
7
  6
CONTINUOUS
 70
0
 71
3
 72
10
 73
6
 74
0
 42
0.0000001
 43
0.0000001
 44
0.0000000001
 40
0.0
 40
0.0
 40
0.0
 40
0.0
 40
0.2807685163
 40
0.5450236632
 40
1.0
 40
1.0
 40
1.0
 40
1.0
 10
128.8680844814
 20
89.5414141531
 30
0.0
 10
128.842124095
 20
89.5378181305
 30
0.0
 10
128.7907963157
 20
89.5356303801
 30
0.0
 10
128.6985744613
 20
89.5501310953
 30
0.0
 10
128.6352864522
 20
89.5850099013
 30
0.0
 10
128.6082768597
 20
89.6177841704
 30
0.0
  0
SPLINE
  5
4EC
100
AcDbEntity
  8
GEOM
100
AcDbSpline
 62
7
  6
CONTINUOUS
 70
0
 71
3
 72
9
 73
5
 74
0
 42
0.0000001
 43
0.0000001
 44
0.0000000001
 40
0.0
 40
0.0
 40
0.0
 40
0.0
 40
0.2658808358
 40
1.0
 40
1.0
 40
1.0
 40
1.0
 10
128.86808449
 20
83.7773010395
 30
0.0
 10
128.8414287211
 20
83.7809933325
 30
0.0
 10
128.7431917472
 20
83.8041393835
 30
0.0
 10
128.6496740429
 20
83.8639461
 30
0.0
 10
128.6082768688
 20
83.9256469106
 30
0.0
  0
SPLINE
  5
4ED
100
AcDbEntity
  8
GEOM
100
AcDbSpline
 62
7
  6
CONTINUOUS
 70
0
 71
3
 72
10
 73
6
 74
0
 42
0.0000001
 43
0.0000001
 44
0.0000000001
 40
0.0
 40
0.0
 40
0.0
 40
0.0
 40
0.5630071304
 40
0.803697176
 40
1.0
 40
1.0
 40
1.0
 40
1.0
 10
128.8464901771
 20
83.0638171337
 30
0.0
 10
128.796261721
 20
83.0638171337
 30
0.0
 10
128.724101659
 20
83.0697295442
 30
0.0
 10
128.6376707501
 20
83.0923515145
 30
0.0
 10
128.6015899138
 20
83.1080212398
 30
0.0
 10
128.586682556
 20
83.117212463
 30
0.0
  0
SPLINE
  5
4EE
100
AcDbEntity
  8
GEOM
100
AcDbSpline
 62
7
  6
CONTINUOUS
 70
0
 71
3
 72
10
 73
6
 74
0
 42
0.0000001
 43
0.0000001
 44
0.0000000001
 40
0.0
 40
0.0
 40
0.0
 40
0.0
 40
0.5588045019
 40
0.7999990253
 40
1.0
 40
1.0
 40
1.0
 40
1.0
 10
128.8464901771
 20
83.6878935294
 30
0.0
 10
128.7961892009
 20
83.6878935294
 30
0.0
 10
128.723595685
 20
83.6947975509
 30
0.0
 10
128.6372350132
 20
83.7208321307
 30
0.0
 10
128.6013720676
 20
83.7388475326
 30
0.0
 10
128.586682556
 20
83.7492557914
 30
0.0
  0
SPLINE
  5
4EF
100
AcDbEntity
  8
0
100
AcDbSpline
 62
7
  6
CONTINUOUS
 70
0
 71
3
 72
27
 73
23
 74
0
 42
0.0000001
 43
0.0000001
 44
0.0000000001
 40
0.0
 40
0.0
 40
0.0
 40
0.0
 40
0.0006941847
 40
0.0017911397
 40
0.0034174014
 40
0.0056094621
 40
0.0117359699
 40
0.0202045725
 40
0.0310104925
 40
0.0441378724
 40
0.0595567035
 40
0.0772324175
 40
0.1191905833
 40
0.1696142763
 40
0.2280223899
 40
0.2938569739
 40
0.3664830683
 40
0.445203703
 40
0.5292650527
 40
0.6178591623
 40
0.8051842252
 40
1.0
 40
1.0
 40
1.0
 40
1.0
 10
138.7758090918
 20
87.2111677811
 30
0.0
 10
138.7777400473
 20
87.2111672291
 30
0.0
 10
138.7824113257
 20
87.2081957583
 30
0.0
 10
138.787136097
 20
87.1999413312
 30
0.0
 10
138.7922644361
 20
87.1872138154
 30
0.0
 10
138.7998260696
 20
87.1605840304
 30
0.0
 10
138.8087319112
 20
87.1146859595
 30
0.0
 10
138.8188276929
 20
87.0447535025
 30
0.0
 10
138.8290261065
 20
86.9551888305
 30
0.0
 10
138.839305036
 20
86.8462074339
 30
0.0
 10
138.8496279081
 20
86.7180472343
 30
0.0
 10
138.8642805883
 20
86.5097918836
 30
0.0
 10
138.8821210398
 20
86.2041648327
 30
0.0
 10
138.9026554192
 20
85.7852249847
 30
0.0
 10
138.9232651332
 20
85.2998045336
 30
0.0
 10
138.9439354213
 20
84.7525799529
 30
0.0
 10
138.9646428099
 20
84.1488188346
 30
0.0
 10
138.9853768367
 20
83.4943315788
 30
0.0
 10
139.0061300184
 20
82.7954073222
 30
0.0
 10
139.0343439784
 20
81.7944767587
 30
0.0
 10
139.0690514224
 20
80.4855319334
 30
0.0
 10
139.0961900424
 20
79.4229091156
 30
0.0
 10
139.1100280092
 20
78.8811830041
 30
0.0
  0
SPLINE
  5
4F0
100
AcDbEntity
  8
0
100
AcDbSpline
 62
7
  6
CONTINUOUS
 70
0
 71
3
 72
9
 73
5
 74
0
 42
0.0000001
 43
0.0000001
 44
0.0000000001
 40
0.0
 40
0.0
 40
0.0
 40
0.0
 40
0.2523215111
 40
1.0
 40
1.0
 40
1.0
 40
1.0
 10
133.5031145042
 20
74.0744724787
 30
0.0
 10
133.5098028292
 20
74.0744724787
 30
0.0
 10
133.536308311
 20
74.0748360441
 30
0.0
 10
133.5627974607
 20
74.0766357848
 30
0.0
 10
133.5824926178
 20
74.0788463834
 30
0.0
  0
SPLINE
  5
4F1
100
AcDbEntity
  8
0
100
AcDbSpline
 62
7
  6
CONTINUOUS
 70
0
 71
3
 72
28
 73
24
 74
0
 42
0.0000001
 43
0.0000001
 44
0.0000000001
 40
0.0
 40
0.0
 40
0.0
 40
0.0
 40
0.0007149985
 40
0.0019454893
 40
0.0063639659
 40
0.0135195463
 40
0.0234236642
 40
0.0360448875
 40
0.0513403999
 40
0.0692467701
 40
0.0896911859
 40
0.1125910118
 40
0.1378476992
 40
0.1950075361
 40
0.2602130793
 40
0.3323706451
 40
0.4102694305
 40
0.4926016285
 40
0.577983842
 40
0.6649812431
 40
0.75213236
 40
0.8379731513
 40
1.0
 40
1.0
 40
1.0
 40
1.0
 10
139.6675747762
 20
86.3561819588
 30
0.0
 10
139.6702231824
 20
86.3561839178
 30
0.0
 10
139.6766363518
 20
86.3510770419
 30
0.0
 10
139.6864781845
 20
86.3299387386
 30
0.0
 10
139.6982402687
 20
86.2833912294
 30
0.0
 10
139.7110759671
 20
86.2051106515
 30
0.0
 10
139.7244240189
 20
86.0958496764
 30
0.0
 10
139.7378920806
 20
85.9564429401
 30
0.0
 10
139.7514758237
 20
85.7872343797
 30
0.0
 10
139.7651126835
 20
85.5889953138
 30
0.0
 10
139.7787896995
 20
85.3625274571
 30
0.0
 10
139.792490532
 20
85.1087934238
 30
0.0
 10
139.8115814523
 20
84.7191598813
 30
0.0
 10
139.8350143366
 20
84.1728548465
 30
0.0
 10
139.8622238528
 20
83.4528397657
 30
0.0
 10
139.8894974758
 20
82.6559591948
 30
0.0
 10
139.9168197254
 20
81.7956080928
 30
0.0
 10
139.9441705673
 20
80.8862496839
 30
0.0
 10
139.9715391475
 20
79.9431753372
 30
0.0
 10
139.9989173314
 20
78.9822443632
 30
0.0
 10
140.0262929917
 20
78.0196139319
 30
0.0
 10
140.06211421
 20
76.7791972099
 30
0.0
 10
140.0898182943
 20
75.8614932054
 30
0.0
 10
140.1093318893
 20
75.2616511506
 30
0.0
  0
SPLINE
  5
4F2
100
AcDbEntity
  8
GEOM
100
AcDbSpline
 62
7
  6
CONTINUOUS
 70
0
 71
3
 72
9
 73
5
 74
0
 42
0.0000001
 43
0.0000001
 44
0.0000000001
 40
0.0
 40
0.0
 40
0.0
 40
0.0
 40
0.2553260679
 40
1.0
 40
1.0
 40
1.0
 40
1.0
 10
128.6082659614
 20
82.906193605
 30
0.0
 10
128.604755823
 20
82.9239181438
 30
0.0
 10
128.5925808151
 20
82.9936298467
 30
0.0
 10
128.5866821322
 20
83.0645138096
 30
0.0
 10
128.586682556
 20
83.117212463
 30
0.0
  0
SPLINE
  5
4F3
100
AcDbEntity
  8
GEOM
100
AcDbSpline
 62
7
  6
CONTINUOUS
 70
0
 71
3
 72
9
 73
5
 74
0
 42
0.0000001
 43
0.0000001
 44
0.0000000001
 40
0.0
 40
0.0
 40
0.0
 40
0.0
 40
0.2556924548
 40
1.0
 40
1.0
 40
1.0
 40
1.0
 10
128.8680844945
 20
82.9570264601
 30
0.0
 10
128.8646895143
 20
82.9657003649
 30
0.0
 10
128.8527160542
 20
83.0000913581
 30
0.0
 10
128.8464906146
 20
83.0367026978
 30
0.0
 10
128.8464901771
 20
83.0638171337
 30
0.0
  0
SPLINE
  5
4F4
100
AcDbEntity
  8
GEOM
100
AcDbSpline
 62
7
  6
CONTINUOUS
 70
0
 71
3
 72
9
 73
5
 74
0
 42
0.0000001
 43
0.0000001
 44
0.0000000001
 40
0.0
 40
0.0
 40
0.0
 40
0.0
 40
0.2427894459
 40
1.0
 40
1.0
 40
1.0
 40
1.0
 10
128.586682556
 20
74.6451535451
 30
0.0
 10
128.5866825751
 20
74.6623409718
 30
0.0
 10
128.5886474735
 20
74.7331257552
 30
0.0
 10
128.5978608372
 20
74.8036518091
 30
0.0
 10
128.6082768675
 20
74.856234144
 30
0.0
  0
SPLINE
  5
4F5
100
AcDbEntity
  8
GEOM
100
AcDbSpline
 62
7
  6
CONTINUOUS
 70
0
 71
3
 72
9
 73
5
 74
0
 42
0.0000001
 43
0.0000001
 44
0.0000000001
 40
0.0
 40
0.0
 40
0.0
 40
0.0
 40
0.2431220697
 40
1.0
 40
1.0
 40
1.0
 40
1.0
 10
128.8464901771
 20
74.6985488744
 30
0.0
 10
128.8464903109
 20
74.7074085556
 30
0.0
 10
128.8485189968
 20
74.743847782
 30
0.0
 10
128.8580362203
 20
74.7796534018
 30
0.0
 10
128.8680844889
 20
74.8053395319
 30
0.0
  0
SPLINE
  5
4F6
100
AcDbEntity
  8
GEOM
100
AcDbSpline
 62
7
  6
CONTINUOUS
 70
0
 71
3
 72
9
 73
5
 74
0
 42
0.0000001
 43
0.0000001
 44
0.0000000001
 40
0.0
 40
0.0
 40
0.0
 40
0.0
 40
0.2270886173
 40
1.0
 40
1.0
 40
1.0
 40
1.0
 10
128.6082772189
 20
73.8367176393
 30
0.0
 10
128.6046285519
 20
73.8496905327
 30
0.0
 10
128.5911021417
 20
73.9075308572
 30
0.0
 10
128.5866824617
 20
73.9672429663
 30
0.0
 10
128.586682556
 20
74.0131102167
 30
0.0
  0
SPLINE
  5
4F7
100
AcDbEntity
  8
GEOM
100
AcDbSpline
 62
7
  6
CONTINUOUS
 70
0
 71
3
 72
9
 73
5
 74
0
 42
0.0000001
 43
0.0000001
 44
0.0000000001
 40
0.0
 40
0.0
 40
0.0
 40
0.0
 40
0.232676015
 40
1.0
 40
1.0
 40
1.0
 40
1.0
 10
128.8680844901
 20
73.9850649667
 30
0.0
 10
128.8646094565
 20
73.9913453477
 30
0.0
 10
128.8514831802
 20
74.0193402611
 30
0.0
 10
128.8464905242
 20
74.0508017812
 30
0.0
 10
128.8464901771
 20
74.0744724787
 30
0.0
  0
SPLINE
  5
4F8
100
AcDbEntity
  8
GEOM
100
AcDbSpline
 62
7
  6
CONTINUOUS
 70
0
 71
3
 72
9
 73
5
 74
0
 42
0.0000001
 43
0.0000001
 44
0.0000000001
 40
0.0
 40
0.0
 40
0.0
 40
0.0
 40
0.4306042594
 40
1.0
 40
1.0
 40
1.0
 40
1.0
 10
128.586682556
 20
68.0224599052
 30
0.0
 10
128.5866825625
 20
68.0402956522
 30
0.0
 10
128.5921192601
 20
68.0816197458
 30
0.0
 10
128.6019387026
 20
68.1218649292
 30
0.0
 10
128.6082768668
 20
68.1445818315
 30
0.0
  0
SPLINE
  5
4F9
100
AcDbEntity
  8
GEOM
100
AcDbSpline
 62
7
  6
CONTINUOUS
 70
0
 71
3
 72
9
 73
5
 74
0
 42
0.0000001
 43
0.0000001
 44
0.0000000001
 40
0.0
 40
0.0
 40
0.0
 40
0.0
 40
0.4242234154
 40
1.0
 40
1.0
 40
1.0
 40
1.0
 10
128.8464901771
 20
68.1593345662
 30
0.0
 10
128.8464903449
 20
68.1686284095
 30
0.0
 10
128.8523269495
 20
68.1902886632
 30
0.0
 10
128.8619840449
 20
68.209913859
 30
0.0
 10
128.86808954
 20
68.2209518527
 30
0.0
  0
SPLINE
  5
4FA
100
AcDbEntity
  8
GEOM
100
AcDbSpline
 62
7
  6
CONTINUOUS
 70
0
 71
3
 72
11
 73
7
 74
0
 42
0.0000001
 43
0.0000001
 44
0.0000000001
 40
0.0
 40
0.0
 40
0.0
 40
0.0
 40
0.1948435125
 40
0.3949362167
 40
0.6543856029
 40
1.0
 40
1.0
 40
1.0
 40
1.0
 10
128.6082777585
 20
67.7222846933
 30
0.0
 10
128.6050841437
 20
67.7222196904
 30
0.0
 10
128.5982960945
 20
67.7235992563
 30
0.0
 10
128.5909209404
 20
67.7321597145
 30
0.0
 10
128.5872821981
 20
67.7450491962
 30
0.0
 10
128.5866825285
 20
67.7549929635
 30
0.0
 10
128.586682556
 20
67.7606589866
 30
0.0
  0
SPLINE
  5
4FB
100
AcDbEntity
  8
0
100
AcDbSpline
 62
7
  6
CONTINUOUS
 70
0
 71
3
 72
42
 73
38
 74
0
 42
0.0000001
 43
0.0000001
 44
0.0000000001
 40
0.0
 40
0.0
 40
0.0
 40
0.0
 40
0.0008993301
 40
0.0017019838
 40
0.002773634
 40
0.0057519532
 40
0.0098583029
 40
0.0150914647
 40
0.0214447818
 40
0.0289070951
 40
0.0374608454
 40
0.0577661365
 40
0.0821783734
 40
0.1104738801
 40
0.1423896528
 40
0.1776325216
 40
0.215873594
 40
0.2567592758
 40
0.2999096978
 40
0.3913838771
 40
0.486905324
 40
0.5829325593
 40
0.6759049633
 40
0.7623756621
 40
0.802159217
 40
0.8391402845
 40
0.8729778461
 40
0.9033564171
 40
0.929996077
 40
0.952651617
 40
0.9711142147
 40
0.978721309
 40
0.9852221838
 40
0.9906032493
 40
0.9948580747
 40
0.9979853927
 40
1.0
 40
1.0
 40
1.0
 40
1.0
 10
138.3307328864
 20
86.3561644673
 30
0.0
 10
138.3352191529
 20
86.3561533203
 30
0.0
 10
138.3414904906
 20
86.3476197131
 30
0.0
 10
138.3467450976
 20
86.3355960335
 30
0.0
 10
138.3544346582
 20
86.3122361985
 30
0.0
 10
138.3630130958
 20
86.2726540134
 30
0.0
 10
138.3730237905
 20
86.2119088722
 30
0.0
 10
138.3830145812
 20
86.1342944441
 30
0.0
 10
138.3931292582
 20
86.0397916588
 30
0.0
 10
138.4032670313
 20
85.9286653256
 30
0.0
 10
138.417667682
 20
85.7480458048
 30
0.0
 10
138.4352011291
 20
85.4828735959
 30
0.0
 10
138.4553799153
 20
85.1192059647
 30
0.0
 10
138.4756309372
 20
84.6975472024
 30
0.0
 10
138.495944881
 20
84.2218091098
 30
0.0
 10
138.5162924697
 20
83.6964187077
 30
0.0
 10
138.536667952
 20
83.1262527019
 30
0.0
 10
138.5570616233
 20
82.5166173935
 30
0.0
 10
138.5848115399
 20
81.6415293157
 30
0.0
 10
138.6189549837
 20
80.4939598465
 30
0.0
 10
138.6592425625
 20
79.082684012
 30
0.0
 10
138.6995324437
 20
77.6639312495
 30
0.0
 10
138.7397814822
 20
76.2903453077
 30
0.0
 10
138.7741014077
 20
75.1972766199
 30
0.0
 10
138.8020637837
 20
74.3834618241
 30
0.0
 10
138.8224305588
 20
73.8321015317
 30
0.0
 10
138.8427633991
 20
73.3276907121
 30
0.0
 10
138.8630557476
 20
72.8749122197
 30
0.0
 10
138.8832733531
 20
72.4779722398
 30
0.0
 10
138.9034014025
 20
72.1405613349
 30
0.0
 10
138.9209420871
 20
71.8981144456
 30
0.0
 10
138.9354256144
 20
71.7362829853
 30
0.0
 10
138.9455277735
 20
71.6395766856
 30
0.0
 10
138.9555884845
 20
71.5597219554
 30
0.0
 10
138.9654734568
 20
71.4967575214
 30
0.0
 10
138.9752807625
 20
71.4510013554
 30
0.0
 10
138.9828835133
 20
71.42625058
 30
0.0
 10
138.987531653
 20
71.4173402824
 30
0.0
  0
SPLINE
  5
4FC
100
AcDbEntity
  8
GEOM
100
AcDbSpline
 62
7
  6
CONTINUOUS
 70
0
 71
3
 72
10
 73
6
 74
0
 42
0.0000001
 43
0.0000001
 44
0.0000000001
 40
0.0
 40
0.0
 40
0.0
 40
0.0
 40
0.5053751644
 40
0.731879465
 40
1.0
 40
1.0
 40
1.0
 40
1.0
 10
128.8680844891
 20
67.8811830041
 30
0.0
 10
128.8625339243
 20
67.8811829779
 30
0.0
 10
128.8534788472
 20
67.8827599388
 30
0.0
 10
128.8471313492
 20
67.8923469033
 30
0.0
 10
128.8464902899
 20
67.8978888757
 30
0.0
 10
128.8464901771
 20
67.9008336591
 30
0.0
  0
LINE
  5
4FD
100
AcDbEntity
  8
0
100
AcDbLine
 62
7
  6
CONTINUOUS
 10
139.4791967959
 20
86.3450258888
 11
139.4816708004
 21
86.3397733579
  0
SPLINE
  5
4FE
100
AcDbEntity
  8
0
100
AcDbSpline
 62
7
  6
CONTINUOUS
 70
0
 71
3
 72
35
 73
31
 74
0
 42
0.0000001
 43
0.0000001
 44
0.0000000001
 40
0.0
 40
0.0
 40
0.0
 40
0.0
 40
0.0021655885
 40
0.0053559872
 40
0.009583008
 40
0.0148441172
 40
0.021130361
 40
0.0284312411
 40
0.0460194433
 40
0.0674628978
 40
0.0925849077
 40
0.1211730957
 40
0.1529860087
 40
0.1877554546
 40
0.2251852847
 40
0.3067408743
 40
0.3948917946
 40
0.4866527485
 40
0.578915865
 40
0.6685562619
 40
0.75253816
 40
0.8280180915
 40
0.8924419659
 40
0.9198105742
 40
0.943634042
 40
0.9637113864
 40
0.9798760776
 40
0.9920000992
 40
0.9965181628
 40
1.0
 40
1.0
 40
1.0
 40
1.0
 10
139.4816708004
 20
86.3397733579
 30
0.0
 10
139.4859158491
 20
86.3298958776
 30
0.0
 10
139.4932025591
 20
86.3041816748
 30
0.0
 10
139.5026249286
 20
86.2575780401
 30
0.0
 10
139.512130077
 20
86.1953206274
 30
0.0
 10
139.5217582425
 20
86.1176051261
 30
0.0
 10
139.5314312257
 20
86.0245271049
 30
0.0
 10
139.5452473335
 20
85.8703729888
 30
0.0
 10
139.5620117906
 20
85.6409535343
 30
0.0
 10
139.5812711371
 20
85.3230425671
 30
0.0
 10
139.6006063007
 20
84.950440199
 30
0.0
 10
139.6200090907
 20
84.5263032157
 30
0.0
 10
139.6394498556
 20
84.0542285386
 30
0.0
 10
139.658918992
 20
83.5382271629
 30
0.0
 10
139.6856744336
 20
82.7753805755
 30
0.0
 10
139.718534871
 20
81.7475767864
 30
0.0
 10
139.7570471472
 20
80.450094469
 30
0.0
 10
139.7956065298
 20
79.0994338139
 30
0.0
 10
139.8341739358
 20
77.7413759901
 30
0.0
 10
139.8727059697
 20
76.4219520114
 30
0.0
 10
139.9111369911
 20
75.1858813867
 30
0.0
 10
139.9494198413
 20
74.0750597466
 30
0.0
 10
139.9825670318
 20
73.2452894694
 30
0.0
 10
140.0099157619
 20
72.6719627589
 30
0.0
 10
140.0292374278
 20
72.3186722374
 30
0.0
 10
140.0484087825
 20
72.0210823044
 30
0.0
 10
140.0674607269
 20
71.7817267399
 30
0.0
 10
140.0841161684
 20
71.6196600669
 30
0.0
 10
140.0982973812
 20
71.5207589976
 30
0.0
 10
140.1054939924
 20
71.4816730497
 30
0.0
 10
140.1093321104
 20
71.4648189905
 30
0.0
  0
LINE
  5
4FF
100
AcDbEntity
  8
GEOM
100
AcDbLine
 62
7
  6
CONTINUOUS
 10
129.0196930162
 20
90.0311840798
 11
128.9193703121
 21
90.0334547474
  0
LINE
  5
500
100
AcDbEntity
  8
GEOM
100
AcDbLine
 62
7
  6
CONTINUOUS
 10
128.9193703121
 20
90.0334547474
 11
128.6082789352
 21
90.0400815596
  0
LINE
  5
501
100
AcDbEntity
  8
0
100
AcDbLine
 62
7
  6
CONTINUOUS
 10
138.1423547996
 20
86.3450045574
 11
138.1441445212
 21
86.3413100326
  0
SPLINE
  5
502
100
AcDbEntity
  8
0
100
AcDbSpline
 62
7
  6
CONTINUOUS
 70
0
 71
3
 72
42
 73
38
 74
0
 42
0.0000001
 43
0.0000001
 44
0.0000000001
 40
0.0
 40
0.0
 40
0.0
 40
0.0
 40
0.0021986591
 40
0.0055096623
 40
0.0099435425
 40
0.0154967778
 40
0.0221618022
 40
0.0299253828
 40
0.0486748088
 40
0.0715815468
 40
0.0984345842
 40
0.1289891099
 40
0.1629639046
 40
0.2000447135
 40
0.2398912079
 40
0.3263832774
 40
0.4192522761
 40
0.5150739444
 40
0.6103145043
 40
0.7014619487
 40
0.7444415964
 40
0.785155953
 40
0.8232298766
 40
0.8583121239
 40
0.8900779253
 40
0.9182369431
 40
0.9425280187
 40
0.9627315098
 40
0.9712412311
 40
0.9786650672
 40
0.9849859601
 40
0.9901915449
 40
0.9942761368
 40
0.9972396088
 40
0.9983059987
 40
0.9991046169
 40
1.0
 40
1.0
 40
1.0
 40
1.0
 10
138.1441445212
 20
86.3413100326
 30
0.0
 10
138.1486622519
 20
86.3313190347
 30
0.0
 10
138.1562620106
 20
86.3047331471
 30
0.0
 10
138.1660698909
 20
86.2561692433
 30
0.0
 10
138.1759640757
 20
86.1905453459
 30
0.0
 10
138.1860057166
 20
86.1081139429
 30
0.0
 10
138.1960905809
 20
86.0089650581
 30
0.0
 10
138.2105146944
 20
85.8441307578
 30
0.0
 10
138.2280097986
 20
85.5982765539
 30
0.0
 10
138.248093066
 20
85.2572015368
 30
0.0
 10
138.2682642727
 20
84.8571699854
 30
0.0
 10
138.2885055089
 20
84.4018847547
 30
0.0
 10
138.3087869196
 20
83.8955492412
 30
0.0
 10
138.3291004498
 20
83.342841409
 30
0.0
 10
138.3569762865
 20
82.5283282591
 30
0.0
 10
138.3911976277
 20
81.4356513046
 30
0.0
 10
138.4313432838
 20
80.0638735483
 30
0.0
 10
138.4715280246
 20
78.6484493191
 30
0.0
 10
138.5117092156
 20
77.2416141438
 30
0.0
 10
138.545766316
 20
76.0982401314
 30
0.0
 10
138.5734444708
 20
75.2267267589
 30
0.0
 10
138.5937833162
 20
74.6197977582
 30
0.0
 10
138.6141031429
 20
74.0522766507
 30
0.0
 10
138.6343958799
 20
73.5294124734
 30
0.0
 10
138.6546547701
 20
73.0560341584
 30
0.0
 10
138.6748501744
 20
72.6365235847
 30
0.0
 10
138.6949758789
 20
72.2747482396
 30
0.0
 10
138.7124599699
 20
72.0109800586
 30
0.0
 10
138.7268222848
 20
71.8313293204
 30
0.0
 10
138.73693323
 20
71.7208067103
 30
0.0
 10
138.7470201081
 20
71.6268211984
 30
0.0
 10
138.7569850137
 20
71.5496356629
 30
0.0
 10
138.7669712249
 20
71.4892291267
 30
0.0
 10
138.7755221473
 20
71.4498638311
 30
0.0
 10
138.7831880717
 20
71.4266331932
 30
0.0
 10
138.7884249634
 20
71.414671576
 30
0.0
 10
138.7946882332
 20
71.4061983499
 30
0.0
 10
138.799153601
 20
71.4061955737
 30
0.0
  0
SPLINE
  5
503
100
AcDbEntity
  8
GEOM
100
AcDbSpline
 62
7
  6
CONTINUOUS
 70
0
 71
3
 72
11
 73
7
 74
0
 42
0.0000001
 43
0.0000001
 44
0.0000000001
 40
0.0
 40
0.0
 40
0.0
 40
0.0
 40
0.3456163891
 40
0.6050578616
 40
0.8051524328
 40
1.0
 40
1.0
 40
1.0
 40
1.0
 10
128.586682556
 20
90.0017070215
 30
0.0
 10
128.5866825726
 20
90.0073732218
 30
0.0
 10
128.5872818659
 20
90.017317254
 30
0.0
 10
128.5909215356
 20
90.03020666
 30
0.0
 10
128.5982966692
 20
90.0387675187
 30
0.0
 10
128.6050851755
 20
90.0401467093
 30
0.0
 10
128.6082789352
 20
90.0400815596
 30
0.0
  0
SPLINE
  5
504
100
AcDbEntity
  8
GEOM
100
AcDbSpline
 62
7
  6
CONTINUOUS
 70
0
 71
3
 72
10
 73
6
 74
0
 42
0.0000001
 43
0.0000001
 44
0.0000000001
 40
0.0
 40
0.0
 40
0.0
 40
0.0
 40
0.2681189086
 40
0.494623781
 40
1.0
 40
1.0
 40
1.0
 40
1.0
 10
128.8464901771
 20
89.861532349
 30
0.0
 10
128.8464902938
 20
89.864477115
 30
0.0
 10
128.8471312299
 20
89.8700191081
 30
0.0
 10
128.8534789024
 20
89.8796059744
 30
0.0
 10
128.8625339176
 20
89.8811830187
 30
0.0
 10
128.8680844948
 20
89.8811830041
 30
0.0
  0
SPLINE
  5
505
100
AcDbEntity
  8
GEOM
100
AcDbSpline
 62
7
  6
CONTINUOUS
 70
0
 71
3
 72
9
 73
5
 74
0
 42
0.0000001
 43
0.0000001
 44
0.0000000001
 40
0.0
 40
0.0
 40
0.0
 40
0.0
 40
0.5693970626
 40
1.0
 40
1.0
 40
1.0
 40
1.0
 10
128.6082768943
 20
89.6177840697
 30
0.0
 10
128.6019389282
 20
89.6405011066
 30
0.0
 10
128.5921191518
 20
89.6807462321
 30
0.0
 10
128.5866825089
 20
89.7220703943
 30
0.0
 10
128.586682556
 20
89.7399061029
 30
0.0
  0
SPLINE
  5
506
100
AcDbEntity
  8
GEOM
100
AcDbSpline
 62
7
  6
CONTINUOUS
 70
0
 71
3
 72
9
 73
5
 74
0
 42
0.0000001
 43
0.0000001
 44
0.0000000001
 40
0.0
 40
0.0
 40
0.0
 40
0.0
 40
0.5757777125
 40
1.0
 40
1.0
 40
1.0
 40
1.0
 10
128.8680893551
 20
89.5414141548
 30
0.0
 10
128.8619835335
 20
89.5524519806
 30
0.0
 10
128.8523270434
 20
89.5720774795
 30
0.0
 10
128.8464903517
 20
89.5937376334
 30
0.0
 10
128.8464901771
 20
89.603031442
 30
0.0
  0
SPLINE
  5
507
100
AcDbEntity
  8
GEOM
100
AcDbSpline
 62
7
  6
CONTINUOUS
 70
0
 71
3
 72
9
 73
5
 74
0
 42
0.0000001
 43
0.0000001
 44
0.0000000001
 40
0.0
 40
0.0
 40
0.0
 40
0.0
 40
0.2721734005
 40
1.0
 40
1.0
 40
1.0
 40
1.0
 10
128.586682556
 20
83.7492557914
 30
0.0
 10
128.5866825744
 20
83.7654045069
 30
0.0
 10
128.5883179204
 20
83.824685944
 30
0.0
 10
128.5965839947
 20
83.8840763365
 30
0.0
 10
128.6082768661
 20
83.9256469021
 30
0.0
  0
SPLINE
  5
508
100
AcDbEntity
  8
GEOM
100
AcDbSpline
 62
7
  6
CONTINUOUS
 70
0
 71
3
 72
9
 73
5
 74
0
 42
0.0000001
 43
0.0000001
 44
0.0000000001
 40
0.0
 40
0.0
 40
0.0
 40
0.0
 40
0.2698902121
 40
1.0
 40
1.0
 40
1.0
 40
1.0
 10
128.8464901771
 20
83.6878935294
 30
0.0
 10
128.8464903059
 20
83.696217685
 30
0.0
 10
128.8481400979
 20
83.7270131879
 30
0.0
 10
128.8571834611
 20
83.7575968633
 30
0.0
 10
128.8680844891
 20
83.7773010394
 30
0.0
  0
LINE
  5
509
100
AcDbEntity
  8
0
100
AcDbLine
 62
7
  6
CONTINUOUS
 10
133.8926050592
 20
67.8929718915
 11
133.8914390149
 21
67.8927926367
  0
LINE
  5
50A
100
AcDbEntity
  8
0
100
AcDbLine
 62
7
  6
CONTINUOUS
 10
133.8914390149
 20
67.8927926367
 11
133.7792173195
 21
67.8936168151
  0
LINE
  5
50B
100
AcDbEntity
  8
0
100
AcDbLine
 62
7
  6
CONTINUOUS
 10
133.7792173195
 20
67.8936168151
 11
133.7101774817
 21
67.8941205191
  0
LINE
  5
50C
100
AcDbEntity
  8
0
100
AcDbLine
 62
7
  6
CONTINUOUS
 10
133.7101774817
 20
67.8941205191
 11
133.5912109889
 21
67.8949816736
  0
SPLINE
  5
50D
100
AcDbEntity
  8
0
100
AcDbSpline
 62
7
  6
CONTINUOUS
 70
0
 71
3
 72
11
 73
7
 74
0
 42
0.0000001
 43
0.0000001
 44
0.0000000001
 40
0.0
 40
0.0
 40
0.0
 40
0.0
 40
0.1952014253
 40
0.3975991531
 40
0.6579472776
 40
1.0
 40
1.0
 40
1.0
 40
1.0
 10
133.5912109889
 20
67.8949816736
 30
0.0
 10
133.5899042881
 20
67.8949910815
 30
0.0
 10
133.587139219
 20
67.8956626896
 30
0.0
 10
133.5842005648
 20
67.899232905
 30
0.0
 10
133.5827364434
 20
67.9044920406
 30
0.0
 10
133.5824926178
 20
67.9085355162
 30
0.0
 10
133.5824926178
 20
67.9108253159
 30
0.0
  0
SPLINE
  5
50E
100
AcDbEntity
  8
0
100
AcDbSpline
 62
7
  6
CONTINUOUS
 70
0
 71
3
 72
23
 73
19
 74
0
 42
0.0000001
 43
0.0000001
 44
0.0000000001
 40
0.0
 40
0.0
 40
0.0
 40
0.0
 40
0.188482859
 40
0.3702077927
 40
0.5386977107
 40
0.6160669325
 40
0.6879133771
 40
0.753596191
 40
0.8125270656
 40
0.8641785817
 40
0.9080957052
 40
0.9438858013
 40
0.9586372921
 40
0.9712479474
 40
0.9816946077
 40
0.9899652081
 40
0.9960569454
 40
1.0
 40
1.0
 40
1.0
 40
1.0
 10
134.654417115
 20
78.8811830041
 30
0.0
 10
134.6677784355
 20
78.4117638994
 30
0.0
 10
134.694018087
 20
77.4897562133
 30
0.0
 10
134.7335742774
 20
76.1481616568
 30
0.0
 10
134.7673185564
 20
75.0833589927
 30
0.0
 10
134.7948076564
 20
74.2922652427
 30
0.0
 10
134.8148155357
 20
73.7572141094
 30
0.0
 10
134.8347913622
 20
73.2681357451
 30
0.0
 10
134.8547256092
 20
72.8294180305
 30
0.0
 10
134.8745890199
 20
72.4449875391
 30
0.0
 10
134.894362601
 20
72.1182990758
 30
0.0
 10
134.9115966687
 20
71.8835688917
 30
0.0
 10
134.9258222957
 20
71.7268668438
 30
0.0
 10
134.9357485298
 20
71.6331782159
 30
0.0
 10
134.9456322471
 20
71.5557628879
 30
0.0
 10
134.9553485179
 20
71.4946552471
 30
0.0
 10
134.9649845265
 20
71.4501515255
 30
0.0
 10
134.9724619955
 20
71.4260529283
 30
0.0
 10
134.9770054432
 20
71.4173424666
 30
0.0
  0
SPLINE
  5
50F
100
AcDbEntity
  8
0
100
AcDbSpline
 62
7
  6
CONTINUOUS
 70
0
 71
3
 72
27
 73
23
 74
0
 42
0.0000001
 43
0.0000001
 44
0.0000000001
 40
0.0
 40
0.0
 40
0.0
 40
0.0
 40
0.1947639725
 40
0.3820341036
 40
0.4706065909
 40
0.5546478765
 40
0.6333532581
 40
0.7059669033
 40
0.7717893346
 40
0.8301927569
 40
0.8806135859
 40
0.9225762402
 40
0.9402577561
 40
0.9556858414
 40
0.9688232073
 40
0.9796434194
 40
0.988132973
 40
0.9915026826
 40
0.9942908229
 40
0.996504046
 40
0.9981590941
 40
1.0
 40
1.0
 40
1.0
 40
1.0
 10
134.454417115
 20
78.8811830041
 30
0.0
 10
134.4682537612
 20
78.3950644302
 30
0.0
 10
134.495393623
 20
77.4415314561
 30
0.0
 10
134.5300998288
 20
76.2669632996
 30
0.0
 10
134.5583123756
 20
75.368794688
 30
0.0
 10
134.5790660533
 20
74.7416067916
 30
0.0
 10
134.5997999297
 20
74.1542896638
 30
0.0
 10
134.6205067534
 20
73.6124932996
 30
0.0
 10
134.6411785991
 20
73.1214288294
 30
0.0
 10
134.6617864096
 20
72.6858292542
 30
0.0
 10
134.6823218162
 20
72.3098794711
 30
0.0
 10
134.700162867
 20
72.0356221977
 30
0.0
 10
134.7148137429
 20
71.8487416341
 30
0.0
 10
134.7251388093
 20
71.7337236644
 30
0.0
 10
134.7354100968
 20
71.635915576
 30
0.0
 10
134.7456403396
 20
71.5555269172
 30
0.0
 10
134.7545711392
 20
71.4996136803
 30
0.0
 10
134.7620452337
 20
71.4637544522
 30
0.0
 10
134.7671121035
 20
71.4435756285
 30
0.0
 10
134.7723365479
 20
71.4274792406
 30
0.0
 10
134.7776589444
 20
71.4150864917
 30
0.0
 10
134.7840307353
 20
71.4061981949
 30
0.0
 10
134.7886273792
 20
71.4061939775
 30
0.0
  0
SPLINE
  5
510
100
AcDbEntity
  8
0
100
AcDbSpline
 62
7
  6
CONTINUOUS
 70
0
 71
3
 72
9
 73
5
 74
0
 42
0.0000001
 43
0.0000001
 44
0.0000000001
 40
0.0
 40
0.0
 40
0.0
 40
0.0
 40
0.4309977424
 40
1.0
 40
1.0
 40
1.0
 40
1.0
 10
133.5824926178
 20
68.169090998
 30
0.0
 10
133.5824926178
 20
68.1762297984
 30
0.0
 10
133.5846547957
 20
68.1927571574
 30
0.0
 10
133.5886327302
 20
68.2088413785
 30
0.0
 10
133.5912109883
 20
68.2179064877
 30
0.0
  0
SPLINE
  5
511
100
AcDbEntity
  8
0
100
AcDbSpline
 62
7
  6
CONTINUOUS
 70
0
 71
3
 72
9
 73
5
 74
0
 42
0.0000001
 43
0.0000001
 44
0.0000000001
 40
0.0
 40
0.0
 40
0.0
 40
0.0
 40
0.2446877509
 40
1.0
 40
1.0
 40
1.0
 40
1.0
 10
133.5912109883
 20
68.2179064877
 30
0.0
 10
133.5840364724
 20
68.2173215753
 30
0.0
 10
133.554647085
 20
68.2158188958
 30
0.0
 10
133.5251035931
 20
68.2177563199
 30
0.0
 10
133.5031145042
 20
68.2209518536
 30
0.0
  0
SPLINE
  5
512
100
AcDbEntity
  8
0
100
AcDbSpline
 62
7
  6
CONTINUOUS
 70
0
 71
3
 72
9
 73
5
 74
0
 42
0.0000001
 43
0.0000001
 44
0.0000000001
 40
0.0
 40
0.0
 40
0.0
 40
0.0
 40
0.2512555883
 40
1.0
 40
1.0
 40
1.0
 40
1.0
 10
133.5912109883
 20
68.2179064877
 30
0.0
 10
133.6228146881
 20
68.3290245315
 30
0.0
 10
133.7426910116
 20
68.7729154891
 30
0.0
 10
133.8373963831
 20
69.2237529182
 30
0.0
 10
133.8914390154
 20
69.5637502789
 30
0.0
  0
SPLINE
  5
513
100
AcDbEntity
  8
0
100
AcDbSpline
 62
7
  6
CONTINUOUS
 70
0
 71
3
 72
9
 73
5
 74
0
 42
0.0000001
 43
0.0000001
 44
0.0000000001
 40
0.0
 40
0.0
 40
0.0
 40
0.0
 40
0.2464959057
 40
1.0
 40
1.0
 40
1.0
 40
1.0
 10
133.8914390154
 20
69.5637502789
 30
0.0
 10
133.8847351096
 20
69.562928882
 30
0.0
 10
133.857452986
 20
69.5603221486
 30
0.0
 10
133.8299102853
 20
69.5605534775
 30
0.0
 10
133.8093322868
 20
69.5622298677
 30
0.0
  0
SPLINE
  5
514
100
AcDbEntity
  8
0
100
AcDbSpline
 62
7
  6
CONTINUOUS
 70
0
 71
3
 72
9
 73
5
 74
0
 42
0.0000001
 43
0.0000001
 44
0.0000000001
 40
0.0
 40
0.0
 40
0.0
 40
0.0
 40
0.491940119
 40
1.0
 40
1.0
 40
1.0
 40
1.0
 10
133.8926050592
 20
69.5705658699
 30
0.0
 10
133.9126985624
 20
69.6804863114
 30
0.0
 10
133.9522195878
 20
69.9041727405
 30
0.0
 10
133.9894046673
 20
70.1282570907
 30
0.0
 10
134.0093322868
 20
70.2419269699
 30
0.0
  0
SPLINE
  5
515
100
AcDbEntity
  8
0
100
AcDbSpline
 62
7
  6
CONTINUOUS
 70
0
 71
3
 72
10
 73
6
 74
0
 42
0.0000001
 43
0.0000001
 44
0.0000000001
 40
0.0
 40
0.0
 40
0.0
 40
0.0
 40
0.2410622487
 40
0.4892606259
 40
1.0
 40
1.0
 40
1.0
 40
1.0
 10
134.0093322868
 20
72.0721261548
 30
0.0
 10
133.9988849214
 20
72.118504374
 30
0.0
 10
133.9793231933
 20
72.2129981859
 30
0.0
 10
133.9408783269
 20
72.4064232557
 30
0.0
 10
133.9121264449
 20
72.5533088559
 30
0.0
 10
133.8926050592
 20
72.6521229566
 30
0.0
  0
SPLINE
  5
516
100
AcDbEntity
  8
0
100
AcDbSpline
 62
7
  6
CONTINUOUS
 70
0
 71
3
 72
23
 73
19
 74
0
 42
0.0000001
 43
0.0000001
 44
0.0000000001
 40
0.0
 40
0.0
 40
0.0
 40
0.0
 40
0.1891476407
 40
0.3714665651
 40
0.5404016902
 40
0.6179168068
 40
0.6898517366
 40
0.7555564928
 40
0.8144421168
 40
0.8659749487
 40
0.9096954757
 40
0.9452133111
 40
0.9597958489
 40
0.9722178207
 40
0.982457743
 40
0.9904977043
 40
0.9963337216
 40
1.0
 40
1.0
 40
1.0
 40
1.0
 10
135.3461741563
 20
78.8811830041
 30
0.0
 10
135.3328122962
 20
79.4062056563
 30
0.0
 10
135.306400904
 20
80.4372920149
 30
0.0
 10
135.2667456177
 20
81.9372626751
 30
0.0
 10
135.2328644618
 20
83.1273148598
 30
0.0
 10
135.2052704832
 20
84.0109219526
 30
0.0
 10
135.1851912733
 20
84.6079899908
 30
0.0
 10
135.1651439116
 20
85.1533005852
 30
0.0
 10
135.1451402542
 20
85.6419214561
 30
0.0
 10
135.1252106297
 20
86.0694480308
 30
0.0
 10
135.1053699176
 20
86.4320109761
 30
0.0
 10
135.088077611
 20
86.6919582254
 30
0.0
 10
135.0737834818
 20
86.8649698564
 30
0.0
 10
135.0638292482
 20
86.967917637
 30
0.0
 10
135.0539154179
 20
87.0525687306
 30
0.0
 10
135.0442116257
 20
87.1189040823
 30
0.0
 10
135.0345404888
 20
87.166531869
 30
0.0
 10
135.0270976162
 20
87.192135447
 30
0.0
 10
135.0223946608
 20
87.201163869
 30
0.0
  0
SPLINE
  5
517
100
AcDbEntity
  8
0
100
AcDbSpline
 62
7
  6
CONTINUOUS
 70
0
 71
3
 72
23
 73
19
 74
0
 42
0.0000001
 43
0.0000001
 44
0.0000000001
 40
0.0
 40
0.0
 40
0.0
 40
0.0
 40
0.1891474104
 40
0.3714661149
 40
0.5404011385
 40
0.6179160462
 40
0.689850743
 40
0.75555585
 40
0.814442265
 40
0.8659754656
 40
0.9096961111
 40
0.9452138226
 40
0.9597963101
 40
0.9722181683
 40
0.9824579577
 40
0.9904978256
 40
0.9963337725
 40
1.0
 40
1.0
 40
1.0
 40
1.0
 10
136.6830168121
 20
78.8811830041
 30
0.0
 10
136.6696054427
 20
79.4062037609
 30
0.0
 10
136.6432755262
 20
80.4372909646
 30
0.0
 10
136.6035776799
 20
81.9372590085
 30
0.0
 10
136.5697091196
 20
83.1273100716
 30
0.0
 10
136.5421129355
 20
84.0109156033
 30
0.0
 10
136.5220342331
 20
84.6079834107
 30
0.0
 10
136.5019867437
 20
85.153296533
 30
0.0
 10
136.4819829363
 20
85.6419216016
 30
0.0
 10
136.4620530898
 20
86.0694517242
 30
0.0
 10
136.4422123421
 20
86.4320156831
 30
0.0
 10
136.4249199052
 20
86.6919627717
 30
0.0
 10
136.410625836
 20
86.8649736079
 30
0.0
 10
136.4006716247
 20
86.9679205646
 30
0.0
 10
136.3907578096
 20
87.052570711
 30
0.0
 10
136.3810540859
 20
87.1189052393
 30
0.0
 10
136.3713830357
 20
87.1665324379
 30
0.0
 10
136.3639402198
 20
87.1921356782
 30
0.0
 10
136.359237318
 20
87.2011639689
 30
0.0
  0
SPLINE
  5
518
100
AcDbEntity
  8
0
100
AcDbSpline
 62
7
  6
CONTINUOUS
 70
0
 71
3
 72
23
 73
19
 74
0
 42
0.0000001
 43
0.0000001
 44
0.0000000001
 40
0.0
 40
0.0
 40
0.0
 40
0.0
 40
0.189145153
 40
0.37146266
 40
0.5403959615
 40
0.6179099384
 40
0.6898450059
 40
0.7555516366
 40
0.8144368367
 40
0.8659724786
 40
0.9096930134
 40
0.9452104084
 40
0.9597937404
 40
0.9722176814
 40
0.9824563169
 40
0.9904964951
 40
0.9963348466
 40
1.0
 40
1.0
 40
1.0
 40
1.0
 10
138.0198583512
 20
78.8811830041
 30
0.0
 10
138.0064510361
 20
79.4061970187
 30
0.0
 10
137.9801150217
 20
80.4372733403
 30
0.0
 10
137.9404209769
 20
81.9372254586
 30
0.0
 10
137.9065522439
 20
83.1272645185
 30
0.0
 10
137.8789562629
 20
84.0108627481
 30
0.0
 10
137.8588774673
 20
84.6079325724
 30
0.0
 10
137.8388311133
 20
85.1532470297
 30
0.0
 10
137.8188255475
 20
85.6418791289
 30
0.0
 10
137.7988975706
 20
86.0694119709
 30
0.0
 10
137.7790565187
 20
86.4319811153
 30
0.0
 10
137.7617636199
 20
86.6919290623
 30
0.0
 10
137.7474688097
 20
86.864946897
 30
0.0
 10
137.737517713
 20
86.9678989938
 30
0.0
 10
137.7276031618
 20
87.0525524469
 30
0.0
 10
137.7178970891
 20
87.1188909672
 30
0.0
 10
137.7082320018
 20
87.1665234835
 30
0.0
 10
137.7007848366
 20
87.1921304006
 30
0.0
 10
137.6960791018
 20
87.201153839
 30
0.0
  0
SPLINE
  5
519
100
AcDbEntity
  8
0
100
AcDbSpline
 62
7
  6
CONTINUOUS
 70
0
 71
3
 72
23
 73
19
 74
0
 42
0.0000001
 43
0.0000001
 44
0.0000000001
 40
0.0
 40
0.0
 40
0.0
 40
0.0
 40
0.1891465273
 40
0.3714644689
 40
0.5403987676
 40
0.6179137966
 40
0.6898494667
 40
0.7555558663
 40
0.8144435089
 40
0.8659770275
 40
0.9096977518
 40
0.945214946
 40
0.9597973581
 40
0.9722188952
 40
0.9824583335
 40
0.9904981174
 40
0.996333952
 40
1.0
 40
1.0
 40
1.0
 40
1.0
 10
139.356700622
 20
78.8811830041
 30
0.0
 10
139.3432882539
 20
79.4062013203
 30
0.0
 10
139.3169601869
 20
80.4372840738
 30
0.0
 10
139.2772615905
 20
81.9372456205
 30
0.0
 10
139.2433934665
 20
83.1272929853
 30
0.0
 10
139.215797203
 20
84.0108996051
 30
0.0
 10
139.1957183667
 20
84.6079740831
 30
0.0
 10
139.1756704536
 20
85.1532969353
 30
0.0
 10
139.1556664211
 20
85.6419299178
 30
0.0
 10
139.1357361062
 20
86.0694645635
 30
0.0
 10
139.1158955196
 20
86.4320282247
 30
0.0
 10
139.09860269
 20
86.6919738744
 30
0.0
 10
139.0843089253
 20
86.864982201
 30
0.0
 10
139.074354736
 20
86.9679270851
 30
0.0
 10
139.0644407986
 20
87.0525751058
 30
0.0
 10
139.0547373954
 20
87.118908151
 30
0.0
 10
139.0450666863
 20
87.1665343455
 30
0.0
 10
139.0376239256
 20
87.1921367904
 30
0.0
 10
139.0329210786
 20
87.2011645486
 30
0.0
  0
SPLINE
  5
51A
100
AcDbEntity
  8
GEOM
100
AcDbSpline
 62
7
  6
CONTINUOUS
 70
0
 71
3
 72
9
 73
5
 74
0
 42
0.0000001
 43
0.0000001
 44
0.0000000001
 40
0.0
 40
0.0
 40
0.0
 40
0.0
 40
0.5000192091
 40
1.0
 40
1.0
 40
1.0
 40
1.0
 10
128.6082768675
 20
74.856234144
 30
0.0
 10
128.7394663467
 20
75.5185322136
 30
0.0
 10
128.9469604212
 20
76.8548718498
 30
0.0
 10
129.0196949988
 20
78.2060686685
 30
0.0
 10
129.0196952579
 20
78.8811830041
 30
0.0
  0
SPLINE
  5
51B
100
AcDbEntity
  8
0
100
AcDbSpline
 62
7
  6
CONTINUOUS
 70
0
 71
3
 72
23
 73
19
 74
0
 42
0.0000001
 43
0.0000001
 44
0.0000000001
 40
0.0
 40
0.0
 40
0.0
 40
0.0
 40
0.1891447069
 40
0.3714583777
 40
0.5403928252
 40
0.6179088043
 40
0.6898457398
 40
0.7555526266
 40
0.8144401448
 40
0.8659735186
 40
0.9096939151
 40
0.9452120571
 40
0.9597946463
 40
0.9722169529
 40
0.9824572574
 40
0.9904973749
 40
0.9963335543
 40
1.0
 40
1.0
 40
1.0
 40
1.0
 10
139.1100280092
 20
78.8811830041
 30
0.0
 10
139.1234390588
 20
78.3561697635
 30
0.0
 10
139.1497685887
 20
77.3251040701
 30
0.0
 10
139.1894656909
 20
75.8251591416
 30
0.0
 10
139.223333647
 20
74.6351207024
 30
0.0
 10
139.2509300126
 20
73.7515076075
 30
0.0
 10
139.2710089103
 20
73.1544256836
 30
0.0
 10
139.2910568763
 20
72.6090983638
 30
0.0
 10
139.3110609083
 20
72.1204648266
 30
0.0
 10
139.3309906037
 20
71.692931852
 30
0.0
 10
139.3508315083
 20
71.3303669292
 30
0.0
 10
139.3681233986
 20
71.0704190215
 30
0.0
 10
139.3824177915
 20
70.8974054842
 30
0.0
 10
139.3923720601
 20
70.7944555674
 30
0.0
 10
139.4022858291
 20
70.7098020264
 30
0.0
 10
139.4119899211
 20
70.6434647497
 30
0.0
 10
139.4216613276
 20
70.5958356479
 30
0.0
 10
139.4291042476
 20
70.5702311336
 30
0.0
 10
139.4338073205
 20
70.5612022492
 30
0.0
  0
SPLINE
  5
51C
100
AcDbEntity
  8
0
100
AcDbSpline
 62
7
  6
CONTINUOUS
 70
0
 71
3
 72
23
 73
19
 74
0
 42
0.0000001
 43
0.0000001
 44
0.0000000001
 40
0.0
 40
0.0
 40
0.0
 40
0.0
 40
0.1891446661
 40
0.3714599312
 40
0.540394835
 40
0.6179107192
 40
0.6898472944
 40
0.7555537398
 40
0.8144406849
 40
0.8659735712
 40
0.9096937271
 40
0.9452120435
 40
0.9597946628
 40
0.9722169882
 40
0.9824572829
 40
0.9904973458
 40
0.9963335257
 40
1.0
 40
1.0
 40
1.0
 40
1.0
 10
137.7731864961
 20
78.8811830041
 30
0.0
 10
137.7865963954
 20
78.35616984
 30
0.0
 10
137.8129279586
 20
77.3250998691
 30
0.0
 10
137.8526242321
 20
75.8251493151
 30
0.0
 10
137.8864927011
 20
74.6351054402
 30
0.0
 10
137.9140890427
 20
73.7514923287
 30
0.0
 10
137.9341679401
 20
73.1544128869
 30
0.0
 10
137.9542157899
 20
72.6090893744
 30
0.0
 10
137.9742197193
 20
72.1204600004
 30
0.0
 10
137.9941491964
 20
71.6929306257
 30
0.0
 10
138.0139901319
 20
71.3303672396
 30
0.0
 10
138.0312819459
 20
71.0704194234
 30
0.0
 10
138.0455764036
 20
70.8974052667
 30
0.0
 10
138.0555306689
 20
70.7944552394
 30
0.0
 10
138.0654443937
 20
70.7098018188
 30
0.0
 10
138.0751485452
 20
70.6434647286
 30
0.0
 10
138.0848199678
 20
70.5958357038
 30
0.0
 10
138.092262834
 20
70.570231092
 30
0.0
 10
138.0969659116
 20
70.5612021204
 30
0.0
  0
SPLINE
  5
51D
100
AcDbEntity
  8
0
100
AcDbSpline
 62
7
  6
CONTINUOUS
 70
0
 71
3
 72
23
 73
19
 74
0
 42
0.0000001
 43
0.0000001
 44
0.0000000001
 40
0.0
 40
0.0
 40
0.0
 40
0.0
 40
0.1891454115
 40
0.3714627592
 40
0.5403978944
 40
0.6179135055
 40
0.6898494409
 40
0.7555551034
 40
0.8144412551
 40
0.865973831
 40
0.9096939046
 40
0.9452122297
 40
0.9597948166
 40
0.9722171055
 40
0.9824573492
 40
0.9904973411
 40
0.9963335107
 40
1.0
 40
1.0
 40
1.0
 40
1.0
 10
136.4363438289
 20
78.8811830041
 30
0.0
 10
136.4497737893
 20
78.3561682671
 30
0.0
 10
136.4760726172
 20
77.3250895721
 30
0.0
 10
136.5157864004
 20
75.8251309308
 30
0.0
 10
136.5496500575
 20
74.6350812235
 30
0.0
 10
136.5772472927
 20
73.7514700045
 30
0.0
 10
136.5973259575
 20
73.1543952496
 30
0.0
 10
136.6173735841
 20
72.6090778702
 30
0.0
 10
136.6373774164
 20
72.120453721
 30
0.0
 10
136.6573067477
 20
71.692927624
 30
0.0
 10
136.6771476827
 20
71.330365295
 30
0.0
 10
136.6944394912
 20
71.0704177658
 30
0.0
 10
136.7087339735
 20
70.8974037738
 30
0.0
 10
136.7186882213
 20
70.7944540765
 30
0.0
 10
136.7286018987
 20
70.7098010907
 30
0.0
 10
136.7383060834
 20
70.6434643735
 30
0.0
 10
136.7479774954
 20
70.5958355374
 30
0.0
 10
136.7554202895
 20
70.5702308894
 30
0.0
 10
136.7601233699
 20
70.5612018719
 30
0.0
  0
SPLINE
  5
51E
100
AcDbEntity
  8
0
100
AcDbSpline
 62
7
  6
CONTINUOUS
 70
0
 71
3
 72
23
 73
19
 74
0
 42
0.0000001
 43
0.0000001
 44
0.0000000001
 40
0.0
 40
0.0
 40
0.0
 40
0.0
 40
0.1891476429
 40
0.3714665973
 40
0.5404017302
 40
0.6179169374
 40
0.6898520558
 40
0.7555568624
 40
0.8144422953
 40
0.8659748021
 40
0.9096950789
 40
0.9452129795
 40
0.9597955399
 40
0.9722175908
 40
0.9824576032
 40
0.9904976091
 40
0.9963336751
 40
1.0
 40
1.0
 40
1.0
 40
1.0
 10
135.0995019433
 20
78.8811830041
 30
0.0
 10
135.112912038
 20
78.3561615766
 30
0.0
 10
135.1392440524
 20
77.3250731013
 30
0.0
 10
135.1789408129
 20
75.8251034073
 30
0.0
 10
135.2128097043
 20
74.6350505402
 30
0.0
 10
135.240405899
 20
73.7514427148
 30
0.0
 10
135.2604846864
 20
73.1543737505
 30
0.0
 10
135.2805320275
 20
72.6090630223
 30
0.0
 10
135.3005356817
 20
72.120443447
 30
0.0
 10
135.3204651435
 20
71.6929189952
 30
0.0
 10
135.3403058049
 20
71.330357467
 30
0.0
 10
135.3575979592
 20
71.0704106598
 30
0.0
 10
135.3718921286
 20
70.8973985675
 30
0.0
 10
135.3818463636
 20
70.7944502525
 30
0.0
 10
135.3917601758
 20
70.7097985594
 30
0.0
 10
135.4014640308
 20
70.6434627008
 30
0.0
 10
135.4111352304
 20
70.5958345337
 30
0.0
 10
135.4185781155
 20
70.570230682
 30
0.0
 10
135.4232811103
 20
70.561202135
 30
0.0
  0
SPLINE
  5
51F
100
AcDbEntity
  8
0
100
AcDbSpline
 62
7
  6
CONTINUOUS
 70
0
 71
3
 72
9
 73
5
 74
0
 42
0.0000001
 43
0.0000001
 44
0.0000000001
 40
0.0
 40
0.0
 40
0.0
 40
0.0
 40
0.1808005884
 40
1.0
 40
1.0
 40
1.0
 40
1.0
 10
101.4650567697
 20
70.5502193329
 30
0.0
 10
101.4641709662
 20
70.550218555
 30
0.0
 10
101.4592688531
 20
70.5515951986
 30
0.0
 10
101.4565822519
 20
70.5564878748
 30
0.0
 10
101.4547128067
 20
70.5600394459
 30
0.0
  0
SPLINE
  5
520
100
AcDbEntity
  8
0
100
AcDbSpline
 62
7
  6
CONTINUOUS
 70
0
 71
3
 72
24
 73
20
 74
0
 42
0.0000001
 43
0.0000001
 44
0.0000000001
 40
0.0
 40
0.0
 40
0.0
 40
0.0
 40
0.2015772155
 40
0.3887652558
 40
0.5584811762
 40
0.6356540095
 40
0.7070061422
 40
0.7719625477
 40
0.8299384376
 40
0.8803318707
 40
0.92254102
 40
0.956032453
 40
0.9693588021
 40
0.9803264612
 40
0.9888952459
 40
0.9950439916
 40
0.9972044937
 40
0.998752358
 40
1.0
 40
1.0
 40
1.0
 40
1.0
 10
122.0657111423
 20
88.9200569967
 30
0.0
 10
122.362213222
 20
89.0581193746
 30
0.0
 10
122.9271985286
 20
89.3392694596
 30
0.0
 10
123.7216904171
 20
89.7754071883
 30
0.0
 10
124.3282416092
 20
90.1335825174
 30
0.0
 10
124.7679860511
 20
90.4042526198
 30
0.0
 10
125.061102812
 20
90.5888312552
 30
0.0
 10
125.3263520347
 20
90.7591815804
 30
0.0
 10
125.5618623393
 20
90.9128913248
 30
0.0
 10
125.7656021231
 20
91.047738456
 30
0.0
 10
125.935639813
 20
91.1615212269
 30
0.0
 10
126.055375958
 20
91.2423237724
 30
0.0
 10
126.132944182
 20
91.2949974237
 30
0.0
 10
126.1770410279
 20
91.3249670459
 30
0.0
 10
126.2114350179
 20
91.348523775
 30
0.0
 10
126.2341311332
 20
91.3638046771
 30
0.0
 10
126.2472214241
 20
91.3730566166
 30
0.0
 10
126.2540544993
 20
91.3772033263
 30
0.0
 10
126.2574155007
 20
91.3805318592
 30
0.0
 10
126.2593322868
 20
91.3811830041
 30
0.0
  0
SPLINE
  5
521
100
AcDbEntity
  8
0
100
AcDbSpline
 62
7
  6
CONTINUOUS
 70
0
 71
3
 72
11
 73
7
 74
0
 42
0.0000001
 43
0.0000001
 44
0.0000000001
 40
0.0
 40
0.0
 40
0.0
 40
0.0
 40
0.2471749246
 40
0.4960141035
 40
0.7471880861
 40
1.0
 40
1.0
 40
1.0
 40
1.0
 10
107.3968404143
 20
128.6811830041
 30
0.0
 10
107.4413061305
 20
128.6811830041
 30
0.0
 10
107.5315452033
 20
128.6995554553
 30
0.0
 10
107.645081011
 20
128.7777709148
 30
0.0
 10
107.720773885
 20
128.894079016
 30
0.0
 10
107.7384010328
 20
128.9857032175
 30
0.0
 10
107.7384010392
 20
129.0311830041
 30
0.0
  0
SPLINE
  5
522
100
AcDbEntity
  8
0
100
AcDbSpline
 62
7
  6
CONTINUOUS
 70
0
 71
3
 72
9
 73
5
 74
0
 42
0.0000001
 43
0.0000001
 44
0.0000000001
 40
0.0
 40
0.0
 40
0.0
 40
0.0
 40
0.3953922894
 40
1.0
 40
1.0
 40
1.0
 40
1.0
 10
100.1588710593
 20
86.3448003704
 30
0.0
 10
100.1632326424
 20
86.3363670726
 30
0.0
 10
100.1704935437
 20
86.3132579415
 30
0.0
 10
100.1756490836
 20
86.2898543404
 30
0.0
 10
100.1784195595
 20
86.275602902
 30
0.0
  0
SPLINE
  5
523
100
AcDbEntity
  8
0
100
AcDbSpline
 62
7
  6
CONTINUOUS
 70
0
 71
3
 72
33
 73
29
 74
0
 42
0.0000001
 43
0.0000001
 44
0.0000000001
 40
0.0
 40
0.0
 40
0.0
 40
0.0
 40
0.009141449
 40
0.0225128483
 40
0.0400210777
 40
0.0615148266
 40
0.1156920427
 40
0.1831679181
 40
0.2615932715
 40
0.3482339284
 40
0.4400675075
 40
0.5338893497
 40
0.626424623
 40
0.7144435882
 40
0.7948752794
 40
0.8313577917
 40
0.8649151928
 40
0.8952613369
 40
0.9221240789
 40
0.9452778141
 40
0.9645168514
 40
0.9796810212
 40
0.9856967004
 40
0.9906496143
 40
0.9945344771
 40
0.997355296
 40
0.9991340113
 40
1.0
 40
1.0
 40
1.0
 40
1.0
 10
100.1784195595
 20
86.275602902
 30
0.0
 10
100.1870795914
 20
86.2310553522
 30
0.0
 10
100.2017237494
 20
86.1201307315
 30
0.0
 10
100.2208634671
 20
85.9224031062
 30
0.0
 10
100.2401323345
 20
85.6630843738
 30
0.0
 10
100.2684106696
 20
85.2013762068
 30
0.0
 10
100.3020334987
 20
84.4915070235
 30
0.0
 10
100.3406515466
 20
83.4989963001
 30
0.0
 10
100.3794864255
 20
82.3452210563
 30
0.0
 10
100.4185186619
 20
81.0704747548
 30
0.0
 10
100.4576250435
 20
79.7192626711
 30
0.0
 10
100.4967634833
 20
78.3387770974
 30
0.0
 10
100.5358805505
 20
76.9772354003
 30
0.0
 10
100.5749347972
 20
75.6821939466
 30
0.0
 10
100.608348041
 20
74.6653768162
 30
0.0
 10
100.6355998973
 20
73.9188769686
 30
0.0
 10
100.6553497484
 20
73.4209145301
 30
0.0
 10
100.6750535372
 20
72.9707460592
 30
0.0
 10
100.6947137578
 20
72.5722809138
 30
0.0
 10
100.7142756467
 20
72.2290166543
 30
0.0
 10
100.7337131887
 20
71.9439556564
 30
0.0
 10
100.7507596302
 20
71.7439674001
 30
0.0
 10
100.7648831527
 20
71.6150556343
 30
0.0
 10
100.7747382711
 20
71.5418455965
 30
0.0
 10
100.7840412427
 20
71.4850383939
 30
0.0
 10
100.7941533119
 20
71.4432802421
 30
0.0
 10
100.8017356971
 20
71.4188381823
 30
0.0
 10
100.8113477581
 20
71.4061810139
 30
0.0
 10
100.8156468422
 20
71.4061832311
 30
0.0
  0
SPLINE
  5
524
100
AcDbEntity
  8
0
100
AcDbSpline
 62
7
  6
CONTINUOUS
 70
0
 71
3
 72
9
 73
5
 74
0
 42
0.0000001
 43
0.0000001
 44
0.0000000001
 40
0.0
 40
0.0
 40
0.0
 40
0.0
 40
0.2028162887
 40
1.0
 40
1.0
 40
1.0
 40
1.0
 10
101.4547128067
 20
70.5600394459
 30
0.0
 10
101.4539512663
 20
70.56148622
 30
0.0
 10
101.4505211785
 20
70.5687900221
 30
0.0
 10
101.4480452634
 20
70.5764990641
 30
0.0
 10
101.4462582211
 20
70.5826719254
 30
0.0
  0
SPLINE
  5
525
100
AcDbEntity
  8
0
100
AcDbSpline
 62
7
  6
CONTINUOUS
 70
0
 71
3
 72
38
 73
34
 74
0
 42
0.0000001
 43
0.0000001
 44
0.0000000001
 40
0.0
 40
0.0
 40
0.0
 40
0.0
 40
0.0027368957
 40
0.0065782683
 40
0.0175641366
 40
0.032896831
 40
0.0524394562
 40
0.0760247958
 40
0.1034371292
 40
0.1344319715
 40
0.1687282001
 40
0.2459568387
 40
0.3323321872
 40
0.4247309798
 40
0.5198113947
 40
0.6141343646
 40
0.7042882798
 40
0.746774505
 40
0.7870127623
 40
0.8246411219
 40
0.8593171297
 40
0.8907277281
 40
0.9185897139
 40
0.9426496319
 40
0.9626953264
 40
0.9711528117
 40
0.9785438076
 40
0.9848531859
 40
0.9900665877
 40
0.9941740992
 40
0.9971764909
 40
0.9990883255
 40
1.0
 40
1.0
 40
1.0
 40
1.0
 10
101.4462582211
 20
70.5826719254
 30
0.0
 10
101.442033865
 20
70.5972638374
 30
0.0
 10
101.4345257189
 20
70.6330661351
 30
0.0
 10
101.419657331
 20
70.7294097263
 30
0.0
 10
101.4026295692
 20
70.8960388322
 30
0.0
 10
101.383035866
 20
71.1498184143
 30
0.0
 10
101.363320441
 20
71.4737249643
 30
0.0
 10
101.343394724
 20
71.8647495522
 30
0.0
 10
101.3233966424
 20
72.3194119972
 30
0.0
 10
101.303334797
 20
72.8335701668
 30
0.0
 10
101.2754225819
 20
73.6241319546
 30
0.0
 10
101.2413291867
 20
74.7220479127
 30
0.0
 10
101.2016487286
 20
76.1424329917
 30
0.0
 10
101.1618764604
 20
77.6619373404
 30
0.0
 10
101.1220602884
 20
79.2255678935
 30
0.0
 10
101.0822531319
 20
80.7767344932
 30
0.0
 10
101.0485065877
 20
82.0360374578
 30
0.0
 10
101.0210871648
 20
82.9952040648
 30
0.0
 10
101.0009412144
 20
83.6629166676
 30
0.0
 10
100.9808154717
 20
84.2872585337
 30
0.0
 10
100.960714715
 20
84.8625763917
 30
0.0
 10
100.9406486114
 20
85.3836510656
 30
0.0
 10
100.9206426522
 20
85.8457570898
 30
0.0
 10
100.9007033186
 20
86.2447146848
 30
0.0
 10
100.883388017
 20
86.5359649876
 30
0.0
 10
100.8691768108
 20
86.7346811747
 30
0.0
 10
100.8591475481
 20
86.8572819351
 30
0.0
 10
100.8491897745
 20
86.9617314763
 30
0.0
 10
100.8392137439
 20
87.0480947449
 30
0.0
 10
100.8295691857
 20
87.1153632973
 30
0.0
 10
100.8196203755
 20
87.1655780183
 30
0.0
 10
100.8112448692
 20
87.1946928627
 30
0.0
 10
100.802519624
 20
87.2111855728
 30
0.0
 10
100.7975414618
 20
87.2120932324
 30
0.0
  0
SPLINE
  5
526
100
AcDbEntity
  8
0
100
AcDbSpline
 62
7
  6
CONTINUOUS
 70
0
 71
3
 72
10
 73
6
 74
0
 42
0.0000001
 43
0.0000001
 44
0.0000000001
 40
0.0
 40
0.0
 40
0.0
 40
0.0
 40
0.1059279435
 40
0.2981097053
 40
1.0
 40
1.0
 40
1.0
 40
1.0
 10
96.3628322868
 20
70.5501830041
 30
0.0
 10
96.3601198305
 20
70.5501830041
 30
0.0
 10
96.3536210874
 20
70.556152906
 30
0.0
 10
96.3440618258
 20
70.5793229672
 30
0.0
 10
96.3388230216
 20
70.6021128841
 30
0.0
 10
96.335327483
 20
70.6197427238
 30
0.0
  0
SPLINE
  5
527
100
AcDbEntity
  8
0
100
AcDbSpline
 62
7
  6
CONTINUOUS
 70
0
 71
3
 72
20
 73
16
 74
0
 42
0.0000001
 43
0.0000001
 44
0.0000000001
 40
0.0
 40
0.0
 40
0.0
 40
0.0
 40
0.0066423767
 40
0.0157854147
 40
0.0414394855
 40
0.0766026521
 40
0.1207274496
 40
0.173133844
 40
0.233005251
 40
0.2994049076
 40
0.3713010204
 40
0.5270189643
 40
0.6904641394
 40
0.8514664981
 40
1.0
 40
1.0
 40
1.0
 40
1.0
 10
96.335327483
 20
70.6197427238
 30
0.0
 10
96.3298591741
 20
70.6473222825
 30
0.0
 10
96.320015491
 20
70.7134650498
 30
0.0
 10
96.3005997649
 20
70.8877960965
 30
0.0
 10
96.2782190071
 20
71.1831602093
 30
0.0
 10
96.2524911935
 20
71.626611764
 30
0.0
 10
96.226597065
 20
72.1834743913
 30
0.0
 10
96.2004491458
 20
72.8449926799
 30
0.0
 10
96.1742147809
 20
73.6008625684
 30
0.0
 10
96.147899508
 20
74.4392700809
 30
0.0
 10
96.1117963046
 20
75.6832747309
 30
0.0
 10
96.0678344175
 20
77.3380028016
 30
0.0
 10
96.0162187314
 20
79.3698344324
 30
0.0
 10
95.9646480035
 20
81.3712462361
 30
0.0
 10
95.9282815478
 20
82.6809754926
 30
0.0
 10
95.9093316882
 20
83.309415713
 30
0.0
  0
SPLINE
  5
528
100
AcDbEntity
  8
0
100
AcDbSpline
 62
7
  6
CONTINUOUS
 70
0
 71
3
 72
9
 73
5
 74
0
 42
0.0000001
 43
0.0000001
 44
0.0000000001
 40
0.0
 40
0.0
 40
0.0
 40
0.0
 40
0.1834947798
 40
1.0
 40
1.0
 40
1.0
 40
1.0
 10
96.1478711572
 20
86.3448079171
 30
0.0
 10
96.1493223856
 20
86.3419973049
 30
0.0
 10
96.156103795
 20
86.326109965
 30
0.0
 10
96.1601905679
 20
86.3092527269
 30
0.0
 10
96.1632679791
 20
86.2955179924
 30
0.0
  0
SPLINE
  5
529
100
AcDbEntity
  8
0
100
AcDbSpline
 62
7
  6
CONTINUOUS
 70
0
 71
3
 72
34
 73
30
 74
0
 42
0.0000001
 43
0.0000001
 44
0.0000000001
 40
0.0
 40
0.0
 40
0.0
 40
0.0
 40
0.0083036629
 40
0.0209086509
 40
0.0377146744
 40
0.0585903263
 40
0.0833458016
 40
0.1117706995
 40
0.1785855108
 40
0.2566793532
 40
0.3432940585
 40
0.4353680206
 40
0.5296457679
 40
0.6227941329
 40
0.7115203443
 40
0.7926886418
 40
0.8295300526
 40
0.8634316595
 40
0.8940958875
 40
0.9212528564
 40
0.9446597881
 40
0.9641187471
 40
0.9794533871
 40
0.9855370346
 40
0.9905489347
 40
0.9944798037
 40
0.9973310674
 40
0.9991271025
 40
1.0
 40
1.0
 40
1.0
 40
1.0
 10
96.1632679791
 20
86.2955179924
 30
0.0
 10
96.1722931178
 20
86.2552380697
 30
0.0
 10
96.1869634116
 20
86.1521510132
 30
0.0
 10
96.2061703523
 20
85.9657102773
 30
0.0
 10
96.2254804208
 20
85.7164246367
 30
0.0
 10
96.245120984
 20
85.4066708679
 30
0.0
 10
96.2648479229
 20
85.0390483664
 30
0.0
 10
96.2927817016
 20
84.4431894742
 30
0.0
 10
96.3266270994
 20
83.5821789326
 30
0.0
 10
96.3657318695
 20
82.4319082527
 30
0.0
 10
96.404984725
 20
81.1560096049
 30
0.0
 10
96.4443372516
 20
79.7996273295
 30
0.0
 10
96.4837202887
 20
78.4107529609
 30
0.0
 10
96.5230854832
 20
77.0385267847
 30
0.0
 10
96.5623887155
 20
75.7314954012
 30
0.0
 10
96.5960079235
 20
74.7043305457
 30
0.0
 10
96.6234314633
 20
73.9496559766
 30
0.0
 10
96.6433065952
 20
73.4459379924
 30
0.0
 10
96.6631435891
 20
72.9904008499
 30
0.0
 10
96.6829238414
 20
72.5870892266
 30
0.0
 10
96.7026216889
 20
72.2395423107
 30
0.0
 10
96.7221769756
 20
71.9508924385
 30
0.0
 10
96.7393360183
 20
71.7483514935
 30
0.0
 10
96.7535557994
 20
71.6177862231
 30
0.0
 10
96.7634719717
 20
71.5436128227
 30
0.0
 10
96.7728305324
 20
71.4860594625
 30
0.0
 10
96.7830068478
 20
71.4437624656
 30
0.0
 10
96.7906441527
 20
71.4190413957
 30
0.0
 10
96.8003074804
 20
71.4062146969
 30
0.0
 10
96.8046467551
 20
71.4062026739
 30
0.0
  0
SPLINE
  5
52A
100
AcDbEntity
  8
0
100
AcDbSpline
 62
7
  6
CONTINUOUS
 70
0
 71
3
 72
10
 73
6
 74
0
 42
0.0000001
 43
0.0000001
 44
0.0000000001
 40
0.0
 40
0.0
 40
0.0
 40
0.0
 40
0.1060644468
 40
0.2982701492
 40
1.0
 40
1.0
 40
1.0
 40
1.0
 10
97.6998322868
 20
70.5501830041
 30
0.0
 10
97.6971279891
 20
70.5501830041
 30
0.0
 10
97.6906467304
 20
70.5561181289
 30
0.0
 10
97.6811043732
 20
70.5791852321
 30
0.0
 10
97.6758794239
 20
70.6018691701
 30
0.0
 10
97.6723918724
 20
70.6194177982
 30
0.0
  0
SPLINE
  5
52B
100
AcDbEntity
  8
0
100
AcDbSpline
 62
7
  6
CONTINUOUS
 70
0
 71
3
 72
33
 73
29
 74
0
 42
0.0000001
 43
0.0000001
 44
0.0000000001
 40
0.0
 40
0.0
 40
0.0
 40
0.0
 40
0.008186835
 40
0.0205416868
 40
0.0369694314
 40
0.0573417737
 40
0.0814800959
 40
0.1091857365
 40
0.1743124974
 40
0.2505023177
 40
0.335154244
 40
0.4253761616
 40
0.5180852827
 40
0.6101152065
 40
0.6983217975
 40
0.779685152
 40
0.8169184043
 40
0.8514250986
 40
0.8829065985
 40
0.9110994492
 40
0.9357567513
 40
0.9566750545
 40
0.9736710801
 40
0.9866100597
 40
0.9915254202
 40
0.995391993
 40
0.9982115423
 40
1.0
 40
1.0
 40
1.0
 40
1.0
 10
97.6723918724
 20
70.6194177982
 30
0.0
 10
97.663561809
 20
70.6638488261
 30
0.0
 10
97.6491235981
 20
70.7767482869
 30
0.0
 10
97.6302332488
 20
70.9803898811
 30
0.0
 10
97.6112400924
 20
71.2517557996
 30
0.0
 10
97.5919249805
 20
71.588384792
 30
0.0
 10
97.5725261347
 20
71.9875134295
 30
0.0
 10
97.5450608893
 20
72.6341619379
 30
0.0
 10
97.511772382
 20
73.5688244548
 30
0.0
 10
97.473314902
 20
74.8185786391
 30
0.0
 10
97.4347117147
 20
76.2072465404
 30
0.0
 10
97.3960085514
 20
77.687349202
 30
0.0
 10
97.3572715178
 20
79.2082889117
 30
0.0
 10
97.3185444998
 20
80.7180739908
 30
0.0
 10
97.2798675323
 20
82.1650599189
 30
0.0
 10
97.2468464533
 20
83.30888306
 30
0.0
 10
97.219946515
 20
84.1556182155
 30
0.0
 10
97.2003962599
 20
84.7264363599
 30
0.0
 10
97.1808705329
 20
85.2472003999
 30
0.0
 10
97.161396872
 20
85.7134262288
 30
0.0
 10
97.1419701124
 20
86.121145245
 30
0.0
 10
97.1226864458
 20
86.4668452986
 30
0.0
 10
97.1035101696
 20
86.7475697542
 30
0.0
 10
97.0867549216
 20
86.9397315367
 30
0.0
 10
97.0725536939
 20
87.0590586482
 30
0.0
 10
97.0630766095
 20
87.1226218965
 30
0.0
 10
97.0536538364
 20
87.1684625027
 30
0.0
 10
97.0463879324
 20
87.1931666117
 30
0.0
 10
97.0418539449
 20
87.2019628673
 30
0.0
  0
SPLINE
  5
52C
100
AcDbEntity
  8
0
100
AcDbSpline
 62
7
  6
CONTINUOUS
 70
0
 71
3
 72
10
 73
6
 74
0
 42
0.0000001
 43
0.0000001
 44
0.0000000001
 40
0.0
 40
0.0
 40
0.0
 40
0.0
 40
0.1060672665
 40
0.2982734902
 40
1.0
 40
1.0
 40
1.0
 40
1.0
 10
99.0368322868
 20
70.5501830041
 30
0.0
 10
99.0341281565
 20
70.5501830041
 30
0.0
 10
99.0276472576
 20
70.5561174179
 30
0.0
 10
99.0181052494
 20
70.5791824063
 30
0.0
 10
99.0128805841
 20
70.6018641692
 30
0.0
 10
99.0093931966
 20
70.6194111293
 30
0.0
  0
SPLINE
  5
52D
100
AcDbEntity
  8
0
100
AcDbSpline
 62
7
  6
CONTINUOUS
 70
0
 71
3
 72
33
 73
29
 74
0
 42
0.0000001
 43
0.0000001
 44
0.0000000001
 40
0.0
 40
0.0
 40
0.0
 40
0.0
 40
0.0081865652
 40
0.0205411569
 40
0.036968666
 40
0.05734079
 40
0.0814789238
 40
0.1091844043
 40
0.1743109324
 40
0.2505006599
 40
0.3351525738
 40
0.4253745147
 40
0.5180837705
 40
0.6101139042
 40
0.698320768
 40
0.7796844201
 40
0.8169177979
 40
0.8514246038
 40
0.8829062069
 40
0.911099152
 40
0.9357565378
 40
0.9566749127
 40
0.9736709964
 40
0.9866100195
 40
0.991525396
 40
0.9953919809
 40
0.9982115382
 40
1.0
 40
1.0
 40
1.0
 40
1.0
 10
99.0093931966
 20
70.6194111293
 30
0.0
 10
99.0005630127
 20
70.6638406301
 30
0.0
 10
98.9861248176
 20
70.7767372044
 30
0.0
 10
98.9672344448
 20
70.9803746163
 30
0.0
 10
98.9482413063
 20
71.2517366941
 30
0.0
 10
98.9289261571
 20
71.5883622615
 30
0.0
 10
98.9095272891
 20
71.9874879228
 30
0.0
 10
98.8820619735
 20
72.6341334735
 30
0.0
 10
98.8487733896
 20
73.5687936816
 30
0.0
 10
98.8103158343
 20
74.8185465045
 30
0.0
 10
98.7717125703
 20
76.2072145195
 30
0.0
 10
98.7330093373
 20
77.6873185917
 30
0.0
 10
98.6942722282
 20
79.2082609584
 30
0.0
 10
98.6555451237
 20
80.7180500705
 30
0.0
 10
98.616868059
 20
82.1650409076
 30
0.0
 10
98.5838468969
 20
83.308868367
 30
0.0
 10
98.5569468912
 20
84.1556068278
 30
0.0
 10
98.5373965925
 20
84.7264270888
 30
0.0
 10
98.5178708242
 20
85.2471930528
 30
0.0
 10
98.4983971227
 20
85.7134206294
 30
0.0
 10
98.4789703225
 20
86.1211411946
 30
0.0
 10
98.4596866157
 20
86.4668425712
 30
0.0
 10
98.4405102995
 20
86.7475681003
 30
0.0
 10
98.4237550169
 20
86.9397306124
 30
0.0
 10
98.4095537589
 20
87.0590581683
 30
0.0
 10
98.4000766555
 20
87.1226216429
 30
0.0
 10
98.3906538626
 20
87.1684624004
 30
0.0
 10
98.3833879446
 20
87.1931665878
 30
0.0
 10
98.3788539449
 20
87.2019628671
 30
0.0
  0
SPLINE
  5
52E
100
AcDbEntity
  8
0
100
AcDbSpline
 62
7
  6
CONTINUOUS
 70
0
 71
3
 72
11
 73
7
 74
0
 42
0.0000001
 43
0.0000001
 44
0.0000000001
 40
0.0
 40
0.0
 40
0.0
 40
0.0
 40
0.2383815513
 40
0.4837284628
 40
0.7386010928
 40
1.0
 40
1.0
 40
1.0
 40
1.0
 10
108.6380690599
 20
88.8811830041
 30
0.0
 10
108.6971683696
 20
88.8811830041
 30
0.0
 10
108.8185645445
 20
88.9082061698
 30
0.0
 10
108.9688219957
 20
89.0213078486
 30
0.0
 10
109.0677586838
 20
89.1871768697
 30
0.0
 10
109.0905698087
 20
89.3163772551
 30
0.0
 10
109.0905697738
 20
89.3811830041
 30
0.0
  0
LINE
  5
52F
100
AcDbEntity
  8
0
100
AcDbLine
 62
7
  6
CONTINUOUS
 10
110.0557788994
 20
68.734736391
 11
110.769864546
 21
68.7111054581
  0
SPLINE
  5
530
100
AcDbEntity
  8
0
100
AcDbSpline
 62
7
  6
CONTINUOUS
 70
0
 71
3
 72
10
 73
6
 74
0
 42
0.0000001
 43
0.0000001
 44
0.0000000001
 40
0.0
 40
0.0
 40
0.0
 40
0.0
 40
0.1060699007
 40
0.2982766153
 40
1.0
 40
1.0
 40
1.0
 40
1.0
 10
100.3738322868
 20
70.5501830041
 30
0.0
 10
100.3711283127
 20
70.5501830041
 30
0.0
 10
100.3646477498
 20
70.5561167544
 30
0.0
 10
100.3551060678
 20
70.5791797681
 30
0.0
 10
100.3498816675
 20
70.6018595001
 30
0.0
 10
100.3463944332
 20
70.6194049025
 30
0.0
  0
SPLINE
  5
531
100
AcDbEntity
  8
0
100
AcDbSpline
 62
7
  6
CONTINUOUS
 70
0
 71
3
 72
33
 73
29
 74
0
 42
0.0000001
 43
0.0000001
 44
0.0000000001
 40
0.0
 40
0.0
 40
0.0
 40
0.0
 40
0.0081863128
 40
0.0205406605
 40
0.0369679487
 40
0.0573398674
 40
0.0814778242
 40
0.109183154
 40
0.1743094632
 40
0.2504991048
 40
0.3351510075
 40
0.4253729677
 40
0.5180823487
 40
0.6101126795
 40
0.6983198011
 40
0.7796837355
 40
0.8169172316
 40
0.8514241421
 40
0.8829058416
 40
0.9110988747
 40
0.9357563387
 40
0.9566747804
 40
0.9736709183
 40
0.986609982
 40
0.9915253734
 40
0.9953919696
 40
0.9982115344
 40
1.0
 40
1.0
 40
1.0
 40
1.0
 10
100.3463944332
 20
70.6194049025
 30
0.0
 10
100.3375641372
 20
70.663832975
 30
0.0
 10
100.3231259574
 20
70.7767268454
 30
0.0
 10
100.3042355632
 20
70.9803603379
 30
0.0
 10
100.2852424431
 20
71.2517188094
 30
0.0
 10
100.2659272589
 20
71.5883411585
 30
0.0
 10
100.246528371
 20
71.9874640201
 30
0.0
 10
100.2190629899
 20
72.634106788
 30
0.0
 10
100.1857743343
 20
73.5687648304
 30
0.0
 10
100.1473167084
 20
74.8185163796
 30
0.0
 10
100.1087133726
 20
76.207184493
 30
0.0
 10
100.0700100748
 20
77.6872898666
 30
0.0
 10
100.0312728953
 20
79.2082347038
 30
0.0
 10
99.9925457097
 20
80.7180276026
 30
0.0
 10
99.9538685532
 20
82.1650230714
 30
0.0
 10
99.9208473122
 20
83.3088546105
 30
0.0
 10
99.8939472426
 20
84.1555961898
 30
0.0
 10
99.874396903
 20
84.726418436
 30
0.0
 10
99.854871096
 20
85.2471861985
 30
0.0
 10
99.8353973565
 20
85.7134154057
 30
0.0
 10
99.8159705186
 20
86.1211374156
 30
0.0
 10
99.7966867741
 20
86.4668400266
 30
0.0
 10
99.7775104207
 20
86.7475665573
 30
0.0
 10
99.7607551058
 20
86.9397297502
 30
0.0
 10
99.7465538196
 20
87.0590577207
 30
0.0
 10
99.7370766984
 20
87.1226214063
 30
0.0
 10
99.7276538871
 20
87.1684623051
 30
0.0
 10
99.720387956
 20
87.1931665656
 30
0.0
 10
99.7158539449
 20
87.2019628671
 30
0.0
  0
SPLINE
  5
532
100
AcDbEntity
  8
0
100
AcDbSpline
 62
7
  6
CONTINUOUS
 70
0
 71
3
 72
9
 73
5
 74
0
 42
0.0000001
 43
0.0000001
 44
0.0000000001
 40
0.0
 40
0.0
 40
0.0
 40
0.0
 40
0.4741928014
 40
1.0
 40
1.0
 40
1.0
 40
1.0
 10
108.6380690606
 20
88.8811830041
 30
0.0
 10
108.7019894691
 20
88.8811830041
 30
0.0
 10
108.8374363651
 20
88.8525878416
 30
0.0
 10
108.9541560993
 20
88.7802203493
 30
0.0
 10
109.0085150254
 20
88.7347363947
 30
0.0
  0
SPLINE
  5
533
100
AcDbEntity
  8
0
100
AcDbSpline
 62
7
  6
CONTINUOUS
 70
0
 71
3
 72
9
 73
5
 74
0
 42
0.0000001
 43
0.0000001
 44
0.0000000001
 40
0.0
 40
0.0
 40
0.0
 40
0.0
 40
0.651090992
 40
1.0
 40
1.0
 40
1.0
 40
1.0
 10
108.6995313169
 20
123.9862082572
 30
0.0
 10
108.699947009
 20
123.9910703322
 30
0.0
 10
108.700840305
 20
123.9972796694
 30
0.0
 10
108.704206341
 20
124.0069189354
 30
0.0
 10
108.7068213529
 20
124.0069189354
 30
0.0
  0
SPLINE
  5
534
100
AcDbEntity
  8
0
100
AcDbSpline
 62
7
  6
CONTINUOUS
 70
0
 71
3
 72
37
 73
33
 74
0
 42
0.0000001
 43
0.0000001
 44
0.0000000001
 40
0.0
 40
0.0
 40
0.0
 40
0.0
 40
0.0008913978
 40
0.0027399382
 40
0.0056800311
 40
0.0097356471
 40
0.0149051728
 40
0.0211793397
 40
0.036994683
 40
0.0570548271
 40
0.0811724269
 40
0.1091380037
 40
0.1406885248
 40
0.1755423592
 40
0.2133762922
 40
0.2538458713
 40
0.2965806102
 40
0.3872592081
 40
0.4820953757
 40
0.5776198446
 40
0.6703380752
 40
0.7568584064
 40
0.8340166033
 40
0.8681853321
 40
0.8989927418
 40
0.926149573
 40
0.9494169748
 40
0.9685771891
 40
0.983465966
 40
0.9939566877
 40
0.9975314569
 40
1.0
 40
1.0
 40
1.0
 40
1.0
 10
100.3471469022
 20
86.3561527973
 30
0.0
 10
100.3515903325
 20
86.356142436
 30
0.0
 10
100.3614219562
 20
86.342785976
 30
0.0
 10
100.3691605811
 20
86.3173058224
 30
0.0
 10
100.3795200217
 20
86.2735032656
 30
0.0
 10
100.3890311868
 20
86.2139647703
 30
0.0
 10
100.399122688
 20
86.1372190661
 30
0.0
 10
100.4135885649
 20
86.0021662455
 30
0.0
 10
100.4310395795
 20
85.7927209881
 30
0.0
 10
100.450933601
 20
85.4943423369
 30
0.0
 10
100.4709719754
 20
85.1352687759
 30
0.0
 10
100.4910911796
 20
84.7188568515
 30
0.0
 10
100.5112735396
 20
84.2488720741
 30
0.0
 10
100.5314872696
 20
83.7296573239
 30
0.0
 10
100.5517301016
 20
83.1659529157
 30
0.0
 10
100.5719907479
 20
82.5629410139
 30
0.0
 10
100.5995683213
 20
81.6966074742
 30
0.0
 10
100.6335035483
 20
80.5593340768
 30
0.0
 10
100.6735344414
 20
79.1589810163
 30
0.0
 10
100.7135734069
 20
77.7484569289
 30
0.0
 10
100.7535654489
 20
76.379400912
 30
0.0
 10
100.7934624849
 20
75.101935544
 30
0.0
 10
100.8277565475
 20
74.116297866
 30
0.0
 10
100.8558548138
 20
73.408341709
 30
0.0
 10
100.8760234332
 20
72.9495192078
 30
0.0
 10
100.8961282339
 20
72.5450890442
 30
0.0
 10
100.916157438
 20
72.1988061967
 30
0.0
 10
100.9359406755
 20
71.9137488441
 30
0.0
 10
100.9556356423
 20
71.6926370019
 30
0.0
 10
100.9726518987
 20
71.549168805
 30
0.0
 10
100.9877046885
 20
71.4681582208
 30
0.0
 10
100.9952778386
 20
71.438885481
 30
0.0
 10
100.9996316155
 20
71.4273762421
 30
0.0
  0
SPLINE
  5
535
100
AcDbEntity
  8
0
100
AcDbSpline
 62
7
  6
CONTINUOUS
 70
0
 71
3
 72
8
 73
4
 74
0
 42
0.0000001
 43
0.0000001
 44
0.0000000001
 40
0.0
 40
0.0
 40
0.0
 40
0.0
 40
1.0
 40
1.0
 40
1.0
 40
1.0
 10
100.9996316155
 20
71.4273762421
 30
0.0
 10
101.0009468056
 20
71.4238995281
 30
0.0
 10
101.0023923277
 20
71.4204591637
 30
0.0
 10
101.0041202578
 20
71.4171680359
 30
0.0
  0
SPLINE
  5
536
100
AcDbEntity
  8
0
100
AcDbSpline
 62
7
  6
CONTINUOUS
 70
0
 71
3
 72
9
 73
5
 74
0
 42
0.0000001
 43
0.0000001
 44
0.0000000001
 40
0.0
 40
0.0
 40
0.0
 40
0.0
 40
0.2087674995
 40
1.0
 40
1.0
 40
1.0
 40
1.0
 10
98.8218711574
 20
86.3448283891
 30
0.0
 10
98.8225890358
 20
86.3434377752
 30
0.0
 10
98.8257781951
 20
86.3366480149
 30
0.0
 10
98.8281973608
 20
86.3295247839
 30
0.0
 10
98.8299347762
 20
86.3238536603
 30
0.0
  0
SPLINE
  5
537
100
AcDbEntity
  8
0
100
AcDbSpline
 62
7
  6
CONTINUOUS
 70
0
 71
3
 72
35
 73
31
 74
0
 42
0.0000001
 43
0.0000001
 44
0.0000000001
 40
0.0
 40
0.0
 40
0.0
 40
0.0
 40
0.0071463099
 40
0.0186744537
 40
0.0345070263
 40
0.0545098723
 40
0.0785118965
 40
0.1062925763
 40
0.1721776096
 40
0.2498009206
 40
0.3363717091
 40
0.4287758324
 40
0.5236887073
 40
0.6176953228
 40
0.7074133588
 40
0.7496462382
 40
0.7896152084
 40
0.8269588616
 40
0.8613446255
 40
0.8924571349
 40
0.9200245502
 40
0.9437916197
 40
0.9635544934
 40
0.9791340171
 40
0.985313125
 40
0.9904042671
 40
0.9943994154
 40
0.9972965624
 40
0.9991184534
 40
1.0
 40
1.0
 40
1.0
 40
1.0
 10
98.8315662736
 20
86.3183098523
 30
0.0
 10
98.8412596661
 20
86.2840745748
 30
0.0
 10
98.8557863885
 20
86.1918834119
 30
0.0
 10
98.8751813351
 20
86.0213274585
 30
0.0
 10
98.8944579658
 20
85.7861916372
 30
0.0
 10
98.9142722914
 20
85.4889502283
 30
0.0
 10
98.93412174
 20
85.1320682291
 30
0.0
 10
98.96238198
 20
84.5468901852
 30
0.0
 10
98.9965231249
 20
83.6947198681
 30
0.0
 10
99.0359391334
 20
82.5498450954
 30
0.0
 10
99.0755114861
 20
81.2728660943
 30
0.0
 10
99.1151966891
 20
79.9097700432
 30
0.0
 10
99.1549151739
 20
78.5096369954
 30
0.0
 10
99.194624936
 20
77.1228831252
 30
0.0
 10
99.2282971461
 20
75.9983549881
 30
0.0
 10
99.2556589192
 20
75.142811546
 30
0.0
 10
99.2757518988
 20
74.5479393135
 30
0.0
 10
99.2958285562
 20
73.9921604045
 30
0.0
 10
99.315874807
 20
73.4805073452
 30
0.0
 10
99.3358910761
 20
73.0175680339
 30
0.0
 10
99.3558445165
 20
72.6075535208
 30
0.0
 10
99.3757162506
 20
72.2541096793
 30
0.0
 10
99.3954488264
 20
71.9604807914
 30
0.0
 10
99.4127529936
 20
71.7544108384
 30
0.0
 10
99.4271014346
 20
71.6215527283
 30
0.0
 10
99.437110195
 20
71.5460677656
 30
0.0
 10
99.4465444364
 20
71.4874916541
 30
0.0
 10
99.4568141787
 20
71.4444196814
 30
0.0
 10
99.4644981566
 20
71.4193082645
 30
0.0
 10
99.4742576147
 20
71.4062268239
 30
0.0
 10
99.4786467867
 20
71.4062204566
 30
0.0
  0
SPLINE
  5
538
100
AcDbEntity
  8
0
100
AcDbSpline
 62
7
  6
CONTINUOUS
 70
0
 71
3
 72
34
 73
30
 74
0
 42
0.0000001
 43
0.0000001
 44
0.0000000001
 40
0.0
 40
0.0
 40
0.0
 40
0.0
 40
0.0008755457
 40
0.0026833635
 40
0.0055529865
 40
0.0095052869
 40
0.0145432447
 40
0.0206626854
 40
0.0360888727
 40
0.0556542431
 40
0.0791955723
 40
0.1064976933
 40
0.1373272189
 40
0.1714028036
 40
0.2084267789
 40
0.2899692859
 40
0.3790555101
 40
0.4725161189
 40
0.5670250714
 40
0.6592189533
 40
0.7458174728
 40
0.8237405177
 40
0.8902183705
 40
0.9184110946
 40
0.9428923103
 40
0.9634499883
 40
0.9799042293
 40
0.9921143176
 40
1.0
 40
1.0
 40
1.0
 40
1.0
 10
99.0101467831
 20
86.3561775141
 30
0.0
 10
99.0145019243
 20
86.3561866627
 30
0.0
 10
99.0242191143
 20
86.3432340461
 30
0.0
 10
99.0318454577
 20
86.3183639753
 30
0.0
 10
99.0420654449
 20
86.2757655009
 30
0.0
 10
99.0514532816
 20
86.2178568022
 30
0.0
 10
99.0614085803
 20
86.1432208181
 30
0.0
 10
99.0756688121
 20
86.0118120026
 30
0.0
 10
99.0928789684
 20
85.8079814187
 30
0.0
 10
99.1125086234
 20
85.5175004252
 30
0.0
 10
99.1322596152
 20
85.1678175623
 30
0.0
 10
99.1521122863
 20
84.7620438442
 30
0.0
 10
99.1720082671
 20
84.3038147309
 30
0.0
 10
99.1919502337
 20
83.7971892845
 30
0.0
 10
99.2194583886
 20
83.0384126014
 30
0.0
 10
99.2531821339
 20
82.0060518151
 30
0.0
 10
99.2926099918
 20
80.6930065145
 30
0.0
 10
99.3320995041
 20
79.3154377462
 30
0.0
 10
99.3716057169
 20
77.9224051849
 30
0.0
 10
99.4110799827
 20
76.5635191858
 30
0.0
 10
99.4504503463
 20
75.2871670283
 30
0.0
 10
99.4896688886
 20
74.1387950992
 30
0.0
 10
99.5236245419
 20
73.2809373804
 30
0.0
 10
99.5516749025
 20
72.6889148254
 30
0.0
 10
99.571447654
 20
72.3251710506
 30
0.0
 10
99.591155502
 20
72.019939387
 30
0.0
 10
99.6104503686
 20
71.7757946861
 30
0.0
 10
99.6297362231
 20
71.5950962283
 30
0.0
 10
99.6443642186
 20
71.4959775909
 30
0.0
 10
99.65361198
 20
71.457858245
 30
0.0
  0
SPLINE
  5
539
100
AcDbEntity
  8
0
100
AcDbSpline
 62
7
  6
CONTINUOUS
 70
0
 71
3
 72
9
 73
5
 74
0
 42
0.0000001
 43
0.0000001
 44
0.0000000001
 40
0.0
 40
0.0
 40
0.0
 40
0.0
 40
0.3126734333
 40
1.0
 40
1.0
 40
1.0
 40
1.0
 10
99.65361198
 20
71.457858245
 30
0.0
 10
99.6546662299
 20
71.4535126187
 30
0.0
 10
99.6582790777
 20
71.4397025026
 30
0.0
 10
99.6625421701
 20
71.4258794592
 30
0.0
 10
99.6671203955
 20
71.4171809561
 30
0.0
  0
SPLINE
  5
53A
100
AcDbEntity
  8
0
100
AcDbSpline
 62
7
  6
CONTINUOUS
 70
0
 71
3
 72
10
 73
6
 74
0
 42
0.0000001
 43
0.0000001
 44
0.0000000001
 40
0.0
 40
0.0
 40
0.0
 40
0.0
 40
0.6075221567
 40
0.8472870622
 40
1.0
 40
1.0
 40
1.0
 40
1.0
 10
108.6021859093
 20
124.2337056317
 30
0.0
 10
108.6060269952
 20
124.2300945957
 30
0.0
 10
108.6116655374
 20
124.2252161326
 30
0.0
 10
108.6188999537
 20
124.2206457774
 30
0.0
 10
108.6221110948
 20
124.2190552079
 30
0.0
 10
108.6234363073
 20
124.2190552298
 30
0.0
  0
SPLINE
  5
53B
100
AcDbEntity
  8
0
100
AcDbSpline
 62
7
  6
CONTINUOUS
 70
0
 71
3
 72
9
 73
5
 74
0
 42
0.0000001
 43
0.0000001
 44
0.0000000001
 40
0.0
 40
0.0
 40
0.0
 40
0.0
 40
0.1948717415
 40
1.0
 40
1.0
 40
1.0
 40
1.0
 10
97.4848708739
 20
86.3447742337
 30
0.0
 10
97.4859459594
 20
86.3427001009
 30
0.0
 10
97.490869459
 20
86.3317515891
 30
0.0
 10
97.4941809086
 20
86.3201647668
 30
0.0
 10
97.4966013776
 20
86.3108209802
 30
0.0
  0
SPLINE
  5
53C
100
AcDbEntity
  8
0
100
AcDbSpline
 62
7
  6
CONTINUOUS
 70
0
 71
3
 72
34
 73
30
 74
0
 42
0.0000001
 43
0.0000001
 44
0.0000000001
 40
0.0
 40
0.0
 40
0.0
 40
0.0
 40
0.0075641844
 40
0.0194763472
 40
0.0356612152
 40
0.0559769963
 40
0.0802490778
 40
0.1082634838
 40
0.1744836219
 40
0.2522761099
 40
0.3388624271
 40
0.4311478142
 40
0.5258327828
 40
0.6195313559
 40
0.7088925963
 40
0.7907215544
 40
0.8278844608
 40
0.8620943979
 40
0.8930481064
 40
0.9204639687
 40
0.9441055144
 40
0.9637546785
 40
0.9792493145
 40
0.9853947175
 40
0.9904544326
 40
0.9944246956
 40
0.9973074364
 40
0.9991225241
 40
1.0
 40
1.0
 40
1.0
 40
1.0
 10
97.4966013776
 20
86.3108209802
 30
0.0
 10
97.5060408666
 20
86.274381526
 30
0.0
 10
97.520626295
 20
86.1782834483
 30
0.0
 10
97.5399605168
 20
86.0019862316
 30
0.0
 10
97.5592441796
 20
85.7617587274
 30
0.0
 10
97.5790017482
 20
85.4599946984
 30
0.0
 10
97.5988095263
 20
85.0992284581
 30
0.0
 10
97.6269494573
 20
84.5101669969
 30
0.0
 10
97.660987219
 20
83.6547595639
 30
0.0
 10
97.7002922032
 20
82.5078846589
 30
0.0
 10
97.739751029
 20
81.2312344446
 30
0.0
 10
97.7793174305
 20
79.8704883328
 30
0.0
 10
97.8189170109
 20
78.474335362
 30
0.0
 10
97.8585006494
 20
77.0927393588
 30
0.0
 10
97.8980233082
 20
75.775145073
 30
0.0
 10
97.9318248292
 20
74.738849911
 30
0.0
 10
97.9593990682
 20
73.976957797
 30
0.0
 10
97.9793885554
 20
73.4681339956
 30
0.0
 10
97.9993341585
 20
73.0078529638
 30
0.0
 10
98.019235318
 20
72.6002199595
 30
0.0
 10
98.0390332997
 20
72.248902993
 30
0.0
 10
98.0587140658
 20
71.9570394508
 30
0.0
 10
98.0759620998
 20
71.7522325424
 30
0.0
 10
98.0902592287
 20
71.6201887411
 30
0.0
 10
98.1002409482
 20
71.5451927062
 30
0.0
 10
98.1096482088
 20
71.4869972116
 30
0.0
 10
98.1198976547
 20
71.444184318
 30
0.0
 10
98.1275274864
 20
71.4191978852
 30
0.0
 10
98.1372802715
 20
71.4061866115
 30
0.0
 10
98.141646906
 20
71.4061986424
 30
0.0
  0
SPLINE
  5
53D
100
AcDbEntity
  8
0
100
AcDbSpline
 62
7
  6
CONTINUOUS
 70
0
 71
3
 72
34
 73
30
 74
0
 42
0.0000001
 43
0.0000001
 44
0.0000000001
 40
0.0
 40
0.0
 40
0.0
 40
0.0
 40
0.0008773707
 40
0.0026877105
 40
0.0055671985
 40
0.0095366989
 40
0.0145944424
 40
0.0207332615
 40
0.0362131358
 40
0.0558468337
 40
0.079462438
 40
0.1068562229
 40
0.1377779336
 40
0.171959318
 40
0.2090880198
 40
0.2908500001
 40
0.3801452723
 40
0.4737852402
 40
0.568425888
 40
0.6606874558
 40
0.747275358
 40
0.8250981745
 40
0.8913788165
 40
0.9194319808
 40
0.9437562139
 40
0.9641282923
 40
0.9803767192
 40
0.992361423
 40
1.0
 40
1.0
 40
1.0
 40
1.0
 10
97.6731466805
 20
86.3560919454
 30
0.0
 10
97.6775123296
 20
86.3560859006
 30
0.0
 10
97.6872464339
 20
86.3431364194
 30
0.0
 10
97.6949133292
 20
86.3181781486
 30
0.0
 10
97.7051432321
 20
86.2754224631
 30
0.0
 10
97.71454551
 20
86.2172582202
 30
0.0
 10
97.7245158354
 20
86.142317521
 30
0.0
 10
97.738808797
 20
86.0104036876
 30
0.0
 10
97.7560424725
 20
85.8058022046
 30
0.0
 10
97.7757070032
 20
85.5142493879
 30
0.0
 10
97.7955027449
 20
85.1632870145
 30
0.0
 10
97.8153829463
 20
84.7560959323
 30
0.0
 10
97.835323455
 20
84.2962763022
 30
0.0
 10
97.855295653
 20
83.7879789847
 30
0.0
 10
97.8828576557
 20
83.0268152313
 30
0.0
 10
97.9166368642
 20
81.9914641138
 30
0.0
 10
97.9561368864
 20
80.6749658941
 30
0.0
 10
97.9956971014
 20
79.2943600765
 30
0.0
 10
98.03527364
 20
77.8989890782
 30
0.0
 10
98.0748172585
 20
76.538721473
 30
0.0
 10
98.1142536209
 20
75.2621690446
 30
0.0
 10
98.15353823
 20
74.1149579379
 30
0.0
 10
98.1875511081
 20
73.2589974497
 30
0.0
 10
98.2156757533
 20
72.6692448261
 30
0.0
 10
98.2354698659
 20
72.3077843085
 30
0.0
 10
98.2552133087
 20
72.0051926627
 30
0.0
 10
98.2745105738
 20
71.7640371117
 30
0.0
 10
98.2938132192
 20
71.5866929485
 30
0.0
 10
98.3084372787
 20
71.4898863444
 30
0.0
 10
98.3178134337
 20
71.4530526706
 30
0.0
  0
SPLINE
  5
53E
100
AcDbEntity
  8
0
100
AcDbSpline
 62
7
  6
CONTINUOUS
 70
0
 71
3
 72
9
 73
5
 74
0
 42
0.0000001
 43
0.0000001
 44
0.0000000001
 40
0.0
 40
0.0
 40
0.0
 40
0.0
 40
0.3085494418
 40
1.0
 40
1.0
 40
1.0
 40
1.0
 10
98.3178134337
 20
71.4530526706
 30
0.0
 10
98.3187772935
 20
71.4492662037
 30
0.0
 10
98.3221067906
 20
71.4370688977
 30
0.0
 10
98.326047915
 20
71.4249004872
 30
0.0
 10
98.3301203034
 20
71.4171491906
 30
0.0
  0
SPLINE
  5
53F
100
AcDbEntity
  8
0
100
AcDbSpline
 62
7
  6
CONTINUOUS
 70
0
 71
3
 72
14
 73
10
 74
0
 42
0.0000001
 43
0.0000001
 44
0.0000000001
 40
0.0
 40
0.0
 40
0.0
 40
0.0
 40
0.3539861269
 40
0.4918198269
 40
0.5979373335
 40
0.6811906455
 40
0.766546741
 40
0.8715939177
 40
1.0
 40
1.0
 40
1.0
 40
1.0
 10
110.4153629788
 20
69.0276296135
 30
0.0
 10
110.4336841848
 20
69.0094073686
 30
0.0
 10
110.4581844188
 20
68.9825526995
 30
0.0
 10
110.479790314
 20
68.9445674793
 30
0.0
 10
110.4868718922
 20
68.9211076313
 30
0.0
 10
110.4814850399
 20
68.9003793088
 30
0.0
 10
110.4646175997
 20
68.887770421
 30
0.0
 10
110.4418219399
 20
68.882104419
 30
0.0
 10
110.4247363433
 20
68.8811830041
 30
0.0
 10
110.4153629788
 20
68.8811830041
 30
0.0
  0
SPLINE
  5
540
100
AcDbEntity
  8
0
100
AcDbSpline
 62
7
  6
CONTINUOUS
 70
0
 71
3
 72
11
 73
7
 74
0
 42
0.0000001
 43
0.0000001
 44
0.0000000001
 40
0.0
 40
0.0
 40
0.0
 40
0.0
 40
0.2718717277
 40
0.5334699937
 40
0.7743224965
 40
1.0
 40
1.0
 40
1.0
 40
1.0
 10
110.4153629788
 20
74.9461541615
 30
0.0
 10
110.4356358446
 20
74.9176388603
 30
0.0
 10
110.469661312
 20
74.8571890675
 30
0.0
 10
110.4919429486
 20
74.7576983806
 30
0.0
 10
110.4721256225
 20
74.662989722
 30
0.0
 10
110.4359455079
 20
74.6130905017
 30
0.0
 10
110.4153629788
 20
74.5926007709
 30
0.0
  0
SPLINE
  5
541
100
AcDbEntity
  8
0
100
AcDbSpline
 62
7
  6
CONTINUOUS
 70
0
 71
3
 72
11
 73
7
 74
0
 42
0.0000001
 43
0.0000001
 44
0.0000000001
 40
0.0
 40
0.0
 40
0.0
 40
0.0
 40
0.225680169
 40
0.4665198969
 40
0.7281247393
 40
1.0
 40
1.0
 40
1.0
 40
1.0
 10
110.4153629788
 20
83.1697652372
 30
0.0
 10
110.4359550112
 20
83.1492844317
 30
0.0
 10
110.4721417816
 20
83.0993858907
 30
0.0
 10
110.4919420024
 20
83.0046728472
 30
0.0
 10
110.4696449155
 20
82.905186702
 30
0.0
 10
110.4356240929
 20
82.8447362017
 30
0.0
 10
110.4153629788
 20
82.8162118466
 30
0.0
  0
SPLINE
  5
542
100
AcDbEntity
  8
0
100
AcDbSpline
 62
7
  6
CONTINUOUS
 70
0
 71
3
 72
10
 73
6
 74
0
 42
0.0000001
 43
0.0000001
 44
0.0000000001
 40
0.0
 40
0.0
 40
0.0
 40
0.0
 40
0.1052183476
 40
0.2972811418
 40
1.0
 40
1.0
 40
1.0
 40
1.0
 10
99.4595568794
 20
87.2121830041
 30
0.0
 10
99.4623126412
 20
87.2121830041
 30
0.0
 10
99.4689034698
 20
87.2060271323
 30
0.0
 10
99.4785515827
 20
87.18231058
 30
0.0
 10
99.4838637807
 20
87.1589564674
 30
0.0
 10
99.4874015206
 20
87.1408948461
 30
0.0
  0
SPLINE
  5
543
100
AcDbEntity
  8
0
100
AcDbSpline
 62
7
  6
CONTINUOUS
 70
0
 71
3
 72
33
 73
29
 74
0
 42
0.0000001
 43
0.0000001
 44
0.0000000001
 40
0.0
 40
0.0
 40
0.0
 40
0.0
 40
0.0082705201
 40
0.0207060464
 40
0.0372094995
 40
0.0576526534
 40
0.0818556783
 40
0.1096195393
 40
0.1748408346
 40
0.2510975445
 40
0.3357918805
 40
0.4260283205
 40
0.5187216898
 40
0.6107090717
 40
0.6988499941
 40
0.7801349429
 40
0.8173262544
 40
0.8517892932
 40
0.8832248016
 40
0.9113700878
 40
0.9359795823
 40
0.956849796
 40
0.9737991895
 40
0.9866924359
 40
0.9915859229
 40
0.9954313685
 40
0.9982305794
 40
1.0
 40
1.0
 40
1.0
 40
1.0
 10
99.4874015206
 20
87.1408948461
 30
0.0
 10
99.4961970913
 20
87.0959898312
 30
0.0
 10
99.5106416469
 20
86.9821923793
 30
0.0
 10
99.529528274
 20
86.7772345314
 30
0.0
 10
99.5485263105
 20
86.5046387638
 30
0.0
 10
99.5678359804
 20
86.1668730585
 30
0.0
 10
99.5872310672
 20
85.7667125223
 30
0.0
 10
99.6146818664
 20
85.1189257396
 30
0.0
 10
99.6479580051
 20
84.1831431812
 30
0.0
 10
99.6864046727
 20
82.9323890145
 30
0.0
 10
99.7249972727
 20
81.5431784363
 30
0.0
 10
99.7636888696
 20
80.0629998796
 30
0.0
 10
99.8024130214
 20
78.5424586167
 30
0.0
 10
99.8411254105
 20
77.0335146056
 30
0.0
 10
99.8797870575
 20
75.5877100447
 30
0.0
 10
99.9127964872
 20
74.4450338832
 30
0.0
 10
99.9396884529
 20
73.5992934731
 30
0.0
 10
99.9592315763
 20
73.0292623157
 30
0.0
 10
99.978750009
 20
72.5093113204
 30
0.0
 10
99.9982162359
 20
72.0439159851
 30
0.0
 10
100.0176342746
 20
71.6370332717
 30
0.0
 10
100.0369099674
 20
71.292157983
 30
0.0
 10
100.0560760673
 20
71.012241279
 30
0.0
 10
100.0728230111
 20
70.8207317236
 30
0.0
 10
100.0870216444
 20
70.7019125865
 30
0.0
 10
100.0964900424
 20
70.6387060273
 30
0.0
 10
100.1059068787
 20
70.5932163839
 30
0.0
 10
100.1131668579
 20
70.5687305701
 30
0.0
 10
100.1177127636
 20
70.5600603658
 30
0.0
  0
SPLINE
  5
544
100
AcDbEntity
  8
0
100
AcDbSpline
 62
7
  6
CONTINUOUS
 70
0
 71
3
 72
10
 73
6
 74
0
 42
0.0000001
 43
0.0000001
 44
0.0000000001
 40
0.0
 40
0.0
 40
0.0
 40
0.0
 40
0.1052184301
 40
0.297281238
 40
1.0
 40
1.0
 40
1.0
 40
1.0
 10
98.1225568794
 20
87.2121830041
 30
0.0
 10
98.1253126361
 20
87.2121830041
 30
0.0
 10
98.1319034539
 20
87.2060271544
 30
0.0
 10
98.1415515563
 20
87.1823106666
 30
0.0
 10
98.1468637457
 20
87.1589566209
 30
0.0
 10
98.1504014807
 20
87.1408950506
 30
0.0
  0
SPLINE
  5
545
100
AcDbEntity
  8
0
100
AcDbSpline
 62
7
  6
CONTINUOUS
 70
0
 71
3
 72
33
 73
29
 74
0
 42
0.0000001
 43
0.0000001
 44
0.0000000001
 40
0.0
 40
0.0
 40
0.0
 40
0.0
 40
0.0082705121
 40
0.0207060309
 40
0.0372094773
 40
0.057652625
 40
0.0818556446
 40
0.1096195009
 40
0.1748407878
 40
0.2510974578
 40
0.3357917272
 40
0.4260281321
 40
0.5187214955
 40
0.610708905
 40
0.6988498778
 40
0.7801348054
 40
0.8173261195
 40
0.8517891702
 40
0.8832246934
 40
0.9113699989
 40
0.9359795112
 40
0.9568497502
 40
0.9737991598
 40
0.9866924253
 40
0.9915859183
 40
0.9954313667
 40
0.998230579
 40
1.0
 40
1.0
 40
1.0
 40
1.0
 10
98.1504014807
 20
87.1408950506
 30
0.0
 10
98.159197055
 20
87.0959900809
 30
0.0
 10
98.1736416104
 20
86.9821927132
 30
0.0
 10
98.1925282384
 20
86.7772349866
 30
0.0
 10
98.2115262749
 20
86.5046393282
 30
0.0
 10
98.2308359458
 20
86.16687372
 30
0.0
 10
98.2502310335
 20
85.7667132681
 30
0.0
 10
98.2776818346
 20
85.1189265794
 30
0.0
 10
98.3109579673
 20
84.1831443026
 30
0.0
 10
98.3494046227
 20
82.932390756
 30
0.0
 10
98.3879972041
 20
81.5431809435
 30
0.0
 10
98.4266887907
 20
80.0630029632
 30
0.0
 10
98.4654129414
 20
78.542461755
 30
0.0
 10
98.5041253404
 20
77.0335173261
 30
0.0
 10
98.5427869911
 20
75.5877124326
 30
0.0
 10
98.5757964222
 20
74.4450360809
 30
0.0
 10
98.6026883798
 20
73.599295697
 30
0.0
 10
98.622231502
 20
73.0292643701
 30
0.0
 10
98.641749939
 20
72.5093131138
 30
0.0
 10
98.6612161663
 20
72.0439174854
 30
0.0
 10
98.6806342207
 20
71.6370344222
 30
0.0
 10
98.6999099091
 20
71.2921588008
 30
0.0
 10
98.7190760348
 20
71.0122417593
 30
0.0
 10
98.7358229866
 20
70.8207319738
 30
0.0
 10
98.7500216325
 20
70.7019126811
 30
0.0
 10
98.759490037
 20
70.638706065
 30
0.0
 10
98.7689068763
 20
70.5932163953
 30
0.0
 10
98.7761668569
 20
70.5687305713
 30
0.0
 10
98.7807127636
 20
70.5600603651
 30
0.0
  0
SPLINE
  5
546
100
AcDbEntity
  8
0
100
AcDbSpline
 62
7
  6
CONTINUOUS
 70
0
 71
3
 72
10
 73
6
 74
0
 42
0.0000001
 43
0.0000001
 44
0.0000000001
 40
0.0
 40
0.0
 40
0.0
 40
0.0
 40
0.1052331157
 40
0.2972983746
 40
1.0
 40
1.0
 40
1.0
 40
1.0
 10
96.7855568794
 20
87.2121830041
 30
0.0
 10
96.7883117264
 20
87.2121830041
 30
0.0
 10
96.7949006199
 20
87.2060310786
 30
0.0
 10
96.8045468642
 20
87.1823260799
 30
0.0
 10
96.8098575156
 20
87.1589839217
 30
0.0
 10
96.8133943672
 20
87.1409314428
 30
0.0
  0
SPLINE
  5
547
100
AcDbEntity
  8
0
100
AcDbSpline
 62
7
  6
CONTINUOUS
 70
0
 71
3
 72
33
 73
29
 74
0
 42
0.0000001
 43
0.0000001
 44
0.0000000001
 40
0.0
 40
0.0
 40
0.0
 40
0.0
 40
0.0082690885
 40
0.0207032775
 40
0.0372055207
 40
0.0576475875
 40
0.0818496448
 40
0.1096126522
 40
0.1748328382
 40
0.2510881173
 40
0.3357805234
 40
0.4260163011
 40
0.5187100893
 40
0.6106990216
 40
0.6988422782
 40
0.780128002
 40
0.8173199231
 40
0.8517837226
 40
0.883220074
 40
0.9113662984
 40
0.9359766529
 40
0.9568478686
 40
0.9737979563
 40
0.9866919306
 40
0.9915856471
 40
0.9954312327
 40
0.9982305338
 40
1.0
 40
1.0
 40
1.0
 40
1.0
 10
96.8133943672
 20
87.1409314428
 30
0.0
 10
96.8221905963
 20
87.096034524
 30
0.0
 10
96.8366351163
 20
86.982252144
 30
0.0
 10
96.8555219027
 20
86.7773160101
 30
0.0
 10
96.8745199495
 20
86.5047397542
 30
0.0
 10
96.893829801
 20
86.1669914032
 30
0.0
 10
96.913225039
 20
85.7668460815
 30
0.0
 10
96.9406762456
 20
85.1190740941
 30
0.0
 10
96.9739525568
 20
84.1833082315
 30
0.0
 10
97.0123992882
 20
82.9325760095
 30
0.0
 10
97.050991713
 20
81.5433845817
 30
0.0
 10
97.0896833662
 20
80.0632147406
 30
0.0
 10
97.1284078222
 20
78.5426628478
 30
0.0
 10
97.1671208143
 20
77.0336916562
 30
0.0
 10
97.2057829459
 20
75.5878580821
 30
0.0
 10
97.2387927596
 20
74.4451587893
 30
0.0
 10
97.2656847815
 20
73.5994046116
 30
0.0
 10
97.2852280645
 20
73.0293599297
 30
0.0
 10
97.3047467673
 20
72.5093937069
 30
0.0
 10
97.3242131856
 20
72.04398271
 30
0.0
 10
97.3436318218
 20
71.6370836045
 30
0.0
 10
97.3629075606
 20
71.2921933774
 30
0.0
 10
97.3820745325
 20
71.0122626626
 30
0.0
 10
97.3988217824
 20
70.8207435279
 30
0.0
 10
97.4130209434
 20
70.7019180695
 30
0.0
 10
97.4224896486
 20
70.6387088366
 30
0.0
 10
97.4319066821
 20
70.5932175759
 30
0.0
 10
97.4391667705
 20
70.568730944
 30
0.0
 10
97.4437127643
 20
70.5600604769
 30
0.0
  0
SPLINE
  5
548
100
AcDbEntity
  8
0
100
AcDbSpline
 62
7
  6
CONTINUOUS
 70
0
 71
3
 72
18
 73
14
 74
0
 42
0.0000001
 43
0.0000001
 44
0.0000000001
 40
0.0
 40
0.0
 40
0.0
 40
0.0
 40
0.2095218614
 40
0.3991423058
 40
0.5663167162
 40
0.7088035086
 40
0.8247212881
 40
0.8722082269
 40
0.9125097559
 40
0.9455077414
 40
0.9710950488
 40
0.9892300183
 40
1.0
 40
1.0
 40
1.0
 40
1.0
 10
95.9093316682
 20
74.2143530727
 30
0.0
 10
95.9172150521
 20
73.9586859087
 30
0.0
 10
95.9327853009
 20
73.4716525963
 30
0.0
 10
95.9571449622
 20
72.7807094672
 30
0.0
 10
95.9814062468
 20
72.1716544282
 30
0.0
 10
96.0055649959
 20
71.6526597434
 30
0.0
 10
96.0266014594
 20
71.2797942173
 30
0.0
 10
96.0440312279
 20
71.0317217285
 30
0.0
 10
96.0561381139
 20
70.8847357014
 30
0.0
 10
96.0682255492
 20
70.7646656817
 30
0.0
 10
96.0799286097
 20
70.671583043
 30
0.0
 10
96.0917711652
 20
70.6063689322
 30
0.0
 10
96.1006073498
 20
70.5717052098
 30
0.0
 10
96.1067127643
 20
70.5600604864
 30
0.0
  0
SPLINE
  5
549
100
AcDbEntity
  8
0
100
AcDbSpline
 62
7
  6
CONTINUOUS
 70
0
 71
3
 72
36
 73
32
 74
0
 42
0.0000001
 43
0.0000001
 44
0.0000000001
 40
0.0
 40
0.0
 40
0.0
 40
0.0
 40
0.0008848036
 40
0.0027150378
 40
0.0056217944
 40
0.0096277623
 40
0.0147366968
 40
0.0209399235
 40
0.0365728943
 40
0.0564032601
 40
0.0802526806
 40
0.107908586
 40
0.1391245998
 40
0.1736146207
 40
0.2110731379
 40
0.2511552673
 40
0.2935040898
 40
0.3834420722
 40
0.477639289
 40
0.5726933013
 40
0.6651702622
 40
0.7517294495
 40
0.8292451275
 40
0.8949204286
 40
0.9225612313
 40
0.9463907161
 40
0.9662034487
 40
0.9818158
 40
0.993106737
 40
0.9971040183
 40
1.0
 40
1.0
 40
1.0
 40
1.0
 10
96.3361468675
 20
86.356180232
 30
0.0
 10
96.3405535938
 20
86.3561731281
 30
0.0
 10
96.3503208163
 20
86.3429856989
 30
0.0
 10
96.3580165516
 20
86.3177880942
 30
0.0
 10
96.3683083277
 20
86.2745464699
 30
0.0
 10
96.3777691074
 20
86.2157693148
 30
0.0
 10
96.3877934954
 20
86.1399957197
 30
0.0
 10
96.402163188
 20
86.0066225537
 30
0.0
 10
96.4195073926
 20
85.7997672607
 30
0.0
 10
96.4392770213
 20
85.5050366642
 30
0.0
 10
96.4591835753
 20
85.1502980568
 30
0.0
 10
96.4791813501
 20
84.7387928161
 30
0.0
 10
96.4992297644
 20
84.2742370489
 30
0.0
 10
96.5193206211
 20
83.7608219243
 30
0.0
 10
96.5394312935
 20
83.2032190847
 30
0.0
 10
96.5595661199
 20
82.6064531495
 30
0.0
 10
96.5869759369
 20
81.7484132957
 30
0.0
 10
96.6207105082
 20
80.6209215607
 30
0.0
 10
96.6604944109
 20
79.2309991405
 30
0.0
 10
96.7002869708
 20
77.8284265001
 30
0.0
 10
96.7400441475
 20
76.4639093152
 30
0.0
 10
96.7796887273
 20
75.1867757296
 30
0.0
 10
96.8191655643
 20
74.0431921243
 30
0.0
 10
96.8533911773
 20
73.1930491448
 30
0.0
 10
96.8816926851
 20
72.6102908123
 30
0.0
 10
96.9016258075
 20
72.2558281871
 30
0.0
 10
96.9213355563
 20
71.9613512318
 30
0.0
 10
96.9409482443
 20
71.7295248215
 30
0.0
 10
96.958003357
 20
71.5764823154
 30
0.0
 10
96.9728173489
 20
71.4871359941
 30
0.0
 10
96.9803228766
 20
71.45357092
 30
0.0
 10
96.9844802307
 20
71.4397597329
 30
0.0
  0
SPLINE
  5
54A
100
AcDbEntity
  8
0
100
AcDbSpline
 62
7
  6
CONTINUOUS
 70
0
 71
3
 72
9
 73
5
 74
0
 42
0.0000001
 43
0.0000001
 44
0.0000000001
 40
0.0
 40
0.0
 40
0.0
 40
0.0
 40
0.2947171036
 40
1.0
 40
1.0
 40
1.0
 40
1.0
 10
96.9844802307
 20
71.4397597329
 30
0.0
 10
96.9851650863
 20
71.4374845673
 30
0.0
 10
96.9876042298
 20
71.4298065307
 30
0.0
 10
96.9904745732
 20
71.4222206301
 30
0.0
 10
96.9931203245
 20
71.4171876978
 30
0.0
  0
SPLINE
  5
54B
100
AcDbEntity
  8
0
100
AcDbSpline
 62
7
  6
CONTINUOUS
 70
0
 71
3
 72
9
 73
5
 74
0
 42
0.0000001
 43
0.0000001
 44
0.0000000001
 40
0.0
 40
0.0
 40
0.0
 40
0.0
 40
0.4972601377
 40
1.0
 40
1.0
 40
1.0
 40
1.0
 10
102.7772647013
 20
88.8811830041
 30
0.0
 10
102.6894533157
 20
88.8811830041
 30
0.0
 10
102.5095191726
 20
88.8300164454
 30
0.0
 10
102.3841711207
 20
88.691450951
 30
0.0
 10
102.3442519971
 20
88.612152882
 30
0.0
  0
SPLINE
  5
54C
100
AcDbEntity
  8
0
100
AcDbSpline
 62
7
  6
CONTINUOUS
 70
0
 71
3
 72
9
 73
5
 74
0
 42
0.0000001
 43
0.0000001
 44
0.0000000001
 40
0.0
 40
0.0
 40
0.0
 40
0.0
 40
0.4241991498
 40
1.0
 40
1.0
 40
1.0
 40
1.0
 10
102.0093308455
 20
88.6259963393
 30
0.0
 10
102.0568114325
 20
88.623923747
 30
0.0
 10
102.1687191643
 20
88.6183139499
 30
0.0
 10
102.2807811625
 20
88.617271442
 30
0.0
 10
102.3452434568
 20
88.6147720679
 30
0.0
  0
SPLINE
  5
54D
100
AcDbEntity
  8
0
100
AcDbSpline
 62
7
  6
CONTINUOUS
 70
0
 71
3
 72
9
 73
5
 74
0
 42
0.0000001
 43
0.0000001
 44
0.0000000001
 40
0.0
 40
0.0
 40
0.0
 40
0.0
 40
0.2513873351
 40
1.0
 40
1.0
 40
1.0
 40
1.0
 10
102.3452434568
 20
88.6147720679
 30
0.0
 10
102.3093306995
 20
88.4984733695
 30
0.0
 10
102.173249335
 20
88.0338109597
 30
0.0
 10
102.0675749807
 20
87.5600012177
 30
0.0
 10
102.0093264159
 20
87.2022469793
 30
0.0
  0
SPLINE
  5
54E
100
AcDbEntity
  8
0
100
AcDbSpline
 62
7
  6
CONTINUOUS
 70
0
 71
3
 72
11
 73
7
 74
0
 42
0.0000001
 43
0.0000001
 44
0.0000000001
 40
0.0
 40
0.0
 40
0.0
 40
0.0
 40
0.2808731962
 40
0.5442835742
 40
0.7841435963
 40
1.0
 40
1.0
 40
1.0
 40
1.0
 10
102.7772647013
 20
88.7347363987
 30
0.0
 10
102.7339937301
 20
88.74194509
 30
0.0
 10
102.6483961997
 20
88.7466092355
 30
0.0
 10
102.5262907691
 20
88.7286409805
 30
0.0
 10
102.4213609246
 20
88.6849240756
 30
0.0
 10
102.3656965804
 20
88.6381661053
 30
0.0
 10
102.3442519971
 20
88.612152882
 30
0.0
  0
SPLINE
  5
54F
100
AcDbEntity
  8
0
100
AcDbSpline
 62
7
  6
CONTINUOUS
 70
0
 71
3
 72
11
 73
7
 74
0
 42
0.0000001
 43
0.0000001
 44
0.0000000001
 40
0.0
 40
0.0
 40
0.0
 40
0.0
 40
0.2515371206
 40
0.4999984673
 40
0.7484597018
 40
1.0
 40
1.0
 40
1.0
 40
1.0
 10
102.7768427037
 20
88.7347363947
 30
0.0
 10
102.6354457844
 20
88.2822277016
 30
0.0
 10
102.4080742621
 20
87.364154221
 30
0.0
 10
102.2842778466
 20
85.9522445693
 30
0.0
 10
102.4079779836
 20
84.5402941116
 30
0.0
 10
102.6356083104
 20
83.6222796808
 30
0.0
 10
102.7770069064
 20
83.1697652372
 30
0.0
  0
SPLINE
  5
550
100
AcDbEntity
  8
0
100
AcDbSpline
 62
7
  6
CONTINUOUS
 70
0
 71
3
 72
10
 73
6
 74
0
 42
0.0000001
 43
0.0000001
 44
0.0000000001
 40
0.0
 40
0.0
 40
0.0
 40
0.0
 40
0.2626549285
 40
0.6488945445
 40
1.0
 40
1.0
 40
1.0
 40
1.0
 10
102.7772647013
 20
83.1697652331
 30
0.0
 10
102.7326723575
 20
83.1623361052
 30
0.0
 10
102.6236557656
 20
83.1350714084
 30
0.0
 10
102.4693478003
 20
83.0544063983
 30
0.0
 10
102.3763162192
 20
82.96310525
 30
0.0
 10
102.3442519929
 20
82.9118827004
 30
0.0
  0
SPLINE
  5
551
100
AcDbEntity
  8
0
100
AcDbSpline
 62
7
  6
CONTINUOUS
 70
0
 71
3
 72
9
 73
5
 74
0
 42
0.0000001
 43
0.0000001
 44
0.0000000001
 40
0.0
 40
0.0
 40
0.0
 40
0.0
 40
0.2484437071
 40
1.0
 40
1.0
 40
1.0
 40
1.0
 10
102.0093264845
 20
84.3414449236
 30
0.0
 10
102.0286877998
 20
84.2213373803
 30
0.0
 10
102.1155180643
 20
83.7393362645
 30
0.0
 10
102.2377630406
 20
83.2640229439
 30
0.0
 10
102.3446651808
 20
82.9118688552
 30
0.0
  0
SPLINE
  5
552
100
AcDbEntity
  8
0
100
AcDbSpline
 62
7
  6
CONTINUOUS
 70
0
 71
3
 72
8
 73
4
 74
0
 42
0.0000001
 43
0.0000001
 44
0.0000000001
 40
0.0
 40
0.0
 40
0.0
 40
0.0
 40
1.0
 40
1.0
 40
1.0
 40
1.0
 10
102.3446651808
 20
82.9118688552
 30
0.0
 10
102.201121045
 20
82.2486914838
 30
0.0
 10
102.0865506482
 20
81.5782022531
 30
0.0
 10
102.009326509
 20
80.9040764658
 30
0.0
  0
SPLINE
  5
553
100
AcDbEntity
  8
0
100
AcDbSpline
 62
7
  6
CONTINUOUS
 70
0
 71
3
 72
11
 73
7
 74
0
 42
0.0000001
 43
0.0000001
 44
0.0000000001
 40
0.0
 40
0.0
 40
0.0
 40
0.0
 40
0.3034367279
 40
0.5848307431
 40
0.8228427469
 40
1.0
 40
1.0
 40
1.0
 40
1.0
 10
102.7772647013
 20
82.8162118523
 30
0.0
 10
102.7336063342
 20
82.8264981725
 30
0.0
 10
102.6490256363
 20
82.8444107513
 30
0.0
 10
102.5302147725
 20
82.8704845782
 30
0.0
 10
102.4297510232
 20
82.8929331383
 30
0.0
 10
102.3695221576
 20
82.9050131586
 30
0.0
 10
102.3442519929
 20
82.9118827004
 30
0.0
  0
SPLINE
  5
554
100
AcDbEntity
  8
0
100
AcDbSpline
 62
7
  6
CONTINUOUS
 70
0
 71
3
 72
11
 73
7
 74
0
 42
0.0000001
 43
0.0000001
 44
0.0000000001
 40
0.0
 40
0.0
 40
0.0
 40
0.0
 40
0.2500156844
 40
0.5000000873
 40
0.7499847159
 40
1.0
 40
1.0
 40
1.0
 40
1.0
 10
102.7768397914
 20
82.8162118466
 30
0.0
 10
102.6341924563
 20
82.1706086259
 30
0.0
 10
102.4068160577
 20
80.8654442972
 30
0.0
 10
102.2846544455
 20
78.8811716253
 30
0.0
 10
102.4067223466
 20
76.8968759904
 30
0.0
 10
102.6343474844
 20
75.591756372
 30
0.0
 10
102.7769944851
 20
74.9461541615
 30
0.0
  0
SPLINE
  5
555
100
AcDbEntity
  8
0
100
AcDbSpline
 62
7
  6
CONTINUOUS
 70
0
 71
3
 72
11
 73
7
 74
0
 42
0.0000001
 43
0.0000001
 44
0.0000000001
 40
0.0
 40
0.0
 40
0.0
 40
0.0
 40
0.3034367279
 40
0.5848307427
 40
0.8228427466
 40
1.0
 40
1.0
 40
1.0
 40
1.0
 10
102.7772647013
 20
74.9461541557
 30
0.0
 10
102.7336063294
 20
74.9358678555
 30
0.0
 10
102.6490256255
 20
74.9179553062
 30
0.0
 10
102.5302147577
 20
74.891881496
 30
0.0
 10
102.4297510118
 20
74.8694329237
 30
0.0
 10
102.3695221507
 20
74.8573528752
 30
0.0
 10
102.3442519929
 20
74.8504833078
 30
0.0
  0
SPLINE
  5
556
100
AcDbEntity
  8
0
100
AcDbSpline
 62
7
  6
CONTINUOUS
 70
0
 71
3
 72
8
 73
4
 74
0
 42
0.0000001
 43
0.0000001
 44
0.0000000001
 40
0.0
 40
0.0
 40
0.0
 40
0.0
 40
1.0
 40
1.0
 40
1.0
 40
1.0
 10
102.0093264881
 20
76.8582896882
 30
0.0
 10
102.0865760039
 20
76.1839423233
 30
0.0
 10
102.201069383
 20
75.5132131019
 30
0.0
 10
102.3446699799
 20
74.8498197609
 30
0.0
  0
SPLINE
  5
557
100
AcDbEntity
  8
0
100
AcDbSpline
 62
7
  6
CONTINUOUS
 70
0
 71
3
 72
9
 73
5
 74
0
 42
0.0000001
 43
0.0000001
 44
0.0000000001
 40
0.0
 40
0.0
 40
0.0
 40
0.0
 40
0.5021231099
 40
1.0
 40
1.0
 40
1.0
 40
1.0
 10
102.3446699799
 20
74.8498197609
 30
0.0
 10
102.2732738588
 20
74.6146146155
 30
0.0
 10
102.143960435
 20
74.1421067861
 30
0.0
 10
102.0481140545
 20
73.6615395262
 30
0.0
 10
102.0093265323
 20
73.4209218891
 30
0.0
  0
SPLINE
  5
558
100
AcDbEntity
  8
0
100
AcDbSpline
 62
7
  6
CONTINUOUS
 70
0
 71
3
 72
10
 73
6
 74
0
 42
0.0000001
 43
0.0000001
 44
0.0000000001
 40
0.0
 40
0.0
 40
0.0
 40
0.0
 40
0.2626549397
 40
0.6488945857
 40
1.0
 40
1.0
 40
1.0
 40
1.0
 10
102.7772647013
 20
74.5926007749
 30
0.0
 10
102.7326723624
 20
74.6000299266
 30
0.0
 10
102.6236557835
 20
74.6272946671
 30
0.0
 10
102.4693478407
 20
74.7079596807
 30
0.0
 10
102.3763162384
 20
74.7992607833
 30
0.0
 10
102.3442519929
 20
74.8504833078
 30
0.0
  0
SPLINE
  5
559
100
AcDbEntity
  8
0
100
AcDbSpline
 62
7
  6
CONTINUOUS
 70
0
 71
3
 72
11
 73
7
 74
0
 42
0.0000001
 43
0.0000001
 44
0.0000000001
 40
0.0
 40
0.0
 40
0.0
 40
0.0
 40
0.2515372373
 40
0.4999982882
 40
0.7484596697
 40
1.0
 40
1.0
 40
1.0
 40
1.0
 10
102.7768610853
 20
74.5926007709
 30
0.0
 10
102.6354640105
 20
74.1400915295
 30
0.0
 10
102.4080617741
 20
73.2220249952
 30
0.0
 10
102.2842807998
 20
71.8101110296
 30
0.0
 10
102.4079788769
 20
70.3981610598
 30
0.0
 10
102.6356062829
 20
69.4801444481
 30
0.0
 10
102.7770050037
 20
69.0276296135
 30
0.0
  0
SPLINE
  5
55A
100
AcDbEntity
  8
0
100
AcDbSpline
 62
7
  6
CONTINUOUS
 70
0
 71
3
 72
11
 73
7
 74
0
 42
0.0000001
 43
0.0000001
 44
0.0000000001
 40
0.0
 40
0.0
 40
0.0
 40
0.0
 40
0.2808731591
 40
0.5442835097
 40
0.7841435358
 40
1.0
 40
1.0
 40
1.0
 40
1.0
 10
102.7772647013
 20
69.0276296094
 30
0.0
 10
102.7339937358
 20
69.0204209014
 30
0.0
 10
102.6483962099
 20
69.0157567305
 30
0.0
 10
102.5262907772
 20
69.033724974
 30
0.0
 10
102.4213609233
 20
69.0774418967
 30
0.0
 10
102.3656965796
 20
69.1241998919
 30
0.0
 10
102.3442519948
 20
69.1502131291
 30
0.0
  0
SPLINE
  5
55B
100
AcDbEntity
  8
0
100
AcDbSpline
 62
7
  6
CONTINUOUS
 70
0
 71
3
 72
9
 73
5
 74
0
 42
0.0000001
 43
0.0000001
 44
0.0000000001
 40
0.0
 40
0.0
 40
0.0
 40
0.0
 40
0.2488576745
 40
1.0
 40
1.0
 40
1.0
 40
1.0
 10
102.0093264062
 20
70.5601188669
 30
0.0
 10
102.0286887544
 20
70.4411981204
 30
0.0
 10
102.115560845
 20
69.964816708
 30
0.0
 10
102.2378427155
 20
69.4951778385
 30
0.0
 10
102.3451459659
 20
69.1476960392
 30
0.0
  0
SPLINE
  5
55C
100
AcDbEntity
  8
0
100
AcDbSpline
 62
7
  6
CONTINUOUS
 70
0
 71
3
 72
9
 73
5
 74
0
 42
0.0000001
 43
0.0000001
 44
0.0000000001
 40
0.0
 40
0.0
 40
0.0
 40
0.0
 40
0.5756508094
 40
1.0
 40
1.0
 40
1.0
 40
1.0
 10
102.3451459659
 20
69.1476960392
 30
0.0
 10
102.2807191396
 20
69.1451985586
 30
0.0
 10
102.1686956078
 20
69.143967064
 30
0.0
 10
102.0568137067
 20
69.1385291349
 30
0.0
 10
102.009330339
 20
69.1364509676
 30
0.0
  0
SPLINE
  5
55D
100
AcDbEntity
  8
0
100
AcDbSpline
 62
7
  6
CONTINUOUS
 70
0
 71
3
 72
9
 73
5
 74
0
 42
0.0000001
 43
0.0000001
 44
0.0000000001
 40
0.0
 40
0.0
 40
0.0
 40
0.0
 40
0.4972778311
 40
1.0
 40
1.0
 40
1.0
 40
1.0
 10
102.7772647013
 20
68.8811830041
 30
0.0
 10
102.6894496425
 20
68.8811830042
 30
0.0
 10
102.5095124842
 20
68.9323431649
 30
0.0
 10
102.3841638636
 20
69.0709142853
 30
0.0
 10
102.3442519948
 20
69.1502131291
 30
0.0
  0
SPLINE
  5
55E
100
AcDbEntity
  8
0
100
AcDbSpline
 62
7
  6
CONTINUOUS
 70
0
 71
3
 72
9
 73
5
 74
0
 42
0.0000001
 43
0.0000001
 44
0.0000000001
 40
0.0
 40
0.0
 40
0.0
 40
0.0
 40
0.5032269881
 40
1.0
 40
1.0
 40
1.0
 40
1.0
 10
110.7689100078
 20
68.7122527149
 30
0.0
 10
110.7261637573
 20
68.7642923285
 30
0.0
 10
110.6174455381
 20
68.850465241
 30
0.0
 10
110.4819665018
 20
68.8811669181
 30
0.0
 10
110.4154851117
 20
68.8811867059
 30
0.0
  0
SPLINE
  5
55F
100
AcDbEntity
  8
0
100
AcDbSpline
 62
7
  6
CONTINUOUS
 70
0
 71
3
 72
14
 73
10
 74
0
 42
0.0000001
 43
0.0000001
 44
0.0000000001
 40
0.0
 40
0.0
 40
0.0
 40
0.0
 40
0.2555372329
 40
0.3798254679
 40
0.5026444981
 40
0.6250497322
 40
0.7482319879
 40
0.8730320932
 40
1.0
 40
1.0
 40
1.0
 40
1.0
 10
110.7699436332
 20
68.9953030511
 30
0.0
 10
110.5540131731
 20
69.4228810796
 30
0.0
 10
110.2817775722
 20
70.087972801
 30
0.0
 10
110.0889269741
 20
71.012586528
 30
0.0
 10
110.0393527847
 20
71.7057962075
 30
0.0
 10
110.0886367018
 20
72.3968995842
 30
0.0
 10
110.2318836376
 20
73.078288745
 30
0.0
 10
110.460916674
 20
73.7443922373
 30
0.0
 10
110.660803601
 20
74.1727731346
 30
0.0
 10
110.7699248059
 20
74.3842869293
 30
0.0
  0
SPLINE
  5
560
100
AcDbEntity
  8
0
100
AcDbSpline
 62
7
  6
CONTINUOUS
 70
0
 71
3
 72
9
 73
5
 74
0
 42
0.0000001
 43
0.0000001
 44
0.0000000001
 40
0.0
 40
0.0
 40
0.0
 40
0.0
 40
0.2228315305
 40
1.0
 40
1.0
 40
1.0
 40
1.0
 10
110.7689101786
 20
68.9959089949
 30
0.0
 10
110.7459724599
 20
69.0096700213
 30
0.0
 10
110.6343418066
 20
69.0570391294
 30
0.0
 10
110.5060718234
 20
69.0501189644
 30
0.0
 10
110.415520644
 20
69.0276713129
 30
0.0
  0
SPLINE
  5
561
100
AcDbEntity
  8
0
100
AcDbSpline
 62
7
  6
CONTINUOUS
 70
0
 71
3
 72
13
 73
9
 74
0
 42
0.0000001
 43
0.0000001
 44
0.0000000001
 40
0.0
 40
0.0
 40
0.0
 40
0.0
 40
0.2533820866
 40
0.3772158608
 40
0.4999985432
 40
0.6227814304
 40
0.7466146302
 40
1.0
 40
1.0
 40
1.0
 40
1.0
 10
110.4163726925
 20
69.0276296135
 30
0.0
 10
110.1989205897
 20
69.4657391108
 30
0.0
 10
109.9262895319
 20
70.1482487915
 30
0.0
 10
109.7349755448
 20
71.0965429606
 30
0.0
 10
109.6859122654
 20
71.810138723
 30
0.0
 10
109.7350074774
 20
72.5237245853
 30
0.0
 10
109.9262236461
 20
73.4720522029
 30
0.0
 10
110.1990787176
 20
74.1544853586
 30
0.0
 10
110.4165331587
 20
74.5926007709
 30
0.0
  0
SPLINE
  5
562
100
AcDbEntity
  8
0
100
AcDbSpline
 62
7
  6
CONTINUOUS
 70
0
 71
3
 72
10
 73
6
 74
0
 42
0.0000001
 43
0.0000001
 44
0.0000000001
 40
0.0
 40
0.0
 40
0.0
 40
0.0
 40
0.2433593397
 40
0.6215623482
 40
1.0
 40
1.0
 40
1.0
 40
1.0
 10
110.7689101839
 20
74.385418063
 30
0.0
 10
110.7467317844
 20
74.4107631824
 30
0.0
 10
110.6842485262
 20
74.4705958611
 30
0.0
 10
110.5655614188
 20
74.5440278488
 30
0.0
 10
110.4663842829
 20
74.5802559778
 30
0.0
 10
110.4154813403
 20
74.5925747494
 30
0.0
  0
SPLINE
  5
563
100
AcDbEntity
  8
0
100
AcDbSpline
 62
7
  6
CONTINUOUS
 70
0
 71
3
 72
12
 73
8
 74
0
 42
0.0000001
 43
0.0000001
 44
0.0000000001
 40
0.0
 40
0.0
 40
0.0
 40
0.0
 40
0.2500022794
 40
0.4999093457
 40
0.7498181765
 40
0.8749126249
 40
1.0
 40
1.0
 40
1.0
 40
1.0
 10
110.4159985696
 20
74.9461541615
 30
0.0
 10
110.1944069871
 20
75.5775248851
 30
0.0
 10
109.8329252427
 20
76.8720796647
 30
0.0
 10
109.6368694485
 20
78.881120634
 30
0.0
 10
109.8003258343
 20
80.5564682815
 30
0.0
 10
110.1039374431
 20
81.8611556013
 30
0.0
 10
110.3059510108
 20
82.5003081828
 30
0.0
 10
110.4168217619
 20
82.8162118466
 30
0.0
  0
SPLINE
  5
564
100
AcDbEntity
  8
0
100
AcDbSpline
 62
7
  6
CONTINUOUS
 70
0
 71
3
 72
9
 73
5
 74
0
 42
0.0000001
 43
0.0000001
 44
0.0000000001
 40
0.0
 40
0.0
 40
0.0
 40
0.0
 40
0.4515008669
 40
1.0
 40
1.0
 40
1.0
 40
1.0
 10
110.7689101457
 20
82.6921415577
 30
0.0
 10
110.7165475553
 20
82.7130163764
 30
0.0
 10
110.5986084323
 20
82.7541790509
 30
0.0
 10
110.4803033502
 20
82.7940035453
 30
0.0
 10
110.4155070843
 20
82.8161625674
 30
0.0
  0
SPLINE
  5
565
100
AcDbEntity
  8
0
100
AcDbSpline
 62
7
  6
CONTINUOUS
 70
0
 71
3
 72
11
 73
7
 74
0
 42
0.0000001
 43
0.0000001
 44
0.0000000001
 40
0.0
 40
0.0
 40
0.0
 40
0.0
 40
0.2500501369
 40
0.5000020118
 40
0.7499550055
 40
1.0
 40
1.0
 40
1.0
 40
1.0
 10
110.76967013
 20
75.0705087858
 30
0.0
 10
110.5494202161
 20
75.68076478
 30
0.0
 10
110.1874770295
 20
76.9328441008
 30
0.0
 10
109.9900235809
 20
78.8811638428
 30
0.0
 10
110.1871510768
 20
80.8296034339
 30
0.0
 10
110.5499142618
 20
82.0814319437
 30
0.0
 10
110.7701524556
 20
82.6916779826
 30
0.0
  0
SPLINE
  5
566
100
AcDbEntity
  8
0
100
AcDbSpline
 62
7
  6
CONTINUOUS
 70
0
 71
3
 72
12
 73
8
 74
0
 42
0.0000001
 43
0.0000001
 44
0.0000000001
 40
0.0
 40
0.0
 40
0.0
 40
0.0
 40
0.2545624486
 40
0.5032742325
 40
0.6266563845
 40
0.7501895172
 40
1.0
 40
1.0
 40
1.0
 40
1.0
 10
110.76995425
 20
83.3781113834
 30
0.0
 10
110.6041644634
 20
83.6994677137
 30
0.0
 10
110.3140585098
 20
84.3561465909
 30
0.0
 10
110.1039801175
 20
85.2275732695
 30
0.0
 10
110.0478981107
 20
85.9306388257
 30
0.0
 10
110.0679421211
 20
86.6370619672
 30
0.0
 10
110.1682236417
 20
87.1624941658
 30
0.0
 10
110.2657620519
 20
87.5036777922
 30
0.0
  0
SPLINE
  5
567
100
AcDbEntity
  8
0
100
AcDbSpline
 62
7
  6
CONTINUOUS
 70
0
 71
3
 72
9
 73
5
 74
0
 42
0.0000001
 43
0.0000001
 44
0.0000000001
 40
0.0
 40
0.0
 40
0.0
 40
0.0
 40
0.2436553536
 40
1.0
 40
1.0
 40
1.0
 40
1.0
 10
110.7689100741
 20
83.3769479307
 30
0.0
 10
110.7463126171
 20
83.3521733272
 30
0.0
 10
110.6451747379
 20
83.2584191144
 30
0.0
 10
110.5165289134
 20
83.1948935775
 30
0.0
 10
110.4155090972
 20
83.1697990415
 30
0.0
  0
SPLINE
  5
568
100
AcDbEntity
  8
0
100
AcDbSpline
 62
7
  6
CONTINUOUS
 70
0
 71
3
 72
11
 73
7
 74
0
 42
0.0000001
 43
0.0000001
 44
0.0000000001
 40
0.0
 40
0.0
 40
0.0
 40
0.0
 40
0.2558842408
 40
0.5053054504
 40
0.7516879058
 40
1.0
 40
1.0
 40
1.0
 40
1.0
 10
110.416455913
 20
83.1697652372
 30
0.0
 10
110.2494441872
 20
83.5062511293
 30
0.0
 10
109.9594525422
 20
84.1924005197
 30
0.0
 10
109.708680064
 20
85.2738127649
 30
0.0
 10
109.6809341605
 20
86.373733702
 30
0.0
 10
109.8144791143
 20
87.0931161142
 30
0.0
 10
109.9123208021
 20
87.4442776693
 30
0.0
  0
SPLINE
  5
569
100
AcDbEntity
  8
0
100
AcDbSpline
 62
7
  6
CONTINUOUS
 70
0
 71
3
 72
9
 73
5
 74
0
 42
0.0000001
 43
0.0000001
 44
0.0000000001
 40
0.0
 40
0.0
 40
0.0
 40
0.0
 40
0.5204822717
 40
1.0
 40
1.0
 40
1.0
 40
1.0
 10
109.0084629399
 20
88.7347108032
 30
0.0
 10
109.103577096
 20
88.7623315514
 30
0.0
 10
109.2759860109
 20
88.853609094
 30
0.0
 10
109.4045706084
 20
89.0045830381
 30
0.0
 10
109.4409337577
 20
89.088272734
 30
0.0
  0
SPLINE
  5
56A
100
AcDbEntity
  8
0
100
AcDbSpline
 62
7
  6
CONTINUOUS
 70
0
 71
3
 72
17
 73
13
 74
0
 42
0.0000001
 43
0.0000001
 44
0.0000000001
 40
0.0
 40
0.0
 40
0.0
 40
0.0
 40
0.182244776
 40
0.360319859
 40
0.5279310449
 40
0.6776361157
 40
0.8017357783
 40
0.8935415027
 40
0.9272141651
 40
0.9539738549
 40
0.9768088849
 40
1.0
 40
1.0
 40
1.0
 40
1.0
 10
108.6995313169
 20
122.9919968838
 30
0.0
 10
108.6995569525
 20
122.9453297859
 30
0.0
 10
108.6973610852
 20
122.8530452859
 30
0.0
 10
108.6870394492
 20
122.7181783728
 30
0.0
 10
108.6696304983
 20
122.5924489941
 30
0.0
 10
108.6456604653
 20
122.4817760791
 30
0.0
 10
108.6165471261
 20
122.3927474496
 30
0.0
 10
108.5872455072
 20
122.3350571613
 30
0.0
 10
108.5609363241
 20
122.3059428533
 30
0.0
 10
108.5425149882
 20
122.2943333957
 30
0.0
 10
108.5233486938
 20
122.2918156931
 30
0.0
 10
108.5119146395
 20
122.2962069862
 30
0.0
 10
108.506823301
 20
122.2992638079
 30
0.0
  0
SPLINE
  5
56B
100
AcDbEntity
  8
0
100
AcDbSpline
 62
7
  6
CONTINUOUS
 70
0
 71
3
 72
15
 73
11
 74
0
 42
0.0000001
 43
0.0000001
 44
0.0000000001
 40
0.0
 40
0.0
 40
0.0
 40
0.0
 40
0.0624669991
 40
0.1563285897
 40
0.2927627447
 40
0.4546559042
 40
0.6236548193
 40
0.780050397
 40
0.90236191
 40
1.0
 40
1.0
 40
1.0
 40
1.0
 10
108.6021759427
 20
124.2336956306
 30
0.0
 10
108.6028871277
 20
124.2280933354
 30
0.0
 10
108.6005854559
 20
124.2139173026
 30
0.0
 10
108.6026163316
 20
124.1873676558
 30
0.0
 10
108.6117599416
 20
124.1529866394
 30
0.0
 10
108.6257844621
 20
124.1131053097
 30
0.0
 10
108.643635884
 20
124.0728248643
 30
0.0
 10
108.6622907999
 20
124.0367385116
 30
0.0
 10
108.6824362704
 20
124.0093284344
 30
0.0
 10
108.6954334706
 20
123.9940262528
 30
0.0
 10
108.6995313169
 20
123.9862082572
 30
0.0
  0
SPLINE
  5
56C
100
AcDbEntity
  8
0
100
AcDbSpline
 62
7
  6
CONTINUOUS
 70
0
 71
3
 72
15
 73
11
 74
0
 42
0.0000001
 43
0.0000001
 44
0.0000000001
 40
0.0
 40
0.0
 40
0.0
 40
0.0
 40
0.0449478505
 40
0.0757778145
 40
0.1133949612
 40
0.2094422538
 40
0.3319931765
 40
0.477392136
 40
0.6410326651
 40
1.0
 40
1.0
 40
1.0
 40
1.0
 10
107.7384010392
 20
129.0311830041
 30
0.0
 10
107.7495822872
 20
129.0311860582
 30
0.0
 10
107.7677082365
 20
129.0207495044
 30
0.0
 10
107.7861587377
 20
128.9997606226
 30
0.0
 10
107.8087144075
 20
128.9653201164
 30
0.0
 10
107.8344184593
 20
128.9067324724
 30
0.0
 10
107.8613095738
 20
128.8201501383
 30
0.0
 10
107.8843130302
 20
128.7151621144
 30
0.0
 10
107.9086464843
 20
128.5506961874
 30
0.0
 10
107.9156471614
 20
128.4204798805
 30
0.0
 10
107.91568186
 20
128.3311830041
 30
0.0
  0
SPLINE
  5
56D
100
AcDbEntity
  8
0
100
AcDbSpline
 62
7
  6
CONTINUOUS
 70
0
 71
3
 72
13
 73
9
 74
0
 42
0.0000001
 43
0.0000001
 44
0.0000000001
 40
0.0
 40
0.0
 40
0.0
 40
0.0
 40
0.3344879126
 40
0.6213082355
 40
0.7400759381
 40
0.8409693895
 40
0.9252486971
 40
1.0
 40
1.0
 40
1.0
 40
1.0
 10
107.5806526338
 20
128.3311830041
 30
0.0
 10
107.5807109303
 20
128.3784758492
 30
0.0
 10
107.5699082268
 20
128.4666467483
 30
0.0
 10
107.5320505656
 20
128.5657035303
 30
0.0
 10
107.4914586341
 20
128.6250626039
 30
0.0
 10
107.4613112827
 20
128.65602864
 30
0.0
 10
107.4300538766
 20
128.6762531664
 30
0.0
 10
107.4074094194
 20
128.6811830041
 30
0.0
 10
107.3968404143
 20
128.6811830041
 30
0.0
  0
SPLINE
  5
56E
100
AcDbEntity
  8
0
100
AcDbSpline
 62
7
  6
CONTINUOUS
 70
0
 71
3
 72
9
 73
5
 74
0
 42
0.0000001
 43
0.0000001
 44
0.0000000001
 40
0.0
 40
0.0
 40
0.0
 40
0.0
 40
0.5029710148
 40
1.0
 40
1.0
 40
1.0
 40
1.0
 10
107.91568186
 20
125.0054470728
 30
0.0
 10
107.9156961843
 20
124.9651665585
 30
0.0
 10
107.9348793537
 20
124.8840746681
 30
0.0
 10
107.9861755779
 20
124.8194596997
 30
0.0
 10
108.0161900198
 20
124.7933150384
 30
0.0
  0
SPLINE
  5
56F
100
AcDbEntity
  8
0
100
AcDbSpline
 62
7
  6
CONTINUOUS
 70
0
 71
3
 72
9
 73
5
 74
0
 42
0.0000001
 43
0.0000001
 44
0.0000000001
 40
0.0
 40
0.0
 40
0.0
 40
0.0
 40
0.5001226792
 40
1.0
 40
1.0
 40
1.0
 40
1.0
 10
107.5806526338
 20
125.0054470728
 30
0.0
 10
107.5807048293
 20
124.9202053572
 30
0.0
 10
107.6166095412
 20
124.7479154691
 30
0.0
 10
107.7181226883
 20
124.6046904194
 30
0.0
 10
107.7797197758
 20
124.545827665
 30
0.0
  0
SPLINE
  5
570
100
AcDbEntity
  8
0
100
AcDbSpline
 62
7
  6
CONTINUOUS
 70
0
 71
3
 72
11
 73
7
 74
0
 42
0.0000001
 43
0.0000001
 44
0.0000000001
 40
0.0
 40
0.0
 40
0.0
 40
0.0
 40
0.1933557412
 40
0.4189044458
 40
0.6871412012
 40
1.0
 40
1.0
 40
1.0
 40
1.0
 10
109.0905697752
 20
89.3811830041
 30
0.0
 10
109.1212064094
 20
89.3811950661
 30
0.0
 10
109.1877916136
 20
89.3650188595
 30
0.0
 10
109.2795687306
 20
89.3039941754
 30
0.0
 10
109.3670558898
 20
89.2096810005
 30
0.0
 10
109.4172279545
 20
89.1319396425
 30
0.0
 10
109.4410810356
 20
89.0884842881
 30
0.0
  0
SPLINE
  5
571
100
AcDbEntity
  8
0
100
AcDbSpline
 62
7
  6
CONTINUOUS
 70
0
 71
3
 72
9
 73
5
 74
0
 42
0.0000001
 43
0.0000001
 44
0.0000000001
 40
0.0
 40
0.0
 40
0.0
 40
0.0
 40
0.5014843899
 40
1.0
 40
1.0
 40
1.0
 40
1.0
 10
110.7775318917
 20
82.7167626342
 30
0.0
 10
110.7761283285
 20
82.7126185064
 30
0.0
 10
110.772659185
 20
82.7045569468
 30
0.0
 10
110.7716292384
 20
82.6957690591
 30
0.0
 10
110.7701524556
 20
82.6916779826
 30
0.0
  0
SPLINE
  5
572
100
AcDbEntity
  8
0
100
AcDbSpline
 62
7
  6
CONTINUOUS
 70
0
 71
3
 72
9
 73
5
 74
0
 42
0.0000001
 43
0.0000001
 44
0.0000000001
 40
0.0
 40
0.0
 40
0.0
 40
0.0
 40
0.5125579815
 40
1.0
 40
1.0
 40
1.0
 40
1.0
 10
110.76995425
 20
83.3781113834
 30
0.0
 10
110.7715306361
 20
83.3750554752
 30
0.0
 10
110.7725815415
 20
83.3682393145
 30
0.0
 10
110.7761322696
 20
83.362463249
 30
0.0
 10
110.7775269829
 20
83.3595055482
 30
0.0
  0
SPLINE
  5
573
100
AcDbEntity
  8
0
100
AcDbSpline
 62
7
  6
CONTINUOUS
 70
0
 71
3
 72
9
 73
5
 74
0
 42
0.0000001
 43
0.0000001
 44
0.0000000001
 40
0.0
 40
0.0
 40
0.0
 40
0.0
 40
0.4878658914
 40
1.0
 40
1.0
 40
1.0
 40
1.0
 10
110.7775318961
 20
74.4028643792
 30
0.0
 10
110.7761364747
 20
74.3999066915
 30
0.0
 10
110.7726063618
 20
74.394129117
 30
0.0
 10
110.7714991197
 20
74.3873376908
 30
0.0
 10
110.7699248059
 20
74.3842869293
 30
0.0
  0
SPLINE
  5
574
100
AcDbEntity
  8
0
100
AcDbSpline
 62
7
  6
CONTINUOUS
 70
0
 71
3
 72
9
 73
5
 74
0
 42
0.0000001
 43
0.0000001
 44
0.0000000001
 40
0.0
 40
0.0
 40
0.0
 40
0.0
 40
0.4994679857
 40
1.0
 40
1.0
 40
1.0
 40
1.0
 10
110.76967013
 20
75.0705087858
 30
0.0
 10
110.7711460756
 20
75.0664188297
 30
0.0
 10
110.7729118904
 20
75.0578468233
 30
0.0
 10
110.7761296984
 20
75.0497385537
 30
0.0
 10
110.7775269579
 20
75.0456112712
 30
0.0
  0
SPLINE
  5
575
100
AcDbEntity
  8
0
100
AcDbSpline
 62
7
  6
CONTINUOUS
 70
0
 71
3
 72
9
 73
5
 74
0
 42
0.0000001
 43
0.0000001
 44
0.0000000001
 40
0.0
 40
0.0
 40
0.0
 40
0.0
 40
0.5438150056
 40
1.0
 40
1.0
 40
1.0
 40
1.0
 10
110.7775318973
 20
68.7123044253
 30
0.0
 10
110.7761123473
 20
68.712240627
 30
0.0
 10
110.7733981436
 20
68.7128476908
 30
0.0
 10
110.7710560262
 20
68.7110700388
 30
0.0
 10
110.769864546
 20
68.7111054581
 30
0.0
  0
SPLINE
  5
576
100
AcDbEntity
  8
0
100
AcDbSpline
 62
7
  6
CONTINUOUS
 70
0
 71
3
 72
9
 73
5
 74
0
 42
0.0000001
 43
0.0000001
 44
0.0000000001
 40
0.0
 40
0.0
 40
0.0
 40
0.0
 40
0.4746472716
 40
1.0
 40
1.0
 40
1.0
 40
1.0
 10
110.7699436332
 20
68.9953030511
 30
0.0
 10
110.7712562798
 20
68.9927035256
 30
0.0
 10
110.7730880693
 20
68.9868009329
 30
0.0
 10
110.7761175645
 20
68.9814415566
 30
0.0
 10
110.777526982
 20
68.9785427952
 30
0.0
  0
SPLINE
  5
577
100
AcDbEntity
  8
0
100
AcDbSpline
 62
7
  6
CONTINUOUS
 70
0
 71
3
 72
9
 73
5
 74
0
 42
0.0000001
 43
0.0000001
 44
0.0000000001
 40
0.0
 40
0.0
 40
0.0
 40
0.0
 40
0.4957812837
 40
1.0
 40
1.0
 40
1.0
 40
1.0
 10
108.3419865226
 20
122.6023683186
 30
0.0
 10
108.3932500647
 20
122.572772367
 30
0.0
 10
108.4814733761
 20
122.482275396
 30
0.0
 10
108.509038319
 20
122.3594306886
 30
0.0
 10
108.507079992
 20
122.2992616614
 30
0.0
  0
LINE
  5
578
100
AcDbEntity
  8
0
100
AcDbLine
 62
7
  6
CONTINUOUS
 10
108.506823301
 20
122.2992638079
 11
108.2593322624
 21
122.4480215535
  0
SPLINE
  5
579
100
AcDbEntity
  8
0
100
AcDbSpline
 62
7
  6
CONTINUOUS
 70
0
 71
3
 72
26
 73
22
 74
0
 42
0.0000001
 43
0.0000001
 44
0.0000000001
 40
0.0
 40
0.0
 40
0.0
 40
0.0
 40
0.2011597311
 40
0.388060935
 40
0.5576172672
 40
0.6347817131
 40
0.7061678507
 40
0.7712065437
 40
0.8292915233
 40
0.8798152797
 40
0.9221787289
 40
0.9401163026
 40
0.9558075796
 40
0.9691959853
 40
0.9802249047
 40
0.9888425949
 40
0.9950228979
 40
0.9971934547
 40
0.998747976
 40
0.9996842328
 40
1.0
 40
1.0
 40
1.0
 40
1.0
 10
121.5903875184
 20
89.2198993068
 30
0.0
 10
121.8880083771
 20
89.367228764
 30
0.0
 10
122.4535944187
 20
89.6689438632
 30
0.0
 10
123.244942933
 20
90.1396763611
 30
0.0
 10
123.8470607711
 20
90.5270798017
 30
0.0
 10
124.2828278375
 20
90.8201753644
 30
0.0
 10
124.5731629006
 20
91.0202869194
 30
0.0
 10
124.8357980919
 20
91.2050530528
 30
0.0
 10
125.0688824335
 20
91.3719469373
 30
0.0
 10
125.2705469074
 20
91.5184094047
 30
0.0
 10
125.4179610984
 20
91.6267754821
 30
0.0
 10
125.518788554
 20
91.7014247297
 30
0.0
 10
125.5810852065
 20
91.7477290057
 30
0.0
 10
125.6341518277
 20
91.7873272021
 30
0.0
 10
125.6778387947
 20
91.8199822908
 30
0.0
 10
125.711910206
 20
91.8455906282
 30
0.0
 10
125.7344196555
 20
91.8623184981
 30
0.0
 10
125.747353028
 20
91.872258066
 30
0.0
 10
125.7537310431
 20
91.8766955528
 30
0.0
 10
125.7570234323
 20
91.8798218921
 30
0.0
 10
125.7590957702
 20
91.8807184537
 30
0.0
 10
125.7593322868
 20
91.8811830041
 30
0.0
  0
SPLINE
  5
57A
100
AcDbEntity
  8
0
100
AcDbSpline
 62
7
  6
CONTINUOUS
 70
0
 71
3
 72
16
 73
12
 74
0
 42
0.0000001
 43
0.0000001
 44
0.0000000001
 40
0.0
 40
0.0
 40
0.0
 40
0.0
 40
0.3381093211
 40
0.5001915194
 40
0.6486445271
 40
0.7719963036
 40
0.8205620342
 40
0.8607505085
 40
0.8947820072
 40
0.9268574276
 40
1.0
 40
1.0
 40
1.0
 40
1.0
 10
108.3671392792
 20
122.9919968832
 30
0.0
 10
108.3850481041
 20
122.9427783373
 30
0.0
 10
108.4060327434
 20
122.867894562
 30
0.0
 10
108.4241355885
 20
122.7689318056
 30
0.0
 10
108.4289373704
 20
122.701825545
 30
0.0
 10
108.4248833412
 20
122.6517652569
 30
0.0
 10
108.41383925
 20
122.6205883259
 30
0.0
 10
108.4032982595
 20
122.6044685275
 30
0.0
 10
108.3897833619
 20
122.5942303708
 30
0.0
 10
108.367923778
 20
122.5901376265
 30
0.0
 10
108.3517750163
 20
122.5967222561
 30
0.0
 10
108.3419626949
 20
122.6023874025
 30
0.0
  0
SPLINE
  5
57B
100
AcDbEntity
  8
0
100
AcDbSpline
 62
7
  6
CONTINUOUS
 70
0
 71
3
 72
9
 73
5
 74
0
 42
0.0000001
 43
0.0000001
 44
0.0000000001
 40
0.0
 40
0.0
 40
0.0
 40
0.0
 40
0.2518589356
 40
1.0
 40
1.0
 40
1.0
 40
1.0
 10
120.7057674704
 20
86.2540596949
 30
0.0
 10
120.8028417195
 20
86.4396109568
 30
0.0
 10
121.1934049781
 20
87.1736535902
 30
0.0
 10
121.601368678
 20
87.8983409694
 30
0.0
 10
121.9128831651
 20
88.4367673633
 30
0.0
  0
SPLINE
  5
57C
100
AcDbEntity
  8
0
100
AcDbSpline
 62
7
  6
CONTINUOUS
 70
0
 71
3
 72
11
 73
7
 74
0
 42
0.0000001
 43
0.0000001
 44
0.0000000001
 40
0.0
 40
0.0
 40
0.0
 40
0.0
 40
0.2524204096
 40
0.5034457297
 40
0.7527524755
 40
1.0
 40
1.0
 40
1.0
 40
1.0
 10
120.173850283
 20
86.4885608669
 30
0.0
 10
120.2868017875
 20
86.7215348607
 30
0.0
 10
120.5147624706
 20
87.1849081364
 30
0.0
 10
120.8667017729
 20
87.8721785284
 30
0.0
 10
121.2258562838
 20
88.5496875055
 30
0.0
 10
121.4684900433
 20
88.9975109729
 30
0.0
 10
121.5903875184
 20
89.2198993068
 30
0.0
  0
SPLINE
  5
57D
100
AcDbEntity
  8
0
100
AcDbSpline
 62
7
  6
CONTINUOUS
 70
0
 71
3
 72
15
 73
11
 74
0
 42
0.0000001
 43
0.0000001
 44
0.0000000001
 40
0.0
 40
0.0
 40
0.0
 40
0.0
 40
0.1099099583
 40
0.2271639052
 40
0.3503307691
 40
0.4782316045
 40
0.6094505819
 40
0.7418184728
 40
0.8726920767
 40
1.0
 40
1.0
 40
1.0
 40
1.0
 10
111.0431030711
 20
88.1799847745
 30
0.0
 10
111.3359804969
 20
87.9699544746
 30
0.0
 10
111.9495540332
 20
87.5471526839
 30
0.0
 10
112.928433604
 20
86.9446052874
 30
0.0
 10
114.0035934443
 20
86.3907407333
 30
0.0
 10
115.1796756323
 20
85.9457488916
 30
0.0
 10
116.4466320629
 20
85.6940627415
 30
0.0
 10
117.7503548422
 20
85.7136717318
 30
0.0
 10
119.0065961821
 20
85.9976005662
 30
0.0
 10
119.7952241095
 20
86.3127540449
 30
0.0
 10
120.173850283
 20
86.4885608669
 30
0.0
  0
SPLINE
  5
57E
100
AcDbEntity
  8
0
100
AcDbSpline
 62
7
  6
CONTINUOUS
 70
0
 71
3
 72
15
 73
11
 74
0
 42
0.0000001
 43
0.0000001
 44
0.0000000001
 40
0.0
 40
0.0
 40
0.0
 40
0.0
 40
0.1124617141
 40
0.2313016571
 40
0.3552180363
 40
0.4830699057
 40
0.6134440105
 40
0.7444046676
 40
0.8738228847
 40
1.0
 40
1.0
 40
1.0
 40
1.0
 10
111.0957172686
 20
87.5247294014
 30
0.0
 10
111.4071680261
 20
87.3297296371
 30
0.0
 10
112.0559956691
 20
86.9415946254
 30
0.0
 10
113.0840458105
 20
86.401155123
 30
0.0
 10
114.1986945729
 20
85.9234720294
 30
0.0
 10
115.3979438597
 20
85.5629230489
 30
0.0
 10
116.6636491235
 20
85.3866211193
 30
0.0
 10
117.9463743368
 20
85.4414325718
 30
0.0
 10
119.1854546448
 20
85.7108491196
 30
0.0
 10
119.9720723274
 20
85.9973834713
 30
0.0
 10
120.3521767308
 20
86.1570394893
 30
0.0
  0
SPLINE
  5
57F
100
AcDbEntity
  8
0
100
AcDbSpline
 62
7
  6
CONTINUOUS
 70
0
 71
3
 72
9
 73
5
 74
0
 42
0.0000001
 43
0.0000001
 44
0.0000000001
 40
0.0
 40
0.0
 40
0.0
 40
0.0
 40
0.2645950888
 40
1.0
 40
1.0
 40
1.0
 40
1.0
 10
120.3522255056
 20
86.1570409745
 30
0.0
 10
120.3847991102
 20
86.1570406641
 30
0.0
 10
120.5075043244
 20
86.1649655881
 30
0.0
 10
120.6302732421
 20
86.20409205
 30
0.0
 10
120.7057674702
 20
86.2540618767
 30
0.0
  0
SPLINE
  5
580
100
AcDbEntity
  8
0
100
AcDbSpline
 62
7
  6
CONTINUOUS
 70
0
 71
3
 72
10
 73
6
 74
0
 42
0.0000001
 43
0.0000001
 44
0.0000000001
 40
0.0
 40
0.0
 40
0.0
 40
0.0
 40
0.5580980434
 40
0.8070210531
 40
1.0
 40
1.0
 40
1.0
 40
1.0
 10
120.1714039264
 20
86.4877544301
 30
0.0
 10
120.2651659415
 20
86.4324769804
 30
0.0
 10
120.4056863438
 20
86.3603756102
 30
0.0
 10
120.5865537439
 20
86.2874257412
 30
0.0
 10
120.6690739827
 20
86.2615555031
 30
0.0
 10
120.7059045232
 20
86.2538114513
 30
0.0
  0
SPLINE
  5
581
100
AcDbEntity
  8
0
100
AcDbSpline
 62
7
  6
CONTINUOUS
 70
0
 71
3
 72
9
 73
5
 74
0
 42
0.0000001
 43
0.0000001
 44
0.0000000001
 40
0.0
 40
0.0
 40
0.0
 40
0.0
 40
0.5228285159
 40
1.0
 40
1.0
 40
1.0
 40
1.0
 10
120.1714039264
 20
86.4877544301
 30
0.0
 10
120.19489913
 20
86.4262322695
 30
0.0
 10
120.2477043524
 20
86.3114959971
 30
0.0
 10
120.3150974604
 20
86.2043338637
 30
0.0
 10
120.3520871964
 20
86.1569591877
 30
0.0
  0
SPLINE
  5
582
100
AcDbEntity
  8
0
100
AcDbSpline
 62
7
  6
CONTINUOUS
 70
0
 71
3
 72
9
 73
5
 74
0
 42
0.0000001
 43
0.0000001
 44
0.0000000001
 40
0.0
 40
0.0
 40
0.0
 40
0.0
 40
0.4965692397
 40
1.0
 40
1.0
 40
1.0
 40
1.0
 10
108.623443054
 20
124.2190552297
 30
0.0
 10
108.6498846024
 20
124.1911896567
 30
0.0
 10
108.6923415087
 20
124.1239294662
 30
0.0
 10
108.706821353
 20
124.0458638695
 30
0.0
 10
108.7068213529
 20
124.0069189353
 30
0.0
  0
SPLINE
  5
583
100
AcDbEntity
  8
0
100
AcDbSpline
 62
7
  6
CONTINUOUS
 70
0
 71
3
 72
9
 73
5
 74
0
 42
0.0000001
 43
0.0000001
 44
0.0000000001
 40
0.0
 40
0.0
 40
0.0
 40
0.0
 40
0.4956930595
 40
1.0
 40
1.0
 40
1.0
 40
1.0
 10
110.7775318973
 20
68.7123044334
 30
0.0
 10
110.8194396503
 20
68.6730939515
 30
0.0
 10
110.9205263999
 20
68.6102952584
 30
0.0
 10
111.037340127
 20
68.5889842927
 30
0.0
 10
111.0957283899
 20
68.5889840454
 30
0.0
  0
SPLINE
  5
584
100
AcDbEntity
  8
0
100
AcDbSpline
 62
7
  6
CONTINUOUS
 70
0
 71
3
 72
10
 73
6
 74
0
 42
0.0000001
 43
0.0000001
 44
0.0000000001
 40
0.0
 40
0.0
 40
0.0
 40
0.0
 40
0.2355251072
 40
0.4807189382
 40
1.0
 40
1.0
 40
1.0
 40
1.0
 10
111.0957300034
 20
68.5889840454
 30
0.0
 10
111.0957333874
 20
68.61016074
 30
0.0
 10
111.0923048506
 20
68.6532835501
 30
0.0
 10
111.0867074219
 20
68.7431471288
 30
0.0
 10
111.0957203814
 20
68.8117533508
 30
0.0
 10
111.0957284769
 20
68.8584433049
 30
0.0
  0
SPLINE
  5
585
100
AcDbEntity
  8
0
100
AcDbSpline
 62
7
  6
CONTINUOUS
 70
0
 71
3
 72
10
 73
6
 74
0
 42
0.0000001
 43
0.0000001
 44
0.0000000001
 40
0.0
 40
0.0
 40
0.0
 40
0.0
 40
0.3845512275
 40
0.6638161652
 40
1.0
 40
1.0
 40
1.0
 40
1.0
 10
110.7775337734
 20
68.7123055094
 30
0.0
 10
110.7976934349
 20
68.7407126948
 30
0.0
 10
110.8069148473
 20
68.8051621841
 30
0.0
 10
110.7974342161
 20
68.8942991502
 30
0.0
 10
110.7855714197
 20
68.9491738203
 30
0.0
 10
110.7775238111
 20
68.9785435784
 30
0.0
  0
SPLINE
  5
586
100
AcDbEntity
  8
0
100
AcDbSpline
 62
7
  6
CONTINUOUS
 70
0
 71
3
 72
9
 73
5
 74
0
 42
0.0000001
 43
0.0000001
 44
0.0000000001
 40
0.0
 40
0.0
 40
0.0
 40
0.0
 40
0.5146183163
 40
1.0
 40
1.0
 40
1.0
 40
1.0
 10
122.2664362976
 20
88.5500482415
 30
0.0
 10
122.2019045715
 20
88.5500477794
 30
0.0
 10
122.075756586
 20
88.5314336962
 30
0.0
 10
121.9610265798
 20
88.4740074727
 30
0.0
 10
121.9128831645
 20
88.4367673787
 30
0.0
  0
SPLINE
  5
587
100
AcDbEntity
  8
0
100
AcDbSpline
 62
7
  6
CONTINUOUS
 70
0
 71
3
 72
10
 73
6
 74
0
 42
0.0000001
 43
0.0000001
 44
0.0000000001
 40
0.0
 40
0.0
 40
0.0
 40
0.0
 40
0.2839080673
 40
0.5347031753
 40
1.0
 40
1.0
 40
1.0
 40
1.0
 10
122.0657111423
 20
88.9200569967
 30
0.0
 10
122.1018492279
 20
88.8993228594
 30
0.0
 10
122.1647479249
 20
88.8499237753
 30
0.0
 10
122.2483780754
 20
88.7268061308
 30
0.0
 10
122.2663787763
 20
88.6183308729
 30
0.0
 10
122.2664362976
 20
88.5500482397
 30
0.0
  0
SPLINE
  5
588
100
AcDbEntity
  8
0
100
AcDbSpline
 62
7
  6
CONTINUOUS
 70
0
 71
3
 72
11
 73
7
 74
0
 42
0.0000001
 43
0.0000001
 44
0.0000000001
 40
0.0
 40
0.0
 40
0.0
 40
0.0
 40
0.2467661201
 40
0.4909827943
 40
0.7423587597
 40
1.0
 40
1.0
 40
1.0
 40
1.0
 10
121.8933170549
 20
88.7555335136
 30
0.0
 10
121.9147428925
 20
88.7383442208
 30
0.0
 10
121.9420947364
 20
88.6858757287
 30
0.0
 10
121.945487425
 20
88.6028042694
 30
0.0
 10
121.9344768552
 20
88.5193974648
 30
0.0
 10
121.9207515682
 20
88.4643453158
 30
0.0
 10
121.9128828652
 20
88.4367664628
 30
0.0
  0
SPLINE
  5
589
100
AcDbEntity
  8
0
100
AcDbSpline
 62
7
  6
CONTINUOUS
 70
0
 71
3
 72
9
 73
5
 74
0
 42
0.0000001
 43
0.0000001
 44
0.0000000001
 40
0.0
 40
0.0
 40
0.0
 40
0.0
 40
0.2315168113
 40
1.0
 40
1.0
 40
1.0
 40
1.0
 10
122.0657126063
 20
88.920030999
 30
0.0
 10
122.0501498298
 20
88.9101309584
 30
0.0
 10
121.9853858403
 20
88.8635275097
 30
0.0
 10
121.9302431224
 20
88.8043691172
 30
0.0
 10
121.8933170549
 20
88.7555335136
 30
0.0
  0
SPLINE
  5
58A
100
AcDbEntity
  8
0
100
AcDbSpline
 62
7
  6
CONTINUOUS
 70
0
 71
3
 72
11
 73
7
 74
0
 42
0.0000001
 43
0.0000001
 44
0.0000000001
 40
0.0
 40
0.0
 40
0.0
 40
0.0
 40
0.2434711517
 40
0.4994132079
 40
0.7567806009
 40
1.0
 40
1.0
 40
1.0
 40
1.0
 10
121.5903888339
 20
89.2199009983
 30
0.0
 10
121.6261630004
 20
89.1913753321
 30
0.0
 10
121.6989857373
 20
89.1320857532
 30
0.0
 10
121.8167396082
 20
89.0520432821
 30
0.0
 10
121.9390526607
 20
88.9794318226
 30
0.0
 10
122.0236198715
 20
88.9378227722
 30
0.0
 10
122.0657155849
 20
88.9200146744
 30
0.0
  0
SPLINE
  5
58B
100
AcDbEntity
  8
0
100
AcDbSpline
 62
7
  6
CONTINUOUS
 70
0
 71
3
 72
11
 73
7
 74
0
 42
0.0000001
 43
0.0000001
 44
0.0000000001
 40
0.0
 40
0.0
 40
0.0
 40
0.0
 40
0.2588278962
 40
0.5189410837
 40
0.770271939
 40
1.0
 40
1.0
 40
1.0
 40
1.0
 10
121.5903888339
 20
89.2199009983
 30
0.0
 10
121.6083249592
 20
89.1750469602
 30
0.0
 10
121.6453262034
 20
89.0854015208
 30
0.0
 10
121.715848323
 20
88.9597011682
 30
0.0
 10
121.7967910318
 20
88.8471758576
 30
0.0
 10
121.8600264427
 20
88.7825511123
 30
0.0
 10
121.8933180745
 20
88.7555321116
 30
0.0
  0
SPLINE
  5
58C
100
AcDbEntity
  8
0
100
AcDbSpline
 62
7
  6
CONTINUOUS
 70
0
 71
3
 72
9
 73
5
 74
0
 42
0.0000001
 43
0.0000001
 44
0.0000000001
 40
0.0
 40
0.0
 40
0.0
 40
0.0
 40
0.4940819026
 40
1.0
 40
1.0
 40
1.0
 40
1.0
 10
110.7775269815
 20
68.9785428324
 30
0.0
 10
110.8196402943
 20
68.9401694676
 30
0.0
 10
110.9210948672
 20
68.8790290215
 30
0.0
 10
111.0373894384
 20
68.8584439807
 30
0.0
 10
111.0957283899
 20
68.8584433043
 30
0.0
  0
SPLINE
  5
58D
100
AcDbEntity
  8
0
100
AcDbSpline
 62
7
  6
CONTINUOUS
 70
0
 71
3
 72
9
 73
5
 74
0
 42
0.0000001
 43
0.0000001
 44
0.0000000001
 40
0.0
 40
0.0
 40
0.0
 40
0.0
 40
0.4670502829
 40
1.0
 40
1.0
 40
1.0
 40
1.0
 10
110.7775318961
 20
74.4028643841
 30
0.0
 10
110.8241993211
 20
74.3836358114
 30
0.0
 10
110.9299666025
 20
74.3568889256
 30
0.0
 10
111.0381330864
 20
74.3485537249
 30
0.0
 10
111.0957283899
 20
74.3485530949
 30
0.0
  0
SPLINE
  5
58E
100
AcDbEntity
  8
0
100
AcDbSpline
 62
7
  6
CONTINUOUS
 70
0
 71
3
 72
9
 73
5
 74
0
 42
0.0000001
 43
0.0000001
 44
0.0000000001
 40
0.0
 40
0.0
 40
0.0
 40
0.0
 40
0.496686206
 40
1.0
 40
1.0
 40
1.0
 40
1.0
 10
111.0957300034
 20
74.3485530949
 30
0.0
 10
111.0957366715
 20
74.4562757433
 30
0.0
 10
111.0834888805
 20
74.6730993172
 30
0.0
 10
111.0957201565
 20
74.8899260019
 30
0.0
 10
111.0957284769
 20
74.9990860594
 30
0.0
  0
SPLINE
  5
58F
100
AcDbEntity
  8
0
100
AcDbSpline
 62
7
  6
CONTINUOUS
 70
0
 71
3
 72
9
 73
5
 74
0
 42
0.0000001
 43
0.0000001
 44
0.0000000001
 40
0.0
 40
0.0
 40
0.0
 40
0.0
 40
0.2393519654
 40
1.0
 40
1.0
 40
1.0
 40
1.0
 10
110.2657620519
 20
87.5036777922
 30
0.0
 10
110.315273376
 20
87.524446514
 30
0.0
 10
110.5210460041
 20
87.6137864378
 30
0.0
 10
110.7224290682
 20
87.7131580502
 30
0.0
 10
110.8729449937
 20
87.7935226491
 30
0.0
  0
SPLINE
  5
590
100
AcDbEntity
  8
0
100
AcDbSpline
 62
7
  6
CONTINUOUS
 70
0
 71
3
 72
9
 73
5
 74
0
 42
0.0000001
 43
0.0000001
 44
0.0000000001
 40
0.0
 40
0.0
 40
0.0
 40
0.0
 40
0.2353220604
 40
1.0
 40
1.0
 40
1.0
 40
1.0
 10
110.2657636386
 20
87.5036190027
 30
0.0
 10
110.2750564144
 20
87.5250898726
 30
0.0
 10
110.3072795491
 20
87.6194448866
 30
0.0
 10
110.3089291756
 20
87.723076358
 30
0.0
 10
110.2958432379
 20
87.7979655354
 30
0.0
  0
SPLINE
  5
591
100
AcDbEntity
  8
0
100
AcDbSpline
 62
7
  6
CONTINUOUS
 70
0
 71
3
 72
9
 73
5
 74
0
 42
0.0000001
 43
0.0000001
 44
0.0000000001
 40
0.0
 40
0.0
 40
0.0
 40
0.0
 40
0.2360157785
 40
1.0
 40
1.0
 40
1.0
 40
1.0
 10
110.2958291641
 20
87.7980159385
 30
0.0
 10
110.3565396491
 20
87.8240325728
 30
0.0
 10
110.6117926693
 20
87.9388603054
 30
0.0
 10
110.858996744
 20
88.0712771223
 30
0.0
 10
111.0431030711
 20
88.1799847745
 30
0.0
  0
SPLINE
  5
592
100
AcDbEntity
  8
0
100
AcDbSpline
 62
7
  6
CONTINUOUS
 70
0
 71
3
 72
9
 73
5
 74
0
 42
0.0000001
 43
0.0000001
 44
0.0000000001
 40
0.0
 40
0.0
 40
0.0
 40
0.0
 40
0.5068452013
 40
1.0
 40
1.0
 40
1.0
 40
1.0
 10
109.9122096777
 20
87.4444234555
 30
0.0
 10
109.9947340002
 20
87.4789114381
 30
0.0
 10
110.14476053
 20
87.5785152696
 30
0.0
 10
110.2574191139
 20
87.7198825745
 30
0.0
 10
110.2958432379
 20
87.7979655354
 30
0.0
  0
SPLINE
  5
593
100
AcDbEntity
  8
0
100
AcDbSpline
 62
7
  6
CONTINUOUS
 70
0
 71
3
 72
9
 73
5
 74
0
 42
0.0000001
 43
0.0000001
 44
0.0000000001
 40
0.0
 40
0.0
 40
0.0
 40
0.0
 40
0.2707121235
 40
1.0
 40
1.0
 40
1.0
 40
1.0
 10
109.9122096777
 20
87.4444234555
 30
0.0
 10
109.9445696802
 20
87.4399184829
 30
0.0
 10
110.0646381795
 20
87.4315856584
 30
0.0
 10
110.190620736
 20
87.4577868259
 30
0.0
 10
110.2657636386
 20
87.5036190027
 30
0.0
  0
SPLINE
  5
594
100
AcDbEntity
  8
0
100
AcDbSpline
 62
7
  6
CONTINUOUS
 70
0
 71
3
 72
9
 73
5
 74
0
 42
0.0000001
 43
0.0000001
 44
0.0000000001
 40
0.0
 40
0.0
 40
0.0
 40
0.0
 40
0.4836065541
 40
1.0
 40
1.0
 40
1.0
 40
1.0
 10
111.0478788158
 20
87.7809902257
 30
0.0
 10
111.0629385682
 20
87.8438945574
 30
0.0
 10
111.072979158
 20
87.9789350325
 30
0.0
 10
111.0571278905
 20
88.112367161
 30
0.0
 10
111.0431180682
 20
88.1799984739
 30
0.0
  0
SPLINE
  5
595
100
AcDbEntity
  8
0
100
AcDbSpline
 62
7
  6
CONTINUOUS
 70
0
 71
3
 72
9
 73
5
 74
0
 42
0.0000001
 43
0.0000001
 44
0.0000000001
 40
0.0
 40
0.0
 40
0.0
 40
0.0
 40
0.4475934018
 40
1.0
 40
1.0
 40
1.0
 40
1.0
 10
110.8729347291
 20
87.7935231689
 30
0.0
 10
110.8987942321
 20
87.7983225654
 30
0.0
 10
110.9583116297
 20
87.7989595421
 30
0.0
 10
111.0163349204
 20
87.7886477342
 30
0.0
 10
111.0478788158
 20
87.7809902257
 30
0.0
  0
SPLINE
  5
596
100
AcDbEntity
  8
0
100
AcDbSpline
 62
7
  6
CONTINUOUS
 70
0
 71
3
 72
9
 73
5
 74
0
 42
0.0000001
 43
0.0000001
 44
0.0000000001
 40
0.0
 40
0.0
 40
0.0
 40
0.0
 40
0.7520538817
 40
1.0
 40
1.0
 40
1.0
 40
1.0
 10
110.8729347291
 20
87.7935231689
 30
0.0
 10
110.9323813475
 20
87.881425871
 30
0.0
 10
110.9934945601
 20
88.011119813
 30
0.0
 10
111.0341619647
 20
88.14617837
 30
0.0
 10
111.0431180682
 20
88.1799984739
 30
0.0
  0
SPLINE
  5
597
100
AcDbEntity
  8
0
100
AcDbSpline
 62
7
  6
CONTINUOUS
 70
0
 71
3
 72
9
 73
5
 74
0
 42
0.0000001
 43
0.0000001
 44
0.0000000001
 40
0.0
 40
0.0
 40
0.0
 40
0.0
 40
0.4494307883
 40
1.0
 40
1.0
 40
1.0
 40
1.0
 10
110.7775156436
 20
87.4211528546
 30
0.0
 10
110.7775448375
 20
87.4791598886
 30
0.0
 10
110.7931562263
 20
87.6086019619
 30
0.0
 10
110.8402598639
 20
87.7304250012
 30
0.0
 10
110.8729449937
 20
87.7935226491
 30
0.0
  0
SPLINE
  5
598
100
AcDbEntity
  8
0
100
AcDbSpline
 62
7
  6
CONTINUOUS
 70
0
 71
3
 72
9
 73
5
 74
0
 42
0.0000001
 43
0.0000001
 44
0.0000000001
 40
0.0
 40
0.0
 40
0.0
 40
0.0
 40
0.2343896552
 40
1.0
 40
1.0
 40
1.0
 40
1.0
 10
111.0957208434
 20
87.5247001613
 30
0.0
 10
111.08643547
 20
87.5430273354
 30
0.0
 10
111.0503315076
 20
87.6222305097
 30
0.0
 10
111.0322974188
 20
87.715716575
 30
0.0
 10
111.0478780503
 20
87.7809915415
 30
0.0
  0
SPLINE
  5
599
100
AcDbEntity
  8
0
100
AcDbSpline
 62
7
  6
CONTINUOUS
 70
0
 71
3
 72
9
 73
5
 74
0
 42
0.0000001
 43
0.0000001
 44
0.0000000001
 40
0.0
 40
0.0
 40
0.0
 40
0.0
 40
0.4861251345
 40
1.0
 40
1.0
 40
1.0
 40
1.0
 10
110.7775156439
 20
87.4211528543
 30
0.0
 10
110.8207337831
 20
87.4551146245
 30
0.0
 10
110.9238536109
 20
87.5076500839
 30
0.0
 10
111.0376252353
 20
87.5247271181
 30
0.0
 10
111.0957283899
 20
87.5247268035
 30
0.0
  0
SPLINE
  5
59A
100
AcDbEntity
  8
0
100
AcDbSpline
 62
7
  6
CONTINUOUS
 70
0
 71
3
 72
9
 73
5
 74
0
 42
0.0000001
 43
0.0000001
 44
0.0000000001
 40
0.0
 40
0.0
 40
0.0
 40
0.0
 40
0.4670477774
 40
1.0
 40
1.0
 40
1.0
 40
1.0
 10
110.7775269826
 20
83.3595056165
 30
0.0
 10
110.8241947318
 20
83.3787341524
 30
0.0
 10
110.9299642195
 20
83.4054784395
 30
0.0
 10
111.0381321806
 20
83.4138094127
 30
0.0
 10
111.0957283899
 20
83.4138079359
 30
0.0
  0
SPLINE
  5
59B
100
AcDbEntity
  8
0
100
AcDbSpline
 62
7
  6
CONTINUOUS
 70
0
 71
3
 72
9
 73
5
 74
0
 42
0.0000001
 43
0.0000001
 44
0.0000000001
 40
0.0
 40
0.0
 40
0.0
 40
0.0
 40
0.5203760415
 40
1.0
 40
1.0
 40
1.0
 40
1.0
 10
110.7775337623
 20
82.7167643617
 30
0.0
 10
110.7943663089
 20
82.8273343711
 30
0.0
 10
110.81138103
 20
83.0424110686
 30
0.0
 10
110.7955156543
 20
83.2580024052
 30
0.0
 10
110.7775238131
 20
83.3595052805
 30
0.0
  0
SPLINE
  5
59C
100
AcDbEntity
  8
0
100
AcDbSpline
 62
7
  6
CONTINUOUS
 70
0
 71
3
 72
9
 73
5
 74
0
 42
0.0000001
 43
0.0000001
 44
0.0000000001
 40
0.0
 40
0.0
 40
0.0
 40
0.0
 40
0.5033141812
 40
1.0
 40
1.0
 40
1.0
 40
1.0
 10
111.0957300034
 20
82.7632752023
 30
0.0
 10
111.0957365864
 20
82.8724353052
 30
0.0
 10
111.0834892066
 20
83.0892618556
 30
0.0
 10
111.0957200293
 20
83.3060854101
 30
0.0
 10
111.0957284769
 20
83.4138079362
 30
0.0
  0
SPLINE
  5
59D
100
AcDbEntity
  8
0
100
AcDbSpline
 62
7
  6
CONTINUOUS
 70
0
 71
3
 72
9
 73
5
 74
0
 42
0.0000001
 43
0.0000001
 44
0.0000000001
 40
0.0
 40
0.0
 40
0.0
 40
0.0
 40
0.4649137367
 40
1.0
 40
1.0
 40
1.0
 40
1.0
 10
110.7775318917
 20
82.716762577
 30
0.0
 10
110.8246791882
 20
82.7334024448
 30
0.0
 10
110.9305861367
 20
82.7561761674
 30
0.0
 10
111.0381844025
 20
82.7632758498
 30
0.0
 10
111.0957283899
 20
82.7632752023
 30
0.0
  0
SPLINE
  5
59E
100
AcDbEntity
  8
0
100
AcDbSpline
 62
7
  6
CONTINUOUS
 70
0
 71
3
 72
9
 73
5
 74
0
 42
0.0000001
 43
0.0000001
 44
0.0000000001
 40
0.0
 40
0.0
 40
0.0
 40
0.0
 40
0.4649132794
 40
1.0
 40
1.0
 40
1.0
 40
1.0
 10
110.7775269572
 20
75.0456116963
 30
0.0
 10
110.8246747793
 20
75.0289703405
 30
0.0
 10
110.9305829022
 20
75.0061920735
 30
0.0
 10
111.0381831563
 20
74.9990875702
 30
0.0
 10
111.0957283899
 20
74.9990860578
 30
0.0
  0
SPLINE
  5
59F
100
AcDbEntity
  8
0
100
AcDbSpline
 62
7
  6
CONTINUOUS
 70
0
 71
3
 72
9
 73
5
 74
0
 42
0.0000001
 43
0.0000001
 44
0.0000000001
 40
0.0
 40
0.0
 40
0.0
 40
0.0
 40
0.479632279
 40
1.0
 40
1.0
 40
1.0
 40
1.0
 10
110.7775337711
 20
74.4028664068
 30
0.0
 10
110.795527152
 20
74.5043715707
 30
0.0
 10
110.8113806018
 20
74.7199666378
 30
0.0
 10
110.7943536949
 20
74.9350425922
 30
0.0
 10
110.7775237603
 20
75.0456119957
 30
0.0
  0
SPLINE
  5
5A0
100
AcDbEntity
  8
0
100
AcDbSpline
 62
7
  6
CONTINUOUS
 70
0
 71
3
 72
9
 73
5
 74
0
 42
0.0000001
 43
0.0000001
 44
0.0000000001
 40
0.0
 40
0.0
 40
0.0
 40
0.0
 40
0.2373325247
 40
1.0
 40
1.0
 40
1.0
 40
1.0
 10
130.0930727661
 20
138.2430721586
 30
0.0
 10
130.0857973789
 20
138.2066778046
 30
0.0
 10
130.0582197176
 20
138.0527392462
 30
0.0
 10
130.0356628681
 20
137.8978501158
 30
0.0
 10
130.0108954278
 20
137.7811830041
 30
0.0
  0
ELLIPSE
  5
5A1
100
AcDbEntity
  8
0
100
AcDbEllipse
 62
7
  6
CONTINUOUS
 10
128.9785272056
 20
137.8184507853
 30
0.0
 11
0.5486916773
 21
1.2874646535
 31
0.0
 40
0.7145358838
 41
-1.5707963268
 42
-1.3028918007
  0
ELLIPSE
  5
5A2
100
AcDbEntity
  8
0
100
AcDbEllipse
 62
7
  6
CONTINUOUS
 10
130.4335362343
 20
137.7811830041
 30
0.0
 11
-0.0
 21
1.0
 31
0.0
 40
0.383864035
 41
0.0
 42
1.0906723322
  0
ELLIPSE
  5
5A3
100
AcDbEntity
  8
0
100
AcDbEllipse
 62
7
  6
CONTINUOUS
 10
130.0496721992
 20
138.7811830041
 30
0.0
 11
0.0
 21
3.0
 31
0.0
 40
0.383864035
 41
0.0
 42
1.5707963268
  0
ELLIPSE
  5
5A4
100
AcDbEntity
  8
0
100
AcDbEllipse
 62
7
  6
CONTINUOUS
 10
111.528719032
 20
138.7811830041
 30
0.0
 11
3.0
 21
0.0
 31
0.0
 40
1.0
 41
-0.0
 42
1.5707963268
  0
ELLIPSE
  5
5A5
100
AcDbEntity
  8
0
100
AcDbEllipse
 62
7
  6
CONTINUOUS
 10
127.8269351005
 20
135.1163246337
 30
0.0
 11
-0.5486916773
 21
-1.2874646535
 31
0.0
 40
0.7145358838
 41
1.5707963268
 42
2.1085963504
  0
ELLIPSE
  5
5A6
100
AcDbEntity
  8
0
100
AcDbEllipse
 62
7
  6
CONTINUOUS
 10
115.9429325944
 20
137.0719576273
 30
0.0
 11
-1.2104221425
 21
1.2980188316
 31
0.0
 40
0.563438437
 41
0.5435120867
 42
1.5707963268
  0
ENDSEC
  0
SECTION
  2
OBJECTS
  0
DICTIONARY
  5
5A7
100
AcDbDictionary
  3
ACAD_GROUP
350
5A8
  3
ACAD_MLINESTYLE
350
5A9
  0
DICTIONARY
  5
5A8
102
{ACAD_REACTORS
330
5A7
102
}
100
AcDbDictionary
  0
DICTIONARY
  5
5A9
102
{ACAD_REACTORS
330
5A7
102
}
100
AcDbDictionary
  3
STANDARD
350
5AA
  0
MLINESTYLE
  5
5AA
102
{ACAD_REACTORS
330
5A9
102
}
100
AcDbMlineStyle
  2
STANDARD
 70
0
  3

 62
256
 51
90.0
 52
90.0
 71
2
 49
0.5
 62
256
  6
BYLAYER
 49
-0.5
 62
256
  6
BYLAYER
  0
ENDSEC
  0
EOF
