999
DXF file: C:\Users\64ciro\AppData\Local\Temp\6im4oq7b\h36fll028_3094_2.dxf
999
Pro/ENGINEER 2017260 by Parametric Technology Corporation
  0
SECTION
  2
HEADER
  9
$ACADVER
  1
AC1014
  9
$DWGCODEPAGE
  3
ANSI_1252
  9
$EXTMAX
 10
297.0
 20
210.0
 30
0.0
  9
$EXTMIN
 10
0.0
 20
0.0
 30
0.0
  9
$LIMMIN
 10
0.0
 20
0.0
  9
$LIMMAX
 10
297.0
 20
210.0
  9
$VIEWCTR
 10
148.5
 20
105.0
  9
$VIEWSIZE
 40
210.0
  9
$CLAYER
  8
0
  9
$LTSCALE
 40
16.335
  9
$CELTYPE
  6
BYLAYER
  9
$DIMSCALE
 40
1.0
  9
$DIMASZ
 40
2.5
  9
$DIMEXO
 40
0.0625
  9
$DIMDLI
 40
11.286
  9
$DIMEXE
 40
0.125
  9
$DIMCEN
 40
2.673
  9
$DIMLFAC
 40
1.0
  9
$DIMBLK
  1
_CLOSED
  9
$DIMALT
 70
0
  9
$DIMALTF
 40
25.4
  9
$DIMTXT
 40
2.5
  9
$DIMTOL
 70
1
  9
$DIMLIM
 70
0
  9
$DIMTFAC
 40
1.0
  9
$DIMTP
 40
0.01
  9
$DIMTM
 40
0.01
  9
$DIMGAP
 40
0.625
  9
$AUNITS
 70
0
  9
$PDMODE
 70
3
  9
$PDSIZE
 40
0.3125
  9
$HANDSEED
  5
512
  9
$TILEMODE
 70
1
  9
$MEASUREMENT
 70
1
  0
ENDSEC
  0
SECTION
  2
CLASSES
  0
ENDSEC
  0
SECTION
  2
TABLES
  0
TABLE
  2
VPORT
  5
8
100
AcDbSymbolTable
 70
2
  0
VPORT
  5
1F4
100
AcDbSymbolTableRecord
100
AcDbViewportTableRecord
  2
*ACTIVE
 70
0
 10
0.0
 20
0.0
 11
1.0
 21
1.0
 12
148.5
 22
105.0
 13
0.0
 23
0.0
 14
1.0
 24
1.0
 15
0.0
 25
0.0
 16
0.0
 26
0.0
 36
1.0
 17
0.0
 27
0.0
 37
0.0
 40
210.0
 41
1.4142857143
 42
50.0
 43
0.0
 44
0.0
 50
0.0
 51
0.0
 71
0
 72
100
 73
1
 74
1
 75
0
 76
0
 77
0
 78
0
  0
ENDTAB
  0
TABLE
  2
LTYPE
  5
5
100
AcDbSymbolTable
 70
6
  0
LTYPE
  5
14
100
AcDbSymbolTableRecord
100
AcDbLinetypeTableRecord
  2
BYBLOCK
 70
0
  3

 72
65
 73
0
 40
0.0
  0
LTYPE
  5
15
100
AcDbSymbolTableRecord
100
AcDbLinetypeTableRecord
  2
BYLAYER
 70
0
  3

 72
65
 73
0
 40
0.0
  0
LTYPE
  5
16
100
AcDbSymbolTableRecord
100
AcDbLinetypeTableRecord
  2
CONTINUOUS
 70
64
  3
Solid line
 72
65
 73
0
 40
0.0
  0
LTYPE
  5
1F5
100
AcDbSymbolTableRecord
100
AcDbLinetypeTableRecord
  2
CENTER
 70
64
  3
____ _ ____ _ ____ _ ____ _ ____ _ ____ _ ____
 72
65
 73
4
 40
0.6
 49
0.375
 74
0
 49
-0.075
 74
0
 49
0.075
 74
0
 49
-0.075
 74
0
  0
LTYPE
  5
1F6
100
AcDbSymbolTableRecord
100
AcDbLinetypeTableRecord
  2
HIDDEN
 70
64
  3
- - - - - - - - - - - - - - - - - - - -
 72
65
 73
2
 40
0.2
 49
0.1
 74
0
 49
-0.1
 74
0
  0
LTYPE
  5
1F7
100
AcDbSymbolTableRecord
100
AcDbLinetypeTableRecord
  2
PHANTOM
 70
64
  3
_____ _ _ _____ _ _ _____ _ _ _____
 72
65
 73
6
 40
0.8
 49
0.45
 74
0
 49
-0.05
 74
0
 49
0.1
 74
0
 49
-0.05
 74
0
 49
0.1
 74
0
 49
-0.05
 74
0
  0
LTYPE
  5
1F8
100
AcDbSymbolTableRecord
100
AcDbLinetypeTableRecord
  2
DOT
 70
64
  3
. . . . . . . . . . . . . . . . . . . .
 72
65
 73
2
 40
0.2
 49
0.1
 74
0
 49
-0.1
 74
0
  0
LTYPE
  5
1F9
100
AcDbSymbolTableRecord
100
AcDbLinetypeTableRecord
  2
DASHED
 70
64
  3
- - - - - - - - - - - - - - - - - - - -
 72
65
 73
2
 40
0.2
 49
0.1
 74
0
 49
-0.1
 74
0
  0
ENDTAB
  0
TABLE
  2
LAYER
  5
2
100
AcDbSymbolTable
 70
36
  0
LAYER
  5
10
100
AcDbSymbolTableRecord
100
AcDbLayerTableRecord
  2
0
 70
0
 62
7
  6
CONTINUOUS
  0
LAYER
  5
1FA
100
AcDbSymbolTableRecord
100
AcDbLayerTableRecord
  2
DEFAULT_1
 70
0
 62
7
  6
CENTER
  0
LAYER
  5
1FB
100
AcDbSymbolTableRecord
100
AcDbLayerTableRecord
  2
DEFAULT_2
 70
0
 62
8
  6
HIDDEN
  0
LAYER
  5
1FC
100
AcDbSymbolTableRecord
100
AcDbLayerTableRecord
  2
DEFAULT_3
 70
0
 62
7
  6
PHANTOM
  0
LAYER
  5
1FD
100
AcDbSymbolTableRecord
100
AcDbLayerTableRecord
  2
ASSI
 70
0
 62
7
  6
CONTINUOUS
  0
LAYER
  5
1FE
100
AcDbSymbolTableRecord
100
AcDbLayerTableRecord
  2
COSMETICA
 70
0
 62
7
  6
CONTINUOUS
  0
LAYER
  5
1FF
100
AcDbSymbolTableRecord
100
AcDbLayerTableRecord
  2
CSYS
 70
0
 62
7
  6
CONTINUOUS
  0
LAYER
  5
200
100
AcDbSymbolTableRecord
100
AcDbLayerTableRecord
  2
CURVE
 70
0
 62
7
  6
CONTINUOUS
  0
LAYER
  5
201
100
AcDbSymbolTableRecord
100
AcDbLayerTableRecord
  2
DETTAGLI
 70
0
 62
7
  6
CONTINUOUS
  0
LAYER
  5
202
100
AcDbSymbolTableRecord
100
AcDbLayerTableRecord
  2
GEOM
 70
0
 62
7
  6
CONTINUOUS
  0
LAYER
  5
203
100
AcDbSymbolTableRecord
100
AcDbLayerTableRecord
  2
GEOMETRIA_SOLIDA
 70
0
 62
7
  6
CONTINUOUS
  0
LAYER
  5
204
100
AcDbSymbolTableRecord
100
AcDbLayerTableRecord
  2
LAY0001
 70
0
 62
7
  6
CONTINUOUS
  0
LAYER
  5
205
100
AcDbSymbolTableRecord
100
AcDbLayerTableRecord
  2
LAY0002
 70
0
 62
7
  6
CONTINUOUS
  0
LAYER
  5
206
100
AcDbSymbolTableRecord
100
AcDbLayerTableRecord
  2
NOGEOM
 70
0
 62
7
  6
CONTINUOUS
  0
LAYER
  5
207
100
AcDbSymbolTableRecord
100
AcDbLayerTableRecord
  2
PIANI
 70
0
 62
7
  6
CONTINUOUS
  0
LAYER
  5
208
100
AcDbSymbolTableRecord
100
AcDbLayerTableRecord
  2
PIANI_OFFSET
 70
0
 62
7
  6
CONTINUOUS
  0
LAYER
  5
209
100
AcDbSymbolTableRecord
100
AcDbLayerTableRecord
  2
QUOTE
 70
0
 62
7
  6
CONTINUOUS
  0
LAYER
  5
20A
100
AcDbSymbolTableRecord
100
AcDbLayerTableRecord
  2
RACCORDI
 70
0
 62
7
  6
CONTINUOUS
  0
LAYER
  5
20B
100
AcDbSymbolTableRecord
100
AcDbLayerTableRecord
  2
TABELLE
 70
0
 62
7
  6
CONTINUOUS
  0
ENDTAB
  0
TABLE
  2
STYLE
  5
3
100
AcDbSymbolTable
 70
1
  0
STYLE
  5
11
100
AcDbSymbolTableRecord
100
AcDbTextStyleTableRecord
  2
STANDARD
 70
0
 40
0.0
 41
1.0
 50
0.0
 71
0
 42
0.2
  3
trium.ttf
  4

  0
STYLE
  5
20C
100
AcDbSymbolTableRecord
100
AcDbTextStyleTableRecord
  2
TEXTSTYLE_1
 70
0
 40
0.0
 41
0.8
 50
0.0
 71
0
 42
0.2
  3
gdt
  4

  0
ENDTAB
  0
TABLE
  2
VIEW
  5
6
100
AcDbSymbolTable
 70
0
  0
ENDTAB
  0
TABLE
  2
UCS
  5
7
100
AcDbSymbolTable
 70
0
  0
ENDTAB
  0
TABLE
  2
APPID
  5
9
100
AcDbSymbolTable
 70
1
  0
APPID
  5
20D
100
AcDbSymbolTableRecord
100
AcDbRegAppTableRecord
  2
ACAD
 70
0
  0
ENDTAB
  0
TABLE
  2
BLOCK_RECORD
  5
1
100
AcDbSymbolTable
 70
0
  0
BLOCK_RECORD
  5
1F
100
AcDbSymbolTableRecord
100
AcDbBlockTableRecord
  2
*MODEL_SPACE
  0
BLOCK_RECORD
  5
1B
100
AcDbSymbolTableRecord
100
AcDbBlockTableRecord
  2
*PAPER_SPACE
  0
ENDTAB
  0
TABLE
  2
DIMSTYLE
  5
A
100
AcDbSymbolTable
 70
1
  0
DIMSTYLE
105
20E
100
AcDbSymbolTableRecord
100
AcDbDimStyleTableRecord
  2
STANDARD
 70
0
  3

  4

  5
_CLOSED
  6
_CLOSED
  7
_CLOSED
 40
1.0
 41
2.5
 42
0.0625
 43
0.38
 44
0.125
 45
0.0
 46
0.0
 47
0.01
 48
0.01
140
2.5
141
0.09
142
0.0
143
25.4
144
1.0
145
0.0
146
1.0
147
0.625
 71
1.0
 72
0.0
 73
0
 74
0
 75
0
 76
0
 77
1
 78
8
 79
2
170
0
171
1
172
0
173
0
174
0
175
0
176
0
177
0
178
0
270
2
179
2
271
2
272
2
273
2
274
2
275
0
280
0
281
0
282
0
283
1
284
8
285
0
286
0
287
3
288
0
340
11
  0
ENDTAB
  0
ENDSEC
  0
SECTION
  2
BLOCKS
  0
BLOCK
  5
20
100
AcDbEntity
  8
0
100
AcDbBlockBegin
  2
*MODEL_SPACE
 70
0
 10
0.0
 20
0.0
 30
0.0
  3
*MODEL_SPACE
  1

  0
ENDBLK
  5
21
100
AcDbEntity
  8
0
100
AcDbBlockEnd
  0
BLOCK
  5
1C
100
AcDbEntity
  8
0
100
AcDbBlockBegin
  2
*PAPER_SPACE
 70
0
 10
0.0
 20
0.0
 30
0.0
  3
*PAPER_SPACE
  1

  0
ENDBLK
  5
1D
100
AcDbEntity
  8
0
100
AcDbBlockEnd
  0
ENDSEC
  0
SECTION
  2
ENTITIES
  0
LINE
  5
20F
100
AcDbEntity
  8
0
100
AcDbLine
 62
7
  6
CONTINUOUS
 10
0.0
 20
0.0
 11
0.0
 21
210.0
  0
LINE
  5
210
100
AcDbEntity
  8
0
100
AcDbLine
 62
7
  6
CONTINUOUS
 10
0.0
 20
0.0
 11
297.0
 21
0.0
  0
LINE
  5
211
100
AcDbEntity
  8
0
100
AcDbLine
 62
7
  6
CONTINUOUS
 10
0.0
 20
210.0
 11
297.0
 21
210.0
  0
LINE
  5
212
100
AcDbEntity
  8
0
100
AcDbLine
 62
7
  6
CONTINUOUS
 10
297.0
 20
0.0
 11
297.0
 21
210.0
  0
LINE
  5
213
100
AcDbEntity
  8
0
100
AcDbLine
 62
7
  6
CONTINUOUS
 10
71.9702275079
 20
62.9259307312
 11
70.469116808
 21
65.5259307312
  0
LINE
  5
214
100
AcDbEntity
  8
0
100
AcDbLine
 62
7
  6
CONTINUOUS
 10
67.8825142676
 20
66.6759307312
 11
67.8825142676
 21
100.8759307312
  0
LINE
  5
215
100
AcDbEntity
  8
0
100
AcDbLine
 62
7
  6
CONTINUOUS
 10
68.8825142676
 20
65.6759307312
 11
68.8825142676
 21
101.8759307312
  0
LINE
  5
216
100
AcDbEntity
  8
0
100
AcDbLine
 62
7
  6
CONTINUOUS
 10
70.2093091868
 20
101.8759307312
 11
70.2093091868
 21
65.6759307312
  0
LINE
  5
217
100
AcDbEntity
  8
0
100
AcDbLine
 62
7
  6
CONTINUOUS
 10
70.469116808
 20
102.0259307312
 11
70.469116808
 21
65.5259307312
  0
LINE
  5
218
100
AcDbEntity
  8
0
100
AcDbLine
 62
7
  6
CONTINUOUS
 10
71.9702275079
 20
62.9259307312
 11
71.9702275079
 21
62.9932719642
  0
LINE
  5
219
100
AcDbEntity
  8
0
100
AcDbLine
 62
7
  6
CONTINUOUS
 10
71.9702275079
 20
71.9345337786
 11
71.9702275079
 21
74.8346689046
  0
LINE
  5
21A
100
AcDbEntity
  8
0
100
AcDbLine
 62
7
  6
CONTINUOUS
 10
71.9702275079
 20
92.7171925503
 11
71.9702275079
 21
95.6173276759
  0
LINE
  5
21B
100
AcDbEntity
  8
0
100
AcDbLine
 62
7
  6
CONTINUOUS
 10
71.9702275079
 20
104.5585894978
 11
71.9702275079
 21
104.6259307312
  0
LINE
  5
21C
100
AcDbEntity
  8
0
100
AcDbLine
 62
7
  6
CONTINUOUS
 10
72.230035129
 20
104.7759307312
 11
72.230035129
 21
104.7026379391
  0
LINE
  5
21D
100
AcDbEntity
  8
0
100
AcDbLine
 62
7
  6
CONTINUOUS
 10
72.230035129
 20
62.8492235234
 11
72.230035129
 21
62.7759307312
  0
LINE
  5
21E
100
AcDbEntity
  8
0
100
AcDbLine
 62
7
  6
CONTINUOUS
 10
72.230035129
 20
71.7944552358
 11
72.230035129
 21
74.8306990196
  0
LINE
  5
21F
100
AcDbEntity
  8
0
100
AcDbLine
 62
7
  6
CONTINUOUS
 10
72.230035129
 20
92.7211624434
 11
72.230035129
 21
95.7574062271
  0
LINE
  5
220
100
AcDbEntity
  8
0
100
AcDbLine
 62
7
  6
CONTINUOUS
 10
83.7312117794
 20
67.4353318452
 11
84.3305069927
 21
66.2847149387
  0
LINE
  5
221
100
AcDbEntity
  8
0
100
AcDbLine
 62
7
  6
CONTINUOUS
 10
85.5454979012
 20
67.4353319074
 11
86.1447931383
 21
66.2847149594
  0
LINE
  5
222
100
AcDbEntity
  8
0
100
AcDbLine
 62
7
  6
CONTINUOUS
 10
87.3597848487
 20
67.4353318278
 11
87.9590800447
 21
66.2847149532
  0
LINE
  5
223
100
AcDbEntity
  8
0
100
AcDbLine
 62
7
  6
CONTINUOUS
 10
81.9391385946
 20
104.7759307312
 11
81.9391385946
 21
104.7025493581
  0
LINE
  5
224
100
AcDbEntity
  8
0
100
AcDbLine
 62
7
  6
CONTINUOUS
 10
81.9391385946
 20
95.7582774481
 11
81.9391385946
 21
92.7202026412
  0
LINE
  5
225
100
AcDbEntity
  8
0
100
AcDbLine
 62
7
  6
CONTINUOUS
 10
81.9391385946
 20
74.8316588212
 11
81.9391385946
 21
71.7935840143
  0
LINE
  5
226
100
AcDbEntity
  8
0
100
AcDbLine
 62
7
  6
CONTINUOUS
 10
81.9391385946
 20
62.8493121043
 11
81.9391385946
 21
62.7759307312
  0
LINE
  5
227
100
AcDbEntity
  8
0
100
AcDbLine
 62
7
  6
CONTINUOUS
 10
83.3825142676
 20
65.2759307312
 11
83.3825142676
 21
102.2759307312
  0
LINE
  5
228
100
AcDbEntity
  8
0
100
AcDbLine
 62
7
  6
CONTINUOUS
 10
71.9702275079
 20
104.6259307312
 11
70.469116808
 21
102.0259307312
  0
LINE
  5
229
100
AcDbEntity
  8
0
100
AcDbLine
 62
7
  6
CONTINUOUS
 10
84.3305069927
 20
66.2847149387
 11
84.3396563595
 21
66.2759307312
  0
LINE
  5
22A
100
AcDbEntity
  8
0
100
AcDbLine
 62
7
  6
CONTINUOUS
 10
86.1447931383
 20
66.2847149594
 11
86.1539425267
 21
66.2759307312
  0
LINE
  5
22B
100
AcDbEntity
  8
0
100
AcDbLine
 62
7
  6
CONTINUOUS
 10
87.9590800447
 20
66.2847149532
 11
87.9682294266
 21
66.2759307312
  0
LINE
  5
22C
100
AcDbEntity
  8
0
100
AcDbLine
 62
7
  6
CONTINUOUS
 10
89.7733649204
 20
66.2847149199
 11
89.7825142676
 21
66.2759307312
  0
LINE
  5
22D
100
AcDbEntity
  8
0
100
AcDbLine
 62
7
  6
CONTINUOUS
 10
90.2825142676
 20
63.7759307312
 11
91.1485396714
 21
62.2759307312
  0
LINE
  5
22E
100
AcDbEntity
  8
0
100
AcDbLine
 62
7
  6
CONTINUOUS
 10
89.174069757
 20
67.4353317381
 11
89.7733649204
 21
66.2847149199
  0
LINE
  5
22F
100
AcDbEntity
  8
0
100
AcDbLine
 62
7
  6
CONTINUOUS
 10
90.2825142676
 20
63.7762183814
 11
90.2825142676
 21
103.775643081
  0
LINE
  5
230
100
AcDbEntity
  8
0
100
AcDbLine
 62
7
  6
CONTINUOUS
 10
84.4579394354
 20
100.1165295601
 11
83.8586441973
 21
101.2671465102
  0
LINE
  5
231
100
AcDbEntity
  8
0
100
AcDbLine
 62
7
  6
CONTINUOUS
 10
91.1485396714
 20
68.3176614345
 11
91.1485396714
 21
68.8329755232
  0
LINE
  5
232
100
AcDbEntity
  8
0
100
AcDbLine
 62
7
  6
CONTINUOUS
 10
91.1485396714
 20
83.4115486447
 11
91.1485396714
 21
84.1403128178
  0
LINE
  5
233
100
AcDbEntity
  8
0
100
AcDbLine
 62
7
  6
CONTINUOUS
 10
91.1485396714
 20
98.7188859393
 11
91.1485396714
 21
99.234200028
  0
LINE
  5
234
100
AcDbEntity
  8
0
100
AcDbLine
 62
7
  6
CONTINUOUS
 10
97.6659335139
 20
99.2334147669
 11
97.6659335139
 21
98.719698237
  0
LINE
  5
235
100
AcDbEntity
  8
0
100
AcDbLine
 62
7
  6
CONTINUOUS
 10
97.6659335139
 20
84.1391831827
 11
97.6659335139
 21
83.4126782803
  0
LINE
  5
236
100
AcDbEntity
  8
0
100
AcDbLine
 62
7
  6
CONTINUOUS
 10
97.6659335139
 20
68.8321632246
 11
97.6659335139
 21
68.3184466947
  0
LINE
  5
237
100
AcDbEntity
  8
0
100
AcDbLine
 62
7
  6
CONTINUOUS
 10
83.4233650667
 20
101.26714654
 11
83.3825142676
 21
101.1887126273
  0
LINE
  5
238
100
AcDbEntity
  8
0
100
AcDbLine
 62
7
  6
CONTINUOUS
 10
85.2376497959
 20
101.2671465101
 11
84.6442960185
 21
100.1279364458
  0
LINE
  5
239
100
AcDbEntity
  8
0
100
AcDbLine
 62
7
  6
CONTINUOUS
 10
87.0519366709
 20
101.2671465028
 11
86.4585829166
 21
100.1279364811
  0
LINE
  5
23A
100
AcDbEntity
  8
0
100
AcDbLine
 62
7
  6
CONTINUOUS
 10
83.5325142676
 20
100.2369404993
 11
83.3825142676
 21
99.9659007374
  0
LINE
  5
23B
100
AcDbEntity
  8
0
100
AcDbLine
 62
7
  6
CONTINUOUS
 10
106.0147473146
 20
63.8436976842
 11
107.5502812206
 21
62.3081637783
  0
LINE
  5
23C
100
AcDbEntity
  8
0
100
AcDbLine
 62
7
  6
CONTINUOUS
 10
81.9391385946
 20
104.7759307312
 11
83.3825142676
 21
102.2759307312
  0
LINE
  5
23D
100
AcDbEntity
  8
0
100
AcDbLine
 62
7
  6
CONTINUOUS
 10
86.2722263454
 20
100.1165295855
 11
85.6729311258
 21
101.267146502
  0
LINE
  5
23E
100
AcDbEntity
  8
0
100
AcDbLine
 62
7
  6
CONTINUOUS
 10
88.0865125867
 20
100.116529687
 11
87.4872174131
 21
101.2671465222
  0
LINE
  5
23F
100
AcDbEntity
  8
0
100
AcDbLine
 62
7
  6
CONTINUOUS
 10
98.0989462158
 20
105.0259307312
 11
98.0989462158
 21
105.0242844029
  0
LINE
  5
240
100
AcDbEntity
  8
0
100
AcDbLine
 62
7
  6
CONTINUOUS
 10
98.0989462158
 20
98.9878236177
 11
98.0989462158
 21
98.6137477932
  0
LINE
  5
241
100
AcDbEntity
  8
0
100
AcDbLine
 62
7
  6
CONTINUOUS
 10
98.0989462158
 20
84.0404420242
 11
98.0989462158
 21
83.5114194275
  0
LINE
  5
242
100
AcDbEntity
  8
0
100
AcDbLine
 62
7
  6
CONTINUOUS
 10
98.0989462158
 20
68.9381136873
 11
98.0989462158
 21
68.5640378618
  0
LINE
  5
243
100
AcDbEntity
  8
0
100
AcDbLine
 62
7
  6
CONTINUOUS
 10
98.0989462158
 20
62.5275770594
 11
98.0989462158
 21
62.5259307312
  0
LINE
  5
244
100
AcDbEntity
  8
0
100
AcDbLine
 62
7
  6
CONTINUOUS
 10
99.1381767003
 20
103.2259307312
 11
99.1381767003
 21
64.3259307312
  0
LINE
  5
245
100
AcDbEntity
  8
0
100
AcDbLine
 62
7
  6
CONTINUOUS
 10
99.5711894022
 20
102.9759307312
 11
99.5711894022
 21
64.5759307312
  0
LINE
  5
246
100
AcDbEntity
  8
0
100
AcDbLine
 62
7
  6
CONTINUOUS
 10
104.2469803617
 20
64.5759307312
 11
104.2469803617
 21
102.9759307312
  0
LINE
  5
247
100
AcDbEntity
  8
0
100
AcDbLine
 62
7
  6
CONTINUOUS
 10
104.2825142676
 20
112.2759307312
 11
104.2825142676
 21
127.2759307312
  0
LINE
  5
248
100
AcDbEntity
  8
0
100
AcDbLine
 62
7
  6
CONTINUOUS
 10
88.8662229109
 20
101.2671465225
 11
88.2728691892
 21
100.1279365564
  0
LINE
  5
249
100
AcDbEntity
  8
0
100
AcDbLine
 62
7
  6
CONTINUOUS
 10
90.2825142676
 20
103.7759307312
 11
91.1485396714
 21
105.2759307312
  0
LINE
  5
24A
100
AcDbEntity
  8
0
100
AcDbLine
 62
7
  6
CONTINUOUS
 10
83.8586441973
 20
101.2671465102
 11
83.8494948164
 21
101.2759307312
  0
LINE
  5
24B
100
AcDbEntity
  8
0
100
AcDbLine
 62
7
  6
CONTINUOUS
 10
126.7896210488
 20
61.06882395
 11
126.5754074864
 21
61.2830375124
  0
LINE
  5
24C
100
AcDbEntity
  8
0
100
AcDbLine
 62
7
  6
CONTINUOUS
 10
104.6825142676
 20
113.0068708389
 11
104.6825142676
 21
116.7759307312
  0
LINE
  5
24D
100
AcDbEntity
  8
0
100
AcDbLine
 62
7
  6
CONTINUOUS
 10
106.0147473146
 20
63.8436976842
 11
106.0147473146
 21
103.7081637783
  0
LINE
  5
24E
100
AcDbEntity
  8
0
100
AcDbLine
 62
7
  6
CONTINUOUS
 10
107.2825142676
 20
116.7759307312
 11
107.2825142676
 21
126.7759307312
  0
LINE
  5
24F
100
AcDbEntity
  8
0
100
AcDbLine
 62
7
  6
CONTINUOUS
 10
107.5502812206
 20
105.2436976842
 11
107.5502812206
 21
62.3081637783
  0
LINE
  5
250
100
AcDbEntity
  8
0
100
AcDbLine
 62
7
  6
CONTINUOUS
 10
108.0325142676
 20
118.0259307312
 11
108.0325142676
 21
121.2259307312
  0
LINE
  5
251
100
AcDbEntity
  8
0
100
AcDbLine
 62
7
  6
CONTINUOUS
 10
108.2575426123
 20
116.3759307312
 11
108.2575426123
 21
111.7744588687
  0
LINE
  5
252
100
AcDbEntity
  8
0
100
AcDbLine
 62
7
  6
CONTINUOUS
 10
108.2825142676
 20
117.1759307312
 11
108.2825142676
 21
117.56882395
  0
LINE
  5
253
100
AcDbEntity
  8
0
100
AcDbLine
 62
7
  6
CONTINUOUS
 10
108.644383723
 20
116.3759307312
 11
108.644383723
 21
111.7744588687
  0
LINE
  5
254
100
AcDbEntity
  8
0
100
AcDbLine
 62
7
  6
CONTINUOUS
 10
109.0325142676
 20
106.8646161717
 11
109.0325142676
 21
109.8025768449
  0
LINE
  5
255
100
AcDbEntity
  8
0
100
AcDbLine
 62
7
  6
CONTINUOUS
 10
109.0349535822
 20
110.5274025938
 11
109.0349535822
 21
110.493988829
  0
LINE
  5
256
100
AcDbEntity
  8
0
100
AcDbLine
 62
7
  6
CONTINUOUS
 10
109.3180481735
 20
105.3213985742
 11
109.3180481735
 21
61.5759307312
  0
LINE
  5
257
100
AcDbEntity
  8
0
100
AcDbLine
 62
7
  6
CONTINUOUS
 10
109.4198384906
 20
110.5274025938
 11
109.4198384906
 21
110.493988829
  0
LINE
  5
258
100
AcDbEntity
  8
0
100
AcDbLine
 62
7
  6
CONTINUOUS
 10
110.2825142676
 20
121.7759307312
 11
110.2825142676
 21
121.6691352657
  0
LINE
  5
259
100
AcDbEntity
  8
0
100
AcDbLine
 62
7
  6
CONTINUOUS
 10
84.765787558
 20
66.2847149599
 11
85.3591413564
 21
67.423925008
  0
LINE
  5
25A
100
AcDbEntity
  8
0
100
AcDbLine
 62
7
  6
CONTINUOUS
 10
83.3825142676
 20
67.1122467032
 11
83.5448552011
 21
67.423924974
  0
LINE
  5
25B
100
AcDbEntity
  8
0
100
AcDbLine
 62
7
  6
CONTINUOUS
 10
104.6825142676
 20
113.0068708389
 11
104.4825142676
 21
112.6604606774
  0
LINE
  5
25C
100
AcDbEntity
  8
0
100
AcDbLine
 62
7
  6
CONTINUOUS
 10
104.2825142676
 20
125.8898923872
 11
105.5750159334
 21
127.2759307312
  0
LINE
  5
25D
100
AcDbEntity
  8
0
100
AcDbLine
 62
7
  6
CONTINUOUS
 10
83.4233650667
 20
101.26714654
 11
83.4325144165
 21
101.2759307312
  0
LINE
  5
25E
100
AcDbEntity
  8
0
100
AcDbLine
 62
7
  6
CONTINUOUS
 10
85.2376497959
 20
101.2671465101
 11
85.246799177
 21
101.2759307312
  0
LINE
  5
25F
100
AcDbEntity
  8
0
100
AcDbLine
 62
7
  6
CONTINUOUS
 10
114.6637121141
 20
135.1186651413
 11
115.2825142676
 21
135.4759307312
  0
LINE
  5
260
100
AcDbEntity
  8
0
100
AcDbLine
 62
7
  6
CONTINUOUS
 10
85.6729311258
 20
101.267146502
 11
85.6637817363
 21
101.2759307312
  0
LINE
  5
261
100
AcDbEntity
  8
0
100
AcDbLine
 62
7
  6
CONTINUOUS
 10
87.4872174131
 20
101.2671465222
 11
87.4780680447
 21
101.2759307312
  0
LINE
  5
262
100
AcDbEntity
  8
0
100
AcDbLine
 62
7
  6
CONTINUOUS
 10
98.0989462158
 20
105.0259307312
 11
99.1381767003
 21
103.2259307312
  0
LINE
  5
263
100
AcDbEntity
  8
0
100
AcDbLine
 62
7
  6
CONTINUOUS
 10
114.5659534186
 20
76.1126479945
 11
113.1325142676
 21
78.9259307312
  0
LINE
  5
264
100
AcDbEntity
  8
0
100
AcDbLine
 62
7
  6
CONTINUOUS
 10
114.9307094458
 20
76.8285220055
 11
113.8620263221
 21
78.9259307312
  0
LINE
  5
265
100
AcDbEntity
  8
0
100
AcDbLine
 62
7
  6
CONTINUOUS
 10
111.283844768
 20
125.398580462
 11
111.283844768
 21
122.4759307312
  0
LINE
  5
266
100
AcDbEntity
  8
0
100
AcDbLine
 62
7
  6
CONTINUOUS
 10
111.5725142676
 20
73.9859307312
 11
111.5725142676
 21
81.7859307312
  0
LINE
  5
267
100
AcDbEntity
  8
0
100
AcDbLine
 62
7
  6
CONTINUOUS
 10
112.2225142676
 20
74.6359307312
 11
112.2225142676
 21
81.1359307312
  0
LINE
  5
268
100
AcDbEntity
  8
0
100
AcDbLine
 62
7
  6
CONTINUOUS
 10
112.6325142676
 20
83.7759307312
 11
112.6325142676
 21
84.7559307312
  0
LINE
  5
269
100
AcDbEntity
  8
0
100
AcDbLine
 62
7
  6
CONTINUOUS
 10
112.6325142676
 20
86.8559307312
 11
112.6325142676
 21
90.9259307312
  0
LINE
  5
26A
100
AcDbEntity
  8
0
100
AcDbLine
 62
7
  6
CONTINUOUS
 10
113.2825142676
 20
131.1295205697
 11
113.2825142676
 21
130.4759307312
  0
LINE
  5
26B
100
AcDbEntity
  8
0
100
AcDbLine
 62
7
  6
CONTINUOUS
 10
113.6125142676
 20
87.8359307312
 11
113.6125142676
 21
89.9459307312
  0
LINE
  5
26C
100
AcDbEntity
  8
0
100
AcDbLine
 62
7
  6
CONTINUOUS
 10
113.7825142676
 20
126.7759307312
 11
113.7825142676
 21
125.9759307312
  0
LINE
  5
26D
100
AcDbEntity
  8
0
100
AcDbLine
 62
7
  6
CONTINUOUS
 10
114.2625142676
 20
92.2259307312
 11
114.2625142676
 21
93.5259307312
  0
LINE
  5
26E
100
AcDbEntity
  8
0
100
AcDbLine
 62
7
  6
CONTINUOUS
 10
114.6637121141
 20
132.2733656797
 11
114.6637121141
 21
135.1186651413
  0
LINE
  5
26F
100
AcDbEntity
  8
0
100
AcDbLine
 62
7
  6
CONTINUOUS
 10
114.9025142676
 20
84.7559307312
 11
114.9025142676
 21
86.8559307312
  0
LINE
  5
270
100
AcDbEntity
  8
0
100
AcDbLine
 62
7
  6
CONTINUOUS
 10
115.1568281142
 20
125.398580462
 11
115.1568281142
 21
122.4759307312
  0
LINE
  5
271
100
AcDbEntity
  8
0
100
AcDbLine
 62
7
  6
CONTINUOUS
 10
115.4095309214
 20
125.398580462
 11
115.4095309214
 21
122.4759307312
  0
LINE
  5
272
100
AcDbEntity
  8
0
100
AcDbLine
 62
7
  6
CONTINUOUS
 10
115.6148952443
 20
127.2759307312
 11
115.6148952443
 21
125.8898923872
  0
LINE
  5
273
100
AcDbEntity
  8
0
100
AcDbLine
 62
7
  6
CONTINUOUS
 10
115.8825142676
 20
83.7759307312
 11
115.8825142676
 21
87.8359307312
  0
LINE
  5
274
100
AcDbEntity
  8
0
100
AcDbLine
 62
7
  6
CONTINUOUS
 10
115.8825142676
 20
89.9459307312
 11
115.8825142676
 21
90.9259307312
  0
LINE
  5
275
100
AcDbEntity
  8
0
100
AcDbLine
 62
7
  6
CONTINUOUS
 10
116.0425142676
 20
110.3874025938
 11
116.0425142676
 21
104.9874025938
  0
LINE
  5
276
100
AcDbEntity
  8
0
100
AcDbLine
 62
7
  6
CONTINUOUS
 10
116.6725142676
 20
109.7574025938
 11
116.6725142676
 21
104.9874025938
  0
LINE
  5
277
100
AcDbEntity
  8
0
100
AcDbLine
 62
7
  6
CONTINUOUS
 10
116.7225142676
 20
105.6174025938
 11
116.7225142676
 21
104.9874025938
  0
LINE
  5
278
100
AcDbEntity
  8
0
100
AcDbLine
 62
7
  6
CONTINUOUS
 10
116.9731131908
 20
132.2733656797
 11
116.9731131908
 21
135.1186651413
  0
LINE
  5
279
100
AcDbEntity
  8
0
100
AcDbLine
 62
7
  6
CONTINUOUS
 10
117.1825142676
 20
83.7759307312
 11
117.1825142676
 21
92.2259307312
  0
LINE
  5
27A
100
AcDbEntity
  8
0
100
AcDbLine
 62
7
  6
CONTINUOUS
 10
117.4284123013
 20
130.4759307312
 11
117.4104167948
 21
130.2759307312
  0
LINE
  5
27B
100
AcDbEntity
  8
0
100
AcDbLine
 62
7
  6
CONTINUOUS
 10
119.2825142676
 20
130.4759307312
 11
119.2310277082
 21
130.2759307312
  0
LINE
  5
27C
100
AcDbEntity
  8
0
100
AcDbLine
 62
7
  6
CONTINUOUS
 10
121.1366162338
 20
130.4759307312
 11
121.0566784847
 21
130.2759307312
  0
LINE
  5
27D
100
AcDbEntity
  8
0
100
AcDbLine
 62
7
  6
CONTINUOUS
 10
125.2825142676
 20
130.4759307312
 11
125.1822896137
 21
130.2759307312
  0
LINE
  5
27E
100
AcDbEntity
  8
0
100
AcDbLine
 62
7
  6
CONTINUOUS
 10
122.8092257814
 20
130.4759307312
 11
122.7086617063
 21
130.2759307312
  0
LINE
  5
27F
100
AcDbEntity
  8
0
100
AcDbLine
 62
7
  6
CONTINUOUS
 10
88.9838621595
 20
67.4259307312
 11
88.3852100513
 21
66.2759307312
  0
LINE
  5
280
100
AcDbEntity
  8
0
100
AcDbLine
 62
7
  6
CONTINUOUS
 10
86.5800745332
 20
66.284714954
 11
87.1734282945
 21
67.4239249363
  0
LINE
  5
281
100
AcDbEntity
  8
0
100
AcDbLine
 62
7
  6
CONTINUOUS
 10
124.9888533654
 20
130.4759307312
 11
124.8776238333
 21
130.2759307312
  0
LINE
  5
282
100
AcDbEntity
  8
0
100
AcDbLine
 62
7
  6
CONTINUOUS
 10
124.1366162338
 20
130.4759307312
 11
124.0252697452
 21
130.2759307312
  0
LINE
  5
283
100
AcDbEntity
  8
0
100
AcDbLine
 62
7
  6
CONTINUOUS
 10
81.9391385946
 20
62.7759307312
 11
83.3825142676
 21
65.2759307312
  0
LINE
  5
284
100
AcDbEntity
  8
0
100
AcDbLine
 62
7
  6
CONTINUOUS
 10
108.0325142676
 20
121.2259307312
 11
108.2825142676
 21
121.4759307312
  0
LINE
  5
285
100
AcDbEntity
  8
0
100
AcDbLine
 62
7
  6
CONTINUOUS
 10
113.7825142676
 20
126.7759307312
 11
114.1825142676
 21
127.1759307312
  0
LINE
  5
286
100
AcDbEntity
  8
0
100
AcDbLine
 62
7
  6
CONTINUOUS
 10
110.9825142676
 20
122.4759307312
 11
110.2825142676
 21
121.7759307312
  0
LINE
  5
287
100
AcDbEntity
  8
0
100
AcDbLine
 62
7
  6
CONTINUOUS
 10
87.0519366709
 20
101.2671465028
 11
87.0610860595
 21
101.2759307312
  0
LINE
  5
288
100
AcDbEntity
  8
0
100
AcDbLine
 62
7
  6
CONTINUOUS
 10
88.8662229109
 20
101.2671465225
 11
88.8753722789
 21
101.2759307312
  0
LINE
  5
289
100
AcDbEntity
  8
0
100
AcDbLine
 62
7
  6
CONTINUOUS
 10
114.6637121141
 20
132.2733656797
 11
113.5825142676
 21
131.649135812
  0
LINE
  5
28A
100
AcDbEntity
  8
0
100
AcDbLine
 62
7
  6
CONTINUOUS
 10
112.2825142676
 20
125.9759307312
 11
111.2825142676
 21
125.398580462
  0
LINE
  5
28B
100
AcDbEntity
  8
0
100
AcDbLine
 62
7
  6
CONTINUOUS
 10
136.0825142676
 20
60.0259307312
 11
134.7155269695
 21
60.0259307312
  0
LINE
  5
28C
100
AcDbEntity
  8
0
100
AcDbLine
 62
7
  6
CONTINUOUS
 10
136.2825142676
 20
60.0259307312
 11
138.3151685601
 21
60.0259307312
  0
LINE
  5
28D
100
AcDbEntity
  8
0
100
AcDbLine
 62
7
  6
CONTINUOUS
 10
127.49672783
 20
60.7759307312
 11
133.9361041061
 21
60.7759307312
  0
LINE
  5
28E
100
AcDbEntity
  8
0
100
AcDbLine
 62
7
  6
CONTINUOUS
 10
125.8683007052
 20
61.5759307312
 11
109.3180481735
 21
61.5759307312
  0
LINE
  5
28F
100
AcDbEntity
  8
0
100
AcDbLine
 62
7
  6
CONTINUOUS
 10
97.6453313654
 20
62.2790187275
 11
91.1485396714
 21
62.2790187275
  0
LINE
  5
290
100
AcDbEntity
  8
0
100
AcDbLine
 62
7
  6
CONTINUOUS
 10
166.0349934062
 20
62.7759307312
 11
156.3258899406
 21
62.7759307312
  0
LINE
  5
291
100
AcDbEntity
  8
0
100
AcDbLine
 62
7
  6
CONTINUOUS
 10
72.230035129
 20
62.7759307312
 11
81.9391385946
 21
62.7759307312
  0
LINE
  5
292
100
AcDbEntity
  8
0
100
AcDbLine
 62
7
  6
CONTINUOUS
 10
166.018270316
 20
62.8493121043
 11
156.3258899406
 21
62.8493121043
  0
LINE
  5
293
100
AcDbEntity
  8
0
100
AcDbLine
 62
7
  6
CONTINUOUS
 10
72.2467582192
 20
62.8493121043
 11
81.9391385946
 21
62.8493121043
  0
LINE
  5
294
100
AcDbEntity
  8
0
100
AcDbLine
 62
7
  6
CONTINUOUS
 10
139.5825142676
 20
63.7759307312
 11
148.2825142599
 21
63.7759307312
  0
LINE
  5
295
100
AcDbEntity
  8
0
100
AcDbLine
 62
7
  6
CONTINUOUS
 10
139.5825142676
 20
64.250487574
 11
147.4742238907
 21
64.250487574
  0
LINE
  5
296
100
AcDbEntity
  8
0
100
AcDbLine
 62
7
  6
CONTINUOUS
 10
99.5711894022
 20
64.5759307312
 11
104.2469803617
 21
64.5759307312
  0
LINE
  5
297
100
AcDbEntity
  8
0
100
AcDbLine
 62
7
  6
CONTINUOUS
 10
70.2093091868
 20
65.6759307312
 11
68.8825142676
 21
65.6759307312
  0
LINE
  5
298
100
AcDbEntity
  8
0
100
AcDbLine
 62
7
  6
CONTINUOUS
 10
168.0557193484
 20
65.6759307312
 11
169.3825142676
 21
65.6759307312
  0
LINE
  5
299
100
AcDbEntity
  8
0
100
AcDbLine
 62
7
  6
CONTINUOUS
 10
86.5709251505
 20
66.2759307312
 11
86.1539425267
 21
66.2759307312
  0
LINE
  5
29A
100
AcDbEntity
  8
0
100
AcDbLine
 62
7
  6
CONTINUOUS
 10
84.7566381691
 20
66.2759307312
 11
84.3396563595
 21
66.2759307312
  0
LINE
  5
29B
100
AcDbEntity
  8
0
100
AcDbLine
 62
7
  6
CONTINUOUS
 10
87.9682294266
 20
66.2759307312
 11
90.2825142676
 21
66.2759307312
  0
LINE
  5
29C
100
AcDbEntity
  8
0
100
AcDbLine
 62
7
  6
CONTINUOUS
 10
148.2825142676
 20
66.2759307312
 11
149.6896562562
 21
66.2759307312
  0
LINE
  5
29D
100
AcDbEntity
  8
0
100
AcDbLine
 62
7
  6
CONTINUOUS
 10
151.0869604905
 20
66.2759307312
 11
151.5039424757
 21
66.2759307312
  0
LINE
  5
29E
100
AcDbEntity
  8
0
100
AcDbLine
 62
7
  6
CONTINUOUS
 10
152.9012467989
 20
66.2759307312
 11
153.3182293582
 21
66.2759307312
  0
LINE
  5
29F
100
AcDbEntity
  8
0
100
AcDbLine
 62
7
  6
CONTINUOUS
 10
154.7155337188
 20
66.2759307312
 11
154.8825142676
 21
66.2759307312
  0
LINE
  5
2A0
100
AcDbEntity
  8
0
100
AcDbLine
 62
7
  6
CONTINUOUS
 10
134.4557193484
 20
60.4759307312
 11
134.7155269695
 21
60.0259307312
  0
LINE
  5
2A1
100
AcDbEntity
  8
0
100
AcDbLine
 62
7
  6
CONTINUOUS
 10
115.7558027538
 20
130.4759307312
 11
115.7730598258
 21
130.2759307312
  0
LINE
  5
2A2
100
AcDbEntity
  8
0
100
AcDbLine
 62
7
  6
CONTINUOUS
 10
118.2225142676
 20
75.6159307312
 11
118.2225142676
 21
78.9259307312
  0
LINE
  5
2A3
100
AcDbEntity
  8
0
100
AcDbLine
 62
7
  6
CONTINUOUS
 10
118.2225142676
 20
79.5759307312
 11
118.2225142676
 21
80.2259307312
  0
LINE
  5
2A4
100
AcDbEntity
  8
0
100
AcDbLine
 62
7
  6
CONTINUOUS
 10
118.4825142676
 20
83.7759307312
 11
118.4825142676
 21
92.2259307312
  0
LINE
  5
2A5
100
AcDbEntity
  8
0
100
AcDbLine
 62
7
  6
CONTINUOUS
 10
118.5625142676
 20
108.8574025938
 11
118.5625142676
 21
106.5174025938
  0
LINE
  5
2A6
100
AcDbEntity
  8
0
100
AcDbLine
 62
7
  6
CONTINUOUS
 10
118.8725142676
 20
75.6159307312
 11
118.8725142676
 21
78.9259307312
  0
LINE
  5
2A7
100
AcDbEntity
  8
0
100
AcDbLine
 62
7
  6
CONTINUOUS
 10
118.8725142676
 20
79.5759307312
 11
118.8725142676
 21
80.2259307312
  0
LINE
  5
2A8
100
AcDbEntity
  8
0
100
AcDbLine
 62
7
  6
CONTINUOUS
 10
119.1925142676
 20
109.0374025938
 11
119.1925142676
 21
106.3374025938
  0
LINE
  5
2A9
100
AcDbEntity
  8
0
100
AcDbLine
 62
7
  6
CONTINUOUS
 10
119.2825142676
 20
110.3874025938
 11
119.2825142676
 21
104.9874025938
  0
LINE
  5
2AA
100
AcDbEntity
  8
0
100
AcDbLine
 62
7
  6
CONTINUOUS
 10
119.7825142676
 20
75.6159307312
 11
119.7825142676
 21
75.7859307312
  0
LINE
  5
2AB
100
AcDbEntity
  8
0
100
AcDbLine
 62
7
  6
CONTINUOUS
 10
119.7825142676
 20
77.6341422108
 11
119.7825142676
 21
78.9259307312
  0
LINE
  5
2AC
100
AcDbEntity
  8
0
100
AcDbLine
 62
7
  6
CONTINUOUS
 10
119.7825142676
 20
83.7759307312
 11
119.7825142676
 21
90.9259307312
  0
LINE
  5
2AD
100
AcDbEntity
  8
0
100
AcDbLine
 62
7
  6
CONTINUOUS
 10
119.9125142676
 20
109.7574025938
 11
119.9125142676
 21
107.9574025938
  0
LINE
  5
2AE
100
AcDbEntity
  8
0
100
AcDbLine
 62
7
  6
CONTINUOUS
 10
119.9125142676
 20
107.2552648302
 11
119.9125142676
 21
104.9874025938
  0
LINE
  5
2AF
100
AcDbEntity
  8
0
100
AcDbLine
 62
7
  6
CONTINUOUS
 10
120.4325142676
 20
78.2759307312
 11
120.4325142676
 21
78.9259307312
  0
LINE
  5
2B0
100
AcDbEntity
  8
0
100
AcDbLine
 62
7
  6
CONTINUOUS
 10
120.7625142676
 20
83.7759307312
 11
120.7625142676
 21
86.8559307312
  0
LINE
  5
2B1
100
AcDbEntity
  8
0
100
AcDbLine
 62
7
  6
CONTINUOUS
 10
120.7625142676
 20
87.8359307312
 11
120.7625142676
 21
89.9459307312
  0
LINE
  5
2B2
100
AcDbEntity
  8
0
100
AcDbLine
 62
7
  6
CONTINUOUS
 10
121.4125142676
 20
92.2259307312
 11
121.4125142676
 21
93.5259307312
  0
LINE
  5
2B3
100
AcDbEntity
  8
0
100
AcDbLine
 62
7
  6
CONTINUOUS
 10
121.5919153444
 20
132.2733656797
 11
121.5919153444
 21
135.1186651413
  0
LINE
  5
2B4
100
AcDbEntity
  8
0
100
AcDbLine
 62
7
  6
CONTINUOUS
 10
121.7825142676
 20
112.2759307312
 11
121.7825142676
 21
119.2759307312
  0
LINE
  5
2B5
100
AcDbEntity
  8
0
100
AcDbLine
 62
7
  6
CONTINUOUS
 10
122.2525142676
 20
77.8659307312
 11
122.2525142676
 21
78.5359307312
  0
LINE
  5
2B6
100
AcDbEntity
  8
0
100
AcDbLine
 62
7
  6
CONTINUOUS
 10
122.9025142676
 20
77.6710949582
 11
122.9025142676
 21
78.5359307312
  0
LINE
  5
2B7
100
AcDbEntity
  8
0
100
AcDbLine
 62
7
  6
CONTINUOUS
 10
123.0325142676
 20
86.8559307312
 11
123.0325142676
 21
87.8359307312
  0
LINE
  5
2B8
100
AcDbEntity
  8
0
100
AcDbLine
 62
7
  6
CONTINUOUS
 10
123.0325142676
 20
89.9459307312
 11
123.0325142676
 21
90.9259307312
  0
LINE
  5
2B9
100
AcDbEntity
  8
0
100
AcDbLine
 62
7
  6
CONTINUOUS
 10
123.9013164211
 20
132.2733656797
 11
123.9013164211
 21
135.1186651413
  0
LINE
  5
2BA
100
AcDbEntity
  8
0
100
AcDbLine
 62
7
  6
CONTINUOUS
 10
123.9225142676
 20
74.6359307312
 11
123.9225142676
 21
81.1359307312
  0
LINE
  5
2BB
100
AcDbEntity
  8
0
100
AcDbLine
 62
7
  6
CONTINUOUS
 10
108.9740877839
 20
110.66882395
 11
109.246361381
 21
110.9516666546
  0
LINE
  5
2BC
100
AcDbEntity
  8
0
100
AcDbLine
 62
7
  6
CONTINUOUS
 10
108.5606757569
 20
111.0673520875
 11
108.8337076046
 21
111.3501947999
  0
LINE
  5
2BD
100
AcDbEntity
  8
0
100
AcDbLine
 62
7
  6
CONTINUOUS
 10
106.0147473146
 20
103.7081637783
 11
107.5502812206
 21
105.2436976842
  0
LINE
  5
2BE
100
AcDbEntity
  8
0
100
AcDbLine
 62
7
  6
CONTINUOUS
 10
153.1251549547
 20
148.104357856
 11
135.5896210488
 21
130.56882395
  0
LINE
  5
2BF
100
AcDbEntity
  8
0
100
AcDbLine
 62
7
  6
CONTINUOUS
 10
89.1838621595
 20
67.4259307312
 11
88.9838621595
 21
67.4259307312
  0
LINE
  5
2C0
100
AcDbEntity
  8
0
100
AcDbLine
 62
7
  6
CONTINUOUS
 10
83.541004202
 20
67.4259308191
 11
83.741004202
 21
67.4259308191
  0
LINE
  5
2C1
100
AcDbEntity
  8
0
100
AcDbLine
 62
7
  6
CONTINUOUS
 10
85.355290348
 20
67.4259308581
 11
85.555290348
 21
67.4259308581
  0
LINE
  5
2C2
100
AcDbEntity
  8
0
100
AcDbLine
 62
7
  6
CONTINUOUS
 10
87.1695772888
 20
67.4259307849
 11
87.3695772888
 21
67.4259307849
  0
LINE
  5
2C3
100
AcDbEntity
  8
0
100
AcDbLine
 62
7
  6
CONTINUOUS
 10
150.2883083732
 20
67.4259307474
 11
150.4883083732
 21
67.4259307474
  0
LINE
  5
2C4
100
AcDbEntity
  8
0
100
AcDbLine
 62
7
  6
CONTINUOUS
 10
152.1025946371
 20
67.4259308273
 11
152.3025946371
 21
67.4259308273
  0
LINE
  5
2C5
100
AcDbEntity
  8
0
100
AcDbLine
 62
7
  6
CONTINUOUS
 10
153.9168815386
 20
67.4259308608
 11
154.1168815386
 21
67.4259308608
  0
LINE
  5
2C6
100
AcDbEntity
  8
0
100
AcDbLine
 62
7
  6
CONTINUOUS
 10
97.6453313654
 20
68.3176614345
 11
91.1485396714
 21
68.3176614345
  0
LINE
  5
2C7
100
AcDbEntity
  8
0
100
AcDbLine
 62
7
  6
CONTINUOUS
 10
97.6453313654
 20
68.8329755232
 11
91.1485396714
 21
68.8329755232
  0
LINE
  5
2C8
100
AcDbEntity
  8
0
100
AcDbLine
 62
7
  6
CONTINUOUS
 10
166.018270316
 20
71.7935840143
 11
156.3258899406
 21
71.7935840143
  0
LINE
  5
2C9
100
AcDbEntity
  8
0
100
AcDbLine
 62
7
  6
CONTINUOUS
 10
72.2467582192
 20
71.7935840143
 11
81.9391385946
 21
71.7935840143
  0
LINE
  5
2CA
100
AcDbEntity
  8
0
100
AcDbLine
 62
7
  6
CONTINUOUS
 10
114.4284123013
 20
130.4759307312
 11
114.4792327093
 21
130.2759307312
  0
LINE
  5
2CB
100
AcDbEntity
  8
0
100
AcDbLine
 62
7
  6
CONTINUOUS
 10
124.5725142676
 20
73.9859307312
 11
124.5725142676
 21
81.7859307312
  0
LINE
  5
2CC
100
AcDbEntity
  8
0
100
AcDbLine
 62
7
  6
CONTINUOUS
 10
125.2825142676
 20
131.1295205697
 11
125.2825142676
 21
130.4759307312
  0
LINE
  5
2CD
100
AcDbEntity
  8
0
100
AcDbLine
 62
7
  6
CONTINUOUS
 10
125.8683007052
 20
61.5759307312
 11
125.8683007052
 21
104.1199054361
  0
LINE
  5
2CE
100
AcDbEntity
  8
0
100
AcDbLine
 62
7
  6
CONTINUOUS
 10
126.5754074864
 20
104.3368563813
 11
126.5754074864
 21
61.2830375124
  0
LINE
  5
2CF
100
AcDbEntity
  8
0
100
AcDbLine
 62
7
  6
CONTINUOUS
 10
126.7896210488
 20
61.06882395
 11
126.7896210488
 21
104.6322316864
  0
LINE
  5
2D0
100
AcDbEntity
  8
0
100
AcDbLine
 62
7
  6
CONTINUOUS
 10
127.49672783
 20
105.490549847
 11
127.49672783
 21
60.7759307312
  0
LINE
  5
2D1
100
AcDbEntity
  8
0
100
AcDbLine
 62
7
  6
CONTINUOUS
 10
129.5325142676
 20
107.9759307312
 11
129.5325142676
 21
110.5274025938
  0
LINE
  5
2D2
100
AcDbEntity
  8
0
100
AcDbLine
 62
7
  6
CONTINUOUS
 10
130.2825142676
 20
111.7744588687
 11
130.2825142676
 21
117.56882395
  0
LINE
  5
2D3
100
AcDbEntity
  8
0
100
AcDbLine
 62
7
  6
CONTINUOUS
 10
130.5325142676
 20
118.0259307312
 11
130.5325142676
 21
118.457754925
  0
LINE
  5
2D4
100
AcDbEntity
  8
0
100
AcDbLine
 62
7
  6
CONTINUOUS
 10
133.2825142676
 20
126.0133178285
 11
128.2825142676
 21
112.2759307312
  0
LINE
  5
2D5
100
AcDbEntity
  8
0
100
AcDbLine
 62
7
  6
CONTINUOUS
 10
98.0989462158
 20
62.5259307312
 11
99.1381767003
 21
64.3259307312
  0
LINE
  5
2D6
100
AcDbEntity
  8
0
100
AcDbLine
 62
7
  6
CONTINUOUS
 10
137.7109413923
 20
128.4475036065
 11
154.9535820795
 21
145.6901442936
  0
LINE
  5
2D7
100
AcDbEntity
  8
0
100
AcDbLine
 62
7
  6
CONTINUOUS
 10
130.428960877
 20
117.9223773406
 11
130.5325142676
 21
118.0259307312
  0
LINE
  5
2D8
100
AcDbEntity
  8
0
100
AcDbLine
 62
7
  6
CONTINUOUS
 10
124.5725142676
 20
73.9859307312
 11
111.5725142676
 21
73.9859307312
  0
LINE
  5
2D9
100
AcDbEntity
  8
0
100
AcDbLine
 62
7
  6
CONTINUOUS
 10
123.9225142676
 20
74.6359307312
 11
112.2225142676
 21
74.6359307312
  0
LINE
  5
2DA
100
AcDbEntity
  8
0
100
AcDbLine
 62
7
  6
CONTINUOUS
 10
166.018270316
 20
74.8316588212
 11
156.3258899406
 21
74.8316588212
  0
LINE
  5
2DB
100
AcDbEntity
  8
0
100
AcDbLine
 62
7
  6
CONTINUOUS
 10
72.2467582192
 20
74.8316588212
 11
81.9391385946
 21
74.8316588212
  0
LINE
  5
2DC
100
AcDbEntity
  8
0
100
AcDbLine
 62
7
  6
CONTINUOUS
 10
139.5825142676
 20
75.017102641
 11
147.4742238907
 21
75.017102641
  0
LINE
  5
2DD
100
AcDbEntity
  8
0
100
AcDbLine
 62
7
  6
CONTINUOUS
 10
120.4325142676
 20
75.6159307312
 11
119.7825142676
 21
75.6159307312
  0
LINE
  5
2DE
100
AcDbEntity
  8
0
100
AcDbLine
 62
7
  6
CONTINUOUS
 10
118.8725142676
 20
75.6159307312
 11
118.2225142676
 21
75.6159307312
  0
LINE
  5
2DF
100
AcDbEntity
  8
0
100
AcDbLine
 62
7
  6
CONTINUOUS
 10
115.6259850298
 20
75.6159307312
 11
114.8964729753
 21
75.6159307312
  0
LINE
  5
2E0
100
AcDbEntity
  8
0
100
AcDbLine
 62
7
  6
CONTINUOUS
 10
139.5825142676
 20
76.162784207
 11
147.4742238907
 21
76.162784207
  0
LINE
  5
2E1
100
AcDbEntity
  8
0
100
AcDbLine
 62
7
  6
CONTINUOUS
 10
122.2525142676
 20
77.8659307312
 11
121.8625142676
 21
77.8659307312
  0
LINE
  5
2E2
100
AcDbEntity
  8
0
100
AcDbLine
 62
7
  6
CONTINUOUS
 10
122.9025142676
 20
78.5359307312
 11
122.2525142676
 21
78.5359307312
  0
LINE
  5
2E3
100
AcDbEntity
  8
0
100
AcDbLine
 62
7
  6
CONTINUOUS
 10
120.4325142676
 20
78.9259307312
 11
119.7825142676
 21
78.9259307312
  0
LINE
  5
2E4
100
AcDbEntity
  8
0
100
AcDbLine
 62
7
  6
CONTINUOUS
 10
118.8725142676
 20
78.9259307312
 11
118.2225142676
 21
78.9259307312
  0
LINE
  5
2E5
100
AcDbEntity
  8
0
100
AcDbLine
 62
7
  6
CONTINUOUS
 10
117.3125142676
 20
78.9259307312
 11
116.5830022131
 21
78.9259307312
  0
LINE
  5
2E6
100
AcDbEntity
  8
0
100
AcDbLine
 62
7
  6
CONTINUOUS
 10
113.8620263221
 20
78.9259307312
 11
113.1325142676
 21
78.9259307312
  0
LINE
  5
2E7
100
AcDbEntity
  8
0
100
AcDbLine
 62
7
  6
CONTINUOUS
 10
118.8725142676
 20
79.5759307312
 11
118.2225142676
 21
79.5759307312
  0
LINE
  5
2E8
100
AcDbEntity
  8
0
100
AcDbLine
 62
7
  6
CONTINUOUS
 10
151.0778111217
 20
66.284714941
 11
151.0869604905
 21
66.2759307312
  0
LINE
  5
2E9
100
AcDbEntity
  8
0
100
AcDbLine
 62
7
  6
CONTINUOUS
 10
152.8920974091
 20
66.2847149612
 11
152.9012467989
 21
66.2759307312
  0
LINE
  5
2EA
100
AcDbEntity
  8
0
100
AcDbLine
 62
7
  6
CONTINUOUS
 10
154.7063843375
 20
66.284714953
 11
154.7155337188
 21
66.2759307312
  0
LINE
  5
2EB
100
AcDbEntity
  8
0
100
AcDbLine
 62
7
  6
CONTINUOUS
 10
122.3196318735
 20
104.9874025938
 11
120.9025142676
 21
107.2552648302
  0
LINE
  5
2EC
100
AcDbEntity
  8
0
100
AcDbLine
 62
7
  6
CONTINUOUS
 10
123.0625142676
 20
104.9874025938
 11
121.5795674426
 21
107.3606136026
  0
LINE
  5
2ED
100
AcDbEntity
  8
0
100
AcDbLine
 62
7
  6
CONTINUOUS
 10
113.2825142676
 20
130.4759307312
 11
113.3827389215
 21
130.2759307312
  0
LINE
  5
2EE
100
AcDbEntity
  8
0
100
AcDbLine
 62
7
  6
CONTINUOUS
 10
113.5761751698
 20
130.4759307312
 11
113.6555842582
 21
130.2759307312
  0
LINE
  5
2EF
100
AcDbEntity
  8
0
100
AcDbLine
 62
7
  6
CONTINUOUS
 10
131.7070877871
 20
127.2759307312
 11
131.7070877871
 21
121.6848691472
  0
LINE
  5
2F0
100
AcDbEntity
  8
0
100
AcDbLine
 62
7
  6
CONTINUOUS
 10
133.2557193484
 20
130.2590619956
 11
133.2557193484
 21
125.9396993929
  0
LINE
  5
2F1
100
AcDbEntity
  8
0
100
AcDbLine
 62
7
  6
CONTINUOUS
 10
133.2825142676
 20
130.2680220452
 11
133.2825142676
 21
126.0133178285
  0
LINE
  5
2F2
100
AcDbEntity
  8
0
100
AcDbLine
 62
7
  6
CONTINUOUS
 10
133.9361041061
 20
60.7759307312
 11
133.9361041061
 21
106.7759307312
  0
LINE
  5
2F3
100
AcDbEntity
  8
0
100
AcDbLine
 62
7
  6
CONTINUOUS
 10
134.4557193484
 20
60.4759307312
 11
134.4557193484
 21
107.0759307312
  0
LINE
  5
2F4
100
AcDbEntity
  8
0
100
AcDbLine
 62
7
  6
CONTINUOUS
 10
134.7155269695
 20
107.5259307312
 11
134.7155269695
 21
60.0259307312
  0
LINE
  5
2F5
100
AcDbEntity
  8
0
100
AcDbLine
 62
7
  6
CONTINUOUS
 10
136.0825142676
 20
60.0259307312
 11
136.0825142676
 21
107.5259307312
  0
LINE
  5
2F6
100
AcDbEntity
  8
0
100
AcDbLine
 62
7
  6
CONTINUOUS
 10
136.2825142676
 20
107.5259307312
 11
136.2825142676
 21
60.0259307312
  0
LINE
  5
2F7
100
AcDbEntity
  8
0
100
AcDbLine
 62
7
  6
CONTINUOUS
 10
114.5659534186
 20
76.1126479945
 11
114.9307094458
 21
76.8285220055
  0
LINE
  5
2F8
100
AcDbEntity
  8
0
100
AcDbLine
 62
7
  6
CONTINUOUS
 10
114.8964729753
 20
75.6159307312
 11
116.5830022131
 21
78.9259307312
  0
LINE
  5
2F9
100
AcDbEntity
  8
0
100
AcDbLine
 62
7
  6
CONTINUOUS
 10
115.6259850298
 20
75.6159307312
 11
117.3125142676
 21
78.9259307312
  0
LINE
  5
2FA
100
AcDbEntity
  8
0
100
AcDbLine
 62
7
  6
CONTINUOUS
 10
134.4557193484
 20
107.0759307312
 11
134.7155269695
 21
107.5259307312
  0
LINE
  5
2FB
100
AcDbEntity
  8
0
100
AcDbLine
 62
7
  6
CONTINUOUS
 10
130.1067783363
 20
111.3501947999
 11
129.7082501989
 21
110.9516666625
  0
LINE
  5
2FC
100
AcDbEntity
  8
0
100
AcDbLine
 62
7
  6
CONTINUOUS
 10
84.765787558
 20
66.2847149599
 11
84.7566381691
 21
66.2759307312
  0
LINE
  5
2FD
100
AcDbEntity
  8
0
100
AcDbLine
 62
7
  6
CONTINUOUS
 10
86.5800745333
 20
66.284714954
 11
86.5709251505
 21
66.2759307312
  0
LINE
  5
2FE
100
AcDbEntity
  8
0
100
AcDbLine
 62
7
  6
CONTINUOUS
 10
118.8725142676
 20
80.2259307312
 11
118.2225142676
 21
80.2259307312
  0
LINE
  5
2FF
100
AcDbEntity
  8
0
100
AcDbLine
 62
7
  6
CONTINUOUS
 10
123.9225142676
 20
81.1359307312
 11
112.2225142676
 21
81.1359307312
  0
LINE
  5
300
100
AcDbEntity
  8
0
100
AcDbLine
 62
7
  6
CONTINUOUS
 10
124.5725142676
 20
81.7859307312
 11
111.5725142676
 21
81.7859307312
  0
LINE
  5
301
100
AcDbEntity
  8
0
100
AcDbLine
 62
7
  6
CONTINUOUS
 10
97.6453313654
 20
83.4115486447
 11
91.1485396714
 21
83.4115486447
  0
LINE
  5
302
100
AcDbEntity
  8
0
100
AcDbLine
 62
7
  6
CONTINUOUS
 10
120.7625142676
 20
83.7759307312
 11
119.7825142676
 21
83.7759307312
  0
LINE
  5
303
100
AcDbEntity
  8
0
100
AcDbLine
 62
7
  6
CONTINUOUS
 10
118.4825142676
 20
83.7759307312
 11
117.1825142676
 21
83.7759307312
  0
LINE
  5
304
100
AcDbEntity
  8
0
100
AcDbLine
 62
7
  6
CONTINUOUS
 10
115.8825142676
 20
83.7759307312
 11
112.6325142676
 21
83.7759307312
  0
LINE
  5
305
100
AcDbEntity
  8
0
100
AcDbLine
 62
7
  6
CONTINUOUS
 10
97.6453313654
 20
84.1403128178
 11
91.1485396714
 21
84.1403128178
  0
LINE
  5
306
100
AcDbEntity
  8
0
100
AcDbLine
 62
7
  6
CONTINUOUS
 10
114.9025142676
 20
84.7559307312
 11
112.6325142676
 21
84.7559307312
  0
LINE
  5
307
100
AcDbEntity
  8
0
100
AcDbLine
 62
7
  6
CONTINUOUS
 10
104.4825142676
 20
112.6604606774
 11
109.0416091344
 21
110.0282660288
  0
LINE
  5
308
100
AcDbEntity
  8
0
100
AcDbLine
 62
7
  6
CONTINUOUS
 10
104.6825142676
 20
113.0068708389
 11
109.0349535822
 21
110.493988829
  0
LINE
  5
309
100
AcDbEntity
  8
0
100
AcDbLine
 62
7
  6
CONTINUOUS
 10
109.2337558061
 20
109.6818558673
 11
109.0325142676
 21
109.802576845
  0
LINE
  5
30A
100
AcDbEntity
  8
0
100
AcDbLine
 62
7
  6
CONTINUOUS
 10
108.1360676582
 20
117.9223773406
 11
108.0325142676
 21
118.0259307312
  0
LINE
  5
30B
100
AcDbEntity
  8
0
100
AcDbLine
 62
7
  6
CONTINUOUS
 10
110.2825142676
 20
121.6691352657
 11
110.2917826942
 21
121.6594772991
  0
LINE
  5
30C
100
AcDbEntity
  8
0
100
AcDbLine
 62
7
  6
CONTINUOUS
 10
156.3258899406
 20
62.7759307312
 11
154.8825142676
 21
65.2759307312
  0
LINE
  5
30D
100
AcDbEntity
  8
0
100
AcDbLine
 62
7
  6
CONTINUOUS
 10
150.4785159481
 20
67.4353317761
 11
151.0778111217
 21
66.284714941
  0
LINE
  5
30E
100
AcDbEntity
  8
0
100
AcDbLine
 62
7
  6
CONTINUOUS
 10
152.2928021895
 20
67.4353318775
 11
152.8920974091
 21
66.2847149612
  0
LINE
  5
30F
100
AcDbEntity
  8
0
100
AcDbLine
 62
7
  6
CONTINUOUS
 10
154.1070890995
 20
67.435331903
 11
154.7063843375
 21
66.284714953
  0
LINE
  5
310
100
AcDbEntity
  8
0
100
AcDbLine
 62
7
  6
CONTINUOUS
 10
138.3151685601
 20
60.0259307312
 11
138.3151685601
 21
107.5259307312
  0
LINE
  5
311
100
AcDbEntity
  8
0
100
AcDbLine
 62
7
  6
CONTINUOUS
 10
138.3741023337
 20
60.1523146166
 11
138.3741023337
 21
107.3995468459
  0
LINE
  5
312
100
AcDbEntity
  8
0
100
AcDbLine
 62
7
  6
CONTINUOUS
 10
139.5825142676
 20
63.7759307312
 11
139.5825142676
 21
67.1605992044
  0
LINE
  5
313
100
AcDbEntity
  8
0
100
AcDbLine
 62
7
  6
CONTINUOUS
 10
139.5825142676
 20
72.1069910106
 11
139.5825142676
 21
80.2783035426
  0
LINE
  5
314
100
AcDbEntity
  8
0
100
AcDbLine
 62
7
  6
CONTINUOUS
 10
139.5825142676
 20
87.2735579198
 11
139.5825142676
 21
95.4448704518
  0
LINE
  5
315
100
AcDbEntity
  8
0
100
AcDbLine
 62
7
  6
CONTINUOUS
 10
139.5825142676
 20
100.3912622581
 11
139.5825142676
 21
103.7759307312
  0
LINE
  5
316
100
AcDbEntity
  8
0
100
AcDbLine
 62
7
  6
CONTINUOUS
 10
123.0325142676
 20
86.8559307312
 11
120.7625142676
 21
86.8559307312
  0
LINE
  5
317
100
AcDbEntity
  8
0
100
AcDbLine
 62
7
  6
CONTINUOUS
 10
114.9025142676
 20
86.8559307312
 11
112.6325142676
 21
86.8559307312
  0
LINE
  5
318
100
AcDbEntity
  8
0
100
AcDbLine
 62
7
  6
CONTINUOUS
 10
123.0325142676
 20
87.8359307312
 11
120.7625142676
 21
87.8359307312
  0
LINE
  5
319
100
AcDbEntity
  8
0
100
AcDbLine
 62
7
  6
CONTINUOUS
 10
115.8825142676
 20
87.8359307312
 11
113.6125142676
 21
87.8359307312
  0
LINE
  5
31A
100
AcDbEntity
  8
0
100
AcDbLine
 62
7
  6
CONTINUOUS
 10
123.0325142676
 20
89.9459307312
 11
120.7625142676
 21
89.9459307312
  0
LINE
  5
31B
100
AcDbEntity
  8
0
100
AcDbLine
 62
7
  6
CONTINUOUS
 10
115.8825142676
 20
89.9459307312
 11
113.6125142676
 21
89.9459307312
  0
LINE
  5
31C
100
AcDbEntity
  8
0
100
AcDbLine
 62
7
  6
CONTINUOUS
 10
123.0325142676
 20
90.9259307312
 11
119.7825142676
 21
90.9259307312
  0
LINE
  5
31D
100
AcDbEntity
  8
0
100
AcDbLine
 62
7
  6
CONTINUOUS
 10
115.8825142676
 20
90.9259307312
 11
112.6325142676
 21
90.9259307312
  0
LINE
  5
31E
100
AcDbEntity
  8
0
100
AcDbLine
 62
7
  6
CONTINUOUS
 10
139.5825142676
 20
91.3890772555
 11
147.4742238907
 21
91.3890772555
  0
LINE
  5
31F
100
AcDbEntity
  8
0
100
AcDbLine
 62
7
  6
CONTINUOUS
 10
121.4125142676
 20
92.2259307312
 11
118.4825142676
 21
92.2259307312
  0
LINE
  5
320
100
AcDbEntity
  8
0
100
AcDbLine
 62
7
  6
CONTINUOUS
 10
117.1825142676
 20
92.2259307312
 11
114.2625142676
 21
92.2259307312
  0
LINE
  5
321
100
AcDbEntity
  8
0
100
AcDbLine
 62
7
  6
CONTINUOUS
 10
139.5825142676
 20
92.5347588215
 11
147.4742238907
 21
92.5347588215
  0
LINE
  5
322
100
AcDbEntity
  8
0
100
AcDbLine
 62
7
  6
CONTINUOUS
 10
166.018270316
 20
92.7202026412
 11
156.3258899406
 21
92.7202026412
  0
LINE
  5
323
100
AcDbEntity
  8
0
100
AcDbLine
 62
7
  6
CONTINUOUS
 10
72.2467582192
 20
92.7202026412
 11
81.9391385946
 21
92.7202026412
  0
LINE
  5
324
100
AcDbEntity
  8
0
100
AcDbLine
 62
7
  6
CONTINUOUS
 10
136.0825142676
 20
107.5259307312
 11
136.2825142676
 21
107.3259307312
  0
LINE
  5
325
100
AcDbEntity
  8
0
100
AcDbLine
 62
7
  6
CONTINUOUS
 10
121.7825142676
 20
119.2759307312
 11
114.3223935785
 21
127.2759307312
  0
LINE
  5
326
100
AcDbEntity
  8
0
100
AcDbLine
 62
7
  6
CONTINUOUS
 10
139.6929907398
 20
103.7759307312
 11
138.3741023337
 21
107.3995468459
  0
LINE
  5
327
100
AcDbEntity
  8
0
100
AcDbLine
 62
7
  6
CONTINUOUS
 10
147.4742238907
 20
103.7759307312
 11
147.4742238907
 21
103.3013738884
  0
LINE
  5
328
100
AcDbEntity
  8
0
100
AcDbLine
 62
7
  6
CONTINUOUS
 10
147.4742238907
 20
92.5347588215
 11
147.4742238907
 21
91.3890772555
  0
LINE
  5
329
100
AcDbEntity
  8
0
100
AcDbLine
 62
7
  6
CONTINUOUS
 10
147.4742238907
 20
76.162784207
 11
147.4742238907
 21
75.017102641
  0
LINE
  5
32A
100
AcDbEntity
  8
0
100
AcDbLine
 62
7
  6
CONTINUOUS
 10
147.4742238907
 20
64.250487574
 11
147.4742238907
 21
63.7759307312
  0
LINE
  5
32B
100
AcDbEntity
  8
0
100
AcDbLine
 62
7
  6
CONTINUOUS
 10
148.2825142676
 20
103.7759307312
 11
148.2825142676
 21
63.7759307312
  0
LINE
  5
32C
100
AcDbEntity
  8
0
100
AcDbLine
 62
7
  6
CONTINUOUS
 10
121.4125142676
 20
93.5259307312
 11
114.2625142676
 21
93.5259307312
  0
LINE
  5
32D
100
AcDbEntity
  8
0
100
AcDbLine
 62
7
  6
CONTINUOUS
 10
166.018270316
 20
95.7582774481
 11
156.3258899406
 21
95.7582774481
  0
LINE
  5
32E
100
AcDbEntity
  8
0
100
AcDbLine
 62
7
  6
CONTINUOUS
 10
72.2467582192
 20
95.7582774481
 11
81.9391385946
 21
95.7582774481
  0
LINE
  5
32F
100
AcDbEntity
  8
0
100
AcDbLine
 62
7
  6
CONTINUOUS
 10
97.6453313654
 20
98.7188859393
 11
91.1485396714
 21
98.7188859393
  0
LINE
  5
330
100
AcDbEntity
  8
0
100
AcDbLine
 62
7
  6
CONTINUOUS
 10
97.6453313654
 20
99.234200028
 11
91.1485396714
 21
99.234200028
  0
LINE
  5
331
100
AcDbEntity
  8
0
100
AcDbLine
 62
7
  6
CONTINUOUS
 10
110.2917826942
 20
121.6594772991
 11
110.6439943784
 21
121.4759307312
  0
LINE
  5
332
100
AcDbEntity
  8
0
100
AcDbLine
 62
7
  6
CONTINUOUS
 10
148.7916636151
 20
101.2671465419
 11
148.7825142676
 21
101.2759307312
  0
LINE
  5
333
100
AcDbEntity
  8
0
100
AcDbLine
 62
7
  6
CONTINUOUS
 10
150.6059484908
 20
101.2671465086
 11
150.5967991086
 21
101.2759307312
  0
LINE
  5
334
100
AcDbEntity
  8
0
100
AcDbLine
 62
7
  6
CONTINUOUS
 10
152.4202353972
 20
101.2671465024
 11
152.4110860085
 21
101.2759307312
  0
LINE
  5
335
100
AcDbEntity
  8
0
100
AcDbLine
 62
7
  6
CONTINUOUS
 10
149.3909587785
 20
100.1165297238
 11
148.7916636151
 21
101.2671465419
  0
LINE
  5
336
100
AcDbEntity
  8
0
100
AcDbLine
 62
7
  6
CONTINUOUS
 10
151.2052436868
 20
100.1165296341
 11
150.6059484908
 21
101.2671465086
  0
LINE
  5
337
100
AcDbEntity
  8
0
100
AcDbLine
 62
7
  6
CONTINUOUS
 10
153.0195306343
 20
100.1165295545
 11
152.4202353972
 21
101.2671465024
  0
LINE
  5
338
100
AcDbEntity
  8
0
100
AcDbLine
 62
7
  6
CONTINUOUS
 10
154.8825142676
 20
102.2759307312
 11
154.8825142676
 21
65.2759307312
  0
LINE
  5
339
100
AcDbEntity
  8
0
100
AcDbLine
 62
7
  6
CONTINUOUS
 10
156.3258899406
 20
62.7759307312
 11
156.3258899406
 21
62.8493121043
  0
LINE
  5
33A
100
AcDbEntity
  8
0
100
AcDbLine
 62
7
  6
CONTINUOUS
 10
156.3258899406
 20
71.7935840143
 11
156.3258899406
 21
74.8316588212
  0
LINE
  5
33B
100
AcDbEntity
  8
0
100
AcDbLine
 62
7
  6
CONTINUOUS
 10
156.3258899406
 20
92.7202026412
 11
156.3258899406
 21
95.7582774481
  0
LINE
  5
33C
100
AcDbEntity
  8
0
100
AcDbLine
 62
7
  6
CONTINUOUS
 10
156.3258899406
 20
104.7025493581
 11
156.3258899406
 21
104.7759307312
  0
LINE
  5
33D
100
AcDbEntity
  8
0
100
AcDbLine
 62
7
  6
CONTINUOUS
 10
156.7825142676
 20
146.0759307312
 11
156.7825142676
 21
146.2759307312
  0
LINE
  5
33E
100
AcDbEntity
  8
0
100
AcDbLine
 62
7
  6
CONTINUOUS
 10
156.7825142676
 20
146.6126057732
 11
156.7825142676
 21
148.9392556893
  0
LINE
  5
33F
100
AcDbEntity
  8
0
100
AcDbLine
 62
7
  6
CONTINUOUS
 10
156.7825142676
 20
149.2759307312
 11
156.7825142676
 21
149.4759307312
  0
LINE
  5
340
100
AcDbEntity
  8
0
100
AcDbLine
 62
7
  6
CONTINUOUS
 10
139.6929907398
 20
63.7759307312
 11
138.3741023337
 21
60.1523146166
  0
LINE
  5
341
100
AcDbEntity
  8
0
100
AcDbLine
 62
7
  6
CONTINUOUS
 10
149.5811663757
 20
100.1259307312
 11
150.1798184839
 21
101.2759307312
  0
LINE
  5
342
100
AcDbEntity
  8
0
100
AcDbLine
 62
7
  6
CONTINUOUS
 10
151.9849540016
 20
101.2671465078
 11
151.3916002649
 21
100.1279365224
  0
LINE
  5
343
100
AcDbEntity
  8
0
100
AcDbLine
 62
7
  6
CONTINUOUS
 10
153.7992409768
 20
101.2671465018
 11
153.205887203
 21
100.1279364507
  0
LINE
  5
344
100
AcDbEntity
  8
0
100
AcDbLine
 62
7
  6
CONTINUOUS
 10
156.3258899406
 20
104.7759307312
 11
154.8825142676
 21
102.2759307312
  0
LINE
  5
345
100
AcDbEntity
  8
0
100
AcDbLine
 62
7
  6
CONTINUOUS
 10
151.9849540016
 20
101.2671465078
 11
151.9941033846
 21
101.2759307312
  0
LINE
  5
346
100
AcDbEntity
  8
0
100
AcDbLine
 62
7
  6
CONTINUOUS
 10
154.8825142676
 20
100.1259306434
 11
154.8338167561
 21
100.1259306434
  0
LINE
  5
347
100
AcDbEntity
  8
0
100
AcDbLine
 62
7
  6
CONTINUOUS
 10
153.2097381872
 20
100.1259306044
 11
153.0097381872
 21
100.1259306044
  0
LINE
  5
348
100
AcDbEntity
  8
0
100
AcDbLine
 62
7
  6
CONTINUOUS
 10
151.3954512464
 20
100.1259306776
 11
151.1954512464
 21
100.1259306776
  0
LINE
  5
349
100
AcDbEntity
  8
0
100
AcDbLine
 62
7
  6
CONTINUOUS
 10
88.276720162
 20
100.1259307151
 11
88.076720162
 21
100.1259307151
  0
LINE
  5
34A
100
AcDbEntity
  8
0
100
AcDbLine
 62
7
  6
CONTINUOUS
 10
86.4624338981
 20
100.1259306352
 11
86.2624338981
 21
100.1259306352
  0
LINE
  5
34B
100
AcDbEntity
  8
0
100
AcDbLine
 62
7
  6
CONTINUOUS
 10
84.6481469966
 20
100.1259306016
 11
84.4481469966
 21
100.1259306016
  0
LINE
  5
34C
100
AcDbEntity
  8
0
100
AcDbLine
 62
7
  6
CONTINUOUS
 10
149.3811663757
 20
100.1259307312
 11
149.5811663757
 21
100.1259307312
  0
LINE
  5
34D
100
AcDbEntity
  8
0
100
AcDbLine
 62
7
  6
CONTINUOUS
 10
90.2825142676
 20
101.2759307312
 11
88.8753722789
 21
101.2759307312
  0
LINE
  5
34E
100
AcDbEntity
  8
0
100
AcDbLine
 62
7
  6
CONTINUOUS
 10
87.4780680447
 20
101.2759307312
 11
87.0610860595
 21
101.2759307312
  0
LINE
  5
34F
100
AcDbEntity
  8
0
100
AcDbLine
 62
7
  6
CONTINUOUS
 10
85.6637817363
 20
101.2759307312
 11
85.246799177
 21
101.2759307312
  0
LINE
  5
350
100
AcDbEntity
  8
0
100
AcDbLine
 62
7
  6
CONTINUOUS
 10
83.8494948164
 20
101.2759307312
 11
83.4325144165
 21
101.2759307312
  0
LINE
  5
351
100
AcDbEntity
  8
0
100
AcDbLine
 62
7
  6
CONTINUOUS
 10
148.2825142676
 20
101.2759307312
 11
150.5967991086
 21
101.2759307312
  0
LINE
  5
352
100
AcDbEntity
  8
0
100
AcDbLine
 62
7
  6
CONTINUOUS
 10
151.9941033846
 20
101.2759307312
 11
152.4110860085
 21
101.2759307312
  0
LINE
  5
353
100
AcDbEntity
  8
0
100
AcDbLine
 62
7
  6
CONTINUOUS
 10
153.8083903661
 20
101.2759307312
 11
154.2253721757
 21
101.2759307312
  0
LINE
  5
354
100
AcDbEntity
  8
0
100
AcDbLine
 62
7
  6
CONTINUOUS
 10
70.2093091868
 20
101.8759307312
 11
68.8825142676
 21
101.8759307312
  0
LINE
  5
355
100
AcDbEntity
  8
0
100
AcDbLine
 62
7
  6
CONTINUOUS
 10
168.0557193484
 20
101.8759307312
 11
169.3825142676
 21
101.8759307312
  0
LINE
  5
356
100
AcDbEntity
  8
0
100
AcDbLine
 62
7
  6
CONTINUOUS
 10
99.5711894022
 20
102.9759307312
 11
104.2469803617
 21
102.9759307312
  0
LINE
  5
357
100
AcDbEntity
  8
0
100
AcDbLine
 62
7
  6
CONTINUOUS
 10
139.5825142676
 20
103.3013738884
 11
147.4742238907
 21
103.3013738884
  0
LINE
  5
358
100
AcDbEntity
  8
0
100
AcDbLine
 62
7
  6
CONTINUOUS
 10
139.5825142676
 20
103.7759307312
 11
148.2825142676
 21
103.7759307312
  0
LINE
  5
359
100
AcDbEntity
  8
0
100
AcDbLine
 62
7
  6
CONTINUOUS
 10
166.018270316
 20
104.7025493581
 11
156.3258899406
 21
104.7025493581
  0
LINE
  5
35A
100
AcDbEntity
  8
0
100
AcDbLine
 62
7
  6
CONTINUOUS
 10
72.2467582192
 20
104.7025493581
 11
81.9391385946
 21
104.7025493581
  0
LINE
  5
35B
100
AcDbEntity
  8
0
100
AcDbLine
 62
7
  6
CONTINUOUS
 10
166.0349934062
 20
104.7759307312
 11
156.3258899406
 21
104.7759307312
  0
LINE
  5
35C
100
AcDbEntity
  8
0
100
AcDbLine
 62
7
  6
CONTINUOUS
 10
72.230035129
 20
104.7759307312
 11
81.9391385946
 21
104.7759307312
  0
LINE
  5
35D
100
AcDbEntity
  8
0
100
AcDbLine
 62
7
  6
CONTINUOUS
 10
123.0625142676
 20
104.9874025938
 11
122.3196318735
 21
104.9874025938
  0
LINE
  5
35E
100
AcDbEntity
  8
0
100
AcDbLine
 62
7
  6
CONTINUOUS
 10
119.9125142676
 20
104.9874025938
 11
119.2825142676
 21
104.9874025938
  0
LINE
  5
35F
100
AcDbEntity
  8
0
100
AcDbLine
 62
7
  6
CONTINUOUS
 10
117.8425142676
 20
104.9874025938
 11
116.7225142676
 21
104.9874025938
  0
LINE
  5
360
100
AcDbEntity
  8
0
100
AcDbLine
 62
7
  6
CONTINUOUS
 10
116.6725142676
 20
104.9874025938
 11
116.0425142676
 21
104.9874025938
  0
LINE
  5
361
100
AcDbEntity
  8
0
100
AcDbLine
 62
7
  6
CONTINUOUS
 10
97.6453313654
 20
105.2728427349
 11
91.1485396714
 21
105.2728427349
  0
LINE
  5
362
100
AcDbEntity
  8
0
100
AcDbLine
 62
7
  6
CONTINUOUS
 10
117.6625142676
 20
105.6174025938
 11
116.7225142676
 21
105.6174025938
  0
LINE
  5
363
100
AcDbEntity
  8
0
100
AcDbLine
 62
7
  6
CONTINUOUS
 10
113.2825142676
 20
130.4759307312
 11
113.6254778319
 21
130.2759307312
  0
LINE
  5
364
100
AcDbEntity
  8
0
100
AcDbLine
 62
7
  6
CONTINUOUS
 10
154.2345215429
 20
101.2671465231
 11
154.2253721757
 21
101.2759307312
  0
LINE
  5
365
100
AcDbEntity
  8
0
100
AcDbLine
 62
7
  6
CONTINUOUS
 10
124.9888533654
 20
130.4759307312
 11
125.180492485
 21
130.2759307312
  0
LINE
  5
366
100
AcDbEntity
  8
0
100
AcDbLine
 62
7
  6
CONTINUOUS
 10
154.8338167561
 20
100.1165296167
 11
154.2345215429
 21
101.2671465231
  0
LINE
  5
367
100
AcDbEntity
  8
0
100
AcDbLine
 62
7
  6
CONTINUOUS
 10
158.0825142676
 20
144.7759307312
 11
158.0825142676
 21
150.7759307312
  0
LINE
  5
368
100
AcDbEntity
  8
GEOM
100
AcDbLine
 62
7
  6
CONTINUOUS
 10
161.0825142676
 20
150.8259307312
 11
161.0825142676
 21
150.9259307312
  0
LINE
  5
369
100
AcDbEntity
  8
GEOM
100
AcDbLine
 62
7
  6
CONTINUOUS
 10
162.3505906874
 20
150.8259307312
 11
162.3505906874
 21
150.9259307312
  0
LINE
  5
36A
100
AcDbEntity
  8
GEOM
100
AcDbLine
 62
7
  6
CONTINUOUS
 10
163.2825142676
 20
150.8259307312
 11
163.2825142676
 21
150.9259307312
  0
LINE
  5
36B
100
AcDbEntity
  8
GEOM
100
AcDbLine
 62
7
  6
CONTINUOUS
 10
164.0932339914
 20
150.8259307312
 11
164.0932339914
 21
150.9259307312
  0
LINE
  5
36C
100
AcDbEntity
  8
0
100
AcDbLine
 62
7
  6
CONTINUOUS
 10
153.7992409768
 20
101.2671465018
 11
153.8083903661
 21
101.2759307312
  0
LINE
  5
36D
100
AcDbEntity
  8
0
100
AcDbLine
 62
7
  6
CONTINUOUS
 10
130.7325142676
 20
106.7759307312
 11
133.9361041061
 21
106.7759307312
  0
LINE
  5
36E
100
AcDbEntity
  8
0
100
AcDbLine
 62
7
  6
CONTINUOUS
 10
120.9025142676
 20
107.2552648302
 11
119.9125142676
 21
107.2552648302
  0
LINE
  5
36F
100
AcDbEntity
  8
0
100
AcDbLine
 62
7
  6
CONTINUOUS
 10
136.0825142676
 20
107.5259307312
 11
134.7155269695
 21
107.5259307312
  0
LINE
  5
370
100
AcDbEntity
  8
0
100
AcDbLine
 62
7
  6
CONTINUOUS
 10
136.2825142676
 20
107.5259307312
 11
138.3151685601
 21
107.5259307312
  0
LINE
  5
371
100
AcDbEntity
  8
0
100
AcDbLine
 62
7
  6
CONTINUOUS
 10
121.2625142676
 20
107.9574025938
 11
119.9125142676
 21
107.9574025938
  0
LINE
  5
372
100
AcDbEntity
  8
0
100
AcDbLine
 62
7
  6
CONTINUOUS
 10
121.2625142676
 20
109.7574025938
 11
119.9125142676
 21
109.7574025938
  0
LINE
  5
373
100
AcDbEntity
  8
0
100
AcDbLine
 62
7
  6
CONTINUOUS
 10
117.6625142676
 20
109.7574025938
 11
116.6725142676
 21
109.7574025938
  0
LINE
  5
374
100
AcDbEntity
  8
0
100
AcDbLine
 62
7
  6
CONTINUOUS
 10
121.2625142676
 20
110.3874025938
 11
119.2825142676
 21
110.3874025938
  0
LINE
  5
375
100
AcDbEntity
  8
0
100
AcDbLine
 62
7
  6
CONTINUOUS
 10
117.8425142676
 20
110.3874025938
 11
116.0425142676
 21
110.3874025938
  0
LINE
  5
376
100
AcDbEntity
  8
0
100
AcDbLine
 62
7
  6
CONTINUOUS
 10
109.0349535822
 20
110.493988829
 11
109.4198384906
 21
110.493988829
  0
LINE
  5
377
100
AcDbEntity
  8
0
100
AcDbLine
 62
7
  6
CONTINUOUS
 10
109.0349535822
 20
110.5274025938
 11
129.5325142676
 21
110.5274025938
  0
LINE
  5
378
100
AcDbEntity
  8
0
100
AcDbLine
 62
7
  6
CONTINUOUS
 10
109.2463613886
 20
110.9516666625
 11
129.7082501989
 21
110.9516666625
  0
LINE
  5
379
100
AcDbEntity
  8
0
100
AcDbLine
 62
7
  6
CONTINUOUS
 10
130.1067783363
 20
111.3501947999
 11
108.8337076046
 21
111.3501947999
  0
LINE
  5
37A
100
AcDbEntity
  8
0
100
AcDbLine
 62
7
  6
CONTINUOUS
 10
108.2575426123
 20
111.7744588687
 11
130.2825142676
 21
111.7744588687
  0
LINE
  5
37B
100
AcDbEntity
  8
0
100
AcDbLine
 62
7
  6
CONTINUOUS
 10
104.2825142676
 20
112.2759307312
 11
105.1485396714
 21
112.2759307312
  0
LINE
  5
37C
100
AcDbEntity
  8
0
100
AcDbLine
 62
7
  6
CONTINUOUS
 10
121.7825142676
 20
112.2759307312
 11
128.2825142676
 21
112.2759307312
  0
LINE
  5
37D
100
AcDbEntity
  8
0
100
AcDbLine
 62
7
  6
CONTINUOUS
 10
104.6825142676
 20
113.0068708389
 11
104.2825142676
 21
113.0068708389
  0
LINE
  5
37E
100
AcDbEntity
  8
0
100
AcDbLine
 62
7
  6
CONTINUOUS
 10
123.9013164211
 20
132.2733656797
 11
124.9825142676
 21
131.649135812
  0
LINE
  5
37F
100
AcDbEntity
  8
GEOM
100
AcDbLine
 62
7
  6
CONTINUOUS
 10
165.8832339914
 20
150.8259307312
 11
165.8832339914
 21
150.9259307312
  0
LINE
  5
380
100
AcDbEntity
  8
0
100
AcDbLine
 62
7
  6
CONTINUOUS
 10
166.0349934062
 20
95.7574062267
 11
166.0349934062
 21
92.7211624429
  0
LINE
  5
381
100
AcDbEntity
  8
0
100
AcDbLine
 62
7
  6
CONTINUOUS
 10
166.0349934062
 20
74.8306990191
 11
166.0349934062
 21
71.7944552353
  0
LINE
  5
382
100
AcDbEntity
  8
0
100
AcDbLine
 62
7
  6
CONTINUOUS
 10
166.0349934062
 20
62.7759307312
 11
166.0349934062
 21
62.8492235234
  0
LINE
  5
383
100
AcDbEntity
  8
0
100
AcDbLine
 62
7
  6
CONTINUOUS
 10
166.0349934062
 20
104.702637939
 11
166.0349934062
 21
104.7759307312
  0
LINE
  5
384
100
AcDbEntity
  8
0
100
AcDbLine
 62
7
  6
CONTINUOUS
 10
166.2948010273
 20
104.6259307312
 11
166.2948010273
 21
104.5585894983
  0
LINE
  5
385
100
AcDbEntity
  8
0
100
AcDbLine
 62
7
  6
CONTINUOUS
 10
166.2948010273
 20
95.6173276839
 11
166.2948010273
 21
92.7171925579
  0
LINE
  5
386
100
AcDbEntity
  8
0
100
AcDbLine
 62
7
  6
CONTINUOUS
 10
166.2948010273
 20
74.8346689122
 11
166.2948010273
 21
71.9345337865
  0
LINE
  5
387
100
AcDbEntity
  8
0
100
AcDbLine
 62
7
  6
CONTINUOUS
 10
166.2948010273
 20
62.9932719647
 11
166.2948010273
 21
62.9259307312
  0
LINE
  5
388
100
AcDbEntity
  8
GEOM
100
AcDbLine
 62
7
  6
CONTINUOUS
 10
166.9568981835
 20
150.8259307312
 11
166.9568981835
 21
150.9259307312
  0
LINE
  5
389
100
AcDbEntity
  8
0
100
AcDbLine
 62
7
  6
CONTINUOUS
 10
167.7959117272
 20
65.5259307312
 11
167.7959117272
 21
102.0259307312
  0
LINE
  5
38A
100
AcDbEntity
  8
0
100
AcDbLine
 62
7
  6
CONTINUOUS
 10
168.0557193484
 20
65.6759307312
 11
168.0557193484
 21
101.8759307312
  0
LINE
  5
38B
100
AcDbEntity
  8
0
100
AcDbLine
 62
7
  6
CONTINUOUS
 10
169.3825142676
 20
101.8759307312
 11
169.3825142676
 21
65.6759307312
  0
LINE
  5
38C
100
AcDbEntity
  8
0
100
AcDbLine
 62
7
  6
CONTINUOUS
 10
170.3825142676
 20
100.8759307312
 11
170.3825142676
 21
66.6759307312
  0
LINE
  5
38D
100
AcDbEntity
  8
0
100
AcDbLine
 62
7
  6
CONTINUOUS
 10
149.6988056246
 20
66.2847149406
 11
150.2932041249
 21
67.4259307474
  0
LINE
  5
38E
100
AcDbEntity
  8
0
100
AcDbLine
 62
7
  6
CONTINUOUS
 10
151.5130918646
 20
66.2847149603
 11
152.1074903999
 21
67.4259308273
  0
LINE
  5
38F
100
AcDbEntity
  8
0
100
AcDbLine
 62
7
  6
CONTINUOUS
 10
104.2825142676
 20
116.3759307312
 11
108.644383723
 21
116.3759307312
  0
LINE
  5
390
100
AcDbEntity
  8
0
100
AcDbLine
 62
7
  6
CONTINUOUS
 10
108.0776046294
 20
116.7759307312
 11
104.6825142676
 21
116.7759307312
  0
LINE
  5
391
100
AcDbEntity
  8
0
100
AcDbLine
 62
7
  6
CONTINUOUS
 10
108.2825142676
 20
117.1759307312
 11
108.4707593536
 21
117.1759307312
  0
LINE
  5
392
100
AcDbEntity
  8
0
100
AcDbLine
 62
7
  6
CONTINUOUS
 10
130.2825142676
 20
117.56882395
 11
130.2089698524
 21
117.56882395
  0
LINE
  5
393
100
AcDbEntity
  8
0
100
AcDbLine
 62
7
  6
CONTINUOUS
 10
121.7825142676
 20
117.56882395
 11
108.2825142676
 21
117.56882395
  0
LINE
  5
394
100
AcDbEntity
  8
0
100
AcDbLine
 62
7
  6
CONTINUOUS
 10
130.428960877
 20
117.9223773406
 11
130.3376530295
 21
117.9223780734
  0
LINE
  5
395
100
AcDbEntity
  8
0
100
AcDbLine
 62
7
  6
CONTINUOUS
 10
121.7825142676
 20
117.9223773394
 11
108.1360676582
 21
117.9223773406
  0
LINE
  5
396
100
AcDbEntity
  8
0
100
AcDbLine
 62
7
  6
CONTINUOUS
 10
108.0325142676
 20
118.0259307312
 11
121.7825142676
 21
118.0259307312
  0
LINE
  5
397
100
AcDbEntity
  8
0
100
AcDbLine
 62
7
  6
CONTINUOUS
 10
130.3753431146
 20
118.0259307312
 11
130.5325142676
 21
118.0259307312
  0
LINE
  5
398
100
AcDbEntity
  8
0
100
AcDbLine
 62
7
  6
CONTINUOUS
 10
104.2825142676
 20
119.2759307312
 11
107.2825142676
 21
119.2759307312
  0
LINE
  5
399
100
AcDbEntity
  8
0
100
AcDbLine
 62
7
  6
CONTINUOUS
 10
123.9013164211
 20
135.1186651413
 11
123.2825142676
 21
135.4759307312
  0
LINE
  5
39A
100
AcDbEntity
  8
0
100
AcDbLine
 62
7
  6
CONTINUOUS
 10
166.2948010273
 20
104.6259307312
 11
167.7959117272
 21
102.0259307312
  0
LINE
  5
39B
100
AcDbEntity
  8
GEOM
100
AcDbLine
 62
7
  6
CONTINUOUS
 10
171.2368981835
 20
150.8259307312
 11
171.2368981835
 21
150.9259307312
  0
LINE
  5
39C
100
AcDbEntity
  8
GEOM
100
AcDbLine
 62
7
  6
CONTINUOUS
 10
172.3285913962
 20
150.8259307312
 11
172.3285913962
 21
150.9259307312
  0
LINE
  5
39D
100
AcDbEntity
  8
GEOM
100
AcDbLine
 62
7
  6
CONTINUOUS
 10
174.2585913962
 20
150.8259307312
 11
174.2585913962
 21
150.9259307312
  0
LINE
  5
39E
100
AcDbEntity
  8
GEOM
100
AcDbLine
 62
7
  6
CONTINUOUS
 10
175.0985913962
 20
150.8259307312
 11
175.0985913962
 21
150.9259307312
  0
LINE
  5
39F
100
AcDbEntity
  8
GEOM
100
AcDbLine
 62
7
  6
CONTINUOUS
 10
175.2485913962
 20
150.8259307312
 11
175.2485913962
 21
150.9259307312
  0
LINE
  5
3A0
100
AcDbEntity
  8
GEOM
100
AcDbLine
 62
7
  6
CONTINUOUS
 10
175.5085913962
 20
150.8259307312
 11
175.5085913962
 21
150.9259307312
  0
LINE
  5
3A1
100
AcDbEntity
  8
GEOM
100
AcDbLine
 62
7
  6
CONTINUOUS
 10
176.5465913962
 20
150.8259307312
 11
176.5465913962
 21
150.9259307312
  0
LINE
  5
3A2
100
AcDbEntity
  8
GEOM
100
AcDbLine
 62
7
  6
CONTINUOUS
 10
177.3160913962
 20
150.8259307312
 11
177.3160913962
 21
150.9259307312
  0
LINE
  5
3A3
100
AcDbEntity
  8
0
100
AcDbLine
 62
7
  6
CONTINUOUS
 10
153.3273787396
 20
66.284714953
 11
153.9217772971
 21
67.4259308608
  0
LINE
  5
3A4
100
AcDbEntity
  8
0
100
AcDbLine
 62
7
  6
CONTINUOUS
 10
136.0825142676
 20
60.0259307312
 11
136.2825142676
 21
60.2259307312
  0
LINE
  5
3A5
100
AcDbEntity
  8
0
100
AcDbLine
 62
7
  6
CONTINUOUS
 10
119.1378396967
 20
121.5831770993
 11
119.6193848107
 21
121.5956758769
  0
LINE
  5
3A6
100
AcDbEntity
  8
0
100
AcDbLine
 62
7
  6
CONTINUOUS
 10
108.0325142676
 20
121.2259307312
 11
119.9641098496
 21
121.2259307312
  0
LINE
  5
3A7
100
AcDbEntity
  8
0
100
AcDbLine
 62
7
  6
CONTINUOUS
 10
108.2828140953
 20
121.4759307312
 11
119.7309810781
 21
121.4759307312
  0
LINE
  5
3A8
100
AcDbEntity
  8
0
100
AcDbLine
 62
7
  6
CONTINUOUS
 10
111.3924034546
 20
121.7759307312
 11
110.2825142676
 21
121.7759307312
  0
LINE
  5
3A9
100
AcDbEntity
  8
0
100
AcDbLine
 62
7
  6
CONTINUOUS
 10
110.9825975962
 20
122.4759307312
 11
118.798465992
 21
122.4759307312
  0
LINE
  5
3AA
100
AcDbEntity
  8
0
100
AcDbLine
 62
7
  6
CONTINUOUS
 10
115.1568281142
 20
125.398580462
 11
115.4095309214
 21
125.398580462
  0
LINE
  5
3AB
100
AcDbEntity
  8
0
100
AcDbLine
 62
7
  6
CONTINUOUS
 10
115.5346631905
 20
125.9759307312
 11
112.2825142676
 21
125.9759307312
  0
LINE
  5
3AC
100
AcDbEntity
  8
0
100
AcDbLine
 62
7
  6
CONTINUOUS
 10
117.4284123013
 20
130.4759307312
 11
119.1280702726
 21
130.2759307312
  0
LINE
  5
3AD
100
AcDbEntity
  8
0
100
AcDbLine
 62
7
  6
CONTINUOUS
 10
119.2825142676
 20
130.4759307312
 11
120.9582048013
 21
130.2759307312
  0
LINE
  5
3AE
100
AcDbEntity
  8
0
100
AcDbLine
 62
7
  6
CONTINUOUS
 10
115.7558027538
 20
130.4759307312
 11
117.3130537981
 21
130.2759307312
  0
LINE
  5
3AF
100
AcDbEntity
  8
0
100
AcDbLine
 62
7
  6
CONTINUOUS
 10
121.1366162338
 20
130.4759307312
 11
122.6243110655
 21
130.2759307312
  0
LINE
  5
3B0
100
AcDbEntity
  8
0
100
AcDbLine
 62
7
  6
CONTINUOUS
 10
114.4284123013
 20
130.4759307312
 11
115.6908218364
 21
130.2759307312
  0
LINE
  5
3B1
100
AcDbEntity
  8
0
100
AcDbLine
 62
7
  6
CONTINUOUS
 10
122.8092257814
 20
130.4759307312
 11
123.9632989753
 21
130.2759307312
  0
LINE
  5
3B2
100
AcDbEntity
  8
0
100
AcDbLine
 62
7
  6
CONTINUOUS
 10
113.5761751698
 20
130.4759307312
 11
114.4201697547
 21
130.2759307312
  0
LINE
  5
3B3
100
AcDbEntity
  8
0
100
AcDbLine
 62
7
  6
CONTINUOUS
 10
124.1366162338
 20
130.4759307312
 11
124.844099065
 21
130.2759307312
  0
LINE
  5
3B4
100
AcDbEntity
  8
GEOM
100
AcDbLine
 62
7
  6
CONTINUOUS
 10
178.1285913962
 20
150.8259307312
 11
178.1285913962
 21
150.9259307312
  0
LINE
  5
3B5
100
AcDbEntity
  8
GEOM
100
AcDbLine
 62
7
  6
CONTINUOUS
 10
178.9385913962
 20
150.8259307312
 11
178.9385913962
 21
150.9259307312
  0
LINE
  5
3B6
100
AcDbEntity
  8
GEOM
100
AcDbLine
 62
7
  6
CONTINUOUS
 10
179.4285913962
 20
150.8259307312
 11
179.4285913962
 21
150.9259307312
  0
LINE
  5
3B7
100
AcDbEntity
  8
GEOM
100
AcDbLine
 62
7
  6
CONTINUOUS
 10
180.5785913962
 20
150.8259307312
 11
180.5785913962
 21
150.9259307312
  0
LINE
  5
3B8
100
AcDbEntity
  8
GEOM
100
AcDbLine
 62
7
  6
CONTINUOUS
 10
181.7985913962
 20
150.8259307312
 11
181.7985913962
 21
150.9259307312
  0
LINE
  5
3B9
100
AcDbEntity
  8
GEOM
100
AcDbLine
 62
7
  6
CONTINUOUS
 10
181.8132501658
 20
150.8259307312
 11
181.8132501658
 21
150.9259307312
  0
LINE
  5
3BA
100
AcDbEntity
  8
GEOM
100
AcDbLine
 62
7
  6
CONTINUOUS
 10
182.5085913962
 20
150.8259307312
 11
182.5085913962
 21
150.9259307312
  0
LINE
  5
3BB
100
AcDbEntity
  8
GEOM
100
AcDbLine
 62
7
  6
CONTINUOUS
 10
182.9485913962
 20
150.8259307312
 11
182.9485913962
 21
150.9259307312
  0
LINE
  5
3BC
100
AcDbEntity
  8
0
100
AcDbLine
 62
7
  6
CONTINUOUS
 10
149.6988056246
 20
66.2847149406
 11
149.6896562562
 21
66.2759307312
  0
LINE
  5
3BD
100
AcDbEntity
  8
0
100
AcDbLine
 62
7
  6
CONTINUOUS
 10
151.5130918646
 20
66.2847149603
 11
151.5039424757
 21
66.2759307312
  0
LINE
  5
3BE
100
AcDbEntity
  8
0
100
AcDbLine
 62
7
  6
CONTINUOUS
 10
153.3273787396
 20
66.284714953
 11
153.3182293582
 21
66.2759307312
  0
LINE
  5
3BF
100
AcDbEntity
  8
0
100
AcDbLine
 62
7
  6
CONTINUOUS
 10
114.4156450871
 20
127.1759307312
 11
114.1825142676
 21
127.1759307312
  0
LINE
  5
3C0
100
AcDbEntity
  8
0
100
AcDbLine
 62
7
  6
CONTINUOUS
 10
105.5750159334
 20
127.2759307312
 11
114.3223935785
 21
127.2759307312
  0
LINE
  5
3C1
100
AcDbEntity
  8
0
100
AcDbLine
 62
7
  6
CONTINUOUS
 10
115.6148952443
 20
127.2759307312
 11
131.7070877871
 21
127.2759307312
  0
LINE
  5
3C2
100
AcDbEntity
  8
0
100
AcDbLine
 62
7
  6
CONTINUOUS
 10
133.2825142676
 20
127.2759307312
 11
134.8825142676
 21
127.2759307312
  0
LINE
  5
3C3
100
AcDbEntity
  8
0
100
AcDbLine
 62
7
  6
CONTINUOUS
 10
107.2825142676
 20
130.2759307312
 11
134.8825142676
 21
130.2759307312
  0
LINE
  5
3C4
100
AcDbEntity
  8
0
100
AcDbLine
 62
7
  6
CONTINUOUS
 10
125.2825142676
 20
130.4759307312
 11
113.2825142767
 21
130.4759307312
  0
LINE
  5
3C5
100
AcDbEntity
  8
0
100
AcDbLine
 62
7
  6
CONTINUOUS
 10
113.2825142676
 20
131.1295205697
 11
125.2825142676
 21
131.1295205697
  0
LINE
  5
3C6
100
AcDbEntity
  8
0
100
AcDbLine
 62
7
  6
CONTINUOUS
 10
113.5825142676
 20
131.649135812
 11
124.9825142676
 21
131.649135812
  0
LINE
  5
3C7
100
AcDbEntity
  8
GEOM
100
AcDbLine
 62
7
  6
CONTINUOUS
 10
185.9585913962
 20
150.8259307312
 11
185.9585913962
 21
150.9259307312
  0
LINE
  5
3C8
100
AcDbEntity
  8
GEOM
100
AcDbLine
 62
7
  6
CONTINUOUS
 10
188.2819788525
 20
150.8259307312
 11
188.2819788525
 21
150.9259307312
  0
LINE
  5
3C9
100
AcDbEntity
  8
GEOM
100
AcDbLine
 62
7
  6
CONTINUOUS
 10
188.4285913962
 20
150.8259307312
 11
188.4285913962
 21
150.9259307312
  0
LINE
  5
3CA
100
AcDbEntity
  8
GEOM
100
AcDbLine
 62
7
  6
CONTINUOUS
 10
189.6785913962
 20
150.8259307312
 11
189.6785913962
 21
150.9259307312
  0
LINE
  5
3CB
100
AcDbEntity
  8
GEOM
100
AcDbLine
 62
7
  6
CONTINUOUS
 10
189.8985885487
 20
150.9259307312
 11
189.8985885487
 21
150.8259307312
  0
LINE
  5
3CC
100
AcDbEntity
  8
GEOM
100
AcDbLine
 62
7
  6
CONTINUOUS
 10
190.5485913962
 20
150.8259307312
 11
190.5485913962
 21
150.9259307312
  0
LINE
  5
3CD
100
AcDbEntity
  8
0
100
AcDbLine
 62
7
  6
CONTINUOUS
 10
166.2948010273
 20
62.9259307312
 11
167.7959117272
 21
65.5259307312
  0
LINE
  5
3CE
100
AcDbEntity
  8
0
100
AcDbLine
 62
7
  6
CONTINUOUS
 10
115.2825613434
 20
135.4759307312
 11
123.2824671918
 21
135.4759307312
  0
LINE
  5
3CF
100
AcDbEntity
  8
GEOM
100
AcDbLine
 62
7
  6
CONTINUOUS
 10
192.7085913962
 20
150.8259307312
 11
192.7085913962
 21
150.9259307312
  0
LINE
  5
3D0
100
AcDbEntity
  8
GEOM
100
AcDbLine
 62
7
  6
CONTINUOUS
 10
194.482514249
 20
150.8259307312
 11
194.482514249
 21
150.9259307312
  0
LINE
  5
3D1
100
AcDbEntity
  8
GEOM
100
AcDbLine
 62
7
  6
CONTINUOUS
 10
195.4357884878
 20
150.8259307312
 11
195.4357884878
 21
150.9259307312
  0
LINE
  5
3D2
100
AcDbEntity
  8
GEOM
100
AcDbLine
 62
7
  6
CONTINUOUS
 10
195.8382441155
 20
150.8259307312
 11
195.8382441155
 21
150.9259307312
  0
LINE
  5
3D3
100
AcDbEntity
  8
GEOM
100
AcDbLine
 62
7
  6
CONTINUOUS
 10
196.1124910323
 20
150.8259307312
 11
196.1124910323
 21
150.9259307312
  0
LINE
  5
3D4
100
AcDbEntity
  8
GEOM
100
AcDbLine
 62
7
  6
CONTINUOUS
 10
196.2952700238
 20
150.8259307312
 11
196.2952700238
 21
150.9259307312
  0
LINE
  5
3D5
100
AcDbEntity
  8
GEOM
100
AcDbLine
 62
7
  6
CONTINUOUS
 10
196.3703042323
 20
150.8259307312
 11
196.3703042323
 21
150.9259307312
  0
LINE
  5
3D6
100
AcDbEntity
  8
GEOM
100
AcDbLine
 62
7
  6
CONTINUOUS
 10
196.5185913962
 20
150.8259307312
 11
196.5185913962
 21
150.9259307312
  0
LINE
  5
3D7
100
AcDbEntity
  8
GEOM
100
AcDbLine
 62
7
  6
CONTINUOUS
 10
196.7795810157
 20
150.8259307312
 11
196.7795810157
 21
150.9259307312
  0
LINE
  5
3D8
100
AcDbEntity
  8
GEOM
100
AcDbLine
 62
7
  6
CONTINUOUS
 10
197.0865386778
 20
150.8259307312
 11
197.0865386778
 21
150.9259307312
  0
LINE
  5
3D9
100
AcDbEntity
  8
GEOM
100
AcDbLine
 62
7
  6
CONTINUOUS
 10
197.3883804733
 20
150.8259307312
 11
197.3883804733
 21
150.9259307312
  0
LINE
  5
3DA
100
AcDbEntity
  8
GEOM
100
AcDbLine
 62
7
  6
CONTINUOUS
 10
197.5145742351
 20
150.8259307312
 11
197.5145742351
 21
150.9259307312
  0
LINE
  5
3DB
100
AcDbEntity
  8
GEOM
100
AcDbLine
 62
7
  6
CONTINUOUS
 10
197.5486806089
 20
150.8259307312
 11
197.5486806089
 21
150.9259307312
  0
LINE
  5
3DC
100
AcDbEntity
  8
0
100
AcDbLine
 62
7
  6
CONTINUOUS
 10
158.0825142676
 20
144.7759307312
 11
243.2825142676
 21
144.7759307312
  0
LINE
  5
3DD
100
AcDbEntity
  8
0
100
AcDbLine
 62
7
  6
CONTINUOUS
 10
156.3677956418
 20
146.2759307312
 11
156.8002847446
 21
146.2759307312
  0
LINE
  5
3DE
100
AcDbEntity
  8
GEOM
100
AcDbLine
 62
7
  6
CONTINUOUS
 10
197.7464979941
 20
150.8259307312
 11
197.7464979941
 21
150.9259307312
  0
LINE
  5
3DF
100
AcDbEntity
  8
GEOM
100
AcDbLine
 62
7
  6
CONTINUOUS
 10
197.998617405
 20
150.8259307312
 11
197.998617405
 21
150.9259307312
  0
LINE
  5
3E0
100
AcDbEntity
  8
GEOM
100
AcDbLine
 62
7
  6
CONTINUOUS
 10
198.1865728759
 20
150.8259307312
 11
198.1865728759
 21
150.9259307312
  0
LINE
  5
3E1
100
AcDbEntity
  8
GEOM
100
AcDbLine
 62
7
  6
CONTINUOUS
 10
198.3587080294
 20
150.8259307312
 11
198.3587080294
 21
150.9259307312
  0
LINE
  5
3E2
100
AcDbEntity
  8
GEOM
100
AcDbLine
 62
7
  6
CONTINUOUS
 10
199.0476575548
 20
150.8259307312
 11
199.0476575548
 21
150.9259307312
  0
LINE
  5
3E3
100
AcDbEntity
  8
GEOM
100
AcDbLine
 62
7
  6
CONTINUOUS
 10
199.1107544357
 20
150.8259307312
 11
199.1107544357
 21
150.9259307312
  0
LINE
  5
3E4
100
AcDbEntity
  8
GEOM
100
AcDbLine
 62
7
  6
CONTINUOUS
 10
199.3819004351
 20
150.8259307312
 11
199.3819004351
 21
150.9259307312
  0
LINE
  5
3E5
100
AcDbEntity
  8
GEOM
100
AcDbLine
 62
7
  6
CONTINUOUS
 10
199.6871525103
 20
150.8259307312
 11
199.6871525103
 21
150.9259307312
  0
LINE
  5
3E6
100
AcDbEntity
  8
GEOM
100
AcDbLine
 62
7
  6
CONTINUOUS
 10
200.0401538664
 20
150.8259307312
 11
200.0401538664
 21
150.9259307312
  0
LINE
  5
3E7
100
AcDbEntity
  8
GEOM
100
AcDbLine
 62
7
  6
CONTINUOUS
 10
200.12371481
 20
150.8259307312
 11
200.12371481
 21
150.9259307312
  0
LINE
  5
3E8
100
AcDbEntity
  8
GEOM
100
AcDbLine
 62
7
  6
CONTINUOUS
 10
200.169758206
 20
150.8259307312
 11
200.169758206
 21
150.9259307312
  0
LINE
  5
3E9
100
AcDbEntity
  8
GEOM
100
AcDbLine
 62
7
  6
CONTINUOUS
 10
200.2754885012
 20
150.8259307312
 11
200.2754885012
 21
150.9259307312
  0
LINE
  5
3EA
100
AcDbEntity
  8
GEOM
100
AcDbLine
 62
7
  6
CONTINUOUS
 10
200.5824458653
 20
150.8259307312
 11
200.5824458653
 21
150.9259307312
  0
LINE
  5
3EB
100
AcDbEntity
  8
GEOM
100
AcDbLine
 62
7
  6
CONTINUOUS
 10
200.633488474
 20
150.8259307312
 11
200.633488474
 21
150.9259307312
  0
LINE
  5
3EC
100
AcDbEntity
  8
GEOM
100
AcDbLine
 62
7
  6
CONTINUOUS
 10
200.7475472227
 20
150.8259307312
 11
200.7475472227
 21
150.9259307312
  0
LINE
  5
3ED
100
AcDbEntity
  8
GEOM
100
AcDbLine
 62
7
  6
CONTINUOUS
 10
200.9286260659
 20
150.8259307312
 11
200.9286260659
 21
150.9259307312
  0
LINE
  5
3EE
100
AcDbEntity
  8
GEOM
100
AcDbLine
 62
7
  6
CONTINUOUS
 10
201.1537283713
 20
150.8259307312
 11
201.1537283713
 21
150.9259307312
  0
LINE
  5
3EF
100
AcDbEntity
  8
GEOM
100
AcDbLine
 62
7
  6
CONTINUOUS
 10
201.2594580704
 20
150.8259307312
 11
201.2594580704
 21
150.9259307312
  0
LINE
  5
3F0
100
AcDbEntity
  8
GEOM
100
AcDbLine
 62
7
  6
CONTINUOUS
 10
201.4436328465
 20
150.8259307312
 11
201.4436328465
 21
150.9259307312
  0
LINE
  5
3F1
100
AcDbEntity
  8
GEOM
100
AcDbLine
 62
7
  6
CONTINUOUS
 10
201.7505908066
 20
150.8259307312
 11
201.7505908066
 21
150.9259307312
  0
LINE
  5
3F2
100
AcDbEntity
  8
0
100
AcDbLine
 62
7
  6
CONTINUOUS
 10
156.7825142676
 20
147.2759307312
 11
245.7825142676
 21
147.2759307312
  0
LINE
  5
3F3
100
AcDbEntity
  8
0
100
AcDbLine
 62
7
  6
CONTINUOUS
 10
156.7825142676
 20
148.2759307312
 11
245.7825142676
 21
148.2759307312
  0
LINE
  5
3F4
100
AcDbEntity
  8
0
100
AcDbLine
 62
7
  6
CONTINUOUS
 10
156.8002847446
 20
149.2759307312
 11
155.9535820795
 21
149.2759307312
  0
LINE
  5
3F5
100
AcDbEntity
  8
0
100
AcDbLine
 62
7
  6
CONTINUOUS
 10
158.0825142676
 20
150.7759307312
 11
243.2825142676
 21
150.7759307312
  0
LINE
  5
3F6
100
AcDbEntity
  8
GEOM
100
AcDbLine
 62
7
  6
CONTINUOUS
 10
161.0825142676
 20
150.8259307312
 11
163.2825142676
 21
150.8259307312
  0
LINE
  5
3F7
100
AcDbEntity
  8
GEOM
100
AcDbLine
 62
7
  6
CONTINUOUS
 10
164.0932339914
 20
150.8259307312
 11
178.1273230464
 21
150.8259307312
  0
LINE
  5
3F8
100
AcDbEntity
  8
GEOM
100
AcDbLine
 62
7
  6
CONTINUOUS
 10
178.1285913962
 20
150.8259307312
 11
182.5085913962
 21
150.8259307312
  0
LINE
  5
3F9
100
AcDbEntity
  8
GEOM
100
AcDbLine
 62
7
  6
CONTINUOUS
 10
182.9485913962
 20
150.8259307312
 11
189.6785913962
 21
150.8259307312
  0
LINE
  5
3FA
100
AcDbEntity
  8
GEOM
100
AcDbLine
 62
7
  6
CONTINUOUS
 10
189.8986443879
 20
150.8259307312
 11
200.0401538664
 21
150.8259307312
  0
LINE
  5
3FB
100
AcDbEntity
  8
GEOM
100
AcDbLine
 62
7
  6
CONTINUOUS
 10
200.0580982816
 20
150.8259307312
 11
200.169758206
 21
150.8259307312
  0
LINE
  5
3FC
100
AcDbEntity
  8
GEOM
100
AcDbLine
 62
7
  6
CONTINUOUS
 10
200.1886626394
 20
150.8259307312
 11
201.7505908066
 21
150.8259307312
  0
LINE
  5
3FD
100
AcDbEntity
  8
GEOM
100
AcDbLine
 62
7
  6
CONTINUOUS
 10
216.6039830381
 20
150.8259307312
 11
218.2936135507
 21
150.8259307312
  0
LINE
  5
3FE
100
AcDbEntity
  8
GEOM
100
AcDbLine
 62
7
  6
CONTINUOUS
 10
218.5839240432
 20
150.8259307312
 11
220.0245437242
 21
150.8259307312
  0
LINE
  5
3FF
100
AcDbEntity
  8
GEOM
100
AcDbLine
 62
7
  6
CONTINUOUS
 10
220.1120010705
 20
150.8259307312
 11
221.3692029029
 21
150.8259307312
  0
LINE
  5
400
100
AcDbEntity
  8
GEOM
100
AcDbLine
 62
7
  6
CONTINUOUS
 10
222.9915903228
 20
150.8259307312
 11
227.7007337114
 21
150.8259307312
  0
LINE
  5
401
100
AcDbEntity
  8
GEOM
100
AcDbLine
 62
7
  6
CONTINUOUS
 10
161.0825142676
 20
150.9259307312
 11
163.2825142676
 21
150.9259307312
  0
LINE
  5
402
100
AcDbEntity
  8
GEOM
100
AcDbLine
 62
7
  6
CONTINUOUS
 10
164.0932339914
 20
150.9259307312
 11
174.2585913962
 21
150.9259307312
  0
LINE
  5
403
100
AcDbEntity
  8
GEOM
100
AcDbLine
 62
7
  6
CONTINUOUS
 10
174.2698597461
 20
150.9259307312
 11
178.1273230464
 21
150.9259307312
  0
LINE
  5
404
100
AcDbEntity
  8
GEOM
100
AcDbLine
 62
7
  6
CONTINUOUS
 10
178.1285913962
 20
150.9259307312
 11
182.5085913962
 21
150.9259307312
  0
LINE
  5
405
100
AcDbEntity
  8
GEOM
100
AcDbLine
 62
7
  6
CONTINUOUS
 10
182.9485913962
 20
150.9259307312
 11
189.6785913962
 21
150.9259307312
  0
LINE
  5
406
100
AcDbEntity
  8
GEOM
100
AcDbLine
 62
7
  6
CONTINUOUS
 10
189.8986443879
 20
150.9259307312
 11
201.7505908066
 21
150.9259307312
  0
LINE
  5
407
100
AcDbEntity
  8
GEOM
100
AcDbLine
 62
7
  6
CONTINUOUS
 10
216.6039830381
 20
150.9259307312
 11
218.2936135507
 21
150.9259307312
  0
LINE
  5
408
100
AcDbEntity
  8
GEOM
100
AcDbLine
 62
7
  6
CONTINUOUS
 10
218.5839240432
 20
150.9259307312
 11
220.0245437242
 21
150.9259307312
  0
LINE
  5
409
100
AcDbEntity
  8
GEOM
100
AcDbLine
 62
7
  6
CONTINUOUS
 10
220.1120010705
 20
150.9259307312
 11
221.3692029029
 21
150.9259307312
  0
LINE
  5
40A
100
AcDbEntity
  8
GEOM
100
AcDbLine
 62
7
  6
CONTINUOUS
 10
222.9915903228
 20
150.9259307312
 11
227.7007337114
 21
150.9259307312
  0
LINE
  5
40B
100
AcDbEntity
  8
GEOM
100
AcDbLine
 62
7
  6
CONTINUOUS
 10
216.6039830381
 20
150.8259307312
 11
216.6039830381
 21
150.9259307312
  0
LINE
  5
40C
100
AcDbEntity
  8
GEOM
100
AcDbLine
 62
7
  6
CONTINUOUS
 10
216.8369002847
 20
150.8259307312
 11
216.8369002847
 21
150.9259307312
  0
LINE
  5
40D
100
AcDbEntity
  8
GEOM
100
AcDbLine
 62
7
  6
CONTINUOUS
 10
217.4530497258
 20
150.8259307312
 11
217.4530497258
 21
150.9259307312
  0
LINE
  5
40E
100
AcDbEntity
  8
GEOM
100
AcDbLine
 62
7
  6
CONTINUOUS
 10
218.0652523547
 20
150.8259307312
 11
218.0652523547
 21
150.9259307312
  0
LINE
  5
40F
100
AcDbEntity
  8
GEOM
100
AcDbLine
 62
7
  6
CONTINUOUS
 10
218.2936135507
 20
150.8259307312
 11
218.2936135507
 21
150.9259307312
  0
LINE
  5
410
100
AcDbEntity
  8
GEOM
100
AcDbLine
 62
7
  6
CONTINUOUS
 10
218.5839240432
 20
150.8259307312
 11
218.5839240432
 21
150.9259307312
  0
LINE
  5
411
100
AcDbEntity
  8
GEOM
100
AcDbLine
 62
7
  6
CONTINUOUS
 10
218.5985003032
 20
150.8259307312
 11
218.5985003032
 21
150.9259307312
  0
LINE
  5
412
100
AcDbEntity
  8
GEOM
100
AcDbLine
 62
7
  6
CONTINUOUS
 10
218.9629065881
 20
150.8259307312
 11
218.9629065881
 21
150.9259307312
  0
LINE
  5
413
100
AcDbEntity
  8
GEOM
100
AcDbLine
 62
7
  6
CONTINUOUS
 10
219.7439508805
 20
150.8259307312
 11
219.7439508805
 21
150.9259307312
  0
LINE
  5
414
100
AcDbEntity
  8
GEOM
100
AcDbLine
 62
7
  6
CONTINUOUS
 10
219.8557021356
 20
150.8259307312
 11
219.8557021356
 21
150.9259307312
  0
LINE
  5
415
100
AcDbEntity
  8
GEOM
100
AcDbLine
 62
7
  6
CONTINUOUS
 10
220.0245437242
 20
150.8259307312
 11
220.0245437242
 21
150.9259307312
  0
LINE
  5
416
100
AcDbEntity
  8
GEOM
100
AcDbLine
 62
7
  6
CONTINUOUS
 10
220.1120010705
 20
150.8259307312
 11
220.1120010705
 21
150.9259307312
  0
LINE
  5
417
100
AcDbEntity
  8
GEOM
100
AcDbLine
 62
7
  6
CONTINUOUS
 10
220.4764073554
 20
150.8259307312
 11
220.4764073554
 21
150.9259307312
  0
LINE
  5
418
100
AcDbEntity
  8
GEOM
100
AcDbLine
 62
7
  6
CONTINUOUS
 10
221.2574516479
 20
150.8259307312
 11
221.2574516479
 21
150.9259307312
  0
LINE
  5
419
100
AcDbEntity
  8
GEOM
100
AcDbLine
 62
7
  6
CONTINUOUS
 10
221.3692029029
 20
150.8259307312
 11
221.3692029029
 21
150.9259307312
  0
LINE
  5
41A
100
AcDbEntity
  8
GEOM
100
AcDbLine
 62
7
  6
CONTINUOUS
 10
222.9915903228
 20
150.8259307312
 11
222.9915903228
 21
150.9259307312
  0
LINE
  5
41B
100
AcDbEntity
  8
GEOM
100
AcDbLine
 62
7
  6
CONTINUOUS
 10
224.9938294894
 20
150.8259307312
 11
224.9938294894
 21
150.9259307312
  0
LINE
  5
41C
100
AcDbEntity
  8
GEOM
100
AcDbLine
 62
7
  6
CONTINUOUS
 10
227.7007337114
 20
150.8259307312
 11
227.7007337114
 21
150.9259307312
  0
LINE
  5
41D
100
AcDbEntity
  8
0
100
AcDbLine
 62
7
  6
CONTINUOUS
 10
234.7825142676
 20
144.7759307312
 11
234.7825142676
 21
150.7759307312
  0
LINE
  5
41E
100
AcDbEntity
  8
0
100
AcDbLine
 62
7
  6
CONTINUOUS
 10
245.7825142676
 20
147.2759307312
 11
245.7825142676
 21
148.2759307312
  0
ARC
  5
41F
100
AcDbEntity
  8
0
100
AcDbCircle
 62
7
  6
CONTINUOUS
 10
133.9309903699
 20
-508.0137817871
 40
629.7684360848
100
AcDbArc
 50
91.5013865826
 51
91.7047085777
  0
ARC
  5
420
100
AcDbEntity
  8
0
100
AcDbCircle
 62
7
  6
CONTINUOUS
 10
84.2646407477
 20
83.7759307312
 40
55.4283368568
100
AcDbArc
 50
356.382130165
 51
3.617869835
  0
ARC
  5
421
100
AcDbEntity
  8
0
100
AcDbCircle
 62
7
  6
CONTINUOUS
 10
104.2469803617
 20
62.0759307312
 40
2.5
100
AcDbArc
 50
45.0
 51
90.0
  0
ARC
  5
422
100
AcDbEntity
  8
0
100
AcDbCircle
 62
7
  6
CONTINUOUS
 10
72.2466356213
 20
61.2938462561
 40
1.5554658531
100
AcDbArc
 50
89.9954817972
 51
90.61149282
  0
ARC
  5
423
100
AcDbEntity
  8
0
100
AcDbCircle
 62
7
  6
CONTINUOUS
 10
68.8825142676
 20
66.6759307312
 40
1.0
100
AcDbArc
 50
180.0
 51
270.0
  0
ARC
  5
424
100
AcDbEntity
  8
0
100
AcDbCircle
 62
7
  6
CONTINUOUS
 10
97.6659335139
 20
62.7759307312
 40
0.5
100
AcDbArc
 50
270.0
 51
330.0
  0
ARC
  5
425
100
AcDbEntity
  8
0
100
AcDbCircle
 62
7
  6
CONTINUOUS
 10
99.5711894022
 20
64.0759307312
 40
0.5
100
AcDbArc
 50
90.0
 51
150.0000000002
  0
ARC
  5
426
100
AcDbEntity
  8
0
100
AcDbCircle
 62
7
  6
CONTINUOUS
 10
97.6674005524
 20
62.777878844
 40
0.4988813917
100
AcDbArc
 50
269.8315125862
 51
329.8857403239
  0
ARC
  5
427
100
AcDbEntity
  8
0
100
AcDbCircle
 62
7
  6
CONTINUOUS
 10
72.230035129
 20
63.0759307312
 40
0.3
100
AcDbArc
 50
210.0
 51
270.0
  0
ARC
  5
428
100
AcDbEntity
  8
0
100
AcDbCircle
 62
7
  6
CONTINUOUS
 10
70.2093091868
 20
65.3759307312
 40
0.3
100
AcDbArc
 50
29.9999999996
 51
90.0
  0
ARC
  5
429
100
AcDbEntity
  8
0
100
AcDbCircle
 62
7
  6
CONTINUOUS
 10
97.6454298039
 20
68.5857311816
 40
0.2680697652
100
AcDbArc
 50
269.9789291174
 51
274.3866361144
  0
ARC
  5
42A
100
AcDbEntity
  8
0
100
AcDbCircle
 62
7
  6
CONTINUOUS
 10
97.6454279325
 20
68.5737547565
 40
0.2592207847
100
AcDbArc
 50
85.4628945021
 51
90.0213778259
  0
ARC
  5
42B
100
AcDbEntity
  8
0
100
AcDbCircle
 62
7
  6
CONTINUOUS
 10
97.6454094762
 20
83.5985585369
 40
0.1870099086
100
AcDbArc
 50
269.9760337688
 51
276.300811965
  0
ARC
  5
42C
100
AcDbEntity
  8
0
100
AcDbCircle
 62
7
  6
CONTINUOUS
 10
97.645409482
 20
83.9533029422
 40
0.1870098919
100
AcDbArc
 50
83.6991892589
 51
90.023967362
  0
ARC
  5
42D
100
AcDbEntity
  8
0
100
AcDbCircle
 62
7
  6
CONTINUOUS
 10
72.246661423
 20
71.9526614151
 40
0.1590774303
100
AcDbArc
 50
264.0006610494
 51
270.0348869542
  0
ARC
  5
42E
100
AcDbEntity
  8
0
100
AcDbCircle
 62
7
  6
CONTINUOUS
 10
72.2466614176
 20
95.5992000654
 40
0.1590774122
100
AcDbArc
 50
89.9651120405
 51
95.9993376826
  0
ARC
  5
42F
100
AcDbEntity
  8
0
100
AcDbCircle
 62
7
  6
CONTINUOUS
 10
72.2466677778
 20
92.8647939221
 40
0.1445913092
100
AcDbArc
 50
263.3945207209
 51
270.0358634133
  0
ARC
  5
430
100
AcDbEntity
  8
0
100
AcDbCircle
 62
7
  6
CONTINUOUS
 10
72.2466677732
 20
74.6870675546
 40
0.144591295
100
AcDbArc
 50
89.9641356367
 51
96.6054780806
  0
ARC
  5
431
100
AcDbEntity
  8
0
100
AcDbCircle
 62
7
  6
CONTINUOUS
 10
64.0163431099
 20
136.4032684055
 40
55.5831179976
100
AcDbArc
 50
353.6709999501
 51
353.8783855052
  0
ARC
  5
432
100
AcDbEntity
  8
0
100
AcDbCircle
 62
7
  6
CONTINUOUS
 10
107.2825142676
 20
127.2759307312
 40
3.0
100
AcDbArc
 50
90.0
 51
180.0
  0
ARC
  5
433
100
AcDbEntity
  8
0
100
AcDbCircle
 62
7
  6
CONTINUOUS
 10
104.2469803617
 20
105.4759307312
 40
2.5
100
AcDbArc
 50
270.0
 51
315.0
  0
ARC
  5
434
100
AcDbEntity
  8
0
100
AcDbCircle
 62
7
  6
CONTINUOUS
 10
72.246635625
 20
106.2580153266
 40
1.5554659733
100
AcDbArc
 50
269.3885070892
 51
270.0045181317
  0
ARC
  5
435
100
AcDbEntity
  8
0
100
AcDbCircle
 62
7
  6
CONTINUOUS
 10
107.8325143653
 20
106.8646163643
 40
1.1999999898
100
AcDbArc
 50
293.6717041826
 51
359.9999908042
  0
ARC
  5
436
100
AcDbEntity
  8
0
100
AcDbCircle
 62
7
  6
CONTINUOUS
 10
68.8825142676
 20
100.8759307312
 40
1.0
100
AcDbArc
 50
90.0
 51
180.0
  0
ARC
  5
437
100
AcDbEntity
  8
0
100
AcDbCircle
 62
7
  6
CONTINUOUS
 10
97.6659335139
 20
104.7759307312
 40
0.5
100
AcDbArc
 50
30.0
 51
90.0
  0
ARC
  5
438
100
AcDbEntity
  8
0
100
AcDbCircle
 62
7
  6
CONTINUOUS
 10
107.7825142676
 20
117.56882395
 40
0.5
100
AcDbArc
 50
0.0
 51
45.0000000002
  0
ARC
  5
439
100
AcDbEntity
  8
0
100
AcDbCircle
 62
7
  6
CONTINUOUS
 10
99.5711894022
 20
103.4759307312
 40
0.5
100
AcDbArc
 50
209.9999999998
 51
270.0
  0
ARC
  5
43A
100
AcDbEntity
  8
0
100
AcDbCircle
 62
7
  6
CONTINUOUS
 10
107.7825142676
 20
126.7759307312
 40
0.5
100
AcDbArc
 50
90.0
 51
180.0
  0
ARC
  5
43B
100
AcDbEntity
  8
0
100
AcDbCircle
 62
7
  6
CONTINUOUS
 10
97.6674005553
 20
104.7739826237
 40
0.4988813864
100
AcDbArc
 50
30.1142593093
 51
90.1684877571
  0
ARC
  5
43C
100
AcDbEntity
  8
0
100
AcDbCircle
 62
7
  6
CONTINUOUS
 10
107.8825142676
 20
117.1759307312
 40
0.4
100
AcDbArc
 50
270.0
 51
360.0
  0
ARC
  5
43D
100
AcDbEntity
  8
0
100
AcDbCircle
 62
7
  6
CONTINUOUS
 10
104.6825142676
 20
116.3759307312
 40
0.4
100
AcDbArc
 50
90.0
 51
180.0
  0
ARC
  5
43E
100
AcDbEntity
  8
0
100
AcDbCircle
 62
7
  6
CONTINUOUS
 10
104.6825142676
 20
113.0068708389
 40
0.4
100
AcDbArc
 50
180.0
 51
240.0
  0
ARC
  5
43F
100
AcDbEntity
  8
0
100
AcDbCircle
 62
7
  6
CONTINUOUS
 10
72.230035129
 20
104.4759307312
 40
0.3
100
AcDbArc
 50
90.0
 51
150.0
  0
ARC
  5
440
100
AcDbEntity
  8
0
100
AcDbCircle
 62
7
  6
CONTINUOUS
 10
70.2093091868
 20
102.1759307312
 40
0.3
100
AcDbArc
 50
270.0
 51
330.0000000004
  0
ARC
  5
441
100
AcDbEntity
  8
0
100
AcDbCircle
 62
7
  6
CONTINUOUS
 10
97.6454297915
 20
98.9661302302
 40
0.2680698159
100
AcDbArc
 50
85.6133620654
 51
90.0210692254
  0
ARC
  5
442
100
AcDbEntity
  8
0
100
AcDbCircle
 62
7
  6
CONTINUOUS
 10
97.6454279453
 20
98.9781066552
 40
0.259220734
100
AcDbArc
 50
269.9786204034
 51
274.5371035534
  0
ARC
  5
443
100
AcDbEntity
  8
0
100
AcDbCircle
 62
7
  6
CONTINUOUS
 10
109.3180481735
 20
64.0759307312
 40
2.5
100
AcDbArc
 50
225.0
 51
270.0
  0
ARC
  5
444
100
AcDbEntity
  8
0
100
AcDbCircle
 62
7
  6
CONTINUOUS
 10
122.5225142676
 20
75.6159307312
 40
2.09
100
AcDbArc
 50
79.5243183036
 51
180.0
  0
ARC
  5
445
100
AcDbEntity
  8
0
100
AcDbCircle
 62
7
  6
CONTINUOUS
 10
121.8625142676
 20
75.7859307312
 40
2.08
100
AcDbArc
 50
90.0
 51
180.0
  0
ARC
  5
446
100
AcDbEntity
  8
0
100
AcDbCircle
 62
7
  6
CONTINUOUS
 10
121.0150089028
 20
77.0359307312
 40
1.37
100
AcDbArc
 50
115.1619665684
 51
154.1096219644
  0
ARC
  5
447
100
AcDbEntity
  8
0
100
AcDbCircle
 62
7
  6
CONTINUOUS
 10
127.49672783
 20
61.7759307312
 40
1.0
100
AcDbArc
 50
225.0
 51
270.0
  0
ARC
  5
448
100
AcDbEntity
  8
0
100
AcDbCircle
 62
7
  6
CONTINUOUS
 10
125.8683007052
 20
60.5759307312
 40
1.0
100
AcDbArc
 50
45.0
 51
90.0
  0
ARC
  5
449
100
AcDbEntity
  8
0
100
AcDbCircle
 62
7
  6
CONTINUOUS
 10
137.622348237
 20
60.4259307312
 40
0.8
100
AcDbArc
 50
330.0
 51
340.0000000001
  0
ARC
  5
44A
100
AcDbEntity
  8
0
100
AcDbCircle
 62
7
  6
CONTINUOUS
 10
133.9361041061
 20
60.1759307312
 40
0.6
100
AcDbArc
 50
29.9999999998
 51
90.0
  0
ARC
  5
44B
100
AcDbEntity
  8
0
100
AcDbCircle
 62
7
  6
CONTINUOUS
 10
120.5559548585
 20
107.0060563218
 40
19.0989691761
100
AcDbArc
 50
103.9805191158
 51
105.6321851579
  0
ARC
  5
44C
100
AcDbEntity
  8
0
100
AcDbCircle
 62
7
  6
CONTINUOUS
 10
134.8825142676
 20
131.2759307312
 40
4.0
100
AcDbArc
 50
270.0
 51
315.0
  0
ARC
  5
44D
100
AcDbEntity
  8
0
100
AcDbCircle
 62
7
  6
CONTINUOUS
 10
124.2279546011
 20
106.1051620887
 40
2.5752626215
100
AcDbArc
 50
309.5657030264
 51
313.039541326
  0
ARC
  5
44E
100
AcDbEntity
  8
0
100
AcDbCircle
 62
7
  6
CONTINUOUS
 10
109.3180481735
 20
103.4759307312
 40
2.5
100
AcDbArc
 50
113.6717121469
 51
135.0
  0
ARC
  5
44F
100
AcDbEntity
  8
0
100
AcDbCircle
 62
7
  6
CONTINUOUS
 10
121.2625142676
 20
108.8574025938
 40
1.53
100
AcDbArc
 50
281.9597383823
 51
90.0
  0
ARC
  5
450
100
AcDbEntity
  8
0
100
AcDbCircle
 62
7
  6
CONTINUOUS
 10
117.8425142676
 20
109.0374025938
 40
1.35
100
AcDbArc
 50
0.0
 51
90.0
  0
ARC
  5
451
100
AcDbEntity
  8
0
100
AcDbCircle
 62
7
  6
CONTINUOUS
 10
117.8425142676
 20
106.3374025938
 40
1.35
100
AcDbArc
 50
270.0
 51
360.0
  0
ARC
  5
452
100
AcDbEntity
  8
0
100
AcDbCircle
 62
7
  6
CONTINUOUS
 10
130.7325133012
 20
107.9759301729
 40
1.1999998987
100
AcDbArc
 50
179.9999733413
 51
270.0000461405
  0
ARC
  5
453
100
AcDbEntity
  8
0
100
AcDbCircle
 62
7
  6
CONTINUOUS
 10
134.8825142676
 20
131.2759307312
 40
1.0
100
AcDbArc
 50
270.0
 51
315.0
  0
ARC
  5
454
100
AcDbEntity
  8
0
100
AcDbCircle
 62
7
  6
CONTINUOUS
 10
117.6625142676
 20
106.5174025938
 40
0.9
100
AcDbArc
 50
270.0
 51
360.0
  0
ARC
  5
455
100
AcDbEntity
  8
0
100
AcDbCircle
 62
7
  6
CONTINUOUS
 10
117.6625142676
 20
108.8574025938
 40
0.9
100
AcDbArc
 50
0.0
 51
90.0
  0
ARC
  5
456
100
AcDbEntity
  8
0
100
AcDbCircle
 62
7
  6
CONTINUOUS
 10
121.2625142676
 20
108.8574025938
 40
0.9
100
AcDbArc
 50
270.0
 51
90.0
  0
ARC
  5
457
100
AcDbEntity
  8
0
100
AcDbCircle
 62
7
  6
CONTINUOUS
 10
137.622348237
 20
107.1259307312
 40
0.8
100
AcDbArc
 50
19.9999999999
 51
30.0
  0
ARC
  5
458
100
AcDbEntity
  8
0
100
AcDbCircle
 62
7
  6
CONTINUOUS
 10
113.8825142676
 20
131.1295205697
 40
0.6
100
AcDbArc
 50
120.0
 51
180.0
  0
ARC
  5
459
100
AcDbEntity
  8
0
100
AcDbCircle
 62
7
  6
CONTINUOUS
 10
124.6825142676
 20
131.1295205697
 40
0.6
100
AcDbArc
 50
0.0
 51
60.0
  0
ARC
  5
45A
100
AcDbEntity
  8
0
100
AcDbCircle
 62
7
  6
CONTINUOUS
 10
129.6825142676
 20
111.7744588687
 40
0.6
100
AcDbArc
 50
315.0
 51
360.0
  0
ARC
  5
45B
100
AcDbEntity
  8
0
100
AcDbCircle
 62
7
  6
CONTINUOUS
 10
130.1325142676
 20
110.5274025938
 40
0.6
100
AcDbArc
 50
135.0
 51
180.0
  0
ARC
  5
45C
100
AcDbEntity
  8
0
100
AcDbCircle
 62
7
  6
CONTINUOUS
 10
133.9361041061
 20
107.3759307312
 40
0.6
100
AcDbArc
 50
270.0
 51
330.0000000002
  0
ARC
  5
45D
100
AcDbEntity
  8
0
100
AcDbCircle
 62
7
  6
CONTINUOUS
 10
130.7825142676
 20
117.56882395
 40
0.5
100
AcDbArc
 50
134.9999999998
 51
180.0
  0
ARC
  5
45E
100
AcDbEntity
  8
0
100
AcDbCircle
 62
7
  6
CONTINUOUS
 10
108.6325143493
 20
109.8025767977
 40
0.3999999969
100
AcDbArc
 50
0.0000067561
 51
60.0000135122
  0
ARC
  5
45F
100
AcDbEntity
  8
0
100
AcDbCircle
 62
7
  6
CONTINUOUS
 10
152.7818787764
 20
100.0243604939
 40
0.2555740798
100
AcDbArc
 50
15.0399836862
 51
16.4435126799
  0
ARC
  5
460
100
AcDbEntity
  8
0
100
AcDbCircle
 62
7
  6
CONTINUOUS
 10
155.9535820795
 20
145.2759307312
 40
4.0
100
AcDbArc
 50
90.0
 51
135.0
  0
ARC
  5
461
100
AcDbEntity
  8
0
100
AcDbCircle
 62
7
  6
CONTINUOUS
 10
243.2825142676
 20
148.2759307312
 40
2.5
100
AcDbArc
 50
0.0
 51
90.0
  0
ARC
  5
462
100
AcDbEntity
  8
0
100
AcDbCircle
 62
7
  6
CONTINUOUS
 10
243.2825142676
 20
147.2759307312
 40
2.5
100
AcDbArc
 50
270.0
 51
360.0
  0
ARC
  5
463
100
AcDbEntity
  8
0
100
AcDbCircle
 62
7
  6
CONTINUOUS
 10
156.3677956418
 20
144.2759307312
 40
2.0
100
AcDbArc
 50
90.0
 51
135.0
  0
ARC
  5
464
100
AcDbEntity
  8
0
100
AcDbCircle
 62
7
  6
CONTINUOUS
 10
166.0183929102
 20
61.2938461359
 40
1.5554659733
100
AcDbArc
 50
89.3885070892
 51
90.0045181317
  0
ARC
  5
465
100
AcDbEntity
  8
0
100
AcDbCircle
 62
7
  6
CONTINUOUS
 10
166.0183929139
 20
106.2580152064
 40
1.5554658531
100
AcDbArc
 50
269.9954817972
 51
270.61149282
  0
ARC
  5
466
100
AcDbEntity
  8
0
100
AcDbCircle
 62
7
  6
CONTINUOUS
 10
158.0825142676
 20
146.0759307312
 40
1.3
100
AcDbArc
 50
180.0
 51
270.0
  0
ARC
  5
467
100
AcDbEntity
  8
0
100
AcDbCircle
 62
7
  6
CONTINUOUS
 10
158.0825142676
 20
149.4759307312
 40
1.3
100
AcDbArc
 50
90.0
 51
180.0
  0
ARC
  5
468
100
AcDbEntity
  8
0
100
AcDbCircle
 62
7
  6
CONTINUOUS
 10
169.3825142676
 20
66.6759307312
 40
1.0
100
AcDbArc
 50
270.0
 51
360.0
  0
ARC
  5
469
100
AcDbEntity
  8
0
100
AcDbCircle
 62
7
  6
CONTINUOUS
 10
169.3825142676
 20
100.8759307312
 40
1.0
100
AcDbArc
 50
0.0
 51
90.0
  0
ARC
  5
46A
100
AcDbEntity
  8
0
100
AcDbCircle
 62
7
  6
CONTINUOUS
 10
166.0349934062
 20
63.0759307312
 40
0.3
100
AcDbArc
 50
270.0
 51
330.0
  0
ARC
  5
46B
100
AcDbEntity
  8
0
100
AcDbCircle
 62
7
  6
CONTINUOUS
 10
166.0349934062
 20
104.4759307312
 40
0.3
100
AcDbArc
 50
30.0
 51
90.0
  0
ARC
  5
46C
100
AcDbEntity
  8
0
100
AcDbCircle
 62
7
  6
CONTINUOUS
 10
168.0557193484
 20
65.3759307312
 40
0.3
100
AcDbArc
 50
90.0
 51
150.0000000004
  0
ARC
  5
46D
100
AcDbEntity
  8
0
100
AcDbCircle
 62
7
  6
CONTINUOUS
 10
168.0557193484
 20
102.1759307312
 40
0.3
100
AcDbArc
 50
209.9999999996
 51
270.0
  0
ARC
  5
46E
100
AcDbEntity
  8
0
100
AcDbCircle
 62
7
  6
CONTINUOUS
 10
166.0183671122
 20
95.5992000474
 40
0.1590774303
100
AcDbArc
 50
84.0006610494
 51
90.0348869542
  0
ARC
  5
46F
100
AcDbEntity
  8
0
100
AcDbCircle
 62
7
  6
CONTINUOUS
 10
166.0183671175
 20
71.9526613971
 40
0.1590774122
100
AcDbArc
 50
269.9651120405
 51
275.9993376826
  0
ARC
  5
470
100
AcDbEntity
  8
0
100
AcDbCircle
 62
7
  6
CONTINUOUS
 10
166.0183607574
 20
74.6870675404
 40
0.1445913092
100
AcDbArc
 50
83.394520721
 51
90.0358634133
  0
ARC
  5
471
100
AcDbEntity
  8
0
100
AcDbCircle
 62
7
  6
CONTINUOUS
 10
166.018360762
 20
92.8647939079
 40
0.144591295
100
AcDbArc
 50
269.9641356367
 51
276.6054780806
  0
SPLINE
  5
472
100
AcDbEntity
  8
0
100
AcDbSpline
 62
7
  6
CONTINUOUS
 70
0
 71
3
 72
9
 73
5
 74
0
 42
0.0000001
 43
0.0000001
 44
0.0000000001
 40
0.0
 40
0.0
 40
0.0
 40
0.0
 40
0.2472243861
 40
1.0
 40
1.0
 40
1.0
 40
1.0
 10
117.4303391315
 20
121.538449245
 30
0.0
 10
117.5710494128
 20
121.542197533
 30
0.0
 10
118.1402120899
 20
121.557266152
 30
0.0
 10
118.7093820728
 20
121.5720568849
 30
0.0
 10
119.1378396967
 20
121.5831770993
 30
0.0
  0
SPLINE
  5
473
100
AcDbEntity
  8
0
100
AcDbSpline
 62
7
  6
CONTINUOUS
 70
0
 71
3
 72
18
 73
14
 74
0
 42
0.0000001
 43
0.0000001
 44
0.0000000001
 40
0.0
 40
0.0
 40
0.0
 40
0.0
 40
0.2286806082
 40
0.4289360062
 40
0.5998177597
 40
0.740690139
 40
0.8510798795
 40
0.9306885199
 40
0.9589397312
 40
0.9795580218
 40
0.9870834803
 40
0.992850032
 40
1.0
 40
1.0
 40
1.0
 40
1.0
 10
111.3924034546
 20
121.7759307312
 30
0.0
 10
111.3071106061
 20
121.7717388577
 30
0.0
 10
111.1471468467
 20
121.7634600713
 30
0.0
 10
110.9235431007
 20
121.7502774937
 30
0.0
 10
110.7327941732
 20
121.7371318839
 30
0.0
 10
110.5756792366
 20
121.7241302231
 30
0.0
 10
110.4527975988
 20
121.7111802522
 30
0.0
 10
110.3720336151
 20
121.6999443035
 30
0.0
 10
110.3250218405
 20
121.6901244287
 30
0.0
 10
110.304750619
 20
121.6844965003
 30
0.0
 10
110.2929590702
 20
121.6795292413
 30
0.0
 10
110.2864844418
 20
121.6759385873
 30
0.0
 10
110.2825214818
 20
121.6718052656
 30
0.0
 10
110.2825199903
 20
121.6691352661
 30
0.0
  0
SPLINE
  5
474
100
AcDbEntity
  8
0
100
AcDbSpline
 62
7
  6
CONTINUOUS
 70
0
 71
3
 72
11
 73
7
 74
0
 42
0.0000001
 43
0.0000001
 44
0.0000000001
 40
0.0
 40
0.0
 40
0.0
 40
0.0
 40
0.2409986936
 40
0.4863412478
 40
0.7389668424
 40
1.0
 40
1.0
 40
1.0
 40
1.0
 10
113.2203364412
 20
125.9759307312
 30
0.0
 10
113.0563006612
 20
125.9759307312
 30
0.0
 10
112.7247035414
 20
125.9486189383
 30
0.0
 10
112.2341753444
 20
125.8301927796
 30
0.0
 10
111.7509783639
 20
125.6441385918
 30
0.0
 10
111.438929813
 20
125.4852756378
 30
0.0
 10
111.283844768
 20
125.398580462
 30
0.0
  0
SPLINE
  5
475
100
AcDbEntity
  8
0
100
AcDbSpline
 62
7
  6
CONTINUOUS
 70
0
 71
3
 72
11
 73
7
 74
0
 42
0.0000001
 43
0.0000001
 44
0.0000000001
 40
0.0
 40
0.0
 40
0.0
 40
0.0
 40
0.2610331594
 40
0.5136587636
 40
0.7590013162
 40
1.0
 40
1.0
 40
1.0
 40
1.0
 10
115.1568281142
 20
125.398580462
 30
0.0
 10
115.0017430682
 20
125.4852756383
 30
0.0
 10
114.6896945101
 20
125.6441385949
 30
0.0
 10
114.2064975229
 20
125.8301927843
 30
0.0
 10
113.715969326
 20
125.9486189366
 30
0.0
 10
113.3843722144
 20
125.9759307313
 30
0.0
 10
113.2203364412
 20
125.9759307312
 30
0.0
  0
SPLINE
  5
476
100
AcDbEntity
  8
0
100
AcDbSpline
 62
7
  6
CONTINUOUS
 70
0
 71
3
 72
12
 73
8
 74
0
 42
0.0000001
 43
0.0000001
 44
0.0000000001
 40
0.0
 40
0.0
 40
0.0
 40
0.0
 40
0.2991779879
 40
0.5783226135
 40
0.8175341891
 40
0.9167588721
 40
1.0
 40
1.0
 40
1.0
 40
1.0
 10
119.3113218855
 20
121.9259716071
 30
0.0
 10
118.5215515643
 20
121.9134825312
 30
0.0
 10
116.9948927142
 20
121.8894678685
 30
0.0
 10
114.836798041
 20
121.8533435179
 30
0.0
 10
113.2065958491
 20
121.822180065
 30
0.0
 10
112.0936155633
 20
121.7961368807
 30
0.0
 10
111.6120624589
 20
121.7828347851
 30
0.0
 10
111.3924034546
 20
121.7759307312
 30
0.0
  0
LINE
  5
477
100
AcDbEntity
  8
0
100
AcDbLine
 62
7
  6
CONTINUOUS
 10
118.4892526266
 20
130.2759307312
 11
118.497019703
 21
130.3501869068
  0
SPLINE
  5
478
100
AcDbEntity
  8
0
100
AcDbSpline
 62
7
  6
CONTINUOUS
 70
0
 71
3
 72
11
 73
7
 74
0
 42
0.0000001
 43
0.0000001
 44
0.0000000001
 40
0.0
 40
0.0
 40
0.0
 40
0.0
 40
0.2616427032
 40
0.5144968934
 40
0.7595946658
 40
1.0
 40
1.0
 40
1.0
 40
1.0
 10
114.6637121141
 20
135.1186651413
 30
0.0
 10
114.7560171453
 20
135.1719574759
 30
0.0
 10
114.9417163309
 20
135.269826654
 30
0.0
 10
115.2296538365
 20
135.3851021372
 30
0.0
 10
115.5223344357
 20
135.458856538
 30
0.0
 10
115.7204793915
 20
135.4759307312
 30
0.0
 10
115.818412652
 20
135.4759307312
 30
0.0
  0
SPLINE
  5
479
100
AcDbEntity
  8
0
100
AcDbSpline
 62
7
  6
CONTINUOUS
 70
0
 71
3
 72
11
 73
7
 74
0
 42
0.0000001
 43
0.0000001
 44
0.0000000001
 40
0.0
 40
0.0
 40
0.0
 40
0.0
 40
0.2404053342
 40
0.4855030662
 40
0.7383571529
 40
1.0
 40
1.0
 40
1.0
 40
1.0
 10
115.818412652
 20
135.4759307312
 30
0.0
 10
115.9163459129
 20
135.4759307313
 30
0.0
 10
116.1144908512
 20
135.4588565359
 30
0.0
 10
116.4071714025
 20
135.3851021801
 30
0.0
 10
116.695108903
 20
135.2698266812
 30
0.0
 10
116.8808081086
 20
135.1719575054
 30
0.0
 10
116.9731131908
 20
135.1186651413
 30
0.0
  0
SPLINE
  5
47A
100
AcDbEntity
  8
0
100
AcDbSpline
 62
7
  6
CONTINUOUS
 70
0
 71
3
 72
15
 73
11
 74
0
 42
0.0000001
 43
0.0000001
 44
0.0000000001
 40
0.0
 40
0.0
 40
0.0
 40
0.0
 40
0.1308200724
 40
0.2572467341
 40
0.3797970183
 40
0.5000000228
 40
0.620203024
 40
0.7427533002
 40
0.8691799394
 40
1.0
 40
1.0
 40
1.0
 40
1.0
 10
116.9731131908
 20
132.2733656797
 30
0.0
 10
116.8808091438
 20
132.3266574461
 30
0.0
 10
116.6951071377
 20
132.4245257191
 30
0.0
 10
116.4071889256
 20
132.5398027227
 30
0.0
 10
116.1144426871
 20
132.6135541866
 30
0.0
 10
115.8184126002
 20
132.6390765163
 30
0.0
 10
115.5223825237
 20
132.6135541539
 30
0.0
 10
115.2296363151
 20
132.5398026891
 30
0.0
 10
114.9417181332
 20
132.4245257033
 30
0.0
 10
114.7560161527
 20
132.3266574413
 30
0.0
 10
114.6637121141
 20
132.2733656797
 30
0.0
  0
SPLINE
  5
47B
100
AcDbEntity
  8
0
100
AcDbSpline
 62
7
  6
CONTINUOUS
 70
0
 71
3
 72
10
 73
6
 74
0
 42
0.0000001
 43
0.0000001
 44
0.0000000001
 40
0.0
 40
0.0
 40
0.0
 40
0.0
 40
0.4999011814
 40
0.7499517172
 40
1.0
 40
1.0
 40
1.0
 40
1.0
 10
116.9731131908
 20
135.1186651413
 30
0.0
 10
117.3483394694
 20
135.2269836378
 30
0.0
 10
117.9203824245
 20
135.3623964251
 30
0.0
 10
118.696254687
 20
135.4592592481
 30
0.0
 10
119.0871639989
 20
135.4759307312
 30
0.0
 10
119.2825142674
 20
135.4759307312
 30
0.0
  0
SPLINE
  5
47C
100
AcDbEntity
  8
0
100
AcDbSpline
 62
7
  6
CONTINUOUS
 70
0
 71
3
 72
10
 73
6
 74
0
 42
0.0000001
 43
0.0000001
 44
0.0000000001
 40
0.0
 40
0.0
 40
0.0
 40
0.0
 40
0.2500483041
 40
0.5000988454
 40
1.0
 40
1.0
 40
1.0
 40
1.0
 10
119.2825142674
 20
135.4759307312
 30
0.0
 10
119.4778645527
 20
135.4759307312
 30
0.0
 10
119.868773886
 20
135.4592592511
 30
0.0
 10
120.6446461472
 20
135.3623964139
 30
0.0
 10
121.2166890858
 20
135.226983632
 30
0.0
 10
121.5919153444
 20
135.1186651413
 30
0.0
  0
SPLINE
  5
47D
100
AcDbEntity
  8
0
100
AcDbSpline
 62
7
  6
CONTINUOUS
 70
0
 71
3
 72
10
 73
6
 74
0
 42
0.0000001
 43
0.0000001
 44
0.0000000001
 40
0.0
 40
0.0
 40
0.0
 40
0.0
 40
0.4999007856
 40
0.7499513904
 40
1.0
 40
1.0
 40
1.0
 40
1.0
 10
121.5919153444
 20
132.2733656797
 30
0.0
 10
121.216689362
 20
132.3816840907
 30
0.0
 10
120.6446466579
 20
132.5170967841
 30
0.0
 10
119.8687744196
 20
132.6139598382
 30
0.0
 10
119.4778647918
 20
132.6306312696
 30
0.0
 10
119.2825142676
 20
132.6306312696
 30
0.0
  0
SPLINE
  5
47E
100
AcDbEntity
  8
0
100
AcDbSpline
 62
7
  6
CONTINUOUS
 70
0
 71
3
 72
10
 73
6
 74
0
 42
0.0000001
 43
0.0000001
 44
0.0000000001
 40
0.0
 40
0.0
 40
0.0
 40
0.0
 40
0.2500490219
 40
0.5000997455
 40
1.0
 40
1.0
 40
1.0
 40
1.0
 10
119.2825142676
 20
132.6306312696
 30
0.0
 10
119.0871634206
 20
132.6306312696
 30
0.0
 10
118.696253371
 20
132.6139598817
 30
0.0
 10
117.920381157
 20
132.5170965859
 30
0.0
 10
117.3483387756
 20
132.3816839759
 30
0.0
 10
116.9731131908
 20
132.2733656797
 30
0.0
  0
SPLINE
  5
47F
100
AcDbEntity
  8
0
100
AcDbSpline
 62
7
  6
CONTINUOUS
 70
0
 71
3
 72
11
 73
7
 74
0
 42
0.0000001
 43
0.0000001
 44
0.0000000001
 40
0.0
 40
0.0
 40
0.0
 40
0.0
 40
0.2616429466
 40
0.5144970929
 40
0.7595947853
 40
1.0
 40
1.0
 40
1.0
 40
1.0
 10
121.5919153444
 20
135.1186651413
 30
0.0
 10
121.6842204615
 20
135.1719575255
 30
0.0
 10
121.8699197292
 20
135.2698267203
 30
0.0
 10
122.1578572758
 20
135.3851022403
 30
0.0
 10
122.4505378023
 20
135.4588565196
 30
0.0
 10
122.6486826712
 20
135.4759307313
 30
0.0
 10
122.7466158831
 20
135.4759307312
 30
0.0
  0
SPLINE
  5
480
100
AcDbEntity
  8
0
100
AcDbSpline
 62
7
  6
CONTINUOUS
 70
0
 71
3
 72
11
 73
7
 74
0
 42
0.0000001
 43
0.0000001
 44
0.0000000001
 40
0.0
 40
0.0
 40
0.0
 40
0.0
 40
0.2404052601
 40
0.485503008
 40
0.7383572234
 40
1.0
 40
1.0
 40
1.0
 40
1.0
 10
122.7466158831
 20
135.4759307312
 30
0.0
 10
122.8445491134
 20
135.4759307312
 30
0.0
 10
123.0426940265
 20
135.45885653
 30
0.0
 10
123.3353746047
 20
135.3851021736
 30
0.0
 10
123.6233121403
 20
135.2698266816
 30
0.0
 10
123.8090113641
 20
135.1719574908
 30
0.0
 10
123.9013164211
 20
135.1186651413
 30
0.0
  0
SPLINE
  5
481
100
AcDbEntity
  8
0
100
AcDbSpline
 62
7
  6
CONTINUOUS
 70
0
 71
3
 72
15
 73
11
 74
0
 42
0.0000001
 43
0.0000001
 44
0.0000000001
 40
0.0
 40
0.0
 40
0.0
 40
0.0
 40
0.1308200724
 40
0.2572467341
 40
0.3797970183
 40
0.5000000228
 40
0.620203024
 40
0.7427533002
 40
0.8691799394
 40
1.0
 40
1.0
 40
1.0
 40
1.0
 10
123.9013164211
 20
132.2733656797
 30
0.0
 10
123.8090123741
 20
132.3266574461
 30
0.0
 10
123.6233103679
 20
132.4245257191
 30
0.0
 10
123.3353921559
 20
132.5398027227
 30
0.0
 10
123.0426459174
 20
132.6135541866
 30
0.0
 10
122.7466158305
 20
132.6390765163
 30
0.0
 10
122.450585754
 20
132.6135541539
 30
0.0
 10
122.1578395454
 20
132.5398026891
 30
0.0
 10
121.8699213635
 20
132.4245257033
 30
0.0
 10
121.684219383
 20
132.3266574413
 30
0.0
 10
121.5919153444
 20
132.2733656797
 30
0.0
  0
SPLINE
  5
482
100
AcDbEntity
  8
0
100
AcDbSpline
 62
7
  6
CONTINUOUS
 70
0
 71
3
 72
9
 73
5
 74
0
 42
0.0000001
 43
0.0000001
 44
0.0000000001
 40
0.0
 40
0.0
 40
0.0
 40
0.0
 40
0.253023962
 40
1.0
 40
1.0
 40
1.0
 40
1.0
 10
119.2825142676
 20
130.4759307312
 30
0.0
 10
119.3423247538
 20
130.4587980729
 30
0.0
 10
119.5789662693
 20
130.3919947711
 30
0.0
 10
119.8160942496
 20
130.3269053829
 30
0.0
 10
119.9925526294
 20
130.2759307312
 30
0.0
  0
SPLINE
  5
483
100
AcDbEntity
  8
0
100
AcDbSpline
 62
7
  6
CONTINUOUS
 70
0
 71
3
 72
8
 73
4
 74
0
 42
0.0000001
 43
0.0000001
 44
0.0000000001
 40
0.0
 40
0.0
 40
0.0
 40
0.0
 40
1.0
 40
1.0
 40
1.0
 40
1.0
 10
156.7825142676
 20
146.6126057732
 30
0.0
 10
156.7825142676
 20
146.5002245402
 30
0.0
 10
156.7871006403
 20
146.3875359324
 30
0.0
 10
156.8002847446
 20
146.2759307312
 30
0.0
  0
SPLINE
  5
484
100
AcDbEntity
  8
0
100
AcDbSpline
 62
7
  6
CONTINUOUS
 70
0
 71
3
 72
8
 73
4
 74
0
 42
0.0000001
 43
0.0000001
 44
0.0000000001
 40
0.0
 40
0.0
 40
0.0
 40
0.0
 40
1.0
 40
1.0
 40
1.0
 40
1.0
 10
156.8002847446
 20
149.2759307312
 30
0.0
 10
156.7871006403
 20
149.1643255301
 30
0.0
 10
156.7825142676
 20
149.0516369223
 30
0.0
 10
156.7825142676
 20
148.9392556893
 30
0.0
  0
SPLINE
  5
485
100
AcDbEntity
  8
0
100
AcDbSpline
 62
7
  6
CONTINUOUS
 70
0
 71
3
 72
13
 73
9
 74
0
 42
0.0000001
 43
0.0000001
 44
0.0000000001
 40
0.0
 40
0.0
 40
0.0
 40
0.0
 40
0.2499550496
 40
0.3749776732
 40
0.5000000082
 40
0.625022342
 40
0.7500449632
 40
1.0
 40
1.0
 40
1.0
 40
1.0
 10
81.9391385946
 20
74.8316588212
 30
0.0
 10
82.2987622951
 20
76.2941162542
 30
0.0
 10
82.73627099
 20
78.5167644423
 30
0.0
 10
83.0417974033
 20
81.5156024737
 30
0.0
 10
83.1198599727
 20
83.7759308726
 30
0.0
 10
83.0417973841
 20
86.0362592568
 30
0.0
 10
82.736270955
 20
89.0350971864
 30
0.0
 10
82.2987622766
 20
91.2577452835
 30
0.0
 10
81.9391385946
 20
92.7202026412
 30
0.0
  0
SPLINE
  5
486
100
AcDbEntity
  8
0
100
AcDbSpline
 62
7
  6
CONTINUOUS
 70
0
 71
3
 72
15
 73
11
 74
0
 42
0.0000001
 43
0.0000001
 44
0.0000000001
 40
0.0
 40
0.0
 40
0.0
 40
0.0
 40
0.1294224346
 40
0.2553714476
 40
0.378492081
 40
0.500000008
 40
0.6215079338
 40
0.7446285653
 40
0.8705775688
 40
1.0
 40
1.0
 40
1.0
 40
1.0
 10
81.9391385946
 20
62.8493121043
 30
0.0
 10
82.1164956562
 20
63.209935101
 30
0.0
 10
82.4388923398
 20
63.9357026418
 30
0.0
 10
82.8091361299
 20
65.0534689859
 30
0.0
 10
83.0409791826
 20
66.1837018804
 30
0.0
 10
83.1200948743
 20
67.3214481305
 30
0.0
 10
83.040979163
 20
68.459194373
 30
0.0
 10
82.8091361001
 20
69.5894272252
 30
0.0
 10
82.4388923161
 20
70.7071935219
 30
0.0
 10
82.1164956515
 20
71.4329610273
 30
0.0
 10
81.9391385946
 20
71.7935840143
 30
0.0
  0
SPLINE
  5
487
100
AcDbEntity
  8
0
100
AcDbSpline
 62
7
  6
CONTINUOUS
 70
0
 71
3
 72
15
 73
11
 74
0
 42
0.0000001
 43
0.0000001
 44
0.0000000001
 40
0.0
 40
0.0
 40
0.0
 40
0.0
 40
0.1294224346
 40
0.2553714476
 40
0.378492081
 40
0.500000008
 40
0.6215079338
 40
0.7446285653
 40
0.8705775688
 40
1.0
 40
1.0
 40
1.0
 40
1.0
 10
81.9391385946
 20
95.7582774481
 30
0.0
 10
82.1164956562
 20
96.1189004448
 30
0.0
 10
82.4388923398
 20
96.8446679856
 30
0.0
 10
82.8091361299
 20
97.9624343297
 30
0.0
 10
83.0409791826
 20
99.0926672242
 30
0.0
 10
83.1200948743
 20
100.2304134743
 30
0.0
 10
83.040979163
 20
101.3681597168
 30
0.0
 10
82.8091361001
 20
102.498392569
 30
0.0
 10
82.4388923161
 20
103.6161588657
 30
0.0
 10
82.1164956515
 20
104.3419263711
 30
0.0
 10
81.9391385946
 20
104.7025493581
 30
0.0
  0
SPLINE
  5
488
100
AcDbEntity
  8
0
100
AcDbSpline
 62
7
  6
CONTINUOUS
 70
0
 71
3
 72
15
 73
11
 74
0
 42
0.0000001
 43
0.0000001
 44
0.0000000001
 40
0.0
 40
0.0
 40
0.0
 40
0.0
 40
0.1295246657
 40
0.2555052635
 40
0.3785833317
 40
0.4999998334
 40
0.6214166057
 40
0.7444946539
 40
0.8704751604
 40
1.0
 40
1.0
 40
1.0
 40
1.0
 10
72.2467582192
 20
104.7025493581
 30
0.0
 10
72.0672031864
 20
104.3421646475
 30
0.0
 10
71.7405546711
 20
103.6168732399
 30
0.0
 10
71.3647605115
 20
102.4992472488
 30
0.0
 10
71.1291122788
 20
101.368741853
 30
0.0
 10
71.0486285693
 20
100.2304141213
 30
0.0
 10
71.1291119466
 20
99.0920863978
 30
0.0
 10
71.3647603196
 20
97.9615805294
 30
0.0
 10
71.7405542652
 20
96.8439542701
 30
0.0
 10
72.0672028732
 20
96.1186626066
 30
0.0
 10
72.2467582192
 20
95.7582774481
 30
0.0
  0
SPLINE
  5
489
100
AcDbEntity
  8
0
100
AcDbSpline
 62
7
  6
CONTINUOUS
 70
0
 71
3
 72
9
 73
5
 74
0
 42
0.0000001
 43
0.0000001
 44
0.0000000001
 40
0.0
 40
0.0
 40
0.0
 40
0.0
 40
0.5238034733
 40
1.0
 40
1.0
 40
1.0
 40
1.0
 10
72.230035129
 20
95.7574062271
 30
0.0
 10
72.1776880052
 20
95.7518688147
 30
0.0
 10
72.0789613462
 20
95.7222514567
 30
0.0
 10
71.9979711393
 20
95.6563198424
 30
0.0
 10
71.9702275079
 20
95.6173276759
 30
0.0
  0
SPLINE
  5
48A
100
AcDbEntity
  8
0
100
AcDbSpline
 62
7
  6
CONTINUOUS
 70
0
 71
3
 72
15
 73
11
 74
0
 42
0.0000001
 43
0.0000001
 44
0.0000000001
 40
0.0
 40
0.0
 40
0.0
 40
0.0
 40
0.1289414705
 40
0.2544797382
 40
0.3773190323
 40
0.4987246033
 40
0.6203279775
 40
0.7437226155
 40
0.8700812608
 40
1.0
 40
1.0
 40
1.0
 40
1.0
 10
71.9702275079
 20
104.5585894978
 30
0.0
 10
71.7927603166
 20
104.1998205376
 30
0.0
 10
71.4701631446
 20
103.4774164231
 30
0.0
 10
71.0999086237
 20
102.3638348031
 30
0.0
 10
70.8682247173
 20
101.236415877
 30
0.0
 10
70.7892920828
 20
100.0998909582
 30
0.0
 10
70.8684653615
 20
98.961674831
 30
0.0
 10
71.1002276051
 20
97.8293322307
 30
0.0
 10
71.4703943877
 20
96.7080710074
 30
0.0
 10
71.7928015782
 20
95.9794982515
 30
0.0
 10
71.9702275079
 20
95.6173276759
 30
0.0
  0
SPLINE
  5
48B
100
AcDbEntity
  8
0
100
AcDbSpline
 62
7
  6
CONTINUOUS
 70
0
 71
3
 72
9
 73
5
 74
0
 42
0.0000001
 43
0.0000001
 44
0.0000000001
 40
0.0
 40
0.0
 40
0.0
 40
0.0
 40
0.5062017603
 40
1.0
 40
1.0
 40
1.0
 40
1.0
 10
72.230035129
 20
104.7026379391
 30
0.0
 10
72.1781479287
 20
104.7031958278
 30
0.0
 10
72.0734087939
 20
104.6774479181
 30
0.0
 10
71.9960578913
 20
104.6021216341
 30
0.0
 10
71.9702275079
 20
104.5585894978
 30
0.0
  0
SPLINE
  5
48C
100
AcDbEntity
  8
0
100
AcDbSpline
 62
7
  6
CONTINUOUS
 70
0
 71
3
 72
13
 73
9
 74
0
 42
0.0000001
 43
0.0000001
 44
0.0000000001
 40
0.0
 40
0.0
 40
0.0
 40
0.0
 40
0.2499547248
 40
0.3749776107
 40
0.5
 40
0.6250223893
 40
0.7500452751
 40
1.0
 40
1.0
 40
1.0
 40
1.0
 10
72.2467582192
 20
92.7202026412
 30
0.0
 10
71.8826027239
 20
91.2584107568
 30
0.0
 10
71.4387111801
 20
89.0362279434
 30
0.0
 10
71.1282519683
 20
86.0369428609
 30
0.0
 10
71.0488759559
 20
83.7759307317
 30
0.0
 10
71.128251962
 20
81.5149185998
 30
0.0
 10
71.4387112151
 20
78.5156335277
 30
0.0
 10
71.8826025753
 20
76.2934506687
 30
0.0
 10
72.2467582192
 20
74.8316588212
 30
0.0
  0
SPLINE
  5
48D
100
AcDbEntity
  8
0
100
AcDbSpline
 62
7
  6
CONTINUOUS
 70
0
 71
3
 72
10
 73
6
 74
0
 42
0.0000001
 43
0.0000001
 44
0.0000000001
 40
0.0
 40
0.0
 40
0.0
 40
0.0
 40
0.5792380886
 40
0.8161885597
 40
1.0
 40
1.0
 40
1.0
 40
1.0
 10
72.230035129
 20
74.8306990196
 30
0.0
 10
72.17999496
 20
74.8248676138
 30
0.0
 10
72.1088515989
 20
74.8201544041
 30
0.0
 10
72.0219578319
 20
74.8246120619
 30
0.0
 10
71.9856228351
 20
74.8303603424
 30
0.0
 10
71.9702275079
 20
74.8346689046
 30
0.0
  0
SPLINE
  5
48E
100
AcDbEntity
  8
0
100
AcDbSpline
 62
7
  6
CONTINUOUS
 70
0
 71
3
 72
13
 73
9
 74
0
 42
0.0000001
 43
0.0000001
 44
0.0000000001
 40
0.0
 40
0.0
 40
0.0
 40
0.0
 40
0.2499550138
 40
0.3749776804
 40
0.5
 40
0.6250223196
 40
0.7500449862
 40
1.0
 40
1.0
 40
1.0
 40
1.0
 10
71.9702275079
 20
92.7171925503
 30
0.0
 10
71.6104066942
 20
91.2552921146
 30
0.0
 10
71.1728882401
 20
89.0333799075
 30
0.0
 10
70.8675287975
 20
86.0355185579
 30
0.0
 10
70.7895260923
 20
83.7759307278
 30
0.0
 10
70.8675287945
 20
81.5163428962
 30
0.0
 10
71.1728882604
 20
78.5184815523
 30
0.0
 10
71.6104066143
 20
76.2965693207
 30
0.0
 10
71.9702275079
 20
74.8346689046
 30
0.0
  0
SPLINE
  5
48F
100
AcDbEntity
  8
0
100
AcDbSpline
 62
7
  6
CONTINUOUS
 70
0
 71
3
 72
10
 73
6
 74
0
 42
0.0000001
 43
0.0000001
 44
0.0000000001
 40
0.0
 40
0.0
 40
0.0
 40
0.0
 40
0.579238062
 40
0.8161885294
 40
1.0
 40
1.0
 40
1.0
 40
1.0
 10
72.230035129
 20
92.7211624434
 30
0.0
 10
72.1799949614
 20
92.72699385
 30
0.0
 10
72.1088516044
 20
92.7317070715
 30
0.0
 10
72.021957831
 20
92.7272494314
 30
0.0
 10
71.9856228378
 20
92.721501114
 30
0.0
 10
71.9702275079
 20
92.7171925503
 30
0.0
  0
SPLINE
  5
490
100
AcDbEntity
  8
0
100
AcDbSpline
 62
7
  6
CONTINUOUS
 70
0
 71
3
 72
15
 73
11
 74
0
 42
0.0000001
 43
0.0000001
 44
0.0000000001
 40
0.0
 40
0.0
 40
0.0
 40
0.0
 40
0.1295248395
 40
0.2555053461
 40
0.3785833943
 40
0.5000001665
 40
0.6214166683
 40
0.7444947365
 40
0.8704753342
 40
1.0
 40
1.0
 40
1.0
 40
1.0
 10
72.2467582192
 20
71.7935840143
 30
0.0
 10
72.0672029448
 20
71.4331988206
 30
0.0
 10
71.7405542388
 20
70.7079072064
 30
0.0
 10
71.3647603248
 20
69.59028093
 30
0.0
 10
71.1291119455
 20
68.4597750655
 30
0.0
 10
71.0486285694
 20
67.3214473408
 30
0.0
 10
71.1291122795
 20
66.1831196101
 30
0.0
 10
71.3647605075
 20
65.0526142114
 30
0.0
 10
71.7405546905
 20
63.9349882328
 30
0.0
 10
72.0672031354
 20
63.2096967897
 30
0.0
 10
72.2467582192
 20
62.8493121043
 30
0.0
  0
SPLINE
  5
491
100
AcDbEntity
  8
0
100
AcDbSpline
 62
7
  6
CONTINUOUS
 70
0
 71
3
 72
9
 73
5
 74
0
 42
0.0000001
 43
0.0000001
 44
0.0000000001
 40
0.0
 40
0.0
 40
0.0
 40
0.0
 40
0.5062017777
 40
1.0
 40
1.0
 40
1.0
 40
1.0
 10
72.230035129
 20
62.8492235234
 30
0.0
 10
72.1781479272
 20
62.8486656348
 30
0.0
 10
72.0734087936
 20
62.8744135483
 30
0.0
 10
71.9960578906
 20
62.9497398298
 30
0.0
 10
71.9702275079
 20
62.9932719642
 30
0.0
  0
SPLINE
  5
492
100
AcDbEntity
  8
0
100
AcDbSpline
 62
7
  6
CONTINUOUS
 70
0
 71
3
 72
15
 73
11
 74
0
 42
0.0000001
 43
0.0000001
 44
0.0000000001
 40
0.0
 40
0.0
 40
0.0
 40
0.0
 40
0.129918739
 40
0.2562773844
 40
0.3796720224
 40
0.5012753966
 40
0.6226809678
 40
0.7455202619
 40
0.8710585296
 40
1.0
 40
1.0
 40
1.0
 40
1.0
 10
71.9702275079
 20
71.9345337786
 30
0.0
 10
71.7928016226
 20
71.5723631824
 30
0.0
 10
71.4703943679
 20
70.8437904594
 30
0.0
 10
71.1002276077
 20
69.7225292258
 30
0.0
 10
70.8684653602
 20
68.5901866283
 30
0.0
 10
70.7892920829
 20
67.4519705004
 30
0.0
 10
70.8682247181
 20
66.3154455823
 30
0.0
 10
71.0999086228
 20
65.1880266551
 30
0.0
 10
71.4701631546
 20
64.0744450419
 30
0.0
 10
71.7927602933
 20
63.3520409119
 30
0.0
 10
71.9702275079
 20
62.9932719642
 30
0.0
  0
SPLINE
  5
493
100
AcDbEntity
  8
0
100
AcDbSpline
 62
7
  6
CONTINUOUS
 70
0
 71
3
 72
9
 73
5
 74
0
 42
0.0000001
 43
0.0000001
 44
0.0000000001
 40
0.0
 40
0.0
 40
0.0
 40
0.0
 40
0.5238034934
 40
1.0
 40
1.0
 40
1.0
 40
1.0
 10
72.230035129
 20
71.7944552358
 30
0.0
 10
72.1776880055
 20
71.7999926493
 30
0.0
 10
72.0789613654
 20
71.8296100373
 30
0.0
 10
71.997971137
 20
71.8955416154
 30
0.0
 10
71.9702275079
 20
71.9345337786
 30
0.0
  0
SPLINE
  5
494
100
AcDbEntity
  8
0
100
AcDbSpline
 62
7
  6
CONTINUOUS
 70
0
 71
3
 72
13
 73
9
 74
0
 42
0.0000001
 43
0.0000001
 44
0.0000000001
 40
0.0
 40
0.0
 40
0.0
 40
0.0
 40
0.2499550496
 40
0.3749776732
 40
0.5000000082
 40
0.625022342
 40
0.7500449632
 40
1.0
 40
1.0
 40
1.0
 40
1.0
 10
156.3258899406
 20
92.7202026412
 30
0.0
 10
155.9662662401
 20
91.2577452083
 30
0.0
 10
155.5287575452
 20
89.0350970201
 30
0.0
 10
155.2232311319
 20
86.0362589888
 30
0.0
 10
155.1451685625
 20
83.7759305899
 30
0.0
 10
155.2232311511
 20
81.5156022056
 30
0.0
 10
155.5287575802
 20
78.516764276
 30
0.0
 10
155.9662662586
 20
76.2941161789
 30
0.0
 10
156.3258899406
 20
74.8316588212
 30
0.0
  0
SPLINE
  5
495
100
AcDbEntity
  8
0
100
AcDbSpline
 62
7
  6
CONTINUOUS
 70
0
 71
3
 72
15
 73
11
 74
0
 42
0.0000001
 43
0.0000001
 44
0.0000000001
 40
0.0
 40
0.0
 40
0.0
 40
0.0
 40
0.1294224346
 40
0.2553714476
 40
0.378492081
 40
0.500000008
 40
0.6215079338
 40
0.7446285653
 40
0.8705775688
 40
1.0
 40
1.0
 40
1.0
 40
1.0
 10
156.3258899406
 20
104.7025493581
 30
0.0
 10
156.1485328789
 20
104.3419263615
 30
0.0
 10
155.8261361954
 20
103.6161588206
 30
0.0
 10
155.4558924053
 20
102.4983924766
 30
0.0
 10
155.2240493526
 20
101.3681595821
 30
0.0
 10
155.1449336609
 20
100.230413332
 30
0.0
 10
155.2240493722
 20
99.0926670895
 30
0.0
 10
155.4558924351
 20
97.9624342373
 30
0.0
 10
155.8261362191
 20
96.8446679406
 30
0.0
 10
156.1485328837
 20
96.1189004352
 30
0.0
 10
156.3258899406
 20
95.7582774481
 30
0.0
  0
SPLINE
  5
496
100
AcDbEntity
  8
0
100
AcDbSpline
 62
7
  6
CONTINUOUS
 70
0
 71
3
 72
15
 73
11
 74
0
 42
0.0000001
 43
0.0000001
 44
0.0000000001
 40
0.0
 40
0.0
 40
0.0
 40
0.0
 40
0.1294224346
 40
0.2553714476
 40
0.378492081
 40
0.500000008
 40
0.6215079338
 40
0.7446285653
 40
0.8705775688
 40
1.0
 40
1.0
 40
1.0
 40
1.0
 10
156.3258899406
 20
71.7935840143
 30
0.0
 10
156.1485328789
 20
71.4329610177
 30
0.0
 10
155.8261361954
 20
70.7071934768
 30
0.0
 10
155.4558924053
 20
69.5894271328
 30
0.0
 10
155.2240493526
 20
68.4591942383
 30
0.0
 10
155.1449336609
 20
67.3214479881
 30
0.0
 10
155.2240493722
 20
66.1837017457
 30
0.0
 10
155.4558924351
 20
65.0534688934
 30
0.0
 10
155.8261362191
 20
63.9357025968
 30
0.0
 10
156.1485328837
 20
63.2099350914
 30
0.0
 10
156.3258899406
 20
62.8493121043
 30
0.0
  0
SPLINE
  5
497
100
AcDbEntity
  8
0
100
AcDbSpline
 62
7
  6
CONTINUOUS
 70
0
 71
3
 72
15
 73
11
 74
0
 42
0.0000001
 43
0.0000001
 44
0.0000000001
 40
0.0
 40
0.0
 40
0.0
 40
0.0
 40
0.1295246657
 40
0.2555052635
 40
0.3785833317
 40
0.4999998334
 40
0.6214166057
 40
0.7444946539
 40
0.8704751604
 40
1.0
 40
1.0
 40
1.0
 40
1.0
 10
166.018270316
 20
62.8493121043
 30
0.0
 10
166.1978253488
 20
63.2096968149
 30
0.0
 10
166.5244738641
 20
63.9349882226
 30
0.0
 10
166.9002680237
 20
65.0526142136
 30
0.0
 10
167.1359162564
 20
66.1831196094
 30
0.0
 10
167.2163999658
 20
67.3214473412
 30
0.0
 10
167.1359165886
 20
68.4597750646
 30
0.0
 10
166.9002682156
 20
69.5902809331
 30
0.0
 10
166.52447427
 20
70.7079071923
 30
0.0
 10
166.197825662
 20
71.4331988559
 30
0.0
 10
166.018270316
 20
71.7935840143
 30
0.0
  0
SPLINE
  5
498
100
AcDbEntity
  8
0
100
AcDbSpline
 62
7
  6
CONTINUOUS
 70
0
 71
3
 72
9
 73
5
 74
0
 42
0.0000001
 43
0.0000001
 44
0.0000000001
 40
0.0
 40
0.0
 40
0.0
 40
0.0
 40
0.5238034733
 40
1.0
 40
1.0
 40
1.0
 40
1.0
 10
166.0349934062
 20
71.7944552353
 30
0.0
 10
166.08734053
 20
71.7999926478
 30
0.0
 10
166.186067189
 20
71.8296100058
 30
0.0
 10
166.2670573959
 20
71.8955416201
 30
0.0
 10
166.2948010273
 20
71.9345337865
 30
0.0
  0
SPLINE
  5
499
100
AcDbEntity
  8
0
100
AcDbSpline
 62
7
  6
CONTINUOUS
 70
0
 71
3
 72
15
 73
11
 74
0
 42
0.0000001
 43
0.0000001
 44
0.0000000001
 40
0.0
 40
0.0
 40
0.0
 40
0.0
 40
0.1289414705
 40
0.2544797382
 40
0.3773190323
 40
0.4987246033
 40
0.6203279775
 40
0.7437226155
 40
0.8700812608
 40
1.0
 40
1.0
 40
1.0
 40
1.0
 10
166.2948010273
 20
62.9932719647
 30
0.0
 10
166.4722682186
 20
63.3520409248
 30
0.0
 10
166.7948653906
 20
64.0744450393
 30
0.0
 10
167.1651199115
 20
65.1880266594
 30
0.0
 10
167.3968038179
 20
66.3154455855
 30
0.0
 10
167.4757364524
 20
67.4519705043
 30
0.0
 10
167.3965631737
 20
68.5901866315
 30
0.0
 10
167.1648009301
 20
69.7225292318
 30
0.0
 10
166.7946341475
 20
70.843790455
 30
0.0
 10
166.472226957
 20
71.572363211
 30
0.0
 10
166.2948010273
 20
71.9345337865
 30
0.0
  0
SPLINE
  5
49A
100
AcDbEntity
  8
0
100
AcDbSpline
 62
7
  6
CONTINUOUS
 70
0
 71
3
 72
9
 73
5
 74
0
 42
0.0000001
 43
0.0000001
 44
0.0000000001
 40
0.0
 40
0.0
 40
0.0
 40
0.0
 40
0.5062017603
 40
1.0
 40
1.0
 40
1.0
 40
1.0
 10
166.0349934062
 20
62.8492235234
 30
0.0
 10
166.0868806065
 20
62.8486656347
 30
0.0
 10
166.1916197413
 20
62.8744135444
 30
0.0
 10
166.2689706439
 20
62.9497398284
 30
0.0
 10
166.2948010273
 20
62.9932719647
 30
0.0
  0
SPLINE
  5
49B
100
AcDbEntity
  8
0
100
AcDbSpline
 62
7
  6
CONTINUOUS
 70
0
 71
3
 72
13
 73
9
 74
0
 42
0.0000001
 43
0.0000001
 44
0.0000000001
 40
0.0
 40
0.0
 40
0.0
 40
0.0
 40
0.2499547248
 40
0.3749776107
 40
0.5
 40
0.6250223893
 40
0.7500452751
 40
1.0
 40
1.0
 40
1.0
 40
1.0
 10
166.018270316
 20
74.8316588212
 30
0.0
 10
166.3824258112
 20
76.2934507057
 30
0.0
 10
166.8263173551
 20
78.5156335191
 30
0.0
 10
167.1367765669
 20
81.5149186015
 30
0.0
 10
167.2161525793
 20
83.7759307308
 30
0.0
 10
167.1367765732
 20
86.0369428626
 30
0.0
 10
166.8263173201
 20
89.0362279347
 30
0.0
 10
166.3824259599
 20
91.2584107938
 30
0.0
 10
166.018270316
 20
92.7202026412
 30
0.0
  0
SPLINE
  5
49C
100
AcDbEntity
  8
0
100
AcDbSpline
 62
7
  6
CONTINUOUS
 70
0
 71
3
 72
10
 73
6
 74
0
 42
0.0000001
 43
0.0000001
 44
0.0000000001
 40
0.0
 40
0.0
 40
0.0
 40
0.0
 40
0.5792380886
 40
0.8161885597
 40
1.0
 40
1.0
 40
1.0
 40
1.0
 10
166.0349934062
 20
92.7211624429
 30
0.0
 10
166.0850335752
 20
92.7269938487
 30
0.0
 10
166.1561769362
 20
92.7317070583
 30
0.0
 10
166.2430707033
 20
92.7272494006
 30
0.0
 10
166.2794057001
 20
92.7215011201
 30
0.0
 10
166.2948010273
 20
92.7171925579
 30
0.0
  0
SPLINE
  5
49D
100
AcDbEntity
  8
0
100
AcDbSpline
 62
7
  6
CONTINUOUS
 70
0
 71
3
 72
13
 73
9
 74
0
 42
0.0000001
 43
0.0000001
 44
0.0000000001
 40
0.0
 40
0.0
 40
0.0
 40
0.0
 40
0.2499550138
 40
0.3749776804
 40
0.5
 40
0.6250223196
 40
0.7500449862
 40
1.0
 40
1.0
 40
1.0
 40
1.0
 10
166.2948010273
 20
74.8346689122
 30
0.0
 10
166.654621841
 20
76.2965693479
 30
0.0
 10
167.0921402951
 20
78.518481555
 30
0.0
 10
167.3974997377
 20
81.5163429045
 30
0.0
 10
167.4755024429
 20
83.7759307347
 30
0.0
 10
167.3974997407
 20
86.0355185662
 30
0.0
 10
167.0921402748
 20
89.0333799102
 30
0.0
 10
166.6546219209
 20
91.2552921418
 30
0.0
 10
166.2948010273
 20
92.7171925579
 30
0.0
  0
SPLINE
  5
49E
100
AcDbEntity
  8
0
100
AcDbSpline
 62
7
  6
CONTINUOUS
 70
0
 71
3
 72
10
 73
6
 74
0
 42
0.0000001
 43
0.0000001
 44
0.0000000001
 40
0.0
 40
0.0
 40
0.0
 40
0.0
 40
0.579238062
 40
0.8161885294
 40
1.0
 40
1.0
 40
1.0
 40
1.0
 10
166.0349934062
 20
74.8306990191
 30
0.0
 10
166.0850335738
 20
74.8248676125
 30
0.0
 10
166.1561769308
 20
74.8201543909
 30
0.0
 10
166.2430707042
 20
74.824612031
 30
0.0
 10
166.2794056974
 20
74.8303603485
 30
0.0
 10
166.2948010273
 20
74.8346689122
 30
0.0
  0
SPLINE
  5
49F
100
AcDbEntity
  8
0
100
AcDbSpline
 62
7
  6
CONTINUOUS
 70
0
 71
3
 72
15
 73
11
 74
0
 42
0.0000001
 43
0.0000001
 44
0.0000000001
 40
0.0
 40
0.0
 40
0.0
 40
0.0
 40
0.1295248395
 40
0.2555053461
 40
0.3785833943
 40
0.5000001665
 40
0.6214166683
 40
0.7444947365
 40
0.8704753342
 40
1.0
 40
1.0
 40
1.0
 40
1.0
 10
166.018270316
 20
95.7582774481
 30
0.0
 10
166.1978255904
 20
96.1186626419
 30
0.0
 10
166.5244742964
 20
96.8439542561
 30
0.0
 10
166.9002682104
 20
97.9615805324
 30
0.0
 10
167.1359165897
 20
99.092086397
 30
0.0
 10
167.2163999658
 20
100.2304141217
 30
0.0
 10
167.1359162556
 20
101.3687418524
 30
0.0
 10
166.9002680277
 20
102.4992472511
 30
0.0
 10
166.5244738447
 20
103.6168732297
 30
0.0
 10
166.1978253998
 20
104.3421646728
 30
0.0
 10
166.018270316
 20
104.7025493581
 30
0.0
  0
SPLINE
  5
4A0
100
AcDbEntity
  8
0
100
AcDbSpline
 62
7
  6
CONTINUOUS
 70
0
 71
3
 72
9
 73
5
 74
0
 42
0.0000001
 43
0.0000001
 44
0.0000000001
 40
0.0
 40
0.0
 40
0.0
 40
0.0
 40
0.5062017777
 40
1.0
 40
1.0
 40
1.0
 40
1.0
 10
166.0349934062
 20
104.702637939
 30
0.0
 10
166.086880608
 20
104.7031958277
 30
0.0
 10
166.1916197416
 20
104.6774479142
 30
0.0
 10
166.2689706446
 20
104.6021216327
 30
0.0
 10
166.2948010273
 20
104.5585894983
 30
0.0
  0
SPLINE
  5
4A1
100
AcDbEntity
  8
0
100
AcDbSpline
 62
7
  6
CONTINUOUS
 70
0
 71
3
 72
15
 73
11
 74
0
 42
0.0000001
 43
0.0000001
 44
0.0000000001
 40
0.0
 40
0.0
 40
0.0
 40
0.0
 40
0.129918739
 40
0.2562773844
 40
0.3796720224
 40
0.5012753966
 40
0.6226809678
 40
0.7455202619
 40
0.8710585296
 40
1.0
 40
1.0
 40
1.0
 40
1.0
 10
166.2948010273
 20
95.6173276839
 30
0.0
 10
166.4722269126
 20
95.9794982801
 30
0.0
 10
166.7946341673
 20
96.7080710031
 30
0.0
 10
167.1648009275
 20
97.8293322367
 30
0.0
 10
167.396563175
 20
98.9616748342
 30
0.0
 10
167.4757364523
 20
100.0998909621
 30
0.0
 10
167.3968038171
 20
101.2364158802
 30
0.0
 10
167.1651199124
 20
102.3638348074
 30
0.0
 10
166.7948653806
 20
103.4774164206
 30
0.0
 10
166.4722682419
 20
104.1998205506
 30
0.0
 10
166.2948010273
 20
104.5585894983
 30
0.0
  0
SPLINE
  5
4A2
100
AcDbEntity
  8
0
100
AcDbSpline
 62
7
  6
CONTINUOUS
 70
0
 71
3
 72
9
 73
5
 74
0
 42
0.0000001
 43
0.0000001
 44
0.0000000001
 40
0.0
 40
0.0
 40
0.0
 40
0.0
 40
0.5238034934
 40
1.0
 40
1.0
 40
1.0
 40
1.0
 10
166.0349934062
 20
95.7574062267
 30
0.0
 10
166.0873405297
 20
95.7518688132
 30
0.0
 10
166.1860671698
 20
95.7222514252
 30
0.0
 10
166.2670573982
 20
95.656319847
 30
0.0
 10
166.2948010273
 20
95.6173276839
 30
0.0
  0
SPLINE
  5
4A3
100
AcDbEntity
  8
0
100
AcDbSpline
 62
7
  6
CONTINUOUS
 70
0
 71
3
 72
48
 73
44
 74
0
 42
0.0000001
 43
0.0000001
 44
0.0000000001
 40
0.0
 40
0.0
 40
0.0
 40
0.0
 40
0.0002488048
 40
0.0007347382
 40
0.0014987093
 40
0.0025491957
 40
0.0055185199
 40
0.0096484762
 40
0.0149314636
 40
0.0213562824
 40
0.0289101701
 40
0.03757476
 40
0.0473294684
 40
0.0581529851
 40
0.08289922
 40
0.1115814595
 40
0.1439284387
 40
0.1796363441
 40
0.2183682497
 40
0.2597582795
 40
0.3034170858
 40
0.348932054
 40
0.3958735312
 40
0.4922575529
 40
0.5889413112
 40
0.6822823582
 40
0.72659286
 40
0.7687674417
 40
0.8084083843
 40
0.8451411731
 40
0.8786203895
 40
0.9085300399
 40
0.9345876228
 40
0.9565497404
 40
0.9659283914
 40
0.9742097833
 40
0.9813733262
 40
0.9874029272
 40
0.9922866495
 40
0.9960137812
 40
0.9985800935
 40
0.9994309795
 40
1.0
 40
1.0
 40
1.0
 40
1.0
 10
151.5039424757
 20
66.2759307312
 30
0.0
 10
151.5010385296
 20
66.2759307312
 30
0.0
 10
151.4942885263
 20
66.2835405576
 30
0.0
 10
151.4887850021
 20
66.2993772222
 30
0.0
 10
151.4817011037
 20
66.3256948
 30
0.0
 10
151.4717110781
 20
66.3804415846
 30
0.0
 10
151.4596459775
 20
66.4749917169
 30
0.0
 10
151.4461551918
 20
66.6188151587
 30
0.0
 10
151.4324412704
 20
66.8031954938
 30
0.0
 10
151.4186392916
 20
67.0275789947
 30
0.0
 10
151.4047747429
 20
67.291504506
 30
0.0
 10
151.3908713598
 20
67.5943341642
 30
0.0
 10
151.3769381574
 20
67.9353611775
 30
0.0
 10
151.3574594489
 20
68.4640116623
 30
0.0
 10
151.3335386819
 20
69.2135568105
 30
0.0
 10
151.3058414651
 20
70.2143107887
 30
0.0
 10
151.2780737611
 20
71.3430462808
 30
0.0
 10
151.250252924
 20
72.5891075973
 30
0.0
 10
151.2223975754
 20
73.9407389488
 30
0.0
 10
151.1945159791
 20
75.3851876426
 30
0.0
 10
151.1666171225
 20
76.9088189756
 30
0.0
 10
151.1387049538
 20
78.4972546
 30
0.0
 10
151.1011477036
 20
80.70100224
 30
0.0
 10
151.0548666868
 20
83.5019084651
 30
0.0
 10
150.9997906653
 20
86.8442996409
 30
0.0
 10
150.9531915093
 20
89.5789676156
 30
0.0
 10
150.9153285448
 20
91.6774822614
 30
0.0
 10
150.8874400729
 20
93.1493089755
 30
0.0
 10
150.8595755792
 20
94.5326755147
 30
0.0
 10
150.8317420448
 20
95.8145321004
 30
0.0
 10
150.8039529346
 20
96.9827810797
 30
0.0
 10
150.7762364434
 20
98.0263969394
 30
0.0
 10
150.7486079151
 20
98.9355386779
 30
0.0
 10
150.7246508333
 20
99.6050459982
 30
0.0
 10
150.7050380535
 20
100.0670856158
 30
0.0
 10
150.6911428295
 20
100.3564835098
 30
0.0
 10
150.6773047856
 20
100.6067496456
 30
0.0
 10
150.6635084312
 20
100.8172785164
 30
0.0
 10
150.6499133384
 20
100.987649922
 30
0.0
 10
150.6363523903
 20
101.1173529127
 30
0.0
 10
150.6246694025
 20
101.2000715164
 30
0.0
 10
150.6142371177
 20
101.2453723861
 30
0.0
 10
150.6090043132
 20
101.2612323309
 30
0.0
 10
150.6059417852
 20
101.2671254395
 30
0.0
  0
SPLINE
  5
4A4
100
AcDbEntity
  8
0
100
AcDbSpline
 62
7
  6
CONTINUOUS
 70
0
 71
3
 72
48
 73
44
 74
0
 42
0.0000001
 43
0.0000001
 44
0.0000000001
 40
0.0
 40
0.0
 40
0.0
 40
0.0
 40
0.0002488022
 40
0.0007347368
 40
0.0014987108
 40
0.0025492006
 40
0.0055185309
 40
0.0096484962
 40
0.0149314996
 40
0.0213563342
 40
0.0289102418
 40
0.0375748629
 40
0.047329598
 40
0.0581531364
 40
0.0828994494
 40
0.1115818314
 40
0.1439291985
 40
0.1796379424
 40
0.2183710139
 40
0.2597617946
 40
0.3034206311
 40
0.3489355536
 40
0.395877405
 40
0.4922618906
 40
0.5889445021
 40
0.6822853121
 40
0.7265958677
 40
0.7687707082
 40
0.8084117431
 40
0.8451441853
 40
0.8786229955
 40
0.9085322946
 40
0.9345896782
 40
0.9565514593
 40
0.9659297074
 40
0.974210666
 40
0.9813739521
 40
0.9874033107
 40
0.9922868293
 40
0.9960138517
 40
0.9985801014
 40
0.999430972
 40
1.0
 40
1.0
 40
1.0
 40
1.0
 10
150.1798184839
 20
101.2759307312
 30
0.0
 10
150.1827223994
 20
101.2759307312
 30
0.0
 10
150.1894722801
 20
101.2683207663
 30
0.0
 10
150.1949757548
 20
101.252484142
 30
0.0
 10
150.2020596563
 20
101.2261664374
 30
0.0
 10
150.2120497391
 20
101.1714195411
 30
0.0
 10
150.2241149639
 20
101.0768691917
 30
0.0
 10
150.2376057787
 20
100.9330453983
 30
0.0
 10
150.2513196584
 20
100.748664584
 30
0.0
 10
150.2651215941
 20
100.5242804825
 30
0.0
 10
150.2789861241
 20
100.2603541934
 30
0.0
 10
150.2928894881
 20
99.9575236333
 30
0.0
 10
150.3068226978
 20
99.6164956982
 30
0.0
 10
150.3263014215
 20
99.0878437492
 30
0.0
 10
150.3502221694
 20
98.3382957885
 30
0.0
 10
150.3779194939
 20
97.3375347331
 30
0.0
 10
150.4056874955
 20
96.2087832926
 30
0.0
 10
150.4335087884
 20
94.9626940862
 30
0.0
 10
150.4613646153
 20
93.6110306099
 30
0.0
 10
150.4892465578
 20
92.1665592287
 30
0.0
 10
150.5171453438
 20
90.6429193452
 30
0.0
 10
150.5450574951
 20
89.0544795709
 30
0.0
 10
150.5826147577
 20
86.8507227329
 30
0.0
 10
150.6288956023
 20
84.049820175
 30
0.0
 10
150.6839714119
 20
80.7074398122
 30
0.0
 10
150.7305702876
 20
77.9727874229
 30
0.0
 10
150.7684333719
 20
75.8742719462
 30
0.0
 10
150.7963219653
 20
74.4024405423
 30
0.0
 10
150.8241866107
 20
73.019073986
 30
0.0
 10
150.852020182
 20
71.737225142
 30
0.0
 10
150.8798090701
 20
70.5689890761
 30
0.0
 10
150.907525487
 20
69.52538441
 30
0.0
 10
150.9351545132
 20
68.6162530671
 30
0.0
 10
150.9591109249
 20
67.9467567038
 30
0.0
 10
150.9787229835
 20
67.4847307637
 30
0.0
 10
150.992618098
 20
67.1953456428
 30
0.0
 10
151.0064566552
 20
66.9450904357
 30
0.0
 10
151.0202540519
 20
66.7345698683
 30
0.0
 10
151.0338491432
 20
66.5642049559
 30
0.0
 10
151.0474068658
 20
66.4345061525
 30
0.0
 10
151.0590845622
 20
66.351788924
 30
0.0
 10
151.069515063
 20
66.3064885628
 30
0.0
 10
151.07474838
 20
66.2906286825
 30
0.0
 10
151.0778118338
 20
66.284735956
 30
0.0
  0
SPLINE
  5
4A5
100
AcDbEntity
  8
0
100
AcDbSpline
 62
7
  6
CONTINUOUS
 70
0
 71
3
 72
29
 73
25
 74
0
 42
0.0000001
 43
0.0000001
 44
0.0000000001
 40
0.0
 40
0.0
 40
0.0
 40
0.0
 40
0.1433226382
 40
0.3061754015
 40
0.3909819438
 40
0.4758337514
 40
0.5590637306
 40
0.6390373277
 40
0.7141856107
 40
0.7830325294
 40
0.8442276494
 40
0.8715732105
 40
0.896569699
 40
0.919092269
 40
0.9390331319
 40
0.9562923834
 40
0.9707884788
 40
0.9824490721
 40
0.9871991262
 40
0.991222069
 40
0.9945132349
 40
0.997070237
 40
0.9988953661
 40
1.0
 40
1.0
 40
1.0
 40
1.0
 10
154.8825139565
 20
72.4353327805
 30
0.0
 10
154.8526675662
 20
73.8129769339
 30
0.0
 10
154.796613131
 20
76.7561571032
 30
0.0
 10
154.7327674588
 20
80.5146880265
 30
0.0
 10
154.6800077888
 20
83.711162146
 30
0.0
 10
154.6399067372
 20
86.1422119778
 30
0.0
 10
154.5998200454
 20
88.5267896584
 30
0.0
 10
154.5597661751
 20
90.8180603521
 30
0.0
 10
154.5197725121
 20
92.9710250266
 30
0.0
 10
154.4798620243
 20
94.9434130803
 30
0.0
 10
154.4455774777
 20
96.4562216555
 30
0.0
 10
154.4176783605
 20
97.5474625935
 30
0.0
 10
154.3975712184
 20
98.2669641608
 30
0.0
 10
154.3774953544
 20
98.915244384
 30
0.0
 10
154.3574667493
 20
99.4890968383
 30
0.0
 10
154.3375128479
 20
99.985730831
 30
0.0
 10
154.3176531086
 20
100.4026799545
 30
0.0
 10
154.3003232212
 20
100.6993421675
 30
0.0
 10
154.2859788899
 20
100.8952729885
 30
0.0
 10
154.2760313236
 20
101.0108540234
 30
0.0
 10
154.2661068417
 20
101.1052089682
 30
0.0
 10
154.2564532423
 20
101.1784577786
 30
0.0
 10
154.2467559464
 20
101.2301446173
 30
0.0
 10
154.2394207704
 20
101.2577034234
 30
0.0
 10
154.2345215026
 20
101.2671263177
 30
0.0
  0
SPLINE
  5
4A6
100
AcDbEntity
  8
0
100
AcDbSpline
 62
7
  6
CONTINUOUS
 70
0
 71
3
 72
48
 73
44
 74
0
 42
0.0000001
 43
0.0000001
 44
0.0000000001
 40
0.0
 40
0.0
 40
0.0
 40
0.0
 40
0.0002487964
 40
0.0007347307
 40
0.0014987062
 40
0.0025491979
 40
0.0055185321
 40
0.0096485025
 40
0.0149315136
 40
0.0213563548
 40
0.0289102696
 40
0.0375749028
 40
0.0473296489
 40
0.0581531979
 40
0.0828995422
 40
0.111581945
 40
0.1439293041
 40
0.1796379923
 40
0.2183709242
 40
0.2597615592
 40
0.303420307
 40
0.3489352295
 40
0.3958771151
 40
0.4922616487
 40
0.5889443217
 40
0.6822851847
 40
0.7265957255
 40
0.7687704717
 40
0.8084114125
 40
0.8451439224
 40
0.8786228453
 40
0.9085321928
 40
0.9345896029
 40
0.9565514086
 40
0.965929669
 40
0.9742106391
 40
0.9813739318
 40
0.9874032986
 40
0.9922868244
 40
0.9960138485
 40
0.9985800974
 40
0.9994309684
 40
1.0
 40
1.0
 40
1.0
 40
1.0
 10
153.8083903661
 20
101.2759307312
 30
0.0
 10
153.8112942145
 20
101.2759307312
 30
0.0
 10
153.8180438598
 20
101.2683205852
 30
0.0
 10
153.8235472796
 20
101.2524841228
 30
0.0
 10
153.8306312219
 20
101.2261663301
 30
0.0
 10
153.8406214965
 20
101.1714194223
 30
0.0
 10
153.8526870237
 20
101.0768689539
 30
0.0
 10
153.8661779507
 20
100.9330449885
 30
0.0
 10
153.879891821
 20
100.7486639421
 30
0.0
 10
153.8936937125
 20
100.5242795893
 30
0.0
 10
153.9075582535
 20
100.2603530001
 30
0.0
 10
153.9214616573
 20
99.9575220906
 30
0.0
 10
153.9353949287
 20
99.6164937675
 30
0.0
 10
153.9548737248
 20
99.087841208
 30
0.0
 10
153.9787945075
 20
98.3382925242
 30
0.0
 10
154.0064918907
 20
97.3375309647
 30
0.0
 10
154.0342599305
 20
96.2087800359
 30
0.0
 10
154.0620812086
 20
94.9626932133
 30
0.0
 10
154.0899370152
 20
93.6110337297
 30
0.0
 10
154.1178189183
 20
92.1665667258
 30
0.0
 10
154.1457177185
 20
90.6429295935
 30
0.0
 10
154.1736299055
 20
89.0544904701
 30
0.0
 10
154.211187255
 20
86.8507326951
 30
0.0
 10
154.2574681983
 20
84.0498284857
 30
0.0
 10
154.3125441173
 20
80.7074462588
 30
0.0
 10
154.3591430687
 20
77.972792732
 30
0.0
 10
154.3970061878
 20
75.8742779303
 30
0.0
 10
154.4248947575
 20
74.4024489118
 30
0.0
 10
154.4527593907
 20
73.0190837768
 30
0.0
 10
154.4805930128
 20
71.7372339376
 30
0.0
 10
154.5083819659
 20
70.5689952119
 30
0.0
 10
154.5360984293
 20
69.5253883653
 30
0.0
 10
154.5637275716
 20
68.6162558715
 30
0.0
 10
154.5876839799
 20
67.9467587737
 30
0.0
 10
154.6072959571
 20
67.4847322697
 30
0.0
 10
154.6211910772
 20
67.195346797
 30
0.0
 10
154.6350298534
 20
66.9450912955
 30
0.0
 10
154.6488275586
 20
66.734570494
 30
0.0
 10
154.662422726
 20
66.5642053859
 30
0.0
 10
154.6759799344
 20
66.4345064578
 30
0.0
 10
154.6876566359
 20
66.351789058
 30
0.0
 10
154.6980868008
 20
66.3064885957
 30
0.0
 10
154.7033202236
 20
66.2906286614
 30
0.0
 10
154.7063838639
 20
66.2847359843
 30
0.0
  0
SPLINE
  5
4A7
100
AcDbEntity
  8
0
100
AcDbSpline
 62
7
  6
CONTINUOUS
 70
0
 71
3
 72
9
 73
5
 74
0
 42
0.0000001
 43
0.0000001
 44
0.0000000001
 40
0.0
 40
0.0
 40
0.0
 40
0.0
 40
0.5
 40
1.0
 40
1.0
 40
1.0
 40
1.0
 10
139.5825142676
 20
100.3912622581
 30
0.0
 10
139.655401616
 20
99.5692669192
 30
0.0
 10
139.7305535931
 20
97.918066355
 30
0.0
 10
139.655401616
 20
96.2668657907
 30
0.0
 10
139.5825142676
 20
95.4448704518
 30
0.0
  0
SPLINE
  5
4A8
100
AcDbEntity
  8
0
100
AcDbSpline
 62
7
  6
CONTINUOUS
 70
0
 71
3
 72
48
 73
44
 74
0
 42
0.0000001
 43
0.0000001
 44
0.0000000001
 40
0.0
 40
0.0
 40
0.0
 40
0.0
 40
0.0002488239
 40
0.000734763
 40
0.0014987367
 40
0.0025492248
 40
0.0055185519
 40
0.0096485164
 40
0.0149315203
 40
0.0213563554
 40
0.028910263
 40
0.0375748842
 40
0.0473296196
 40
0.0581531591
 40
0.0828994708
 40
0.1115817882
 40
0.143928676
 40
0.1796364227
 40
0.2183685895
 40
0.2597590639
 40
0.3034181953
 40
0.3489332951
 40
0.3958750647
 40
0.4922595006
 40
0.5889421471
 40
0.682282984
 40
0.726593208
 40
0.7687680581
 40
0.8084099204
 40
0.8451433534
 40
0.8786228576
 40
0.9085323036
 40
0.9345896917
 40
0.9565514695
 40
0.9659297165
 40
0.9742106745
 40
0.98137396
 40
0.9874033178
 40
0.9922868352
 40
0.9960138554
 40
0.9985801016
 40
0.999430971
 40
1.0
 40
1.0
 40
1.0
 40
1.0
 10
149.6896562562
 20
66.2759307312
 30
0.0
 10
149.6867520867
 20
66.2759307312
 30
0.0
 10
149.6800013449
 20
66.2835401248
 30
0.0
 10
149.6744976233
 20
66.2993774025
 30
0.0
 10
149.6674137914
 20
66.3256949459
 30
0.0
 10
149.6574242592
 20
66.3804420144
 30
0.0
 10
149.6453599057
 20
66.4749923047
 30
0.0
 10
149.6318693126
 20
66.6188161179
 30
0.0
 10
149.6181552733
 20
66.8031969086
 30
0.0
 10
149.604353037
 20
67.0275810147
 30
0.0
 10
149.5904883997
 20
67.2915073088
 30
0.0
 10
149.5765850578
 20
67.5943378816
 30
0.0
 10
149.5626519134
 20
67.9353658421
 30
0.0
 10
149.5431732162
 20
68.4640178037
 30
0.0
 10
149.5192524232
 20
69.2135650186
 30
0.0
 10
149.4915552646
 20
70.2143197317
 30
0.0
 10
149.4637876458
 20
71.3430532097
 30
0.0
 10
149.4359668569
 20
72.5891146511
 30
0.0
 10
149.4081114659
 20
73.9407523821
 30
0.0
 10
149.3802296508
 20
75.3852130975
 30
0.0
 10
149.3523307023
 20
76.9088549429
 30
0.0
 10
149.3244184247
 20
78.4972993016
 30
0.0
 10
149.2868611028
 20
80.7010567132
 30
0.0
 10
149.2405802386
 20
83.501958195
 30
0.0
 10
149.1855044789
 20
86.8443387619
 30
0.0
 10
149.1389056701
 20
89.5789880548
 30
0.0
 10
149.1010428359
 20
91.6775001302
 30
0.0
 10
149.0731541335
 20
93.1493374583
 30
0.0
 10
149.0452892735
 20
94.5327253734
 30
0.0
 10
149.0174550762
 20
95.8146035548
 30
0.0
 10
148.9896658115
 20
96.9828610188
 30
0.0
 10
148.961949158
 20
98.0264755687
 30
0.0
 10
148.9343200563
 20
98.9356086566
 30
0.0
 10
148.9103636908
 20
99.6051050352
 30
0.0
 10
148.8907517151
 20
100.0671309277
 30
0.0
 10
148.8768566171
 20
100.356516028
 30
0.0
 10
148.8630179567
 20
100.6067712116
 30
0.0
 10
148.8492203999
 20
100.8172917417
 30
0.0
 10
148.8356252852
 20
100.987656607
 30
0.0
 10
148.8220679029
 20
101.1173553532
 30
0.0
 10
148.8103908274
 20
101.2000726001
 30
0.0
 10
148.7999605452
 20
101.2453729599
 30
0.0
 10
148.7947271739
 20
101.2612328439
 30
0.0
 10
148.7916636126
 20
101.2671255272
 30
0.0
  0
SPLINE
  5
4A9
100
AcDbEntity
  8
0
100
AcDbSpline
 62
7
  6
CONTINUOUS
 70
0
 71
3
 72
10
 73
6
 74
0
 42
0.0000001
 43
0.0000001
 44
0.0000000001
 40
0.0
 40
0.0
 40
0.0
 40
0.0
 40
0.5024765372
 40
0.7516090604
 40
1.0
 40
1.0
 40
1.0
 40
1.0
 10
147.4742238907
 20
92.5347588215
 30
0.0
 10
147.7292971605
 20
93.4128915499
 30
0.0
 10
148.0357457258
 20
94.7513148847
 30
0.0
 10
148.2468376826
 20
96.5601805464
 30
0.0
 10
148.2825142746
 20
97.4660340725
 30
0.0
 10
148.2825142676
 20
97.9180666249
 30
0.0
  0
SPLINE
  5
4AA
100
AcDbEntity
  8
0
100
AcDbSpline
 62
7
  6
CONTINUOUS
 70
0
 71
3
 72
48
 73
44
 74
0
 42
0.0000001
 43
0.0000001
 44
0.0000000001
 40
0.0
 40
0.0
 40
0.0
 40
0.0
 40
0.0002488151
 40
0.0007347557
 40
0.0014987377
 40
0.0025492411
 40
0.0055186243
 40
0.009648725
 40
0.0149319539
 40
0.0213570301
 40
0.0289112514
 40
0.0375763255
 40
0.0473313885
 40
0.0581550507
 40
0.0829016937
 40
0.1115842142
 40
0.1439314649
 40
0.1796397347
 40
0.2183718579
 40
0.2597620883
 40
0.3034211301
 40
0.3489362073
 40
0.3958781216
 40
0.4922635951
 40
0.5889461728
 40
0.6822864277
 40
0.7265967311
 40
0.7687711558
 40
0.8084118068
 40
0.8451443072
 40
0.8786232874
 40
0.9085325262
 40
0.9345898369
 40
0.9565515652
 40
0.965929784
 40
0.9742107145
 40
0.9813739848
 40
0.9874033262
 40
0.9922868316
 40
0.9960138541
 40
0.9985801093
 40
0.9994309803
 40
1.0
 40
1.0
 40
1.0
 40
1.0
 10
151.9941033846
 20
101.2759307312
 30
0.0
 10
151.9970074507
 20
101.2759307312
 30
0.0
 10
152.0037578348
 20
101.2683210158
 30
0.0
 10
152.0092614519
 20
101.2524838889
 30
0.0
 10
152.0163453554
 20
101.2261659594
 30
0.0
 10
152.0263352267
 20
101.1714180721
 30
0.0
 10
152.0384002601
 20
101.0768653742
 30
0.0
 10
152.0518912728
 20
100.9330367247
 30
0.0
 10
152.0656055355
 20
100.7486488911
 30
0.0
 10
152.0794081317
 20
100.5242556909
 30
0.0
 10
152.0932731445
 20
100.2603176365
 30
0.0
 10
152.1071766027
 20
99.9574742832
 30
0.0
 10
152.1211100451
 20
99.6164357816
 30
0.0
 10
152.1405891622
 20
99.0877747035
 30
0.0
 10
152.1645095049
 20
98.3382197954
 30
0.0
 10
152.192206845
 20
97.3374546062
 30
0.0
 10
152.2199746159
 20
96.2087084088
 30
0.0
 10
152.2477953119
 20
94.9626371238
 30
0.0
 10
152.2756507484
 20
93.6109966367
 30
0.0
 10
152.3035323558
 20
92.1665403116
 30
0.0
 10
152.3314311424
 20
90.6429026127
 30
0.0
 10
152.3593434409
 20
89.0544578651
 30
0.0
 10
152.3969009663
 20
86.8506869066
 30
0.0
 10
152.4431820832
 20
84.0497724127
 30
0.0
 10
152.498258062
 20
80.7073873136
 30
0.0
 10
152.5448568715
 20
77.9727446739
 30
0.0
 10
152.5827198113
 20
75.8742434213
 30
0.0
 10
152.6106082062
 20
74.4024242583
 30
0.0
 10
152.6384727435
 20
73.0190663232
 30
0.0
 10
152.6663063521
 20
71.7372192665
 30
0.0
 10
152.6940952907
 20
70.5689812127
 30
0.0
 10
152.7218118728
 20
69.5253760948
 30
0.0
 10
152.749440728
 20
68.6162468971
 30
0.0
 10
152.7733972262
 20
67.9467523289
 30
0.0
 10
152.7930095781
 20
67.484727678
 30
0.0
 10
152.8069047271
 20
67.1953434065
 30
0.0
 10
152.820742748
 20
66.945088881
 30
0.0
 10
152.8345393563
 20
66.7345687923
 30
0.0
 10
152.8481342845
 20
66.5642042276
 30
0.0
 10
152.8616934438
 20
66.4345056008
 30
0.0
 10
152.873373882
 20
66.3517887311
 30
0.0
 10
152.8838053298
 20
66.3064885742
 30
0.0
 10
152.8890383785
 20
66.2906288099
 30
0.0
 10
152.8921013349
 20
66.2847359342
 30
0.0
  0
SPLINE
  5
4AB
100
AcDbEntity
  8
0
100
AcDbSpline
 62
7
  6
CONTINUOUS
 70
0
 71
3
 72
48
 73
44
 74
0
 42
0.0000001
 43
0.0000001
 44
0.0000000001
 40
0.0
 40
0.0
 40
0.0
 40
0.0
 40
0.0002488093
 40
0.0007347462
 40
0.0014987213
 40
0.002549212
 40
0.0055185441
 40
0.0096485137
 40
0.0149315248
 40
0.0213563662
 40
0.0289102807
 40
0.0375749137
 40
0.0473296598
 40
0.0581532092
 40
0.082899551
 40
0.1115818998
 40
0.143928874
 40
0.1796367362
 40
0.2183688427
 40
0.2597592043
 40
0.3034182986
 40
0.3489334105
 40
0.3958752096
 40
0.492259706
 40
0.5889423995
 40
0.6822832888
 40
0.7265934535
 40
0.7687681751
 40
0.8084098827
 40
0.8451432362
 40
0.8786227184
 40
0.908532186
 40
0.934589602
 40
0.9565514069
 40
0.9659296673
 40
0.9742106376
 40
0.9813739305
 40
0.9874032975
 40
0.9922868235
 40
0.9960138479
 40
0.9985800971
 40
0.9994309682
 40
1.0
 40
1.0
 40
1.0
 40
1.0
 10
153.3182293582
 20
66.2759307312
 30
0.0
 10
153.3153253598
 20
66.2759307312
 30
0.0
 10
153.3085752061
 20
66.283540539
 30
0.0
 10
153.3030716462
 20
66.2993773883
 30
0.0
 10
153.2959877525
 20
66.3256950847
 30
0.0
 10
153.2859978182
 20
66.3804420931
 30
0.0
 10
153.2739328248
 20
66.4749925227
 30
0.0
 10
153.2604420446
 20
66.618816493
 30
0.0
 10
153.2467280922
 20
66.8031975173
 30
0.0
 10
153.2329260337
 20
67.027581865
 30
0.0
 10
153.2190614406
 20
67.2915084498
 30
0.0
 10
153.2051580618
 20
67.5943393596
 30
0.0
 10
153.1912248407
 20
67.9353676908
 30
0.0
 10
153.1717460761
 20
68.464020233
 30
0.0
 10
153.1478252894
 20
69.2135682703
 30
0.0
 10
153.1201280607
 20
70.214324692
 30
0.0
 10
153.0923603547
 20
71.3430608745
 30
0.0
 10
153.0645395316
 20
72.5891239489
 30
0.0
 10
153.0366841129
 20
73.9407609859
 30
0.0
 10
153.0088023351
 20
75.3852192261
 30
0.0
 10
152.9809033816
 20
76.908859438
 30
0.0
 10
152.9529910678
 20
78.4973038235
 30
0.0
 10
152.9154336783
 20
80.7010623915
 30
0.0
 10
152.8691527234
 20
83.5019654281
 30
0.0
 10
152.8140768457
 20
86.8443478077
 30
0.0
 10
152.7674779511
 20
89.5789975234
 30
0.0
 10
152.7296150643
 20
91.6775079841
 30
0.0
 10
152.7017263925
 20
93.1493412911
 30
0.0
 10
152.6738615572
 20
94.5327249509
 30
0.0
 10
152.6460273832
 20
95.8146001216
 30
0.0
 10
152.6182380907
 20
96.9828566332
 30
0.0
 10
152.5905214063
 20
98.0264714872
 30
0.0
 10
152.562892211
 20
98.9356054521
 30
0.0
 10
152.5389357962
 20
99.6051026168
 30
0.0
 10
152.5193238122
 20
100.0671291185
 30
0.0
 10
152.5054286874
 20
100.3565146001
 30
0.0
 10
152.4915899084
 20
100.6067701127
 30
0.0
 10
152.4777922016
 20
100.8172909245
 30
0.0
 10
152.46419703
 20
100.9876560419
 30
0.0
 10
152.4506398107
 20
101.1173549796
 30
0.0
 10
152.4389630933
 20
101.2000723864
 30
0.0
 10
152.4285329206
 20
101.2453728547
 30
0.0
 10
152.4232994968
 20
101.2612327918
 30
0.0
 10
152.4202358576
 20
101.2671254713
 30
0.0
  0
SPLINE
  5
4AC
100
AcDbEntity
  8
0
100
AcDbSpline
 62
7
  6
CONTINUOUS
 70
0
 71
3
 72
10
 73
6
 74
0
 42
0.0000001
 43
0.0000001
 44
0.0000000001
 40
0.0
 40
0.0
 40
0.0
 40
0.0
 40
0.2483909463
 40
0.4975234731
 40
1.0
 40
1.0
 40
1.0
 40
1.0
 10
148.2825142676
 20
97.9180666249
 30
0.0
 10
148.2825142606
 20
98.3700991449
 30
0.0
 10
148.246837605
 20
99.2759525963
 30
0.0
 10
148.0357457195
 20
101.0848180843
 30
0.0
 10
147.7292971301
 20
102.4232412645
 30
0.0
 10
147.4742238907
 20
103.3013738884
 30
0.0
  0
SPLINE
  5
4AD
100
AcDbEntity
  8
0
100
AcDbSpline
 62
7
  6
CONTINUOUS
 70
0
 71
3
 72
44
 73
40
 74
0
 42
0.0000001
 43
0.0000001
 44
0.0000000001
 40
0.0
 40
0.0
 40
0.0
 40
0.0
 40
0.0002562633
 40
0.0007370033
 40
0.0014862821
 40
0.0025139929
 40
0.0054157912
 40
0.0094479286
 40
0.0146039826
 40
0.0208752372
 40
0.0282484469
 40
0.0367058156
 40
0.0462291029
 40
0.0567975821
 40
0.0809669794
 40
0.1089947984
 40
0.1406220956
 40
0.1755594315
 40
0.2134861957
 40
0.2540527674
 40
0.2968876021
 40
0.341596149
 40
0.3877675892
 40
0.4827924144
 40
0.5784756185
 40
0.6713069332
 40
0.7578808342
 40
0.797816055
 40
0.8350211639
 40
0.8691534006
 40
0.8998992097
 40
0.9269776262
 40
0.9501384303
 40
0.9691715807
 40
0.9839040506
 40
0.9896146487
 40
0.9942047383
 40
0.9976674782
 40
1.0
 40
1.0
 40
1.0
 40
1.0
 10
153.2097382074
 20
100.1259146957
 30
0.0
 10
153.2125298533
 20
100.1259103501
 30
0.0
 10
153.2191421611
 20
100.1192501697
 30
0.0
 10
153.2247243587
 20
100.1045887485
 30
0.0
 10
153.2316757819
 20
100.0806924151
 30
0.0
 10
153.2415689862
 20
100.0308092692
 30
0.0
 10
153.2534488798
 20
99.9447434484
 30
0.0
 10
153.2667810563
 20
99.8137582999
 30
0.0
 10
153.2803176443
 20
99.645863223
 30
0.0
 10
153.2939433067
 20
99.4415137925
 30
0.0
 10
153.3076297099
 20
99.2011275337
 30
0.0
 10
153.3213556779
 20
98.9252711836
 30
0.0
 10
153.3351086011
 20
98.6145689327
 30
0.0
 10
153.3543382227
 20
98.1327847839
 30
0.0
 10
153.3779554252
 20
97.4494392816
 30
0.0
 10
153.4052969024
 20
96.5366899183
 30
0.0
 10
153.4327086564
 20
95.5065936786
 30
0.0
 10
153.4601729779
 20
94.3686289768
 30
0.0
 10
153.4876711542
 20
93.1332576191
 30
0.0
 10
153.515195782
 20
91.8118343315
 30
0.0
 10
153.5427370905
 20
90.4165177909
 30
0.0
 10
153.5702922912
 20
88.9601325975
 30
0.0
 10
153.6073983854
 20
86.9352859817
 30
0.0
 10
153.6531376038
 20
84.3552034644
 30
0.0
 10
153.7075284627
 20
81.2668970913
 30
0.0
 10
153.761865642
 20
78.2706659089
 30
0.0
 10
153.8081691365
 20
75.8816897899
 30
0.0
 10
153.8458817627
 20
74.0986385369
 30
0.0
 10
153.8733735634
 20
72.886782579
 30
0.0
 10
153.9008264084
 20
71.7750599872
 30
0.0
 10
153.9282218242
 20
70.7736889739
 30
0.0
 10
153.9555392711
 20
69.8918859864
 30
0.0
 10
153.9826958222
 20
69.1377364707
 30
0.0
 10
154.0096963649
 20
68.5181866157
 30
0.0
 10
154.033293998
 20
68.0887605375
 30
0.0
 10
154.0531495085
 20
67.8167839548
 30
0.0
 10
154.0665602906
 20
67.6674182734
 30
0.0
 10
154.0798693091
 20
67.555097802
 30
0.0
 10
154.0900830505
 20
67.492676994
 30
0.0
 10
154.0961631101
 20
67.4680054029
 30
0.0
  0
SPLINE
  5
4AE
100
AcDbEntity
  8
0
100
AcDbSpline
 62
7
  6
CONTINUOUS
 70
0
 71
3
 72
9
 73
5
 74
0
 42
0.0000001
 43
0.0000001
 44
0.0000000001
 40
0.0
 40
0.0
 40
0.0
 40
0.0
 40
0.3106998147
 40
1.0
 40
1.0
 40
1.0
 40
1.0
 10
154.0961631101
 20
67.4680054029
 30
0.0
 10
154.0970171811
 20
67.4645397641
 30
0.0
 10
154.0999551373
 20
67.4534536519
 30
0.0
 10
154.1034295335
 20
67.442375989
 30
0.0
 10
154.1070891132
 20
67.4353536523
 30
0.0
  0
SPLINE
  5
4AF
100
AcDbEntity
  8
0
100
AcDbSpline
 62
7
  6
CONTINUOUS
 70
0
 71
3
 72
45
 73
41
 74
0
 42
0.0000001
 43
0.0000001
 44
0.0000000001
 40
0.0
 40
0.0
 40
0.0
 40
0.0
 40
0.0002561888
 40
0.0007373138
 40
0.0014879671
 40
0.0025177928
 40
0.0054238005
 40
0.0094607531
 40
0.0146248552
 40
0.0209056191
 40
0.0282883776
 40
0.0367579132
 40
0.0462954985
 40
0.0568779798
 40
0.08108146
 40
0.1091461
 40
0.1408157929
 40
0.1757975339
 40
0.2137704969
 40
0.2543853146
 40
0.2972672785
 40
0.3420227236
 40
0.3882388282
 40
0.4833423694
 40
0.5790836054
 40
0.6719446256
 40
0.7585131883
 40
0.7984321264
 40
0.8356092879
 40
0.8697040694
 40
0.9004017213
 40
0.9274201183
 40
0.9505124448
 40
0.9694652018
 40
0.9773351464
 40
0.9841081679
 40
0.9897706587
 40
0.994311549
 40
0.997721507
 40
1.0
 40
1.0
 40
1.0
 40
1.0
 10
151.3954512309
 20
100.125909894
 30
0.0
 10
151.398242305
 20
100.1259130546
 30
0.0
 10
151.4048701679
 20
100.1192540508
 30
0.0
 10
151.4104493826
 20
100.1045709958
 30
0.0
 10
151.417407187
 20
100.0806299111
 30
0.0
 10
151.4273011564
 20
100.0306571493
 30
0.0
 10
151.4391954839
 20
99.9444636598
 30
0.0
 10
151.4525407903
 20
99.813281307
 30
0.0
 10
151.4660842431
 20
99.6451278502
 30
0.0
 10
151.4797194357
 20
99.4404655308
 30
0.0
 10
151.4934195228
 20
99.1997186915
 30
0.0
 10
151.5071550345
 20
98.9234463047
 30
0.0
 10
151.5209166063
 20
98.6122765086
 30
0.0
 10
151.540164356
 20
98.1297716216
 30
0.0
 10
151.5637956804
 20
97.4454425011
 30
0.0
 10
151.5911615376
 20
96.5313808131
 30
0.0
 10
151.6185920346
 20
95.4998495916
 30
0.0
 10
151.646078207
 20
94.3603386117
 30
0.0
 10
151.6735979096
 20
93.123348903
 30
0.0
 10
151.7011426127
 20
91.8002702093
 30
0.0
 10
151.7287059878
 20
90.4032843743
 30
0.0
 10
151.756281768
 20
88.9452636689
 30
0.0
 10
151.7934146761
 20
86.9183888307
 30
0.0
 10
151.8391860334
 20
84.3361093601
 30
0.0
 10
151.893617173
 20
81.2457256823
 30
0.0
 10
151.9479933892
 20
78.2483409335
 30
0.0
 10
151.9943358442
 20
75.8590730191
 30
0.0
 10
152.0320797468
 20
74.0764099411
 30
0.0
 10
152.0595934347
 20
72.8653409594
 30
0.0
 10
152.0870645003
 20
71.7547610225
 30
0.0
 10
152.1144823294
 20
70.7548926502
 30
0.0
 10
152.1418075012
 20
69.8749381118
 30
0.0
 10
152.1690167379
 20
69.1230080739
 30
0.0
 10
152.1927075088
 20
68.5797081919
 30
0.0
 10
152.21222746
 20
68.2142152583
 30
0.0
 10
152.2258921756
 20
67.9934108052
 30
0.0
 10
152.239503422
 20
67.8089647487
 30
0.0
 10
152.2529008636
 20
67.6612236305
 30
0.0
 10
152.2662140945
 20
67.5506104836
 30
0.0
 10
152.276431561
 20
67.489353557
 30
0.0
 10
152.2825589535
 20
67.4652984011
 30
0.0
  0
SPLINE
  5
4B0
100
AcDbEntity
  8
0
100
AcDbSpline
 62
7
  6
CONTINUOUS
 70
0
 71
3
 72
9
 73
5
 74
0
 42
0.0000001
 43
0.0000001
 44
0.0000000001
 40
0.0
 40
0.0
 40
0.0
 40
0.0
 40
0.3078698216
 40
1.0
 40
1.0
 40
1.0
 40
1.0
 10
152.2825589535
 20
67.4652984011
 30
0.0
 10
152.2833615576
 20
67.4621475067
 30
0.0
 10
152.2861379904
 20
67.4519737364
 30
0.0
 10
152.2894275907
 20
67.4418305549
 30
0.0
 10
152.2928021688
 20
67.4353463109
 30
0.0
  0
SPLINE
  5
4B1
100
AcDbEntity
  8
0
100
AcDbSpline
 62
7
  6
CONTINUOUS
 70
0
 71
3
 72
9
 73
5
 74
0
 42
0.0000001
 43
0.0000001
 44
0.0000000001
 40
0.0
 40
0.0
 40
0.0
 40
0.0
 40
0.5
 40
1.0
 40
1.0
 40
1.0
 40
1.0
 10
139.5825142676
 20
72.1069910106
 30
0.0
 10
139.655401616
 20
71.2849956718
 30
0.0
 10
139.7305535931
 20
69.6337951075
 30
0.0
 10
139.655401616
 20
67.9825945432
 30
0.0
 10
139.5825142676
 20
67.1605992044
 30
0.0
  0
SPLINE
  5
4B2
100
AcDbEntity
  8
0
100
AcDbSpline
 62
7
  6
CONTINUOUS
 70
0
 71
3
 72
12
 73
8
 74
0
 42
0.0000001
 43
0.0000001
 44
0.0000000001
 40
0.0
 40
0.0
 40
0.0
 40
0.0
 40
0.0500755384
 40
0.1210844808
 40
0.32744327
 40
0.6203923051
 40
1.0
 40
1.0
 40
1.0
 40
1.0
 10
154.8338167729
 20
100.1165239923
 30
0.0
 10
154.8363546354
 20
100.1116477708
 30
0.0
 10
154.8408996995
 20
100.0990738565
 30
0.0
 10
154.8498717632
 20
100.064273185
 30
0.0
 10
154.8601075785
 20
100.0024013228
 30
0.0
 10
154.8718866428
 20
99.9066608337
 30
0.0
 10
154.8788711675
 20
99.8331425402
 30
0.0
 10
154.8825148273
 20
99.7916301476
 30
0.0
  0
SPLINE
  5
4B3
100
AcDbEntity
  8
0
100
AcDbSpline
 62
7
  6
CONTINUOUS
 70
0
 71
3
 72
9
 73
5
 74
0
 42
0.0000001
 43
0.0000001
 44
0.0000000001
 40
0.0
 40
0.0
 40
0.0
 40
0.0
 40
0.2052694639
 40
1.0
 40
1.0
 40
1.0
 40
1.0
 10
153.0195306344
 20
100.1165050959
 30
0.0
 10
153.020200107
 20
100.1152197852
 30
0.0
 10
153.0231986566
 20
100.1088215642
 30
0.0
 10
153.0254085692
 20
100.1020863313
 30
0.0
 10
153.0269996915
 20
100.0967058273
 30
0.0
  0
SPLINE
  5
4B4
100
AcDbEntity
  8
0
100
AcDbSpline
 62
7
  6
CONTINUOUS
 70
0
 71
3
 72
45
 73
41
 74
0
 42
0.0000001
 43
0.0000001
 44
0.0000000001
 40
0.0
 40
0.0
 40
0.0
 40
0.0
 40
0.0021940121
 40
0.0055225118
 40
0.0099836379
 40
0.0155698166
 40
0.0222712235
 40
0.0300721209
 40
0.0488990146
 40
0.0718807832
 40
0.0988064209
 40
0.1294269657
 40
0.16346207
 40
0.2005964517
 40
0.2404879532
 40
0.3270488388
 40
0.4199566616
 40
0.5157893256
 40
0.6110172277
 40
0.65730361
 40
0.7021327105
 40
0.7450902473
 40
0.7857798406
 40
0.8238268631
 40
0.8588788377
 40
0.8906139176
 40
0.9187391666
 40
0.9429947142
 40
0.9536012298
 40
0.9631596524
 40
0.9716477579
 40
0.9790478496
 40
0.9853427803
 40
0.9905178657
 40
0.9945646138
 40
0.9974775025
 40
0.998509156
 40
0.9992610548
 40
0.9997432335
 40
1.0
 40
1.0
 40
1.0
 40
1.0
 10
153.0286981598
 20
100.0906801915
 30
0.0
 10
153.0349138632
 20
100.0675963894
 30
0.0
 10
153.0451215364
 20
100.0081423876
 30
0.0
 10
153.0584374619
 20
99.9002225761
 30
0.0
 10
153.0718303613
 20
99.7550545553
 30
0.0
 10
153.085454093
 20
99.5730750292
 30
0.0
 10
153.0991262524
 20
99.354610051
 30
0.0
 10
153.1186839579
 20
98.9919800572
 30
0.0
 10
153.1424008074
 20
98.4519416394
 30
0.0
 10
153.1696390435
 20
97.7035040915
 30
0.0
 10
153.1969904758
 20
96.8264928857
 30
0.0
 10
153.2244402575
 20
95.8289975332
 30
0.0
 10
153.2519421535
 20
94.7202311953
 30
0.0
 10
153.2794873605
 20
93.510421301
 30
0.0
 10
153.3172841517
 20
91.7283767102
 30
0.0
 10
153.3636850905
 20
89.3386722048
 30
0.0
 10
153.418123838
 20
86.3394765661
 30
0.0
 10
153.4726182992
 20
83.2458310108
 30
0.0
 10
153.5184401656
 20
80.6600996046
 30
0.0
 10
153.5556151827
 20
78.6300384757
 30
0.0
 10
153.583224385
 20
77.1694368739
 30
0.0
 10
153.6108204366
 20
75.7698290187
 30
0.0
 10
153.6383992353
 20
74.4441335054
 30
0.0
 10
153.6659514301
 20
73.2045962795
 30
0.0
 10
153.6934707473
 20
72.0626527278
 30
0.0
 10
153.7209356866
 20
71.0288495349
 30
0.0
 10
153.7483321161
 20
70.1127289284
 30
0.0
 10
153.7719948111
 20
69.4268214574
 30
0.0
 10
153.7912632896
 20
68.9431975693
 30
0.0
 10
153.8050421875
 20
68.6312961189
 30
0.0
 10
153.8187957933
 20
68.354369681
 30
0.0
 10
153.8325105858
 20
68.11304586
 30
0.0
 10
153.8461614839
 20
67.9078940313
 30
0.0
 10
153.8597248503
 20
67.7393379869
 30
0.0
 10
153.8730852532
 20
67.6078376591
 30
0.0
 10
153.8849888482
 20
67.5214293948
 30
0.0
 10
153.8948986565
 20
67.4713435526
 30
0.0
 10
153.9018656537
 20
67.4473529917
 30
0.0
 10
153.9074543087
 20
67.432641808
 30
0.0
 10
153.9140837948
 20
67.4259557707
 30
0.0
 10
153.9168815269
 20
67.4259534124
 30
0.0
  0
SPLINE
  5
4B5
100
AcDbEntity
  8
0
100
AcDbSpline
 62
7
  6
CONTINUOUS
 70
0
 71
3
 72
10
 73
6
 74
0
 42
0.0000001
 43
0.0000001
 44
0.0000000001
 40
0.0
 40
0.0
 40
0.0
 40
0.0
 40
0.5024765372
 40
0.7516090604
 40
1.0
 40
1.0
 40
1.0
 40
1.0
 10
147.4742238907
 20
64.250487574
 30
0.0
 10
147.7292971479
 20
65.1286202592
 30
0.0
 10
148.0357457019
 20
66.4670435267
 30
0.0
 10
148.246837665
 20
68.2759090972
 30
0.0
 10
148.2825142676
 20
69.181762578
 30
0.0
 10
148.2825142676
 20
69.6337951081
 30
0.0
  0
SPLINE
  5
4B6
100
AcDbEntity
  8
0
100
AcDbSpline
 62
7
  6
CONTINUOUS
 70
0
 71
3
 72
9
 73
5
 74
0
 42
0.0000001
 43
0.0000001
 44
0.0000000001
 40
0.0
 40
0.0
 40
0.0
 40
0.0
 40
0.2109952117
 40
1.0
 40
1.0
 40
1.0
 40
1.0
 10
151.20524367
 20
100.1165239216
 30
0.0
 10
151.2058002766
 20
100.1154561547
 30
0.0
 10
151.2082607379
 20
100.1103029889
 30
0.0
 10
151.2101610882
 20
100.1049015537
 30
0.0
 10
151.2115235186
 20
100.1006098299
 30
0.0
  0
LINE
  5
4B7
100
AcDbEntity
  8
0
100
AcDbLine
 62
7
  6
CONTINUOUS
 10
151.2115235186
 20
100.1006098299
 11
151.2145544495
 21
100.0901615507
  0
SPLINE
  5
4B8
100
AcDbEntity
  8
0
100
AcDbSpline
 62
7
  6
CONTINUOUS
 70
0
 71
3
 72
45
 73
41
 74
0
 42
0.0000001
 43
0.0000001
 44
0.0000000001
 40
0.0
 40
0.0
 40
0.0
 40
0.0
 40
0.0022063583
 40
0.0055451448
 40
0.0100162212
 40
0.0156136397
 40
0.0223244339
 40
0.0301336333
 40
0.0489783573
 40
0.0719742946
 40
0.0989121224
 40
0.1295436551
 40
0.1635858024
 40
0.2007263974
 40
0.2406215404
 40
0.3271834467
 40
0.4200847439
 40
0.5159051104
 40
0.6111162272
 40
0.6573935211
 40
0.7022123295
 40
0.7451600637
 40
0.7858396935
 40
0.8238762474
 40
0.8589196906
 40
0.8906453414
 40
0.9187625291
 40
0.943011748
 40
0.9536146702
 40
0.9631696371
 40
0.9716561412
 40
0.9790539736
 40
0.9853460138
 40
0.9905203306
 40
0.9945662727
 40
0.9974771272
 40
0.9985084824
 40
0.9992606133
 40
0.9997431507
 40
1.0
 40
1.0
 40
1.0
 40
1.0
 10
151.2145544495
 20
100.0901615507
 30
0.0
 10
151.2207575793
 20
100.0669354953
 30
0.0
 10
151.2309618147
 20
100.0072349751
 30
0.0
 10
151.2442842385
 20
99.8989584756
 30
0.0
 10
151.2576788663
 20
99.7534493159
 30
0.0
 10
151.2712962864
 20
99.5711378779
 30
0.0
 10
151.2849692588
 20
99.3523607748
 30
0.0
 10
151.3045247031
 20
98.9893488215
 30
0.0
 10
151.3282335172
 20
98.4488792054
 30
0.0
 10
151.3554708422
 20
97.6999717749
 30
0.0
 10
151.3828183681
 20
96.8225673131
 30
0.0
 10
151.4102625699
 20
95.8247583062
 30
0.0
 10
151.4377621702
 20
94.7157453465
 30
0.0
 10
151.4653019246
 20
93.5057704466
 30
0.0
 10
151.5030922447
 20
91.7236355971
 30
0.0
 10
151.5494850176
 20
89.333989325
 30
0.0
 10
151.6039157539
 20
86.3350353389
 30
0.0
 10
151.6584015186
 20
83.2418269715
 30
0.0
 10
151.704217127
 20
80.6565526306
 30
0.0
 10
151.7413858859
 20
78.6269178602
 30
0.0
 10
151.7689912903
 20
77.1666574932
 30
0.0
 10
151.7965826118
 20
75.7673994227
 30
0.0
 10
151.8241565477
 20
74.4420544382
 30
0.0
 10
151.8517056521
 20
73.2028525592
 30
0.0
 10
151.8792188282
 20
72.0612369099
 30
0.0
 10
151.906680456
 20
71.0277337356
 30
0.0
 10
151.9340729578
 20
70.1118872673
 30
0.0
 10
151.9577303938
 20
69.4261866151
 30
0.0
 10
151.9769961913
 20
68.9427162097
 30
0.0
 10
151.9907748391
 20
68.6309140756
 30
0.0
 10
152.0045239059
 20
68.3540716617
 30
0.0
 10
152.0182356592
 20
68.1128251743
 30
0.0
 10
152.0318883251
 20
67.9077414055
 30
0.0
 10
152.0454478819
 20
67.739236517
 30
0.0
 10
152.0588003968
 20
67.6077772748
 30
0.0
 10
152.0707091731
 20
67.5214048226
 30
0.0
 10
152.0806172518
 20
67.4713439994
 30
0.0
 10
152.0875831365
 20
67.4473482647
 30
0.0
 10
152.0931679146
 20
67.4326326956
 30
0.0
 10
152.0997960413
 20
67.4259331359
 30
0.0
 10
152.1025946315
 20
67.4259314039
 30
0.0
  0
SPLINE
  5
4B9
100
AcDbEntity
  8
0
100
AcDbSpline
 62
7
  6
CONTINUOUS
 70
0
 71
3
 72
45
 73
41
 74
0
 42
0.0000001
 43
0.0000001
 44
0.0000000001
 40
0.0
 40
0.0
 40
0.0
 40
0.0
 40
0.0002565221
 40
0.0007386354
 40
0.0014901467
 40
0.0025206251
 40
0.005428759
 40
0.0094707904
 40
0.0146403824
 40
0.0209265892
 40
0.0283173814
 40
0.0367961285
 40
0.046342408
 40
0.0569355108
 40
0.0811630765
 40
0.1092553949
 40
0.1409539202
 40
0.1759682838
 40
0.2139743383
 40
0.2546229764
 40
0.2975395283
 40
0.3423278749
 40
0.3885761001
 40
0.4837358396
 40
0.5795184232
 40
0.6724004022
 40
0.7589655669
 40
0.7988719481
 40
0.8360302985
 40
0.8700971646
 40
0.9007604951
 40
0.9277367696
 40
0.9507783021
 40
0.9696751174
 40
0.977512769
 40
0.984253347
 40
0.9898822194
 40
0.9943861773
 40
0.9977587884
 40
1.0
 40
1.0
 40
1.0
 40
1.0
 10
149.5811663757
 20
100.1259307312
 30
0.0
 10
149.5839612518
 20
100.1259307312
 30
0.0
 10
149.5905830521
 20
100.1192365229
 30
0.0
 10
149.5961623267
 20
100.1045370114
 30
0.0
 10
149.6031253694
 20
100.0805630775
 30
0.0
 10
149.6130305338
 20
100.0305516459
 30
0.0
 10
149.6249389477
 20
99.9442661816
 30
0.0
 10
149.6382871409
 20
99.8129379796
 30
0.0
 10
149.651838783
 20
99.6445996119
 30
0.0
 10
149.6654830646
 20
99.4397184512
 30
0.0
 10
149.6791875523
 20
99.198709597
 30
0.0
 10
149.6929293941
 20
98.9221378137
 30
0.0
 10
149.7067013444
 20
98.6106384774
 30
0.0
 10
149.7259585464
 20
98.1276314562
 30
0.0
 10
149.7496033489
 20
97.4425812053
 30
0.0
 10
149.7769825058
 20
96.5275860038
 30
0.0
 10
149.8044302401
 20
95.49502126
 30
0.0
 10
149.8319296595
 20
94.3544111449
 30
0.0
 10
149.8594651071
 20
93.1162621225
 30
0.0
 10
149.8870250853
 20
91.7919974841
 30
0.0
 10
149.9146027423
 20
90.3938232916
 30
0.0
 10
149.9421943343
 20
88.9346290911
 30
0.0
 10
149.9793456421
 20
86.9063108606
 30
0.0
 10
150.0251402873
 20
84.322462413
 30
0.0
 10
150.0795998106
 20
81.2306006969
 30
0.0
 10
150.1340046936
 20
78.232392973
 30
0.0
 10
150.1803730692
 20
75.8429262815
 30
0.0
 10
150.2181416802
 20
74.0605345958
 30
0.0
 10
150.2456683099
 20
72.8500386061
 30
0.0
 10
150.2731550363
 20
71.7402750611
 30
0.0
 10
150.3005862712
 20
70.7414839175
 30
0.0
 10
150.3279225359
 20
69.8628632794
 30
0.0
 10
150.3551483639
 20
69.1125112151
 30
0.0
 10
150.3788457469
 20
68.5706945882
 30
0.0
 10
150.3983862959
 20
68.206497359
 30
0.0
 10
150.4120554972
 20
67.9867530448
 30
0.0
 10
150.4256678884
 20
67.8034218815
 30
0.0
 10
150.439065443
 20
67.6568494819
 30
0.0
 10
150.4523852991
 20
67.5474592392
 30
0.0
 10
150.4625944061
 20
67.4870127214
 30
0.0
 10
150.4687607398
 20
67.4633855291
 30
0.0
  0
SPLINE
  5
4BA
100
AcDbEntity
  8
0
100
AcDbSpline
 62
7
  6
CONTINUOUS
 70
0
 71
3
 72
9
 73
5
 74
0
 42
0.0000001
 43
0.0000001
 44
0.0000000001
 40
0.0
 40
0.0
 40
0.0
 40
0.0
 40
0.3059829458
 40
1.0
 40
1.0
 40
1.0
 40
1.0
 10
150.4687607398
 20
67.4633855291
 30
0.0
 10
150.4695263341
 20
67.4604520447
 30
0.0
 10
150.4721848747
 20
67.4509209596
 30
0.0
 10
150.4753376701
 20
67.4414328665
 30
0.0
 10
150.4785159612
 20
67.4353349775
 30
0.0
  0
SPLINE
  5
4BB
100
AcDbEntity
  8
0
100
AcDbSpline
 62
7
  6
CONTINUOUS
 70
0
 71
3
 72
10
 73
6
 74
0
 42
0.0000001
 43
0.0000001
 44
0.0000000001
 40
0.0
 40
0.0
 40
0.0
 40
0.0
 40
0.2483909464
 40
0.4975234731
 40
1.0
 40
1.0
 40
1.0
 40
1.0
 10
148.2825142676
 20
69.6337951081
 30
0.0
 10
148.2825142676
 20
70.0858276505
 30
0.0
 10
148.2468376226
 20
70.9916811471
 30
0.0
 10
148.0357457434
 20
72.8005467262
 30
0.0
 10
147.7292971427
 20
74.1389699738
 30
0.0
 10
147.4742238907
 20
75.017102641
 30
0.0
  0
SPLINE
  5
4BC
100
AcDbEntity
  8
0
100
AcDbSpline
 62
7
  6
CONTINUOUS
 70
0
 71
3
 72
9
 73
5
 74
0
 42
0.0000001
 43
0.0000001
 44
0.0000000001
 40
0.0
 40
0.0
 40
0.0
 40
0.0
 40
0.217329296
 40
1.0
 40
1.0
 40
1.0
 40
1.0
 10
149.390958775
 20
100.1165060211
 30
0.0
 10
149.3914045485
 20
100.1156485896
 30
0.0
 10
149.3933452339
 20
100.1116458006
 30
0.0
 10
149.3949196658
 20
100.1074750918
 30
0.0
 10
149.3960473119
 20
100.1041825819
 30
0.0
  0
SPLINE
  5
4BD
100
AcDbEntity
  8
0
100
AcDbSpline
 62
7
  6
CONTINUOUS
 70
0
 71
3
 72
9
 73
5
 74
0
 42
0.0000001
 43
0.0000001
 44
0.0000000001
 40
0.0
 40
0.0
 40
0.0
 40
0.0
 40
0.2275778196
 40
1.0
 40
1.0
 40
1.0
 40
1.0
 10
149.3960473119
 20
100.1041825819
 30
0.0
 10
149.3964335034
 20
100.1030549768
 30
0.0
 10
149.3980713133
 20
100.0980799008
 30
0.0
 10
149.3995004793
 20
100.0930379377
 30
0.0
 10
149.4005309927
 20
100.0891259469
 30
0.0
  0
SPLINE
  5
4BE
100
AcDbEntity
  8
0
100
AcDbSpline
 62
7
  6
CONTINUOUS
 70
0
 71
3
 72
45
 73
41
 74
0
 42
0.0000001
 43
0.0000001
 44
0.0000000001
 40
0.0
 40
0.0
 40
0.0
 40
0.0
 40
0.0022266053
 40
0.0055856818
 40
0.0100777251
 40
0.0156935588
 40
0.0224218024
 40
0.0302492729
 40
0.0491245067
 40
0.072149011
 40
0.0991096894
 40
0.1297602959
 40
0.1638181133
 40
0.2009687059
 40
0.2408711233
 40
0.3274347856
 40
0.4203245819
 40
0.51612221
 40
0.6113023635
 40
0.6575619302
 40
0.7023627444
 40
0.7452911367
 40
0.785952396
 40
0.8239705915
 40
0.858995828
 40
0.8907060247
 40
0.9188075041
 40
0.9430436274
 40
0.9536404078
 40
0.9631910211
 40
0.9716724198
 40
0.9790653501
 40
0.9853547717
 40
0.9905262568
 40
0.9945688346
 40
0.9974787722
 40
0.9985100273
 40
0.9992617977
 40
0.9997435924
 40
1.0
 40
1.0
 40
1.0
 40
1.0
 10
149.4005309927
 20
100.0891259469
 30
0.0
 10
149.4067108332
 20
100.0656663033
 30
0.0
 10
149.416927395
 20
100.0055275567
 30
0.0
 10
149.4302503948
 20
99.896576422
 30
0.0
 10
149.4436428714
 20
99.7504207414
 30
0.0
 10
149.4572600442
 20
99.567493858
 30
0.0
 10
149.4709302116
 20
99.3481330562
 30
0.0
 10
149.4904710786
 20
98.9844095766
 30
0.0
 10
149.5141800157
 20
98.4431144014
 30
0.0
 10
149.5414057984
 20
97.6933379393
 30
0.0
 10
149.5687484592
 20
96.8151938534
 30
0.0
 10
149.5961847316
 20
95.8167897105
 30
0.0
 10
149.6236753689
 20
94.7073254084
 30
0.0
 10
149.6512085976
 20
93.4970311687
 30
0.0
 10
149.6889844367
 20
91.7147472933
 30
0.0
 10
149.7353634086
 20
89.3252063167
 30
0.0
 10
149.7897779901
 20
86.3267046939
 30
0.0
 10
149.8442480488
 20
83.2343083509
 30
0.0
 10
149.8900506505
 20
80.6498972172
 30
0.0
 10
149.9272093341
 20
78.6210557298
 30
0.0
 10
149.9548056578
 20
77.1614432902
 30
0.0
 10
149.9823895155
 20
75.7628381843
 30
0.0
 10
150.0099545544
 20
74.4381476792
 30
0.0
 10
150.0374949442
 20
73.1995850829
 30
0.0
 10
150.0650013637
 20
72.0585737855
 30
0.0
 10
150.0924523041
 20
71.0256424324
 30
0.0
 10
150.1198387453
 20
70.1103083671
 30
0.0
 10
150.1434871546
 20
69.4250109557
 30
0.0
 10
150.1627493464
 20
68.9418135761
 30
0.0
 10
150.1765214388
 20
68.6301915776
 30
0.0
 10
150.1902667092
 20
68.3535147477
 30
0.0
 10
150.2039771572
 20
68.1124139701
 30
0.0
 10
150.2176230585
 20
67.9074495163
 30
0.0
 10
150.2311759665
 20
67.7390462072
 30
0.0
 10
150.2445310046
 20
67.6076688196
 30
0.0
 10
150.2564349451
 20
67.5213482518
 30
0.0
 10
150.26633617
 20
67.4713014664
 30
0.0
 10
150.2732995517
 20
67.4473222236
 30
0.0
 10
150.2788801908
 20
67.4326175089
 30
0.0
 10
150.2855147084
 20
67.4259454404
 30
0.0
 10
150.2883083916
 20
67.425949282
 30
0.0
  0
SPLINE
  5
4BF
100
AcDbEntity
  8
0
100
AcDbSpline
 62
7
  6
CONTINUOUS
 70
0
 71
3
 72
9
 73
5
 74
0
 42
0.0000001
 43
0.0000001
 44
0.0000000001
 40
0.0
 40
0.0
 40
0.0
 40
0.0
 40
0.5000183949
 40
1.0
 40
1.0
 40
1.0
 40
1.0
 10
147.4742238907
 20
76.162784207
 30
0.0
 10
147.7312910895
 20
77.4143592005
 30
0.0
 10
148.1390510301
 20
79.9411458302
 30
0.0
 10
148.2825142677
 20
82.4983223101
 30
0.0
 10
148.2825142676
 20
83.7759307341
 30
0.0
  0
SPLINE
  5
4C0
100
AcDbEntity
  8
0
100
AcDbSpline
 62
7
  6
CONTINUOUS
 70
0
 71
3
 72
9
 73
5
 74
0
 42
0.0000001
 43
0.0000001
 44
0.0000000001
 40
0.0
 40
0.0
 40
0.0
 40
0.0
 40
0.4999816156
 40
1.0
 40
1.0
 40
1.0
 40
1.0
 10
148.2825142676
 20
83.7759307341
 30
0.0
 10
148.2825142675
 20
85.0535391845
 30
0.0
 10
148.1390510529
 20
87.6107156651
 30
0.0
 10
147.7312910839
 20
90.1375022892
 30
0.0
 10
147.4742238907
 20
91.3890772555
 30
0.0
  0
SPLINE
  5
4C1
100
AcDbEntity
  8
0
100
AcDbSpline
 62
7
  6
CONTINUOUS
 70
0
 71
3
 72
43
 73
39
 74
0
 42
0.0000001
 43
0.0000001
 44
0.0000000001
 40
0.0
 40
0.0
 40
0.0
 40
0.0
 40
0.0002575739
 40
0.0007425272
 40
0.0025343729
 40
0.0054607929
 40
0.0095282312
 40
0.0147309119
 40
0.0210570032
 40
0.02849372
 40
0.0370257335
 40
0.0466318473
 40
0.0572898262
 40
0.0816652417
 40
0.1099240631
 40
0.1418074586
 40
0.1770178779
 40
0.2152297927
 40
0.2560889543
 40
0.2992153393
 40
0.3906547405
 40
0.4861617739
 40
0.5821996204
 40
0.6752119722
 40
0.7617546636
 40
0.8015852646
 40
0.8386232477
 40
0.872522847
 40
0.9029721076
 40
0.9296873007
 40
0.9524217644
 40
0.9709668424
 40
0.978612784
 40
0.9851507317
 40
0.9905676489
 40
0.9948512752
 40
0.9979941711
 40
1.0
 40
1.0
 40
1.0
 40
1.0
 10
88.9838621595
 20
67.4259307312
 30
0.0
 10
88.9810548871
 20
67.4259307312
 30
0.0
 10
88.9744120894
 20
67.4326776329
 30
0.0
 10
88.9649068355
 20
67.4577839328
 30
0.0
 10
88.9528071398
 20
67.5142190605
 30
0.0
 10
88.940038424
 20
67.6086311071
 30
0.0
 10
88.9265100002
 20
67.7411083209
 30
0.0
 10
88.9129651915
 20
67.9104714889
 30
0.0
 10
88.8992568194
 20
68.1167543098
 30
0.0
 10
88.8855113626
 20
68.3593466623
 30
0.0
 10
88.8717223925
 20
68.6377482813
 30
0.0
 10
88.8579058285
 20
68.9512900984
 30
0.0
 10
88.8385818859
 20
69.437429441
 30
0.0
 10
88.8148605276
 20
70.1268413085
 30
0.0
 10
88.7873869552
 20
71.0475829015
 30
0.0
 10
88.7598497147
 20
72.0864586106
 30
0.0
 10
88.732256072
 20
73.2338445863
 30
0.0
 10
88.7046291753
 20
74.4790816224
 30
0.0
 10
88.6769762604
 20
75.8106130951
 30
0.0
 10
88.6393457026
 20
77.7221824726
 30
0.0
 10
88.59304639
 20
80.2292970031
 30
0.0
 10
88.5384169743
 20
83.3130312869
 30
0.0
 10
88.4837840596
 20
86.413911717
 30
0.0
 10
88.429205327
 20
89.417076113
 30
0.0
 10
88.3826728576
 20
91.8076877044
 30
0.0
 10
88.3447588366
 20
93.588288276
 30
0.0
 10
88.3171440751
 20
94.7952246911
 30
0.0
 10
88.2895700289
 20
95.8998870775
 30
0.0
 10
88.2620544901
 20
96.8920052289
 30
0.0
 10
88.2346392184
 20
97.7623877939
 30
0.0
 10
88.2073400022
 20
98.5029552308
 30
0.0
 10
88.1835633098
 20
99.035672704
 30
0.0
 10
88.1639259953
 20
99.3918420371
 30
0.0
 10
88.1502288049
 20
99.6050406747
 30
0.0
 10
88.1365792154
 20
99.7814829115
 30
0.0
 10
88.1232211582
 20
99.9208850727
 30
0.0
 10
88.109872111
 20
100.0227382033
 30
0.0
 10
88.099712372
 20
100.0781428402
 30
0.0
 10
88.0932769422
 20
100.0990354984
 30
0.0
  0
SPLINE
  5
4C2
100
AcDbEntity
  8
0
100
AcDbSpline
 62
7
  6
CONTINUOUS
 70
0
 71
3
 72
9
 73
5
 74
0
 42
0.0000001
 43
0.0000001
 44
0.0000000001
 40
0.0
 40
0.0
 40
0.0
 40
0.0
 40
0.292048284
 40
1.0
 40
1.0
 40
1.0
 40
1.0
 10
88.0932769422
 20
100.0990354984
 30
0.0
 10
88.0927394231
 20
100.1007805571
 30
0.0
 10
88.0908127044
 20
100.1067246542
 30
0.0
 10
88.0885556734
 20
100.1125908502
 30
0.0
 10
88.0865126145
 20
100.1165174448
 30
0.0
  0
SPLINE
  5
4C3
100
AcDbEntity
  8
0
100
AcDbSpline
 62
7
  6
CONTINUOUS
 70
0
 71
3
 72
9
 73
5
 74
0
 42
0.0000001
 43
0.0000001
 44
0.0000000001
 40
0.0
 40
0.0
 40
0.0
 40
0.0
 40
0.3843347281
 40
1.0
 40
1.0
 40
1.0
 40
1.0
 10
85.5454978723
 20
67.4353508212
 30
0.0
 10
85.5409612648
 20
67.4440695196
 30
0.0
 10
85.5338451507
 20
67.4689261674
 30
0.0
 10
85.5288161607
 20
67.4939127273
 30
0.0
 10
85.5261013697
 20
67.5094209253
 30
0.0
  0
SPLINE
  5
4C4
100
AcDbEntity
  8
0
100
AcDbSpline
 62
7
  6
CONTINUOUS
 70
0
 71
3
 72
40
 73
36
 74
0
 42
0.0000001
 43
0.0000001
 44
0.0000000001
 40
0.0
 40
0.0
 40
0.0
 40
0.0
 40
0.0029919555
 40
0.0070949921
 40
0.0186020478
 40
0.0344302448
 40
0.0544388587
 40
0.0784521094
 40
0.1062513566
 40
0.1375891426
 40
0.1721814726
 40
0.2498586043
 40
0.3364881355
 40
0.4289526648
 40
0.5239244654
 40
0.6179852978
 40
0.7077495597
 40
0.7500016988
 40
0.7899867126
 40
0.8273448775
 40
0.8617378049
 40
0.8928579406
 40
0.9204223473
 40
0.9441854665
 40
0.9545724012
 40
0.9639326066
 40
0.9722442082
 40
0.9794877844
 40
0.9856494023
 40
0.9907162435
 40
0.9946768533
 40
0.9975271005
 40
0.99927329
 40
0.9997467463
 40
1.0
 40
1.0
 40
1.0
 40
1.0
 10
85.5261013697
 20
67.5094209253
 30
0.0
 10
85.5204884631
 20
67.5414845595
 30
0.0
 10
85.5103512287
 20
67.6180538228
 30
0.0
 10
85.4903278889
 20
67.8194444578
 30
0.0
 10
85.4672057199
 20
68.1607674626
 30
0.0
 10
85.4406479002
 20
68.675154818
 30
0.0
 10
85.4139252985
 20
69.3257655027
 30
0.0
 10
85.3869414195
 20
70.1066832257
 30
0.0
 10
85.3598634826
 20
71.010921161
 30
0.0
 10
85.3327049838
 20
72.0302962881
 30
0.0
 10
85.2949584397
 20
73.5922277189
 30
0.0
 10
85.2488302664
 20
75.755676483
 30
0.0
 10
85.1951127412
 20
78.548722745
 30
0.0
 10
85.1412761467
 20
81.5299577931
 30
0.0
 10
85.0873844592
 20
84.5920537075
 30
0.0
 10
85.0335076665
 20
87.6247675684
 30
0.0
 10
84.9878206848
 20
90.0839687188
 30
0.0
 10
84.950696362
 20
91.954903419
 30
0.0
 10
84.9234328341
 20
93.2557646069
 30
0.0
 10
84.8961970872
 20
94.4711016391
 30
0.0
 10
84.8689924277
 20
95.5899672659
 30
0.0
 10
84.8418446537
 20
96.6022483405
 30
0.0
 10
84.814759282
 20
97.4988369655
 30
0.0
 10
84.7913703907
 20
98.1698608988
 30
0.0
 10
84.7723185531
 20
98.6428521507
 30
0.0
 10
84.7586988191
 20
98.9478156295
 30
0.0
 10
84.745104435
 20
99.2185482938
 30
0.0
 10
84.731551274
 20
99.4544218802
 30
0.0
 10
84.7180369968
 20
99.6549676533
 30
0.0
 10
84.7046834137
 20
99.8196059206
 30
0.0
 10
84.6913519202
 20
99.9483637942
 30
0.0
 10
84.6787582591
 20
100.0401532302
 30
0.0
 10
84.6668496159
 20
100.0949791887
 30
0.0
 10
84.6574495987
 20
100.1194272951
 30
0.0
 10
84.6509022745
 20
100.1259317689
 30
0.0
 10
84.6481469836
 20
100.1259285187
 30
0.0
  0
SPLINE
  5
4C5
100
AcDbEntity
  8
0
100
AcDbSpline
 62
7
  6
CONTINUOUS
 70
0
 71
3
 72
15
 73
11
 74
0
 42
0.0000001
 43
0.0000001
 44
0.0000000001
 40
0.0
 40
0.0
 40
0.0
 40
0.0
 40
0.0398823332
 40
0.0692174997
 40
0.1059155566
 40
0.2014685177
 40
0.3246525493
 40
0.4714769659
 40
0.636886888
 40
1.0
 40
1.0
 40
1.0
 40
1.0
 10
108.4707593536
 20
117.1759307312
 30
0.0
 10
108.4819300718
 20
117.1759301956
 30
0.0
 10
108.4998426598
 20
117.1630238193
 30
0.0
 10
108.5171276593
 20
117.1395448165
 30
0.0
 10
108.5392923664
 20
117.0996906096
 30
0.0
 10
108.5643340027
 20
117.0325263043
 30
0.0
 10
108.5907805088
 20
116.9334821319
 30
0.0
 10
108.6134119875
 20
116.8135514016
 30
0.0
 10
108.6374421152
 20
116.625852088
 30
0.0
 10
108.644381388
 20
116.4776357702
 30
0.0
 10
108.644383723
 20
116.3759307312
 30
0.0
  0
SPLINE
  5
4C6
100
AcDbEntity
  8
0
100
AcDbSpline
 62
7
  6
CONTINUOUS
 70
0
 71
3
 72
11
 73
7
 74
0
 42
0.0000001
 43
0.0000001
 44
0.0000000001
 40
0.0
 40
0.0
 40
0.0
 40
0.0
 40
0.2480033841
 40
0.4971810356
 40
0.7480099674
 40
1.0
 40
1.0
 40
1.0
 40
1.0
 10
108.0776046294
 20
116.7759307312
 30
0.0
 10
108.1287725857
 20
116.7759307312
 30
0.0
 10
108.2324993626
 20
116.7968736927
 30
0.0
 10
108.3631855798
 20
116.8861552108
 30
0.0
 10
108.4504208474
 20
117.0190900247
 30
0.0
 10
108.4707593536
 20
117.1239402512
 30
0.0
 10
108.4707593536
 20
117.1759307312
 30
0.0
  0
SPLINE
  5
4C7
100
AcDbEntity
  8
0
100
AcDbSpline
 62
7
  6
CONTINUOUS
 70
0
 71
3
 72
12
 73
8
 74
0
 42
0.0000001
 43
0.0000001
 44
0.0000000001
 40
0.0
 40
0.0
 40
0.0
 40
0.0
 40
0.1433527748
 40
0.2427625888
 40
0.3622671743
 40
0.6560521953
 40
1.0
 40
1.0
 40
1.0
 40
1.0
 10
108.0776046294
 20
116.7759307312
 30
0.0
 10
108.0998214899
 20
116.7759302098
 30
0.0
 10
108.1354663888
 20
116.7533161964
 30
0.0
 10
108.170496386
 20
116.7102869473
 30
0.0
 10
108.2106488271
 20
116.6409977677
 30
0.0
 10
108.2471588104
 20
116.5283775288
 30
0.0
 10
108.2575377934
 20
116.4292358757
 30
0.0
 10
108.2575426123
 20
116.3759307312
 30
0.0
  0
SPLINE
  5
4C8
100
AcDbEntity
  8
0
100
AcDbSpline
 62
7
  6
CONTINUOUS
 70
0
 71
3
 72
19
 73
15
 74
0
 42
0.0000001
 43
0.0000001
 44
0.0000000001
 40
0.0
 40
0.0
 40
0.0
 40
0.0
 40
0.0057281323
 40
0.0183733069
 40
0.0386990885
 40
0.0668348642
 40
0.1028119631
 40
0.1466104395
 40
0.1981802898
 40
0.2574657497
 40
0.3989439371
 40
0.5704207014
 40
0.7710705766
 40
1.0
 40
1.0
 40
1.0
 40
1.0
 10
83.5410041867
 20
67.4259337308
 30
0.0
 10
83.5363972424
 20
67.4259399524
 30
0.0
 10
83.5269761919
 20
67.4418180328
 30
0.0
 10
83.5196075021
 20
67.4694448407
 30
0.0
 10
83.5095229094
 20
67.518961827
 30
0.0
 10
83.5002990414
 20
67.5856786998
 30
0.0
 10
83.4904887324
 20
67.6721405683
 30
0.0
 10
83.4807866856
 20
67.7772569166
 30
0.0
 10
83.4709776582
 20
67.9012817121
 30
0.0
 10
83.4570573795
 20
68.1037386385
 30
0.0
 10
83.4400935738
 20
68.4026542198
 30
0.0
 10
83.4206045246
 20
68.8152700381
 30
0.0
 10
83.401035978
 20
69.2982872854
 30
0.0
 10
83.3887438124
 20
69.6435658988
 30
0.0
 10
83.3825150241
 20
69.8275809175
 30
0.0
  0
SPLINE
  5
4C9
100
AcDbEntity
  8
0
100
AcDbSpline
 62
7
  6
CONTINUOUS
 70
0
 71
3
 72
9
 73
5
 74
0
 42
0.0000001
 43
0.0000001
 44
0.0000000001
 40
0.0
 40
0.0
 40
0.0
 40
0.0
 40
0.5006313034
 40
1.0
 40
1.0
 40
1.0
 40
1.0
 10
108.644383723
 20
111.7744588687
 30
0.0
 10
108.6443865151
 20
111.6952430617
 30
0.0
 10
108.6791415395
 20
111.5351940037
 30
0.0
 10
108.7757371349
 20
111.4038879694
 30
0.0
 10
108.8337076046
 20
111.3501947999
 30
0.0
  0
SPLINE
  5
4CA
100
AcDbEntity
  8
0
100
AcDbSpline
 62
7
  6
CONTINUOUS
 70
0
 71
3
 72
9
 73
5
 74
0
 42
0.0000001
 43
0.0000001
 44
0.0000000001
 40
0.0
 40
0.0
 40
0.0
 40
0.0
 40
0.4999176471
 40
1.0
 40
1.0
 40
1.0
 40
1.0
 10
108.2575426123
 20
111.7744588687
 30
0.0
 10
108.2575489194
 20
111.6436183513
 30
0.0
 10
108.311996038
 20
111.3791073536
 30
0.0
 10
108.4665135682
 20
111.1582586632
 30
0.0
 10
108.5606757569
 20
111.0673520875
 30
0.0
  0
LINE
  5
4CB
100
AcDbEntity
  8
0
100
AcDbLine
 62
7
  6
CONTINUOUS
 10
108.8337076046
 20
111.3501947999
 11
109.2463613886
 21
110.9516666625
  0
LINE
  5
4CC
100
AcDbEntity
  8
0
100
AcDbLine
 62
7
  6
CONTINUOUS
 10
108.5606757569
 20
111.0673520875
 11
108.9740877839
 21
110.66882395
  0
SPLINE
  5
4CD
100
AcDbEntity
  8
0
100
AcDbSpline
 62
7
  6
CONTINUOUS
 70
0
 71
3
 72
9
 73
5
 74
0
 42
0.0000001
 43
0.0000001
 44
0.0000000001
 40
0.0
 40
0.0
 40
0.0
 40
0.0
 40
0.3800616935
 40
1.0
 40
1.0
 40
1.0
 40
1.0
 10
87.3597848197
 20
67.4353481015
 30
0.0
 10
87.354845221
 20
67.4448416143
 30
0.0
 10
87.3473057729
 20
67.4723222566
 30
0.0
 10
87.3419632165
 20
67.4998566636
 30
0.0
 10
87.3390784689
 20
67.5170727505
 30
0.0
  0
SPLINE
  5
4CE
100
AcDbEntity
  8
0
100
AcDbSpline
 62
7
  6
CONTINUOUS
 70
0
 71
3
 72
40
 73
36
 74
0
 42
0.0000001
 43
0.0000001
 44
0.0000000001
 40
0.0
 40
0.0
 40
0.0
 40
0.0
 40
0.0030932917
 40
0.0072943306
 40
0.0189857293
 40
0.0349811127
 40
0.055138554
 40
0.0792813823
 40
0.1071904184
 40
0.1386179837
 40
0.1732800407
 40
0.2510380956
 40
0.3376753451
 40
0.4300833635
 40
0.5249463403
 40
0.6188601149
 40
0.7084544303
 40
0.7506178697
 40
0.7905144297
 40
0.8277860473
 40
0.86209631
 40
0.8931392258
 40
0.920633338
 40
0.9443346783
 40
0.954694139
 40
0.9640293769
 40
0.9723188245
 40
0.979542925
 40
0.9856877861
 40
0.9907408824
 40
0.9946908734
 40
0.9975333397
 40
0.9992748086
 40
0.9997471278
 40
1.0
 40
1.0
 40
1.0
 40
1.0
 10
87.3390784689
 20
67.5170727505
 30
0.0
 10
87.3335182711
 20
67.5502558436
 30
0.0
 10
87.3234054865
 20
67.6289909235
 30
0.0
 10
87.3034470218
 20
67.8345346012
 30
0.0
 10
87.2803252727
 20
68.1806708641
 30
0.0
 10
87.2537945478
 20
68.7003886071
 30
0.0
 10
87.2270946926
 20
69.355694761
 30
0.0
 10
87.2001455257
 20
70.1406529851
 30
0.0
 10
87.1731028535
 20
71.0482583298
 30
0.0
 10
87.1459820879
 20
72.0703221126
 30
0.0
 10
87.1083017538
 20
73.6344994558
 30
0.0
 10
87.0622458824
 20
75.7991580864
 30
0.0
 10
87.0086024059
 20
78.5918910359
 30
0.0
 10
86.9548417722
 20
81.5707037806
 30
0.0
 10
86.9010274345
 20
84.6286744274
 30
0.0
 10
86.8472286424
 20
87.6560359891
 30
0.0
 10
86.8016054529
 20
90.1102398755
 30
0.0
 10
86.7645335035
 20
91.9769544956
 30
0.0
 10
86.7373105662
 20
93.2746382292
 30
0.0
 10
86.7101151771
 20
94.4868837542
 30
0.0
 10
86.6829509755
 20
95.6028029782
 30
0.0
 10
86.655843618
 20
96.6123397496
 30
0.0
 10
86.6287982969
 20
97.5064387139
 30
0.0
 10
86.6054441843
 20
98.1755676884
 30
0.0
 10
86.5864204313
 20
98.6472040561
 30
0.0
 10
86.5728207773
 20
98.9512836065
 30
0.0
 10
86.5592468985
 20
99.2212274693
 30
0.0
 10
86.5457139708
 20
99.4564098868
 30
0.0
 10
86.5322197785
 20
99.6563641431
 30
0.0
 10
86.51888536
 20
99.8205162243
 30
0.0
 10
86.5055754903
 20
99.9488928365
 30
0.0
 10
86.4929979362
 20
100.040410951
 30
0.0
 10
86.4811103338
 20
100.0950713396
 30
0.0
 10
86.4717188539
 20
100.1194489321
 30
0.0
 10
86.4651843778
 20
100.1259319713
 30
0.0
 10
86.4624338901
 20
100.1259298414
 30
0.0
  0
SPLINE
  5
4CF
100
AcDbEntity
  8
0
100
AcDbSpline
 62
7
  6
CONTINUOUS
 70
0
 71
3
 72
9
 73
5
 74
0
 42
0.0000001
 43
0.0000001
 44
0.0000000001
 40
0.0
 40
0.0
 40
0.0
 40
0.0
 40
0.498865234
 40
1.0
 40
1.0
 40
1.0
 40
1.0
 10
109.2463613886
 20
110.9516666625
 30
0.0
 10
109.3009399079
 20
110.8963819477
 30
0.0
 10
109.3893002252
 20
110.7626916533
 30
0.0
 10
109.419837551
 20
110.6054426634
 30
0.0
 10
109.4198384906
 20
110.5274025938
 30
0.0
  0
SPLINE
  5
4D0
100
AcDbEntity
  8
0
100
AcDbSpline
 62
7
  6
CONTINUOUS
 70
0
 71
3
 72
9
 73
5
 74
0
 42
0.0000001
 43
0.0000001
 44
0.0000000001
 40
0.0
 40
0.0
 40
0.0
 40
0.0
 40
0.5000956882
 40
1.0
 40
1.0
 40
1.0
 40
1.0
 10
108.9740877839
 20
110.66882395
 30
0.0
 10
108.9929600778
 20
110.6506571736
 30
0.0
 10
109.0239742081
 20
110.6065263503
 30
0.0
 10
109.0349536153
 20
110.5535878981
 30
0.0
 10
109.0349535822
 20
110.5274025938
 30
0.0
  0
SPLINE
  5
4D1
100
AcDbEntity
  8
0
100
AcDbSpline
 62
7
  6
CONTINUOUS
 70
0
 71
3
 72
18
 73
14
 74
0
 42
0.0000001
 43
0.0000001
 44
0.0000000001
 40
0.0
 40
0.0
 40
0.0
 40
0.0
 40
0.1832039816
 40
0.3619421565
 40
0.5305123329
 40
0.6818499216
 40
0.8079269129
 40
0.85916276
 40
0.9016353064
 40
0.9352944641
 40
0.9608044642
 40
0.9807329692
 40
1.0
 40
1.0
 40
1.0
 40
1.0
 10
109.4198384906
 20
110.493988829
 30
0.0
 10
109.4198378408
 20
110.440538667
 30
0.0
 10
109.4176890421
 20
110.3349250098
 30
0.0
 10
109.4076294801
 20
110.1804214163
 30
0.0
 10
109.390760788
 20
110.0358340665
 30
0.0
 10
109.367597572
 20
109.9077185056
 30
0.0
 10
109.3428349705
 20
109.81485321
 30
0.0
 10
109.3198204264
 20
109.7549353616
 30
0.0
 10
109.303187519
 20
109.7216087779
 30
0.0
 10
109.2862953955
 20
109.6970872788
 30
0.0
 10
109.2690105924
 20
109.6812501503
 30
0.0
 10
109.2501548529
 20
109.675196613
 30
0.0
 10
109.2385800121
 20
109.6789705758
 30
0.0
 10
109.2337558061
 20
109.6818558673
 30
0.0
  0
SPLINE
  5
4D2
100
AcDbEntity
  8
0
100
AcDbSpline
 62
7
  6
CONTINUOUS
 70
0
 71
3
 72
17
 73
13
 74
0
 42
0.0000001
 43
0.0000001
 44
0.0000000001
 40
0.0
 40
0.0
 40
0.0
 40
0.0
 40
0.171972226
 40
0.341775058
 40
0.5056585163
 40
0.6571285155
 40
0.7854523646
 40
0.8369898454
 40
0.8786295776
 40
0.9115807883
 40
0.9393773991
 40
1.0
 40
1.0
 40
1.0
 40
1.0
 10
109.0349535822
 20
110.493988829
 30
0.0
 10
109.0448638979
 20
110.4653135298
 30
0.0
 10
109.0634495815
 20
110.4079282886
 30
0.0
 10
109.0867215935
 20
110.3217689918
 30
0.0
 10
109.1039837378
 20
110.2378502024
 30
0.0
 10
109.1134404598
 20
110.1600788411
 30
0.0
 10
109.1135253939
 20
110.101285675
 30
0.0
 10
109.1066234947
 20
110.0626702187
 30
0.0
 10
109.0987023012
 20
110.0417194498
 30
0.0
 10
109.0877235536
 20
110.0268392614
 30
0.0
 10
109.0676007695
 20
110.016912457
 30
0.0
 10
109.0508738854
 20
110.0229228376
 30
0.0
 10
109.0416091344
 20
110.0282660288
 30
0.0
  0
SPLINE
  5
4D3
100
AcDbEntity
  8
0
100
AcDbSpline
 62
7
  6
CONTINUOUS
 70
0
 71
3
 72
48
 73
44
 74
0
 42
0.0000001
 43
0.0000001
 44
0.0000000001
 40
0.0
 40
0.0
 40
0.0
 40
0.0
 40
0.0002487533
 40
0.0007347117
 40
0.0014987261
 40
0.0025492407
 40
0.0055184719
 40
0.0096484114
 40
0.0149317687
 40
0.0213567126
 40
0.0289104724
 40
0.0375756906
 40
0.0473307399
 40
0.0581536967
 40
0.0829003145
 40
0.1115820291
 40
0.1439291663
 40
0.179638502
 40
0.2183712748
 40
0.2597631706
 40
0.3034225134
 40
0.3489372259
 40
0.3958791294
 40
0.4922634083
 40
0.5889447562
 40
0.6822840646
 40
0.7265951144
 40
0.768770185
 40
0.8084121591
 40
0.8451460394
 40
0.8786246136
 40
0.9085339727
 40
0.9345908655
 40
0.9565517879
 40
0.9659301253
 40
0.9742111111
 40
0.9813739462
 40
0.9874033247
 40
0.9922869443
 40
0.9960137568
 40
0.9985799881
 40
0.9994309125
 40
1.0
 40
1.0
 40
1.0
 40
1.0
 10
86.5709251505
 20
66.2759307312
 30
0.0
 10
86.5680218052
 20
66.2759307312
 30
0.0
 10
86.5612743797
 20
66.2835435437
 30
0.0
 10
86.5557720485
 20
66.2993792341
 30
0.0
 10
86.5486882696
 20
66.3256987788
 30
0.0
 10
86.5386973729
 20
66.3804446517
 30
0.0
 10
86.5266288465
 20
66.4749937008
 30
0.0
 10
86.5131359489
 20
66.6188198531
 30
0.0
 10
86.4994227519
 20
66.8032058726
 30
0.0
 10
86.485620965
 20
67.0275936129
 30
0.0
 10
86.4717559288
 20
67.291526374
 30
0.0
 10
86.4578536576
 20
67.5943658589
 30
0.0
 10
86.4439204809
 20
67.9353975921
 30
0.0
 10
86.4244395428
 20
68.4640498204
 30
0.0
 10
86.4005215177
 20
69.2135867377
 30
0.0
 10
86.3728231966
 20
70.2143406947
 30
0.0
 10
86.3450552327
 20
71.3430884064
 30
0.0
 10
86.3172347577
 20
72.5891781844
 30
0.0
 10
86.2893774442
 20
73.9408578701
 30
0.0
 10
86.2614960275
 20
75.3853444907
 30
0.0
 10
86.2335967082
 20
76.909000615
 30
0.0
 10
86.2056841802
 20
78.4974442165
 30
0.0
 10
86.1681275116
 20
80.701196484
 30
0.0
 10
86.1218464559
 20
83.502082072
 30
0.0
 10
86.0667714595
 20
86.8444272645
 30
0.0
 10
86.0201722538
 20
89.5790527355
 30
0.0
 10
85.9823101707
 20
91.6775588468
 30
0.0
 10
85.9544207506
 20
93.1494094381
 30
0.0
 10
85.9265551847
 20
94.5328062105
 30
0.0
 10
85.898721902
 20
95.8146798716
 30
0.0
 10
85.8709313802
 20
96.982930462
 30
0.0
 10
85.8432155935
 20
98.0265272037
 30
0.0
 10
85.8155872806
 20
98.9356433818
 30
0.0
 10
85.7916297216
 20
99.6051248866
 30
0.0
 10
85.7720185075
 20
100.0671421193
 30
0.0
 10
85.7581244788
 20
100.3565233443
 30
0.0
 10
85.7442854468
 20
100.6067737674
 30
0.0
 10
85.7304885189
 20
100.81729047
 30
0.0
 10
85.7168941773
 20
100.9876543732
 30
0.0
 10
85.7033343664
 20
101.1173515096
 30
0.0
 10
85.6916558707
 20
101.200066445
 30
0.0
 10
85.6812258482
 20
101.245368078
 30
0.0
 10
85.6759929583
 20
101.2612293974
 30
0.0
 10
85.6729298518
 20
101.2671230856
 30
0.0
  0
SPLINE
  5
4D4
100
AcDbEntity
  8
0
100
AcDbSpline
 62
7
  6
CONTINUOUS
 70
0
 71
3
 72
9
 73
5
 74
0
 42
0.0000001
 43
0.0000001
 44
0.0000000001
 40
0.0
 40
0.0
 40
0.0
 40
0.0
 40
0.4970776472
 40
1.0
 40
1.0
 40
1.0
 40
1.0
 10
109.0416091344
 20
110.0282660287
 30
0.0
 10
109.1005541701
 20
109.9942340976
 30
0.0
 10
109.2021030745
 20
109.8911495859
 30
0.0
 10
109.2353012877
 20
109.750702691
 30
0.0
 10
109.2337558108
 20
109.6818558673
 30
0.0
  0
SPLINE
  5
4D5
100
AcDbEntity
  8
0
100
AcDbSpline
 62
7
  6
CONTINUOUS
 70
0
 71
3
 72
48
 73
44
 74
0
 42
0.0000001
 43
0.0000001
 44
0.0000000001
 40
0.0
 40
0.0
 40
0.0
 40
0.0
 40
0.0002487691
 40
0.0007347292
 40
0.0014987418
 40
0.0025492548
 40
0.0055184904
 40
0.0096484547
 40
0.0149318587
 40
0.0213568636
 40
0.0289107019
 40
0.0375760638
 40
0.0473312968
 40
0.0581544476
 40
0.0829016272
 40
0.1115833916
 40
0.1439299373
 40
0.1796376715
 40
0.2183686086
 40
0.2597587204
 40
0.303416944
 40
0.3489310539
 40
0.3958728982
 40
0.492258743
 40
0.5889434452
 40
0.6822832969
 40
0.7265931655
 40
0.7687670159
 40
0.8084079798
 40
0.8451415704
 40
0.8786200897
 40
0.9085297756
 40
0.9345875359
 40
0.9565493242
 40
0.9659283526
 40
0.9742099114
 40
0.9813730934
 40
0.9874028368
 40
0.9922867431
 40
0.9960136844
 40
0.9985799675
 40
0.9994309032
 40
1.0
 40
1.0
 40
1.0
 40
1.0
 10
85.246799177
 20
101.2759307312
 30
0.0
 10
85.2497027058
 20
101.2759307312
 30
0.0
 10
85.2564507773
 20
101.2683184004
 30
0.0
 10
85.2619533179
 20
101.25248226
 30
0.0
 10
85.2690370655
 20
101.2261628895
 30
0.0
 10
85.2790275934
 20
101.171416834
 30
0.0
 10
85.2910954712
 20
101.0768674558
 30
0.0
 10
85.3045881439
 20
100.9330403625
 30
0.0
 10
85.3183014819
 20
100.7486528158
 30
0.0
 10
85.3321035868
 20
100.5242629103
 30
0.0
 10
85.345968909
 20
100.2603268534
 30
0.0
 10
85.3598712792
 20
99.9574826262
 30
0.0
 10
85.3738045511
 20
99.6164448039
 30
0.0
 10
85.3932858269
 20
99.0877816106
 30
0.0
 10
85.4172038403
 20
98.3382352793
 30
0.0
 10
85.4449022576
 20
97.3374810826
 30
0.0
 10
85.4726693201
 20
96.2087583607
 30
0.0
 10
85.5004889328
 20
94.9627155873
 30
0.0
 10
85.5283449085
 20
93.6110968158
 30
0.0
 10
85.5562255587
 20
92.1666654897
 30
0.0
 10
85.5841241528
 20
90.6430502635
 30
0.0
 10
85.6120364958
 20
89.0546274359
 30
0.0
 10
85.6495934622
 20
86.8508646011
 30
0.0
 10
85.6958754943
 20
84.0499222631
 30
0.0
 10
85.7509515176
 20
80.7075132826
 30
0.0
 10
85.7975511734
 20
77.9728560868
 30
0.0
 10
85.8354128831
 20
75.8743716407
 30
0.0
 10
85.8633013396
 20
74.4025608449
 30
0.0
 10
85.8911663199
 20
73.0191934691
 30
0.0
 10
85.9189988124
 20
71.7373355968
 30
0.0
 10
85.9467890042
 20
70.5690851961
 30
0.0
 10
85.9745048612
 20
69.5254751456
 30
0.0
 10
86.002132882
 20
68.6163348922
 30
0.0
 10
86.0260914412
 20
67.9468251048
 30
0.0
 10
86.0457027375
 20
67.4847829906
 30
0.0
 10
86.0595971446
 20
67.1953829578
 30
0.0
 10
86.0734373508
 20
66.945117576
 30
0.0
 10
86.0872351285
 20
66.7345892541
 30
0.0
 10
86.1008298049
 20
66.5642162307
 30
0.0
 10
86.114389199
 20
66.4345135988
 30
0.0
 10
86.1260664989
 20
66.351796202
 30
0.0
 10
86.1364962035
 20
66.3064936501
 30
0.0
 10
86.1417292979
 20
66.2906320864
 30
0.0
 10
86.1447926952
 20
66.2847384267
 30
0.0
  0
SPLINE
  5
4D6
100
AcDbEntity
  8
0
100
AcDbSpline
 62
7
  6
CONTINUOUS
 70
0
 71
3
 72
42
 73
38
 74
0
 42
0.0000001
 43
0.0000001
 44
0.0000000001
 40
0.0
 40
0.0
 40
0.0
 40
0.0
 40
0.0002568698
 40
0.0007394074
 40
0.002521337
 40
0.0054315838
 40
0.0094768111
 40
0.0146506572
 40
0.0209417912
 40
0.0283379901
 40
0.0368235555
 40
0.0463775009
 40
0.056978245
 40
0.0812245681
 40
0.1093369074
 40
0.141059096
 40
0.1760973061
 40
0.214128948
 40
0.2548040345
 40
0.2977461066
 40
0.3888328964
 40
0.4840359165
 40
0.5798502879
 40
0.6727487504
 40
0.759311469
 40
0.7992081926
 40
0.8363519809
 40
0.8703981035
 40
0.9010349955
 40
0.9279789918
 40
0.9509825658
 40
0.9698358842
 40
0.9843648961
 40
0.9899674768
 40
0.9944447555
 40
0.9977884514
 40
1.0
 40
1.0
 40
1.0
 40
1.0
 10
85.3552903374
 20
67.4259322302
 30
0.0
 10
85.3524915554
 20
67.4259349948
 30
0.0
 10
85.3458682182
 20
67.4326297102
 30
0.0
 10
85.3363768209
 20
67.4575998459
 30
0.0
 10
85.3243225272
 20
67.5136937182
 30
0.0
 10
85.3115926333
 20
67.6075608772
 30
0.0
 10
85.2981106648
 20
67.7392637645
 30
0.0
 10
85.2846037797
 20
67.9076417106
 30
0.0
 10
85.270934225
 20
68.1127272151
 30
0.0
 10
85.2572281583
 20
68.353920524
 30
0.0
 10
85.2434792584
 20
68.6307249613
 30
0.0
 10
85.2297031504
 20
68.9424773275
 30
0.0
 10
85.2104363444
 20
69.4258764942
 30
0.0
 10
85.1867839667
 20
70.1114613756
 30
0.0
 10
85.1593906841
 20
71.0271758039
 30
0.0
 10
85.1319337986
 20
72.0605201982
 30
0.0
 10
85.1044213237
 20
73.2019751418
 30
0.0
 10
85.0768749252
 20
74.4410035119
 30
0.0
 10
85.0493031005
 20
75.7661693666
 30
0.0
 10
85.0117770235
 20
77.6693265381
 30
0.0
 10
84.9656046497
 20
80.1665488274
 30
0.0
 10
84.9111308339
 20
83.2397966707
 30
0.0
 10
84.8566519083
 20
86.3327870857
 30
0.0
 10
84.8022246122
 20
89.331621112
 30
0.0
 10
84.755836504
 20
91.7212366681
 30
0.0
 10
84.7180488885
 20
93.5034130329
 30
0.0
 10
84.6905122448
 20
94.7134702541
 30
0.0
 10
84.6630128329
 20
95.8226074721
 30
0.0
 10
84.6355759095
 20
96.8205754723
 30
0.0
 10
84.6082151317
 20
97.6981768454
 30
0.0
 10
84.581023013
 20
98.4473277206
 30
0.0
 10
84.5539919091
 20
99.061097008
 30
0.0
 10
84.5303630039
 20
99.4852453629
 30
0.0
 10
84.5104439559
 20
99.7526301747
 30
0.0
 10
84.4970486834
 20
99.8983150515
 30
0.0
 10
84.4837268093
 20
100.0067705076
 30
0.0
 10
84.473517488
 20
100.0665792916
 30
0.0
 10
84.4673227437
 20
100.0898658381
 30
0.0
  0
SPLINE
  5
4D7
100
AcDbEntity
  8
0
100
AcDbSpline
 62
7
  6
CONTINUOUS
 70
0
 71
3
 72
9
 73
5
 74
0
 42
0.0000001
 43
0.0000001
 44
0.0000000001
 40
0.0
 40
0.0
 40
0.0
 40
0.0
 40
0.3042692139
 40
1.0
 40
1.0
 40
1.0
 40
1.0
 10
84.4673227437
 20
100.0898658381
 30
0.0
 10
84.4665852686
 20
100.092638067
 30
0.0
 10
84.4640149037
 20
100.1016968581
 30
0.0
 10
84.4609673245
 20
100.1107037853
 30
0.0
 10
84.4579394584
 20
100.1165224565
 30
0.0
  0
SPLINE
  5
4D8
100
AcDbEntity
  8
0
100
AcDbSpline
 62
7
  6
CONTINUOUS
 70
0
 71
3
 72
48
 73
44
 74
0
 42
0.0000001
 43
0.0000001
 44
0.0000000001
 40
0.0
 40
0.0
 40
0.0
 40
0.0
 40
0.000248828
 40
0.0007348002
 40
0.0014988115
 40
0.0025493188
 40
0.0055185424
 40
0.0096484992
 40
0.0149318961
 40
0.0213568944
 40
0.028910727
 40
0.037576077
 40
0.0473312973
 40
0.058154441
 40
0.0829015953
 40
0.1115833161
 40
0.1439297897
 40
0.1796374601
 40
0.2183684131
 40
0.259758608
 40
0.303416881
 40
0.3489309817
 40
0.395872793
 40
0.4922585755
 40
0.5889432245
 40
0.6822830212
 40
0.7265929001
 40
0.7687669139
 40
0.8084080462
 40
0.845141702
 40
0.8786202377
 40
0.9085299119
 40
0.9345876352
 40
0.956549394
 40
0.9659284064
 40
0.9742099536
 40
0.9813731274
 40
0.9874028596
 40
0.9922867563
 40
0.9960136932
 40
0.9985799726
 40
0.9994309062
 40
1.0
 40
1.0
 40
1.0
 40
1.0
 10
88.8753722789
 20
101.2759307312
 30
0.0
 10
88.8782764956
 20
101.2759307312
 30
0.0
 10
88.8850269062
 20
101.2683199651
 30
0.0
 10
88.8905302027
 20
101.2524820933
 30
0.0
 10
88.8976138406
 20
101.2261631983
 30
0.0
 10
88.9076029825
 20
101.1714167519
 30
0.0
 10
88.9196683767
 20
101.0768676219
 30
0.0
 10
88.9331599979
 20
100.9330406322
 30
0.0
 10
88.9468735404
 20
100.7486533866
 30
0.0
 10
88.9606763748
 20
100.5242637249
 30
0.0
 10
88.9745421576
 20
100.2603279627
 30
0.0
 10
88.98844452
 20
99.9574840691
 30
0.0
 10
89.002377601
 20
99.6164465894
 30
0.0
 10
89.0218585956
 20
99.0877838824
 30
0.0
 10
89.045776672
 20
98.3382383984
 30
0.0
 10
89.0734750961
 20
97.3374857898
 30
0.0
 10
89.1012420498
 20
96.2087650956
 30
0.0
 10
89.1290616212
 20
94.9627236492
 30
0.0
 10
89.1569175846
 20
93.6111043876
 30
0.0
 10
89.1847982471
 20
92.1666712455
 30
0.0
 10
89.2126968366
 20
90.6430544926
 30
0.0
 10
89.2406091473
 20
89.0546314887
 30
0.0
 10
89.2781660471
 20
86.850869745
 30
0.0
 10
89.3244479872
 20
84.0499289764
 30
0.0
 10
89.3795238971
 20
80.707521791
 30
0.0
 10
89.4261234485
 20
77.9728655779
 30
0.0
 10
89.4639851124
 20
75.8743796244
 30
0.0
 10
89.4918735975
 20
74.4025647499
 30
0.0
 10
89.5197386108
 20
73.0191926595
 30
0.0
 10
89.5475711245
 20
71.7373317952
 30
0.0
 10
89.5753613018
 20
70.5690805104
 30
0.0
 10
89.6030771045
 20
69.5254707753
 30
0.0
 10
89.6307050461
 20
68.6163313797
 30
0.0
 10
89.6546635697
 20
67.946822515
 30
0.0
 10
89.6742748502
 20
67.4847810401
 30
0.0
 10
89.6881692058
 20
67.1953814052
 30
0.0
 10
89.7020092689
 20
66.9451163645
 30
0.0
 10
89.7158069205
 20
66.7345883603
 30
0.0
 10
89.7294015723
 20
66.5642156218
 30
0.0
 10
89.7429611666
 20
66.4345132033
 30
0.0
 10
89.7546387921
 20
66.351795975
 30
0.0
 10
89.7650685738
 20
66.3064935386
 30
0.0
 10
89.7703016051
 20
66.2906320301
 30
0.0
 10
89.7733649233
 20
66.2847383688
 30
0.0
  0
SPLINE
  5
4D9
100
AcDbEntity
  8
0
100
AcDbSpline
 62
7
  6
CONTINUOUS
 70
0
 71
3
 72
48
 73
44
 74
0
 42
0.0000001
 43
0.0000001
 44
0.0000000001
 40
0.0
 40
0.0
 40
0.0
 40
0.0
 40
0.0002487792
 40
0.0007347415
 40
0.0014987539
 40
0.0025492659
 40
0.0055184992
 40
0.0096484616
 40
0.0149318639
 40
0.0213568682
 40
0.0289107085
 40
0.0375760724
 40
0.0473313053
 40
0.0581544518
 40
0.0829016244
 40
0.111583465
 40
0.1439304058
 40
0.1796391452
 40
0.2183709064
 40
0.2597613152
 40
0.3034192657
 40
0.3489331
 40
0.3958749887
 40
0.4922609111
 40
0.5889455778
 40
0.6822855137
 40
0.7265957032
 40
0.7687694661
 40
0.808409799
 40
0.8451422993
 40
0.8786202352
 40
0.9085297773
 40
0.9345875295
 40
0.9565493267
 40
0.9659283538
 40
0.9742099101
 40
0.9813730908
 40
0.9874028352
 40
0.9922867429
 40
0.9960136844
 40
0.9985799671
 40
0.9994309027
 40
1.0
 40
1.0
 40
1.0
 40
1.0
 10
84.7566381691
 20
66.2759307312
 30
0.0
 10
84.7537345214
 20
66.2759307312
 30
0.0
 10
84.7469860456
 20
66.2835427922
 30
0.0
 10
84.7414833716
 20
66.299379231
 30
0.0
 10
84.7343996394
 20
66.3256985189
 30
0.0
 10
84.724409344
 20
66.3804446378
 30
0.0
 10
84.7123418865
 20
66.4749939625
 30
0.0
 10
84.6988493875
 20
66.6188210214
 30
0.0
 10
84.6851360068
 20
66.8032085098
 30
0.0
 10
84.6713337683
 20
67.0275984074
 30
0.0
 10
84.6574683581
 20
67.2915345016
 30
0.0
 10
84.6435659801
 20
67.5943787766
 30
0.0
 10
84.6296327335
 20
67.9354165763
 30
0.0
 10
84.610151495
 20
68.4640796424
 30
0.0
 10
84.5862334338
 20
69.2136267364
 30
0.0
 10
84.5585348552
 20
70.2143863575
 30
0.0
 10
84.5307673794
 20
71.3431263184
 30
0.0
 10
84.5029473487
 20
72.5891950637
 30
0.0
 10
84.4750908094
 20
73.9408386604
 30
0.0
 10
84.4472101705
 20
75.3852798993
 30
0.0
 10
84.4193116291
 20
76.908892202
 30
0.0
 10
84.3913994665
 20
78.4973091598
 30
0.0
 10
84.3538425691
 20
80.7010702231
 30
0.0
 10
84.307560533
 20
83.5020135963
 30
0.0
 10
84.2524844833
 20
86.8444240822
 30
0.0
 10
84.2058846706
 20
89.5790856149
 30
0.0
 10
84.1680228475
 20
91.6775737856
 30
0.0
 10
84.1401343177
 20
93.1493799511
 30
0.0
 10
84.1122697895
 20
94.5327262332
 30
0.0
 10
84.0844377216
 20
95.8145572202
 30
0.0
 10
84.0566480088
 20
96.9827864241
 30
0.0
 10
84.0289323762
 20
98.0263879047
 30
0.0
 10
84.0013043967
 20
98.9355264982
 30
0.0
 10
83.9773458698
 20
99.6050362873
 30
0.0
 10
83.9577345914
 20
100.0670784663
 30
0.0
 10
83.9438401814
 20
100.3564784433
 30
0.0
 10
83.9299999311
 20
100.6067437928
 30
0.0
 10
83.9162021144
 20
100.8172721272
 30
0.0
 10
83.9026074478
 20
100.987645183
 30
0.0
 10
83.8890481793
 20
101.1173478386
 30
0.0
 10
83.8773710598
 20
101.2000652616
 30
0.0
 10
83.8669414086
 20
101.2453678237
 30
0.0
 10
83.8617082914
 20
101.2612293923
 30
0.0
 10
83.858644859
 20
101.2671230403
 30
0.0
  0
SPLINE
  5
4DA
100
AcDbEntity
  8
0
100
AcDbSpline
 62
7
  6
CONTINUOUS
 70
0
 71
3
 72
9
 73
5
 74
0
 42
0.0000001
 43
0.0000001
 44
0.0000000001
 40
0.0
 40
0.0
 40
0.0
 40
0.0
 40
0.1640606281
 40
1.0
 40
1.0
 40
1.0
 40
1.0
 10
83.4325144165
 20
101.2759307312
 30
0.0
 10
83.4334792367
 20
101.2759307312
 30
0.0
 10
83.4392849398
 20
101.2738019307
 30
0.0
 10
83.4416932876
 20
101.2674720388
 30
0.0
 10
83.4436295471
 20
101.2629533547
 30
0.0
  0
SPLINE
  5
4DB
100
AcDbEntity
  8
0
100
AcDbSpline
 62
7
  6
CONTINUOUS
 70
0
 71
3
 72
14
 73
10
 74
0
 42
0.0000001
 43
0.0000001
 44
0.0000000001
 40
0.0
 40
0.0
 40
0.0
 40
0.0
 40
0.0391938999
 40
0.1028331758
 40
0.1911736289
 40
0.3041944443
 40
0.441798002
 40
0.6038315864
 40
1.0
 40
1.0
 40
1.0
 40
1.0
 10
83.4436295471
 20
101.2629533547
 30
0.0
 10
83.4489354723
 20
101.2505708207
 30
0.0
 10
83.4569951977
 20
101.215858676
 30
0.0
 10
83.4676462752
 20
101.1511474495
 30
0.0
 10
83.4782572344
 20
101.0605954155
 30
0.0
 10
83.489151738
 20
100.9446217552
 30
0.0
 10
83.5000747546
 20
100.8031920573
 30
0.0
 10
83.5157975917
 20
100.5645536528
 30
0.0
 10
83.5259028649
 20
100.37294834
 30
0.0
 10
83.5325142567
 20
100.2369407228
 30
0.0
  0
SPLINE
  5
4DC
100
AcDbEntity
  8
0
100
AcDbSpline
 62
7
  6
CONTINUOUS
 70
0
 71
3
 72
32
 73
28
 74
0
 42
0.0000001
 43
0.0000001
 44
0.0000000001
 40
0.0
 40
0.0
 40
0.0
 40
0.0
 40
0.0372967366
 40
0.0878972156
 40
0.1503042888
 40
0.2226610918
 40
0.3028137242
 40
0.3883771668
 40
0.4768076842
 40
0.5654758768
 40
0.6517419103
 40
0.7330410615
 40
0.8069553464
 40
0.8404450751
 40
0.8712838659
 40
0.8992431805
 40
0.9241135942
 40
0.9457127676
 40
0.9638783157
 40
0.9716318537
 40
0.9784785775
 40
0.9844060345
 40
0.9894050745
 40
0.9934671199
 40
0.9965851889
 40
0.9987589633
 40
1.0
 40
1.0
 40
1.0
 40
1.0
 10
83.5325142567
 20
100.2369407228
 30
0.0
 10
83.5530169631
 20
99.815165084
 30
0.0
 10
83.5893970743
 20
98.820609786
 30
0.0
 10
83.6373419106
 20
97.1195445201
 30
0.0
 10
83.6857102144
 20
95.0213956541
 30
0.0
 10
83.7345163427
 20
92.5886002856
 30
0.0
 10
83.783485653
 20
89.8935823345
 30
0.0
 10
83.8325689528
 20
87.016553089
 30
0.0
 10
83.8816979668
 20
84.0430978465
 30
0.0
 10
83.9308323456
 20
81.0616869926
 30
0.0
 10
83.9799238751
 20
78.1610276919
 30
0.0
 10
84.0289316319
 20
75.4274357653
 30
0.0
 10
84.0708792593
 20
73.2913480937
 30
0.0
 10
84.1050457358
 20
71.7265352968
 30
0.0
 10
84.1297940362
 20
70.6819447284
 30
0.0
 10
84.1544990991
 20
69.7349708718
 30
0.0
 10
84.1791439539
 20
68.8926450536
 30
0.0
 10
84.203706688
 20
68.1612563411
 30
0.0
 10
84.225018199
 20
67.6236696341
 30
0.0
 10
84.2424530363
 20
67.2531047381
 30
0.0
 10
84.254798479
 20
67.0210126808
 30
0.0
 10
84.2671216802
 20
66.8201694426
 30
0.0
 10
84.2793365356
 20
66.6508750319
 30
0.0
 10
84.2915784835
 20
66.5135979802
 30
0.0
 10
84.3032907913
 20
66.4081320476
 30
0.0
 10
84.3153616086
 20
66.3355160886
 30
0.0
 10
84.3240262841
 20
66.2972050567
 30
0.0
 10
84.3305068308
 20
66.2847377548
 30
0.0
  0
SPLINE
  5
4DD
100
AcDbEntity
  8
0
100
AcDbSpline
 62
7
  6
CONTINUOUS
 70
0
 71
3
 72
48
 73
44
 74
0
 42
0.0000001
 43
0.0000001
 44
0.0000000001
 40
0.0
 40
0.0
 40
0.0
 40
0.0
 40
0.0002487991
 40
0.0007347647
 40
0.0014987756
 40
0.0025492844
 40
0.0055185111
 40
0.0096484673
 40
0.0149318605
 40
0.0213568563
 40
0.0289106905
 40
0.0375760421
 40
0.0473312606
 40
0.0581543958
 40
0.0829015319
 40
0.1115833582
 40
0.1439303026
 40
0.1796390917
 40
0.2183709866
 40
0.2597615901
 40
0.3034195975
 40
0.3489333944
 40
0.3958752638
 40
0.4922611413
 40
0.5889457486
 40
0.6822856301
 40
0.7265958453
 40
0.7687696899
 40
0.8084100746
 40
0.8451425197
 40
0.878620387
 40
0.9085298722
 40
0.9345875929
 40
0.9565493728
 40
0.9659283865
 40
0.974209932
 40
0.9813731052
 40
0.9874028404
 40
0.9922867422
 40
0.9960136861
 40
0.9985799747
 40
0.9994309107
 40
1.0
 40
1.0
 40
1.0
 40
1.0
 10
88.3852100513
 20
66.2759307312
 30
0.0
 10
88.382306172
 20
66.2759307312
 30
0.0
 10
88.3755569026
 20
66.2835422419
 30
0.0
 10
88.3700539814
 20
66.2993792545
 30
0.0
 10
88.3629703028
 20
66.3256983457
 30
0.0
 10
88.352980509
 20
66.3804445476
 30
0.0
 10
88.3409139428
 20
66.4749937051
 30
0.0
 10
88.3274218463
 20
66.6188205831
 30
0.0
 10
88.3137084237
 20
66.8032077775
 30
0.0
 10
88.299905965
 20
67.0275973962
 30
0.0
 10
88.2860404316
 20
67.2915331769
 30
0.0
 10
88.2721380818
 20
67.5943770797
 30
0.0
 10
88.2582049285
 20
67.9354144479
 30
0.0
 10
88.2387238399
 20
68.4640768066
 30
0.0
 10
88.2148057886
 20
69.2136231961
 30
0.0
 10
88.1871072562
 20
70.2143822964
 30
0.0
 10
88.1593398155
 20
71.3431227442
 30
0.0
 10
88.1315197861
 20
72.5891937063
 30
0.0
 10
88.103663202
 20
73.9408417518
 30
0.0
 10
88.0757825408
 20
75.3852875289
 30
0.0
 10
88.0478839944
 20
76.9089023734
 30
0.0
 10
88.0199718932
 20
78.4973193795
 30
0.0
 10
87.9824150796
 20
80.7010793181
 30
0.0
 10
87.9361331393
 20
83.5020213277
 30
0.0
 10
87.8810571967
 20
86.8444300539
 30
0.0
 10
87.8344574583
 20
89.5790906337
 30
0.0
 10
87.7965956694
 20
91.677579481
 30
0.0
 10
87.7687071166
 20
93.1493875455
 30
0.0
 10
87.7408426109
 20
94.5327347804
 30
0.0
 10
87.7130105705
 20
95.8145649631
 30
0.0
 10
87.6852209006
 20
96.9827920899
 30
0.0
 10
87.6575053223
 20
98.0263917671
 30
0.0
 10
87.6298775617
 20
98.9355291579
 30
0.0
 10
87.6059188104
 20
99.6050382318
 30
0.0
 10
87.5863073711
 20
100.0670799314
 30
0.0
 10
87.572413092
 20
100.3564795503
 30
0.0
 10
87.5585735062
 20
100.6067446187
 30
0.0
 10
87.5447762885
 20
100.8172727387
 30
0.0
 10
87.5311815749
 20
100.9876456415
 30
0.0
 10
87.5176206946
 20
101.1173482138
 30
0.0
 10
87.5059412486
 20
101.2000653643
 30
0.0
 10
87.4955109422
 20
101.2453677902
 30
0.0
 10
87.490278153
 20
101.2612292786
 30
0.0
 10
87.4872151946
 20
101.2671230686
 30
0.0
  0
SPLINE
  5
4DE
100
AcDbEntity
  8
0
100
AcDbSpline
 62
7
  6
CONTINUOUS
 70
0
 71
3
 72
48
 73
44
 74
0
 42
0.0000001
 43
0.0000001
 44
0.0000000001
 40
0.0
 40
0.0
 40
0.0
 40
0.0
 40
0.0002489258
 40
0.0007349161
 40
0.0014989177
 40
0.0025493997
 40
0.0055185333
 40
0.0096483028
 40
0.0149313783
 40
0.0213560183
 40
0.0289094733
 40
0.0375741843
 40
0.047328762
 40
0.0581515387
 40
0.0828977289
 40
0.1115792201
 40
0.1439259115
 40
0.1796349395
 40
0.2183674815
 40
0.2597590319
 40
0.3034182698
 40
0.3489327619
 40
0.3958741449
 40
0.4922568069
 40
0.5889394921
 40
0.6822796996
 40
0.7265908769
 40
0.7687662146
 40
0.808408386
 40
0.8451426522
 40
0.8786215232
 40
0.9085312014
 40
0.9345884688
 40
0.9565498249
 40
0.9659286765
 40
0.9742101109
 40
0.9813732253
 40
0.9874029135
 40
0.9922867787
 40
0.996013692
 40
0.9985799559
 40
0.9994308895
 40
1.0
 40
1.0
 40
1.0
 40
1.0
 10
87.0610860595
 20
101.2759307312
 30
0.0
 10
87.0639914186
 20
101.2759307312
 30
0.0
 10
87.0707456911
 20
101.2683225808
 30
0.0
 10
87.0762502343
 20
101.2524819473
 30
0.0
 10
87.0833336465
 20
101.2261641386
 30
0.0
 10
87.0933203791
 20
101.1714181305
 30
0.0
 10
87.1053813879
 20
101.0768724585
 30
0.0
 10
87.1188709721
 20
100.933052115
 30
0.0
 10
87.132584578
 20
100.7486750892
 30
0.0
 10
87.14638812
 20
100.524297788
 30
0.0
 10
87.1602538827
 20
100.2603780829
 30
0.0
 10
87.174156013
 20
99.9575535398
 30
0.0
 10
87.1880885223
 20
99.6165352688
 30
0.0
 10
87.2075682173
 20
99.087895525
 30
0.0
 10
87.2314870567
 20
98.3383682359
 30
0.0
 10
87.2591853207
 20
97.3376269404
 30
0.0
 10
87.2869533177
 20
96.2088904752
 30
0.0
 10
87.3147737417
 20
94.9628120102
 30
0.0
 10
87.3426310121
 20
93.6111424508
 30
0.0
 10
87.3705125586
 20
92.1666635795
 30
0.0
 10
87.3984117583
 20
90.643015067
 30
0.0
 10
87.4263242703
 20
89.0545811134
 30
0.0
 10
87.4638805731
 20
86.8508560516
 30
0.0
 10
87.5101615387
 20
84.0499794053
 30
0.0
 10
87.5652366216
 20
80.7076265094
 30
0.0
 10
87.6118361298
 20
77.9729730618
 30
0.0
 10
87.649698364
 20
75.8744515531
 30
0.0
 10
87.6775876754
 20
74.4025938424
 30
0.0
 10
87.7054534017
 20
73.0191869509
 30
0.0
 10
87.7332865232
 20
71.7373028321
 30
0.0
 10
87.7610770936
 20
70.5690403807
 30
0.0
 10
87.7887929268
 20
69.5254319281
 30
0.0
 10
87.8164212177
 20
68.616302455
 30
0.0
 10
87.8403788887
 20
67.946805417
 30
0.0
 10
87.8599896489
 20
67.4847717852
 30
0.0
 10
87.8738841316
 20
67.1953760259
 30
0.0
 10
87.8877252992
 20
66.9451135483
 30
0.0
 10
87.9015240123
 20
66.7345871843
 30
0.0
 10
87.9151185162
 20
66.5642155699
 30
0.0
 10
87.9286749579
 20
66.4345137434
 30
0.0
 10
87.9403480891
 20
66.3517962433
 30
0.0
 10
87.9507766036
 20
66.306493561
 30
0.0
 10
87.9560102682
 20
66.2906318711
 30
0.0
 10
87.9590745003
 20
66.2847384648
 30
0.0
  0
LINE
  5
4DF
100
AcDbEntity
  8
0
100
AcDbLine
 62
7
  6
CONTINUOUS
 10
125.1039257024
 20
105.1942818046
 11
125.2432506081
 21
105.4115981805
  0
SPLINE
  5
4E0
100
AcDbEntity
  8
0
100
AcDbSpline
 62
7
  6
CONTINUOUS
 70
0
 71
3
 72
9
 73
5
 74
0
 42
0.0000001
 43
0.0000001
 44
0.0000000001
 40
0.0
 40
0.0
 40
0.0
 40
0.0
 40
0.4699745356
 40
1.0
 40
1.0
 40
1.0
 40
1.0
 10
126.5754074864
 20
104.3368563762
 30
0.0
 10
126.4930290233
 20
104.2891507818
 30
0.0
 10
126.2977417275
 20
104.2211226566
 30
0.0
 10
126.0925222773
 20
104.2135184321
 30
0.0
 10
125.9855788705
 20
104.2229467722
 30
0.0
  0
LINE
  5
4E1
100
AcDbEntity
  8
0
100
AcDbLine
 62
7
  6
CONTINUOUS
 10
126.5754074864
 20
104.3368563813
 11
126.7896210488
 21
104.6322316864
  0
SPLINE
  5
4E2
100
AcDbEntity
  8
0
100
AcDbSpline
 62
7
  6
CONTINUOUS
 70
0
 71
3
 72
9
 73
5
 74
0
 42
0.0000001
 43
0.0000001
 44
0.0000000001
 40
0.0
 40
0.0
 40
0.0
 40
0.0
 40
0.5321925348
 40
1.0
 40
1.0
 40
1.0
 40
1.0
 10
125.2432506081
 20
105.4115981805
 30
0.0
 10
125.4220632659
 20
105.690510473
 30
0.0
 10
125.8307809328
 20
106.1722803563
 30
0.0
 10
126.3655991744
 20
106.5149591765
 30
0.0
 10
126.6358495527
 20
106.6234864965
 30
0.0
  0
SPLINE
  5
4E3
100
AcDbEntity
  8
0
100
AcDbSpline
 62
7
  6
CONTINUOUS
 70
0
 71
3
 72
13
 73
9
 74
0
 42
0.0000001
 43
0.0000001
 44
0.0000000001
 40
0.0
 40
0.0
 40
0.0
 40
0.0
 40
0.0789237685
 40
0.1776686992
 40
0.2948965186
 40
0.4272277165
 40
0.7164628913
 40
1.0
 40
1.0
 40
1.0
 40
1.0
 10
126.7896210979
 20
104.6322316413
 30
0.0
 10
126.7442226704
 20
104.6202361575
 30
0.0
 10
126.6368427342
 20
104.61401951
 30
0.0
 10
126.4630429579
 20
104.6420538874
 30
0.0
 10
126.2649950666
 20
104.7052733087
 30
0.0
 10
125.9721775639
 20
104.8368996825
 30
0.0
 10
125.6156120363
 20
105.061787652
 30
0.0
 10
125.3577487144
 20
105.2877129278
 30
0.0
 10
125.2432505993
 20
105.4115981805
 30
0.0
  0
SPLINE
  5
4E4
100
AcDbEntity
  8
0
100
AcDbSpline
 62
7
  6
CONTINUOUS
 70
0
 71
3
 72
9
 73
5
 74
0
 42
0.0000001
 43
0.0000001
 44
0.0000000001
 40
0.0
 40
0.0
 40
0.0
 40
0.0
 40
0.5485948534
 40
1.0
 40
1.0
 40
1.0
 40
1.0
 10
126.7896210488
 20
104.6322316864
 30
0.0
 10
126.8837279787
 20
104.8138948754
 30
0.0
 10
127.0920344082
 20
105.1274199298
 30
0.0
 10
127.3621165915
 20
105.3894553521
 30
0.0
 10
127.49672783
 20
105.490549847
 30
0.0
  0
SPLINE
  5
4E5
100
AcDbEntity
  8
0
100
AcDbSpline
 62
7
  6
CONTINUOUS
 70
0
 71
3
 72
25
 73
21
 74
0
 42
0.0000001
 43
0.0000001
 44
0.0000000001
 40
0.0
 40
0.0
 40
0.0
 40
0.0
 40
0.2171681394
 40
0.4128922226
 40
0.5845576445
 40
0.660602931
 40
0.7297141245
 40
0.791585826
 40
0.8459112107
 40
0.8924005732
 40
0.9308208075
 40
0.9469354263
 40
0.9609491871
 40
0.9728373826
 40
0.9825871719
 40
0.990188445
 40
0.9956310875
 40
0.9975397603
 40
0.9989049804
 40
1.0
 40
1.0
 40
1.0
 40
1.0
 10
126.6358495527
 20
106.6234864965
 30
0.0
 10
126.8506903308
 20
106.7097682337
 30
0.0
 10
127.25701349
 20
106.879204624
 30
0.0
 10
127.8264408947
 20
107.1325189437
 30
0.0
 10
128.254546198
 20
107.3331008612
 30
0.0
 10
128.5585684163
 20
107.4802494678
 30
0.0
 10
128.7565510791
 20
107.5778002223
 30
0.0
 10
128.9331982874
 20
107.6662523087
 30
0.0
 10
129.0878455709
 20
107.7447691581
 30
0.0
 10
129.219898842
 20
107.812558003
 30
0.0
 10
129.315512676
 20
107.8621292402
 30
0.0
 10
129.380304233
 20
107.8959314194
 30
0.0
 10
129.4199866359
 20
107.9167072337
 30
0.0
 10
129.4536535432
 20
107.9343528255
 30
0.0
 10
129.4812214395
 20
107.9488828929
 30
0.0
 10
129.5027829418
 20
107.9601388548
 30
0.0
 10
129.5167518234
 20
107.9677231099
 30
0.0
 10
129.5251394157
 20
107.9718745786
 30
0.0
 10
129.5289514683
 20
107.9743928858
 30
0.0
 10
129.5318578641
 20
107.9749653749
 30
0.0
 10
129.5325142676
 20
107.9759307312
 30
0.0
  0
SPLINE
  5
4E6
100
AcDbEntity
  8
0
100
AcDbSpline
 62
7
  6
CONTINUOUS
 70
0
 71
3
 72
11
 73
7
 74
0
 42
0.0000001
 43
0.0000001
 44
0.0000000001
 40
0.0
 40
0.0
 40
0.0
 40
0.0
 40
0.4636060231
 40
0.5952816379
 40
0.7299835759
 40
1.0
 40
1.0
 40
1.0
 40
1.0
 10
127.49672783
 20
105.4905497929
 30
0.0
 10
127.2780091126
 20
105.5566472918
 30
0.0
 10
127.0335078139
 20
105.7632161042
 30
0.0
 10
126.8359763319
 20
106.0623123408
 30
0.0
 10
126.7167707717
 20
106.2991845009
 30
0.0
 10
126.658724503
 20
106.4923898276
 30
0.0
 10
126.6358493867
 20
106.6234864965
 30
0.0
  0
SPLINE
  5
4E7
100
AcDbEntity
  8
0
100
AcDbSpline
 62
7
  6
CONTINUOUS
 70
0
 71
3
 72
22
 73
18
 74
0
 42
0.0000001
 43
0.0000001
 44
0.0000000001
 40
0.0
 40
0.0
 40
0.0
 40
0.0
 40
0.2162743384
 40
0.41162145
 40
0.5832851044
 40
0.7286771599
 40
0.7907170204
 40
0.8452241865
 40
0.891893836
 40
0.9304805538
 40
0.9607509795
 40
0.9726976067
 40
0.9824961444
 40
0.9901361259
 40
0.9956070799
 40
0.9988985312
 40
1.0
 40
1.0
 40
1.0
 40
1.0
 10
127.49672783
 20
105.490549847
 30
0.0
 10
127.7343308427
 20
105.5717415377
 30
0.0
 10
128.1847770383
 20
105.7314964329
 30
0.0
 10
128.8182210165
 20
105.9710455835
 30
0.0
 10
129.3709020962
 20
106.1912119327
 30
0.0
 10
129.7774031955
 20
106.3599689949
 30
0.0
 10
130.0572044957
 20
106.4791072219
 30
0.0
 10
130.2311730808
 20
106.5542250732
 30
0.0
 10
130.3798792285
 20
106.6191579202
 30
0.0
 10
130.502604685
 20
106.6732685326
 30
0.0
 10
130.5883200986
 20
106.7113992503
 30
0.0
 10
130.643474851
 20
106.735986507
 30
0.0
 10
130.6745992689
 20
106.7499702852
 30
0.0
 10
130.698917796
 20
106.7607076178
 30
0.0
 10
130.7161815405
 20
106.7688307293
 30
0.0
 10
130.7268140623
 20
106.7729652556
 30
0.0
 10
130.7312673275
 20
106.7756470887
 30
0.0
 10
130.7325142676
 20
106.7759307312
 30
0.0
  0
SPLINE
  5
4E8
100
AcDbEntity
  8
0
100
AcDbSpline
 62
7
  6
CONTINUOUS
 70
0
 71
3
 72
23
 73
19
 74
0
 42
0.0000001
 43
0.0000001
 44
0.0000000001
 40
0.0
 40
0.0
 40
0.0
 40
0.0
 40
0.0009660447
 40
0.0038637534
 40
0.0086928274
 40
0.015453037
 40
0.0241442178
 40
0.0347660686
 40
0.0618006056
 40
0.0965594393
 40
0.1390517223
 40
0.1892982482
 40
0.2473330131
 40
0.3132044404
 40
0.3869767415
 40
0.5585134981
 40
0.7626459154
 40
1.0
 40
1.0
 40
1.0
 40
1.0
 10
109.0325142676
 20
106.8646161717
 30
0.0
 10
109.0325668112
 20
106.8650610734
 30
0.0
 10
109.0353163838
 20
106.8638068031
 30
0.0
 10
109.0384107811
 20
106.8646531553
 30
0.0
 10
109.0456429056
 20
106.8635670305
 30
0.0
 10
109.0547898629
 20
106.8631753441
 30
0.0
 10
109.0669380772
 20
106.8621656458
 30
0.0
 10
109.0883214122
 20
106.8605246881
 30
0.0
 10
109.1217999442
 20
106.8575069399
 30
0.0
 10
109.1698887083
 20
106.8524891804
 30
0.0
 10
109.2285778122
 20
106.845240741
 30
0.0
 10
109.2977694142
 20
106.8351441493
 30
0.0
 10
109.3773836351
 20
106.8215220371
 30
0.0
 10
109.4672965653
 20
106.8035864594
 30
0.0
 10
109.6079399594
 20
106.7711931101
 30
0.0
 10
109.8086317628
 20
106.7143208044
 30
0.0
 10
110.0763278375
 20
106.6179609599
 30
0.0
 10
110.2635218442
 20
106.5344617703
 30
0.0
 10
110.3623590305
 20
106.4860184576
 30
0.0
  0
SPLINE
  5
4E9
100
AcDbEntity
  8
0
100
AcDbSpline
 62
7
  6
CONTINUOUS
 70
0
 71
3
 72
22
 73
18
 74
0
 42
0.0000001
 43
0.0000001
 44
0.0000000001
 40
0.0
 40
0.0
 40
0.0
 40
0.0
 40
0.0009028294
 40
0.0036139307
 40
0.0081375702
 40
0.0144780496
 40
0.0226397176
 40
0.0326291794
 40
0.0581385938
 40
0.0911067267
 40
0.1316565218
 40
0.179946828
 40
0.2361564976
 40
0.3731876929
 40
0.544687581
 40
0.7528588881
 40
1.0
 40
1.0
 40
1.0
 40
1.0
 10
108.3143090479
 20
105.7655830559
 30
0.0
 10
108.3144217605
 20
105.7658947873
 30
0.0
 10
108.3162146325
 20
105.7646044656
 30
0.0
 10
108.3186144344
 20
105.7647777132
 30
0.0
 10
108.3237147854
 20
105.7629785441
 30
0.0
 10
108.3303409857
 20
105.7614159109
 30
0.0
 10
108.3390731603
 20
105.758990265
 30
0.0
 10
108.3545186531
 20
105.7548269067
 30
0.0
 10
108.3787422525
 20
105.7480224831
 30
0.0
 10
108.4136374711
 20
105.737842547
 30
0.0
 10
108.4563993509
 20
105.7247257963
 30
0.0
 10
108.5070559637
 20
105.7082847162
 30
0.0
 10
108.5909037705
 20
105.6793939911
 30
0.0
 10
108.716078413
 20
105.6316678093
 30
0.0
 10
108.8900242534
 20
105.5557462317
 30
0.0
 10
109.0958596444
 20
105.4525554624
 30
0.0
 10
109.2407922853
 20
105.3689939039
 30
0.0
 10
109.3180481735
 20
105.3213985742
 30
0.0
  0
SPLINE
  5
4EA
100
AcDbEntity
  8
0
100
AcDbSpline
 62
7
  6
CONTINUOUS
 70
0
 71
3
 72
11
 73
7
 74
0
 42
0.0000001
 43
0.0000001
 44
0.0000000001
 40
0.0
 40
0.0
 40
0.0
 40
0.0
 40
0.22682645
 40
0.4790024236
 40
0.7416005808
 40
1.0
 40
1.0
 40
1.0
 40
1.0
 10
125.9855788705
 20
104.2229467722
 30
0.0
 10
125.8968219698
 20
104.2701050704
 30
0.0
 10
125.7213432723
 20
104.3923645796
 30
0.0
 10
125.4848185875
 20
104.6219148755
 30
0.0
 10
125.2730871412
 20
104.8924893938
 30
0.0
 10
125.1550692482
 20
105.0918425187
 30
0.0
 10
125.1039268725
 20
105.1942830811
 30
0.0
  0
SPLINE
  5
4EB
100
AcDbEntity
  8
0
100
AcDbSpline
 62
7
  6
CONTINUOUS
 70
0
 71
3
 72
14
 73
10
 74
0
 42
0.0000001
 43
0.0000001
 44
0.0000000001
 40
0.0
 40
0.0
 40
0.0
 40
0.0
 40
0.1956824376
 40
0.3191069791
 40
0.4538831913
 40
0.5952230156
 40
0.7372240826
 40
0.8738208714
 40
1.0
 40
1.0
 40
1.0
 40
1.0
 10
110.3623590305
 20
106.4860184576
 30
0.0
 10
111.2539269979
 20
106.0490262022
 30
0.0
 10
112.7441110829
 20
105.4045775825
 30
0.0
 10
114.9447684388
 20
104.716620778
 30
0.0
 10
116.9348399027
 20
104.3076869847
 30
0.0
 10
119.0555657753
 20
104.1369070577
 30
0.0
 10
121.1897125569
 20
104.2493727352
 30
0.0
 10
123.2155023954
 20
104.6146195666
 30
0.0
 10
124.4976048051
 20
104.9886574915
 30
0.0
 10
125.1039257024
 20
105.1942818046
 30
0.0
  0
SPLINE
  5
4EC
100
AcDbEntity
  8
0
100
AcDbSpline
 62
7
  6
CONTINUOUS
 70
0
 71
3
 72
11
 73
7
 74
0
 42
0.0000001
 43
0.0000001
 44
0.0000000001
 40
0.0
 40
0.0
 40
0.0
 40
0.0
 40
0.235491873
 40
0.4844426794
 40
0.7421196713
 40
1.0
 40
1.0
 40
1.0
 40
1.0
 10
109.3180481735
 20
105.321398154
 30
0.0
 10
109.4482151068
 20
105.3386335322
 30
0.0
 10
109.7105053976
 20
105.4296121324
 30
0.0
 10
110.0362683408
 20
105.6962995194
 30
0.0
 10
110.2702540392
 20
106.0603726439
 30
0.0
 10
110.3471374068
 20
106.343040354
 30
0.0
 10
110.362359792
 20
106.4860184576
 30
0.0
  0
SPLINE
  5
4ED
100
AcDbEntity
  8
0
100
AcDbSpline
 62
7
  6
CONTINUOUS
 70
0
 71
3
 72
14
 73
10
 74
0
 42
0.0000001
 43
0.0000001
 44
0.0000000001
 40
0.0
 40
0.0
 40
0.0
 40
0.0
 40
0.1980875812
 40
0.3224152235
 40
0.4572306031
 40
0.5977161629
 40
0.738518622
 40
0.8742345038
 40
1.0
 40
1.0
 40
1.0
 40
1.0
 10
109.3180481735
 20
105.3213985742
 30
0.0
 10
110.3509279568
 20
104.8914529156
 30
0.0
 10
112.065391921
 20
104.2654912889
 30
0.0
 10
114.5666882815
 20
103.6138610491
 30
0.0
 10
116.7961294008
 20
103.2389123671
 30
0.0
 10
119.1464899162
 20
103.0927601523
 30
0.0
 10
121.5037203132
 20
103.2095020518
 30
0.0
 10
123.7520700419
 20
103.5614994684
 30
0.0
 10
125.1863359521
 20
103.9212174338
 30
0.0
 10
125.8683007052
 20
104.1199054361
 30
0.0
  0
SPLINE
  5
4EE
100
AcDbEntity
  8
0
100
AcDbSpline
 62
7
  6
CONTINUOUS
 70
0
 71
3
 72
9
 73
5
 74
0
 42
0.0000001
 43
0.0000001
 44
0.0000000001
 40
0.0
 40
0.0
 40
0.0
 40
0.0
 40
0.376083316
 40
1.0
 40
1.0
 40
1.0
 40
1.0
 10
89.1740697605
 20
67.4353597213
 30
0.0
 10
89.168718505
 20
67.4456567946
 30
0.0
 10
89.1607726549
 20
67.4758849448
 30
0.0
 10
89.1551106749
 20
67.5060767723
 30
0.0
 10
89.1520556279
 20
67.5250846083
 30
0.0
  0
SPLINE
  5
4EF
100
AcDbEntity
  8
0
100
AcDbSpline
 62
7
  6
CONTINUOUS
 70
0
 71
3
 72
39
 73
35
 74
0
 42
0.0000001
 43
0.0000001
 44
0.0000000001
 40
0.0
 40
0.0
 40
0.0
 40
0.0
 40
0.0031947372
 40
0.0074938182
 40
0.0193695442
 40
0.0355320436
 40
0.0558382071
 40
0.0801104815
 40
0.10812916
 40
0.1743779312
 40
0.2522166312
 40
0.338861392
 40
0.4312127876
 40
0.525966932
 40
0.6197337358
 40
0.7091582731
 40
0.7512331184
 40
0.7910413405
 40
0.8282265245
 40
0.8624542511
 40
0.8934200498
 40
0.9208439936
 40
0.9444836478
 40
0.9548156893
 40
0.9641259955
 40
0.9723933104
 40
0.9795979884
 40
0.9857261235
 40
0.9907654814
 40
0.9947048789
 40
0.997539591
 40
0.9992763395
 40
0.9997475124
 40
1.0
 40
1.0
 40
1.0
 40
1.0
 10
89.1520556279
 20
67.5250846083
 30
0.0
 10
89.1465426938
 20
67.5593848816
 30
0.0
 10
89.1364510341
 20
67.6402847243
 30
0.0
 10
89.1165526264
 20
67.8499766978
 30
0.0
 10
89.0934386109
 20
68.2009204736
 30
0.0
 10
89.0669354248
 20
68.725957621
 30
0.0
 10
89.0402588989
 20
69.3859464723
 30
0.0
 10
89.0133406134
 20
70.1749301788
 30
0.0
 10
88.9751679069
 20
71.4634036943
 30
0.0
 10
88.9289705271
 20
73.3343730338
 30
0.0
 10
88.8756391965
 20
75.8428561235
 30
0.0
 10
88.822093293
 20
78.6352396578
 30
0.0
 10
88.7684021278
 20
81.611594416
 30
0.0
 10
88.7146674115
 20
84.6654076976
 30
0.0
 10
88.6609464516
 20
87.6873887241
 30
0.0
 10
88.6153874705
 20
90.1365745532
 30
0.0
 10
88.578368115
 20
91.9990547293
 30
0.0
 10
88.5511859479
 20
93.2935518417
 30
0.0
 10
88.5240310709
 20
94.5026978435
 30
0.0
 10
88.4969075243
 20
95.615663503
 30
0.0
 10
88.4698407127
 20
96.6224500189
 30
0.0
 10
88.4428356566
 20
97.5140541389
 30
0.0
 10
88.4195164276
 20
98.1812846474
 30
0.0
 10
88.4005209078
 20
98.6515635655
 30
0.0
 10
88.3869414255
 20
98.9547574677
 30
0.0
 10
88.3733880779
 20
99.2239111156
 30
0.0
 10
88.3598755255
 20
99.4584012513
 30
0.0
 10
88.3464015247
 20
99.6577630318
 30
0.0
 10
88.3330862742
 20
99.821428074
 30
0.0
 10
88.3197981379
 20
99.9494226772
 30
0.0
 10
88.3072367968
 20
100.040669485
 30
0.0
 10
88.2953704246
 20
100.0951633964
 30
0.0
 10
88.2859874119
 20
100.1194706963
 30
0.0
 10
88.2794657818
 20
100.1259313934
 30
0.0
 10
88.2767201593
 20
100.125930622
 30
0.0
  0
SPLINE
  5
4F0
100
AcDbEntity
  8
0
100
AcDbSpline
 62
7
  6
CONTINUOUS
 70
0
 71
3
 72
9
 73
5
 74
0
 42
0.0000001
 43
0.0000001
 44
0.0000000001
 40
0.0
 40
0.0
 40
0.0
 40
0.0
 40
0.5547444931
 40
1.0
 40
1.0
 40
1.0
 40
1.0
 10
97.6659335139
 20
68.8321632246
 30
0.0
 10
97.7495885441
 20
68.825490806
 30
0.0
 10
97.9022268741
 20
68.8330913482
 30
0.0
 10
98.0487498877
 20
68.8931987612
 30
0.0
 10
98.0989462158
 20
68.9381136873
 30
0.0
  0
SPLINE
  5
4F1
100
AcDbEntity
  8
0
100
AcDbSpline
 62
7
  6
CONTINUOUS
 70
0
 71
3
 72
11
 73
7
 74
0
 42
0.0000001
 43
0.0000001
 44
0.0000000001
 40
0.0
 40
0.0
 40
0.0
 40
0.0
 40
0.2499256354
 40
0.4995436337
 40
0.7494160931
 40
1.0
 40
1.0
 40
1.0
 40
1.0
 10
98.0989462158
 20
68.9381136873
 30
0.0
 10
98.3734001882
 20
70.1315727949
 30
0.0
 10
98.8105819573
 20
72.5452394287
 30
0.0
 10
99.0421883373
 20
76.2192354871
 30
0.0
 10
98.810169903
 20
79.896405695
 30
0.0
 10
98.3732465791
 20
82.3146156809
 30
0.0
 10
98.0989462158
 20
83.5114194275
 30
0.0
  0
SPLINE
  5
4F2
100
AcDbEntity
  8
0
100
AcDbSpline
 62
7
  6
CONTINUOUS
 70
0
 71
3
 72
10
 73
6
 74
0
 42
0.0000001
 43
0.0000001
 44
0.0000000001
 40
0.0
 40
0.0
 40
0.0
 40
0.0
 40
0.5714806565
 40
0.8109494175
 40
1.0
 40
1.0
 40
1.0
 40
1.0
 10
97.6659335139
 20
83.4126782803
 30
0.0
 10
97.7502659657
 20
83.422032826
 30
0.0
 10
97.8695817172
 20
83.4408560584
 30
0.0
 10
98.0133017118
 20
83.4783058448
 30
0.0
 10
98.0734558219
 20
83.4996674966
 30
0.0
 10
98.0989462158
 20
83.5114194275
 30
0.0
  0
SPLINE
  5
4F3
100
AcDbEntity
  8
0
100
AcDbSpline
 62
7
  6
CONTINUOUS
 70
0
 71
3
 72
11
 73
7
 74
0
 42
0.0000001
 43
0.0000001
 44
0.0000000001
 40
0.0
 40
0.0
 40
0.0
 40
0.0
 40
0.2502705153
 40
0.5000033004
 40
0.7497360155
 40
1.0
 40
1.0
 40
1.0
 40
1.0
 10
97.6453313654
 20
68.8329755232
 30
0.0
 10
97.9253819943
 20
70.0278255509
 30
0.0
 10
98.3729573328
 20
72.4438998686
 30
0.0
 10
98.6113712549
 20
76.1223106736
 30
0.0
 10
98.3729604538
 20
79.8006905715
 30
0.0
 10
97.9253767438
 20
82.2167302788
 30
0.0
 10
97.6453313654
 20
83.4115486447
 30
0.0
  0
SPLINE
  5
4F4
100
AcDbEntity
  8
0
100
AcDbSpline
 62
7
  6
CONTINUOUS
 70
0
 71
3
 72
13
 73
9
 74
0
 42
0.0000001
 43
0.0000001
 44
0.0000000001
 40
0.0
 40
0.0
 40
0.0
 40
0.0
 40
0.2556218639
 40
0.3775166616
 40
0.4975602888
 40
0.6179686408
 40
0.740899789
 40
1.0
 40
1.0
 40
1.0
 40
1.0
 10
98.0989462158
 20
62.5275770594
 30
0.0
 10
98.3628057644
 20
62.9989700617
 30
0.0
 10
98.6937366656
 20
63.7349157815
 30
0.0
 10
98.9260821349
 20
64.763563481
 30
0.0
 10
98.984313733
 20
65.5300733217
 30
0.0
 10
98.9257820386
 20
66.2987269269
 30
0.0
 10
98.6927812117
 20
67.3377202599
 30
0.0
 10
98.362411359
 20
68.0840216567
 30
0.0
 10
98.0989462158
 20
68.5640378618
 30
0.0
  0
SPLINE
  5
4F5
100
AcDbEntity
  8
0
100
AcDbSpline
 62
7
  6
CONTINUOUS
 70
0
 71
3
 72
9
 73
5
 74
0
 42
0.0000001
 43
0.0000001
 44
0.0000000001
 40
0.0
 40
0.0
 40
0.0
 40
0.0
 40
0.5141370082
 40
1.0
 40
1.0
 40
1.0
 40
1.0
 10
97.6659335139
 20
68.3184466947
 30
0.0
 10
97.75320714
 20
68.32517639
 30
0.0
 10
97.9220017005
 20
68.3757561648
 30
0.0
 10
98.0540362266
 20
68.4945718494
 30
0.0
 10
98.0989462158
 20
68.5640378618
 30
0.0
  0
SPLINE
  5
4F6
100
AcDbEntity
  8
0
100
AcDbSpline
 62
7
  6
CONTINUOUS
 70
0
 71
3
 72
13
 73
9
 74
0
 42
0.0000001
 43
0.0000001
 44
0.0000000001
 40
0.0
 40
0.0
 40
0.0
 40
0.0
 40
0.2576530098
 40
0.379971374
 40
0.4999972377
 40
0.6200227843
 40
0.7423417337
 40
1.0
 40
1.0
 40
1.0
 40
1.0
 10
97.6453313654
 20
62.2790187275
 30
0.0
 10
97.9141615812
 20
62.7541091279
 30
0.0
 10
98.2526582172
 20
63.4946048978
 30
0.0
 10
98.4917832876
 20
64.5298315895
 30
0.0
 10
98.551847386
 20
65.2983212247
 30
0.0
 10
98.491813069
 20
66.066817478
 30
0.0
 10
98.2526409157
 20
67.1020455713
 30
0.0
 10
97.9141660192
 20
67.8425607494
 30
0.0
 10
97.6453313654
 20
68.3176614345
 30
0.0
  0
SPLINE
  5
4F7
100
AcDbEntity
  8
0
100
AcDbSpline
 62
7
  6
CONTINUOUS
 70
0
 71
3
 72
9
 73
5
 74
0
 42
0.0000001
 43
0.0000001
 44
0.0000000001
 40
0.0
 40
0.0
 40
0.0
 40
0.0
 40
0.514137032
 40
1.0
 40
1.0
 40
1.0
 40
1.0
 10
97.6659335139
 20
99.2334147669
 30
0.0
 10
97.7532071393
 20
99.2266850699
 30
0.0
 10
97.9220016618
 20
99.1761052378
 30
0.0
 10
98.0540362311
 20
99.057289623
 30
0.0
 10
98.0989462158
 20
98.9878236177
 30
0.0
  0
SPLINE
  5
4F8
100
AcDbEntity
  8
0
100
AcDbSpline
 62
7
  6
CONTINUOUS
 70
0
 71
3
 72
13
 73
9
 74
0
 42
0.0000001
 43
0.0000001
 44
0.0000000001
 40
0.0
 40
0.0
 40
0.0
 40
0.0
 40
0.2591002099
 40
0.3820313586
 40
0.5024397105
 40
0.6224833378
 40
0.7443781352
 40
1.0
 40
1.0
 40
1.0
 40
1.0
 10
98.0989462158
 20
98.9878236177
 30
0.0
 10
98.3624112404
 20
99.4678398839
 30
0.0
 10
98.6927812702
 20
100.2141411879
 30
0.0
 10
98.925782025
 20
101.2531345434
 30
0.0
 10
98.9843137373
 20
102.0217881431
 30
0.0
 10
98.9260821303
 20
102.7882979813
 30
0.0
 10
98.6937366804
 20
103.8169456863
 30
0.0
 10
98.362805734
 20
104.5528913826
 30
0.0
 10
98.0989462158
 20
105.0242844029
 30
0.0
  0
SPLINE
  5
4F9
100
AcDbEntity
  8
0
100
AcDbSpline
 62
7
  6
CONTINUOUS
 70
0
 71
3
 72
13
 73
9
 74
0
 42
0.0000001
 43
0.0000001
 44
0.0000000001
 40
0.0
 40
0.0
 40
0.0
 40
0.0
 40
0.2576582673
 40
0.3799772159
 40
0.5000027625
 40
0.6200286261
 40
0.74234699
 40
1.0
 40
1.0
 40
1.0
 40
1.0
 10
97.6453313654
 20
99.234200028
 30
0.0
 10
97.9141658389
 20
99.709300818
 30
0.0
 10
98.2526410012
 20
100.4498158577
 30
0.0
 10
98.491813047
 20
101.4850439923
 30
0.0
 10
98.5518473932
 20
102.2535402366
 30
0.0
 10
98.4917832791
 20
103.0220298709
 30
0.0
 10
98.2526582477
 20
104.0572565765
 30
0.0
 10
97.9141615126
 20
104.797752295
 30
0.0
 10
97.6453313654
 20
105.2728427349
 30
0.0
  0
SPLINE
  5
4FA
100
AcDbEntity
  8
0
100
AcDbSpline
 62
7
  6
CONTINUOUS
 70
0
 71
3
 72
10
 73
6
 74
0
 42
0.0000001
 43
0.0000001
 44
0.0000000001
 40
0.0
 40
0.0
 40
0.0
 40
0.0
 40
0.5714806479
 40
0.8109494051
 40
1.0
 40
1.0
 40
1.0
 40
1.0
 10
97.6659335139
 20
84.1391831827
 30
0.0
 10
97.7502659662
 20
84.1298286381
 30
0.0
 10
97.8695817182
 20
84.1110054212
 30
0.0
 10
98.0133017249
 20
84.0735556552
 30
0.0
 10
98.07345582
 20
84.0521939567
 30
0.0
 10
98.0989462158
 20
84.0404420242
 30
0.0
  0
SPLINE
  5
4FB
100
AcDbEntity
  8
0
100
AcDbSpline
 62
7
  6
CONTINUOUS
 70
0
 71
3
 72
11
 73
7
 74
0
 42
0.0000001
 43
0.0000001
 44
0.0000000001
 40
0.0
 40
0.0
 40
0.0
 40
0.0
 40
0.2505839072
 40
0.5004563665
 40
0.7500743649
 40
1.0
 40
1.0
 40
1.0
 40
1.0
 10
98.0989462158
 20
84.0404420242
 30
0.0
 10
98.3732466387
 20
85.2372457605
 30
0.0
 10
98.8101698592
 20
87.655455772
 30
0.0
 10
99.0421883712
 20
91.3326259846
 30
0.0
 10
98.8105818667
 20
95.00662203
 30
0.0
 10
98.3734003202
 20
97.4202887152
 30
0.0
 10
98.0989462158
 20
98.6137477932
 30
0.0
  0
SPLINE
  5
4FC
100
AcDbEntity
  8
0
100
AcDbSpline
 62
7
  6
CONTINUOUS
 70
0
 71
3
 72
9
 73
5
 74
0
 42
0.0000001
 43
0.0000001
 44
0.0000000001
 40
0.0
 40
0.0
 40
0.0
 40
0.0
 40
0.5547445545
 40
1.0
 40
1.0
 40
1.0
 40
1.0
 10
97.6659335139
 20
98.719698237
 30
0.0
 10
97.7495885492
 20
98.7263706543
 30
0.0
 10
97.902226854
 20
98.7187700266
 30
0.0
 10
98.0487498948
 20
98.6586627081
 30
0.0
 10
98.0989462158
 20
98.6137477932
 30
0.0
  0
SPLINE
  5
4FD
100
AcDbEntity
  8
0
100
AcDbSpline
 62
7
  6
CONTINUOUS
 70
0
 71
3
 72
11
 73
7
 74
0
 42
0.0000001
 43
0.0000001
 44
0.0000000001
 40
0.0
 40
0.0
 40
0.0
 40
0.0
 40
0.2502639846
 40
0.4999966997
 40
0.7497294846
 40
1.0
 40
1.0
 40
1.0
 40
1.0
 10
97.6453313654
 20
84.1403128178
 30
0.0
 10
97.9253768506
 20
85.3351311587
 30
0.0
 10
98.3729603766
 20
87.7511709024
 30
0.0
 10
98.6113713154
 20
91.4295507931
 30
0.0
 10
98.3729571699
 20
95.1079615618
 30
0.0
 10
97.9253822446
 20
97.52403597
 30
0.0
 10
97.6453313654
 20
98.7188859393
 30
0.0
  0
SPLINE
  5
4FE
100
AcDbEntity
  8
0
100
AcDbSpline
 62
7
  6
CONTINUOUS
 70
0
 71
3
 72
43
 73
39
 74
0
 42
0.0000001
 43
0.0000001
 44
0.0000000001
 40
0.0
 40
0.0
 40
0.0
 40
0.0
 40
0.0002573014
 40
0.0007410672
 40
0.0025279408
 40
0.0054462349
 40
0.0095025406
 40
0.0146907774
 40
0.0209993491
 40
0.0284157573
 40
0.0369245052
 40
0.0465044784
 40
0.05713377
 40
0.0814445086
 40
0.1096299275
 40
0.1414325552
 40
0.1765566908
 40
0.2146782861
 40
0.2554452294
 40
0.2984792777
 40
0.3897420528
 40
0.4850968317
 40
0.5810227967
 40
0.6739781865
 40
0.7605310123
 40
0.8003947863
 40
0.837485818
 40
0.8714588541
 40
0.9020021339
 40
0.9288319551
 40
0.9517012186
 40
0.9704006736
 40
0.9781308157
 40
0.9847574559
 40
0.9902673319
 40
0.9946479043
 40
0.9978912994
 40
1.0
 40
1.0
 40
1.0
 40
1.0
 10
87.1695772834
 20
67.4259311475
 30
0.0
 10
87.1667733748
 20
67.4259326587
 30
0.0
 10
87.1601378601
 20
67.432651929
 30
0.0
 10
87.1506376513
 20
67.4576924218
 30
0.0
 10
87.1385625562
 20
67.5139557391
 30
0.0
 10
87.1258159591
 20
67.6080961217
 30
0.0
 10
87.11231263
 20
67.7401855849
 30
0.0
 10
87.0987867215
 20
67.9090560444
 30
0.0
 10
87.0850970266
 20
68.1147398076
 30
0.0
 10
87.0713704527
 20
68.3566323204
 30
0.0
 10
87.0576013648
 20
68.6342350492
 30
0.0
 10
87.0438051237
 20
68.946881805
 30
0.0
 10
87.0245100412
 20
69.4316505778
 30
0.0
 10
87.0008232111
 20
70.1191482826
 30
0.0
 10
86.9733895683
 20
71.037375693
 30
0.0
 10
86.945892521
 20
72.0734851959
 30
0.0
 10
86.9183394487
 20
73.2179054006
 30
0.0
 10
86.8907527571
 20
74.4600381533
 30
0.0
 10
86.8631403542
 20
75.7883872887
 30
0.0
 10
86.8255619865
 20
77.6957523812
 30
0.0
 10
86.7793260784
 20
80.1979248434
 30
0.0
 10
86.7247743919
 20
83.2764232892
 30
0.0
 10
86.6702183907
 20
86.3733696805
 30
0.0
 10
86.615715309
 20
89.3743836463
 30
0.0
 10
86.5692549215
 20
91.7645118374
 30
0.0
 10
86.5314041691
 20
93.5459137689
 30
0.0
 10
86.5038281992
 20
94.7544217426
 30
0.0
 10
86.4762921543
 20
95.8613334396
 30
0.0
 10
86.4488135101
 20
96.8563882904
 30
0.0
 10
86.4214326164
 20
97.7303938944
 30
0.0
 10
86.3941655527
 20
98.475261879
 30
0.0
 10
86.3704229477
 20
99.0119778082
 30
0.0
 10
86.3508289028
 20
99.3716716745
 30
0.0
 10
86.3371429798
 20
99.5877420674
 30
0.0
 10
86.3235096022
 20
99.7672097124
 30
0.0
 10
86.3101325879
 20
99.9097569931
 30
0.0
 10
86.2967991966
 20
100.0149189147
 30
0.0
 10
86.2866081387
 20
100.0725231557
 30
0.0
 10
86.2802998429
 20
100.0946196118
 30
0.0
  0
SPLINE
  5
4FF
100
AcDbEntity
  8
0
100
AcDbSpline
 62
7
  6
CONTINUOUS
 70
0
 71
3
 72
9
 73
5
 74
0
 42
0.0000001
 43
0.0000001
 44
0.0000000001
 40
0.0
 40
0.0
 40
0.0
 40
0.0
 40
0.2983931581
 40
1.0
 40
1.0
 40
1.0
 40
1.0
 10
86.2802998429
 20
100.0946196118
 30
0.0
 10
86.2796620346
 20
100.0968537023
 30
0.0
 10
86.2774098361
 20
100.1042998225
 30
0.0
 10
86.2747479456
 20
100.1116739038
 30
0.0
 10
86.2722263711
 20
100.1165199808
 30
0.0
  0
SPLINE
  5
500
100
AcDbEntity
  8
0
100
AcDbSpline
 62
7
  6
CONTINUOUS
 70
0
 71
3
 72
23
 73
19
 74
0
 42
0.0000001
 43
0.0000001
 44
0.0000000001
 40
0.0
 40
0.0
 40
0.0
 40
0.0
 40
0.0031036195
 40
0.0082390678
 40
0.0154383174
 40
0.0247068403
 40
0.0360348319
 40
0.0494068441
 40
0.0822151179
 40
0.1229607213
 40
0.1714071837
 40
0.227290777
 40
0.2902852725
 40
0.3600418863
 40
0.4361569972
 40
0.6057103825
 40
0.7950928911
 40
1.0
 40
1.0
 40
1.0
 40
1.0
 10
83.7312117515
 20
67.4353532796
 30
0.0
 10
83.7259286422
 20
67.4455060535
 30
0.0
 10
83.7180405862
 20
67.4752415476
 30
0.0
 10
83.707605483
 20
67.5310260735
 30
0.0
 10
83.69722334
 20
67.6101304276
 30
0.0
 10
83.6865454438
 20
67.7120410875
 30
0.0
 10
83.6758406705
 20
67.8368669235
 30
0.0
 10
83.660405516
 20
68.0483726355
 30
0.0
 10
83.6417585114
 20
68.3684008731
 30
0.0
 10
83.6203893181
 20
68.8177904421
 30
0.0
 10
83.5989170877
 20
69.3523535112
 30
0.0
 10
83.5773654295
 20
69.96901437
 30
0.0
 10
83.5557611679
 20
70.664300612
 30
0.0
 10
83.5341244783
 20
71.4342247664
 30
0.0
 10
83.5041517932
 20
72.5970194346
 30
0.0
 10
83.4673268725
 20
74.2009190591
 30
0.0
 10
83.4244067704
 20
76.2797373693
 30
0.0
 10
83.3966136785
 20
77.733477624
 30
0.0
 10
83.3825135112
 20
78.488973495
 30
0.0
  0
LINE
  5
501
100
AcDbEntity
  8
0
100
AcDbLine
 62
7
  6
CONTINUOUS
 10
97.6659335139
 20
62.2789996094
 11
97.6453312497
 21
62.2790187275
  0
LINE
  5
502
100
AcDbEntity
  8
0
100
AcDbLine
 62
7
  6
CONTINUOUS
 10
97.6659335139
 20
105.2728618531
 11
97.6453312479
 21
105.2728427349
  0
SPLINE
  5
503
100
AcDbEntity
  8
0
100
AcDbSpline
 62
7
  6
CONTINUOUS
 70
0
 71
3
 72
11
 73
7
 74
0
 42
0.0000001
 43
0.0000001
 44
0.0000000001
 40
0.0
 40
0.0
 40
0.0
 40
0.0
 40
0.2402680438
 40
0.484914493
 40
0.7374381719
 40
1.0
 40
1.0
 40
1.0
 40
1.0
 10
90.2825142676
 20
102.2535213809
 30
0.0
 10
90.2825142676
 20
101.9993584517
 30
0.0
 10
90.3215282716
 20
101.4856216321
 30
0.0
 10
90.493482159
 20
100.7222787138
 30
0.0
 10
90.7708841324
 20
99.9659678198
 30
0.0
 10
91.0140093053
 20
99.4771905835
 30
0.0
 10
91.1485396714
 20
99.234200028
 30
0.0
  0
SPLINE
  5
504
100
AcDbEntity
  8
0
100
AcDbSpline
 62
7
  6
CONTINUOUS
 70
0
 71
3
 72
10
 73
6
 74
0
 42
0.0000001
 43
0.0000001
 44
0.0000000001
 40
0.0
 40
0.0
 40
0.0
 40
0.0
 40
0.5147009301
 40
0.7595456988
 40
1.0
 40
1.0
 40
1.0
 40
1.0
 10
91.1485396714
 20
105.2728427349
 30
0.0
 10
90.885025445
 20
104.7968797972
 30
0.0
 10
90.5544034001
 20
104.0554318468
 30
0.0
 10
90.3215934844
 20
103.0214809969
 30
0.0
 10
90.2825142676
 20
102.5076825043
 30
0.0
 10
90.2825142676
 20
102.2535213809
 30
0.0
  0
SPLINE
  5
505
100
AcDbEntity
  8
0
100
AcDbSpline
 62
7
  6
CONTINUOUS
 70
0
 71
3
 72
9
 73
5
 74
0
 42
0.0000001
 43
0.0000001
 44
0.0000000001
 40
0.0
 40
0.0
 40
0.0
 40
0.0
 40
0.4994860385
 40
1.0
 40
1.0
 40
1.0
 40
1.0
 10
90.2825142676
 20
91.4295993759
 30
0.0
 10
90.2825142677
 20
90.2054516021
 30
0.0
 10
90.4372377404
 20
87.7524093592
 30
0.0
 10
90.8743493428
 20
85.3359430483
 30
0.0
 10
91.1485396714
 20
84.1403128178
 30
0.0
  0
SPLINE
  5
506
100
AcDbEntity
  8
0
100
AcDbSpline
 62
7
  6
CONTINUOUS
 70
0
 71
3
 72
9
 73
5
 74
0
 42
0.0000001
 43
0.0000001
 44
0.0000000001
 40
0.0
 40
0.0
 40
0.0
 40
0.0
 40
0.5005087962
 40
1.0
 40
1.0
 40
1.0
 40
1.0
 10
91.1485396714
 20
98.7188859393
 30
0.0
 10
90.8743522757
 20
97.5232684976
 30
0.0
 10
90.4372875765
 20
95.1067963948
 30
0.0
 10
90.2825142675
 20
92.6537593478
 30
0.0
 10
90.2825142676
 20
91.4295993759
 30
0.0
  0
SPLINE
  5
507
100
AcDbEntity
  8
0
100
AcDbSpline
 62
7
  6
CONTINUOUS
 70
0
 71
3
 72
9
 73
5
 74
0
 42
0.0000001
 43
0.0000001
 44
0.0000000001
 40
0.0
 40
0.0
 40
0.0
 40
0.0
 40
0.4994860385
 40
1.0
 40
1.0
 40
1.0
 40
1.0
 10
90.2825142676
 20
76.1222620812
 30
0.0
 10
90.2825142677
 20
74.8981143075
 30
0.0
 10
90.4372377404
 20
72.4450720646
 30
0.0
 10
90.8743493428
 20
70.0286057537
 30
0.0
 10
91.1485396714
 20
68.8329755232
 30
0.0
  0
SPLINE
  5
508
100
AcDbEntity
  8
0
100
AcDbSpline
 62
7
  6
CONTINUOUS
 70
0
 71
3
 72
9
 73
5
 74
0
 42
0.0000001
 43
0.0000001
 44
0.0000000001
 40
0.0
 40
0.0
 40
0.0
 40
0.0
 40
0.5005087962
 40
1.0
 40
1.0
 40
1.0
 40
1.0
 10
91.1485396714
 20
83.4115486447
 30
0.0
 10
90.8743522757
 20
82.215931203
 30
0.0
 10
90.4372875765
 20
79.7994591002
 30
0.0
 10
90.2825142675
 20
77.3464220532
 30
0.0
 10
90.2825142676
 20
76.1222620812
 30
0.0
  0
SPLINE
  5
509
100
AcDbEntity
  8
0
100
AcDbSpline
 62
7
  6
CONTINUOUS
 70
0
 71
3
 72
11
 73
7
 74
0
 42
0.0000001
 43
0.0000001
 44
0.0000000001
 40
0.0
 40
0.0
 40
0.0
 40
0.0
 40
0.2402680438
 40
0.484914493
 40
0.7374381719
 40
1.0
 40
1.0
 40
1.0
 40
1.0
 10
90.2825142676
 20
65.2983400799
 30
0.0
 10
90.2825142677
 20
65.0441771508
 30
0.0
 10
90.3215282716
 20
64.5304403313
 30
0.0
 10
90.4934821591
 20
63.7670974131
 30
0.0
 10
90.7708841324
 20
63.0107865192
 30
0.0
 10
91.0140093053
 20
62.522009283
 30
0.0
 10
91.1485396714
 20
62.2790187275
 30
0.0
  0
SPLINE
  5
50A
100
AcDbEntity
  8
0
100
AcDbSpline
 62
7
  6
CONTINUOUS
 70
0
 71
3
 72
10
 73
6
 74
0
 42
0.0000001
 43
0.0000001
 44
0.0000000001
 40
0.0
 40
0.0
 40
0.0
 40
0.0
 40
0.5147009301
 40
0.7595456988
 40
1.0
 40
1.0
 40
1.0
 40
1.0
 10
91.1485396714
 20
68.3176614345
 30
0.0
 10
90.885025445
 20
67.8416984967
 30
0.0
 10
90.5544034
 20
67.1002505462
 30
0.0
 10
90.3215934844
 20
66.0662996961
 30
0.0
 10
90.2825142675
 20
65.5525012033
 30
0.0
 10
90.2825142676
 20
65.2983400799
 30
0.0
  0
SPLINE
  5
50B
100
AcDbEntity
  8
0
100
AcDbSpline
 62
7
  6
CONTINUOUS
 70
0
 71
3
 72
10
 73
6
 74
0
 42
0.0000001
 43
0.0000001
 44
0.0000000001
 40
0.0
 40
0.0
 40
0.0
 40
0.0
 40
0.7143811974
 40
0.9079629918
 40
1.0
 40
1.0
 40
1.0
 40
1.0
 10
133.2557193484
 20
130.2590619956
 30
0.0
 10
133.262448682
 20
130.2603032644
 30
0.0
 10
133.2713327811
 20
130.2621913867
 30
0.0
 10
133.2798085766
 20
130.265211394
 30
0.0
 10
133.2825142676
 20
130.2671404486
 30
0.0
 10
133.2825142676
 20
130.2680220452
 30
0.0
  0
ELLIPSE
  5
50C
100
AcDbEntity
  8
0
100
AcDbEllipse
 62
7
  6
CONTINUOUS
 10
112.6148952443
 20
127.2759307312
 30
0.0
 11
3.0
 21
0.0
 31
0.0
 40
1.0
 41
-0.0
 42
1.5707963268
  0
ELLIPSE
  5
50D
100
AcDbEntity
  8
0
100
AcDbEllipse
 62
7
  6
CONTINUOUS
 10
133.4391385946
 20
127.2759307312
 30
0.0
 11
0.0
 21
3.0
 31
0.0
 40
0.5773502692
 41
0.1060960822
 42
1.5707963256
  0
ENDSEC
  0
SECTION
  2
OBJECTS
  0
DICTIONARY
  5
50E
100
AcDbDictionary
  3
ACAD_GROUP
350
50F
  3
ACAD_MLINESTYLE
350
510
  0
DICTIONARY
  5
50F
102
{ACAD_REACTORS
330
50E
102
}
100
AcDbDictionary
  0
DICTIONARY
  5
510
102
{ACAD_REACTORS
330
50E
102
}
100
AcDbDictionary
  3
STANDARD
350
511
  0
MLINESTYLE
  5
511
102
{ACAD_REACTORS
330
510
102
}
100
AcDbMlineStyle
  2
STANDARD
 70
0
  3

 62
256
 51
90.0
 52
90.0
 71
2
 49
0.5
 62
256
  6
BYLAYER
 49
-0.5
 62
256
  6
BYLAYER
  0
ENDSEC
  0
EOF
