999
DXF file: C:\Users\64ciro\Desktop\FILE 3D-2D\ARMATEC\SINGOLI\h36fll018_3082.dxf
999
Pro/ENGINEER 2017260 by Parametric Technology Corporation
  0
SECTION
  2
HEADER
  9
$ACADVER
  1
AC1014
  9
$DWGCODEPAGE
  3
ANSI_1252
  9
$EXTMAX
 10
297.0
 20
210.0
 30
0.0
  9
$EXTMIN
 10
0.0
 20
0.0
 30
0.0
  9
$LIMMIN
 10
0.0
 20
0.0
  9
$LIMMAX
 10
297.0
 20
210.0
  9
$VIEWCTR
 10
148.5
 20
105.0
  9
$VIEWSIZE
 40
210.0
  9
$CLAYER
  8
0
  9
$LTSCALE
 40
16.335
  9
$CELTYPE
  6
BYLAYER
  9
$DIMSCALE
 40
1.0
  9
$DIMASZ
 40
2.5
  9
$DIMEXO
 40
0.0625
  9
$DIMDLI
 40
11.286
  9
$DIMEXE
 40
0.125
  9
$DIMCEN
 40
2.673
  9
$DIMLFAC
 40
1.0
  9
$DIMBLK
  1
_CLOSED
  9
$DIMALT
 70
0
  9
$DIMALTF
 40
25.4
  9
$DIMTXT
 40
2.5
  9
$DIMTOL
 70
1
  9
$DIMLIM
 70
0
  9
$DIMTFAC
 40
1.0
  9
$DIMTP
 40
0.01
  9
$DIMTM
 40
0.01
  9
$DIMGAP
 40
0.625
  9
$AUNITS
 70
0
  9
$PDMODE
 70
3
  9
$PDSIZE
 40
0.3125
  9
$HANDSEED
  5
56E
  9
$TILEMODE
 70
1
  9
$MEASUREMENT
 70
1
  0
ENDSEC
  0
SECTION
  2
CLASSES
  0
ENDSEC
  0
SECTION
  2
TABLES
  0
TABLE
  2
VPORT
  5
8
100
AcDbSymbolTable
 70
2
  0
VPORT
  5
1F4
100
AcDbSymbolTableRecord
100
AcDbViewportTableRecord
  2
*ACTIVE
 70
0
 10
0.0
 20
0.0
 11
1.0
 21
1.0
 12
148.5
 22
105.0
 13
0.0
 23
0.0
 14
1.0
 24
1.0
 15
0.0
 25
0.0
 16
0.0
 26
0.0
 36
1.0
 17
0.0
 27
0.0
 37
0.0
 40
210.0
 41
1.4142857143
 42
50.0
 43
0.0
 44
0.0
 50
0.0
 51
0.0
 71
0
 72
100
 73
1
 74
1
 75
0
 76
0
 77
0
 78
0
  0
ENDTAB
  0
TABLE
  2
LTYPE
  5
5
100
AcDbSymbolTable
 70
6
  0
LTYPE
  5
14
100
AcDbSymbolTableRecord
100
AcDbLinetypeTableRecord
  2
BYBLOCK
 70
0
  3

 72
65
 73
0
 40
0.0
  0
LTYPE
  5
15
100
AcDbSymbolTableRecord
100
AcDbLinetypeTableRecord
  2
BYLAYER
 70
0
  3

 72
65
 73
0
 40
0.0
  0
LTYPE
  5
16
100
AcDbSymbolTableRecord
100
AcDbLinetypeTableRecord
  2
CONTINUOUS
 70
64
  3
Solid line
 72
65
 73
0
 40
0.0
  0
LTYPE
  5
1F5
100
AcDbSymbolTableRecord
100
AcDbLinetypeTableRecord
  2
CENTER
 70
64
  3
____ _ ____ _ ____ _ ____ _ ____ _ ____ _ ____
 72
65
 73
4
 40
0.6
 49
0.375
 74
0
 49
-0.075
 74
0
 49
0.075
 74
0
 49
-0.075
 74
0
  0
LTYPE
  5
1F6
100
AcDbSymbolTableRecord
100
AcDbLinetypeTableRecord
  2
HIDDEN
 70
64
  3
- - - - - - - - - - - - - - - - - - - -
 72
65
 73
2
 40
0.2
 49
0.1
 74
0
 49
-0.1
 74
0
  0
LTYPE
  5
1F7
100
AcDbSymbolTableRecord
100
AcDbLinetypeTableRecord
  2
PHANTOM
 70
64
  3
_____ _ _ _____ _ _ _____ _ _ _____
 72
65
 73
6
 40
0.8
 49
0.45
 74
0
 49
-0.05
 74
0
 49
0.1
 74
0
 49
-0.05
 74
0
 49
0.1
 74
0
 49
-0.05
 74
0
  0
LTYPE
  5
1F8
100
AcDbSymbolTableRecord
100
AcDbLinetypeTableRecord
  2
DOT
 70
64
  3
. . . . . . . . . . . . . . . . . . . .
 72
65
 73
2
 40
0.2
 49
0.1
 74
0
 49
-0.1
 74
0
  0
LTYPE
  5
1F9
100
AcDbSymbolTableRecord
100
AcDbLinetypeTableRecord
  2
DASHED
 70
64
  3
- - - - - - - - - - - - - - - - - - - -
 72
65
 73
2
 40
0.2
 49
0.1
 74
0
 49
-0.1
 74
0
  0
ENDTAB
  0
TABLE
  2
LAYER
  5
2
100
AcDbSymbolTable
 70
36
  0
LAYER
  5
10
100
AcDbSymbolTableRecord
100
AcDbLayerTableRecord
  2
0
 70
0
 62
7
  6
CONTINUOUS
  0
LAYER
  5
1FA
100
AcDbSymbolTableRecord
100
AcDbLayerTableRecord
  2
DEFAULT_1
 70
0
 62
7
  6
CENTER
  0
LAYER
  5
1FB
100
AcDbSymbolTableRecord
100
AcDbLayerTableRecord
  2
DEFAULT_2
 70
0
 62
8
  6
HIDDEN
  0
LAYER
  5
1FC
100
AcDbSymbolTableRecord
100
AcDbLayerTableRecord
  2
DEFAULT_3
 70
0
 62
7
  6
PHANTOM
  0
LAYER
  5
1FD
100
AcDbSymbolTableRecord
100
AcDbLayerTableRecord
  2
ASSI
 70
0
 62
7
  6
CONTINUOUS
  0
LAYER
  5
1FE
100
AcDbSymbolTableRecord
100
AcDbLayerTableRecord
  2
COSMETICA
 70
0
 62
7
  6
CONTINUOUS
  0
LAYER
  5
1FF
100
AcDbSymbolTableRecord
100
AcDbLayerTableRecord
  2
CSYS
 70
0
 62
7
  6
CONTINUOUS
  0
LAYER
  5
200
100
AcDbSymbolTableRecord
100
AcDbLayerTableRecord
  2
CURVE
 70
0
 62
7
  6
CONTINUOUS
  0
LAYER
  5
201
100
AcDbSymbolTableRecord
100
AcDbLayerTableRecord
  2
DETTAGLI
 70
0
 62
7
  6
CONTINUOUS
  0
LAYER
  5
202
100
AcDbSymbolTableRecord
100
AcDbLayerTableRecord
  2
FILETTI
 70
0
 62
7
  6
CONTINUOUS
  0
LAYER
  5
203
100
AcDbSymbolTableRecord
100
AcDbLayerTableRecord
  2
GEOM
 70
0
 62
7
  6
CONTINUOUS
  0
LAYER
  5
204
100
AcDbSymbolTableRecord
100
AcDbLayerTableRecord
  2
GEOMETRIA_SOLIDA
 70
0
 62
7
  6
CONTINUOUS
  0
LAYER
  5
205
100
AcDbSymbolTableRecord
100
AcDbLayerTableRecord
  2
LAY0001
 70
0
 62
7
  6
CONTINUOUS
  0
LAYER
  5
206
100
AcDbSymbolTableRecord
100
AcDbLayerTableRecord
  2
LAY0002
 70
0
 62
7
  6
CONTINUOUS
  0
LAYER
  5
207
100
AcDbSymbolTableRecord
100
AcDbLayerTableRecord
  2
LAY0003
 70
0
 62
7
  6
CONTINUOUS
  0
LAYER
  5
208
100
AcDbSymbolTableRecord
100
AcDbLayerTableRecord
  2
NOGEOM
 70
0
 62
7
  6
CONTINUOUS
  0
LAYER
  5
209
100
AcDbSymbolTableRecord
100
AcDbLayerTableRecord
  2
PIANI
 70
0
 62
7
  6
CONTINUOUS
  0
LAYER
  5
20A
100
AcDbSymbolTableRecord
100
AcDbLayerTableRecord
  2
QUOTE
 70
0
 62
7
  6
CONTINUOUS
  0
LAYER
  5
20B
100
AcDbSymbolTableRecord
100
AcDbLayerTableRecord
  2
RACCORDI
 70
0
 62
7
  6
CONTINUOUS
  0
LAYER
  5
20C
100
AcDbSymbolTableRecord
100
AcDbLayerTableRecord
  2
TABELLE
 70
0
 62
7
  6
CONTINUOUS
  0
ENDTAB
  0
TABLE
  2
STYLE
  5
3
100
AcDbSymbolTable
 70
1
  0
STYLE
  5
11
100
AcDbSymbolTableRecord
100
AcDbTextStyleTableRecord
  2
STANDARD
 70
0
 40
0.0
 41
1.0
 50
0.0
 71
0
 42
0.2
  3
trium.ttf
  4

  0
STYLE
  5
20D
100
AcDbSymbolTableRecord
100
AcDbTextStyleTableRecord
  2
TEXTSTYLE_1
 70
0
 40
0.0
 41
0.8
 50
0.0
 71
0
 42
0.2
  3
gdt
  4

  0
ENDTAB
  0
TABLE
  2
VIEW
  5
6
100
AcDbSymbolTable
 70
0
  0
ENDTAB
  0
TABLE
  2
UCS
  5
7
100
AcDbSymbolTable
 70
0
  0
ENDTAB
  0
TABLE
  2
APPID
  5
9
100
AcDbSymbolTable
 70
1
  0
APPID
  5
20E
100
AcDbSymbolTableRecord
100
AcDbRegAppTableRecord
  2
ACAD
 70
0
  0
ENDTAB
  0
TABLE
  2
BLOCK_RECORD
  5
1
100
AcDbSymbolTable
 70
0
  0
BLOCK_RECORD
  5
1F
100
AcDbSymbolTableRecord
100
AcDbBlockTableRecord
  2
*MODEL_SPACE
  0
BLOCK_RECORD
  5
1B
100
AcDbSymbolTableRecord
100
AcDbBlockTableRecord
  2
*PAPER_SPACE
  0
ENDTAB
  0
TABLE
  2
DIMSTYLE
  5
A
100
AcDbSymbolTable
 70
1
  0
DIMSTYLE
105
20F
100
AcDbSymbolTableRecord
100
AcDbDimStyleTableRecord
  2
STANDARD
 70
0
  3

  4

  5
_CLOSED
  6
_CLOSED
  7
_CLOSED
 40
1.0
 41
2.5
 42
0.0625
 43
0.38
 44
0.125
 45
0.0
 46
0.0
 47
0.01
 48
0.01
140
2.5
141
0.09
142
0.0
143
25.4
144
1.0
145
0.0
146
1.0
147
0.625
 71
1.0
 72
0.0
 73
0
 74
0
 75
0
 76
0
 77
1
 78
8
 79
2
170
0
171
1
172
0
173
0
174
0
175
0
176
0
177
0
178
0
270
2
179
2
271
2
272
2
273
2
274
2
275
0
280
0
281
0
282
0
283
1
284
8
285
0
286
0
287
3
288
0
340
11
  0
ENDTAB
  0
ENDSEC
  0
SECTION
  2
BLOCKS
  0
BLOCK
  5
20
100
AcDbEntity
  8
0
100
AcDbBlockBegin
  2
*MODEL_SPACE
 70
0
 10
0.0
 20
0.0
 30
0.0
  3
*MODEL_SPACE
  1

  0
ENDBLK
  5
21
100
AcDbEntity
  8
0
100
AcDbBlockEnd
  0
BLOCK
  5
1C
100
AcDbEntity
  8
0
100
AcDbBlockBegin
  2
*PAPER_SPACE
 70
0
 10
0.0
 20
0.0
 30
0.0
  3
*PAPER_SPACE
  1

  0
ENDBLK
  5
1D
100
AcDbEntity
  8
0
100
AcDbBlockEnd
  0
ENDSEC
  0
SECTION
  2
ENTITIES
  0
LINE
  5
210
100
AcDbEntity
  8
0
100
AcDbLine
 62
7
  6
CONTINUOUS
 10
0.0
 20
0.0
 11
0.0
 21
210.0
  0
LINE
  5
211
100
AcDbEntity
  8
0
100
AcDbLine
 62
7
  6
CONTINUOUS
 10
0.0
 20
0.0
 11
297.0
 21
0.0
  0
LINE
  5
212
100
AcDbEntity
  8
0
100
AcDbLine
 62
7
  6
CONTINUOUS
 10
0.0
 20
210.0
 11
297.0
 21
210.0
  0
LINE
  5
213
100
AcDbEntity
  8
0
100
AcDbLine
 62
7
  6
CONTINUOUS
 10
297.0
 20
0.0
 11
297.0
 21
210.0
  0
LINE
  5
214
100
AcDbEntity
  8
0
100
AcDbLine
 62
7
  6
CONTINUOUS
 10
83.3035039892
 20
71.6640002361
 11
84.0251918257
 21
70.4140002361
  0
LINE
  5
215
100
AcDbEntity
  8
0
100
AcDbLine
 62
7
  6
CONTINUOUS
 10
80.6591664219
 20
72.4140002361
 11
80.6591664219
 21
97.9140002361
  0
LINE
  5
216
100
AcDbEntity
  8
0
100
AcDbLine
 62
7
  6
CONTINUOUS
 10
81.1591664219
 20
71.9140002361
 11
81.1591664219
 21
98.4140002361
  0
LINE
  5
217
100
AcDbEntity
  8
0
100
AcDbLine
 62
7
  6
CONTINUOUS
 10
82.8704912873
 20
98.4140002361
 11
82.8704912873
 21
71.9140002361
  0
LINE
  5
218
100
AcDbEntity
  8
0
100
AcDbLine
 62
7
  6
CONTINUOUS
 10
83.3035039892
 20
98.6640002361
 11
83.3035039892
 21
97.9397879932
  0
LINE
  5
219
100
AcDbEntity
  8
0
100
AcDbLine
 62
7
  6
CONTINUOUS
 10
83.3035039863
 20
95.3297156383
 11
83.3035039892
 21
87.774072601
  0
LINE
  5
21A
100
AcDbEntity
  8
0
100
AcDbLine
 62
7
  6
CONTINUOUS
 10
83.3035039861
 20
82.5539278943
 11
83.3035039892
 21
74.9982848439
  0
LINE
  5
21B
100
AcDbEntity
  8
0
100
AcDbLine
 62
7
  6
CONTINUOUS
 10
83.3035039892
 20
72.388212479
 11
83.3035039892
 21
71.6640002361
  0
LINE
  5
21C
100
AcDbEntity
  8
0
100
AcDbLine
 62
7
  6
CONTINUOUS
 10
84.0251918257
 20
99.9140002361
 11
84.0251918257
 21
99.8831151528
  0
LINE
  5
21D
100
AcDbEntity
  8
0
100
AcDbLine
 62
7
  6
CONTINUOUS
 10
84.0251918257
 20
70.4448853192
 11
84.0251918257
 21
70.4140002361
  0
LINE
  5
21E
100
AcDbEntity
  8
0
100
AcDbLine
 62
7
  6
CONTINUOUS
 10
84.0251918257
 20
76.9782363552
 11
84.0251918257
 21
78.6306491998
  0
LINE
  5
21F
100
AcDbEntity
  8
0
100
AcDbLine
 62
7
  6
CONTINUOUS
 10
84.0251918257
 20
91.6973512697
 11
84.0251918257
 21
93.3497641142
  0
LINE
  5
220
100
AcDbEntity
  8
0
100
AcDbLine
 62
7
  6
CONTINUOUS
 10
84.4582045276
 20
100.1640002361
 11
84.4582045276
 21
100.1246601818
  0
LINE
  5
221
100
AcDbEntity
  8
0
100
AcDbLine
 62
7
  6
CONTINUOUS
 10
84.4582045276
 20
70.2033402904
 11
84.4582045276
 21
70.1640002361
  0
LINE
  5
222
100
AcDbEntity
  8
0
100
AcDbLine
 62
7
  6
CONTINUOUS
 10
84.4582045276
 20
76.7434625777
 11
84.4582045276
 21
78.6238779488
  0
LINE
  5
223
100
AcDbEntity
  8
0
100
AcDbLine
 62
7
  6
CONTINUOUS
 10
84.4582045276
 20
91.7041225236
 11
84.4582045276
 21
93.5845378946
  0
LINE
  5
224
100
AcDbEntity
  8
0
100
AcDbLine
 62
7
  6
CONTINUOUS
 10
94.9118367848
 20
74.4382956724
 11
95.5171448102
 21
73.2769069021
  0
LINE
  5
225
100
AcDbEntity
  8
0
100
AcDbLine
 62
7
  6
CONTINUOUS
 10
93.6591664219
 20
73.3607490139
 11
93.7028597642
 21
73.2769068724
  0
LINE
  5
226
100
AcDbEntity
  8
0
100
AcDbLine
 62
7
  6
CONTINUOUS
 10
95.5171448102
 20
73.2769069021
 11
95.5305945462
 21
73.2640002361
  0
LINE
  5
227
100
AcDbEntity
  8
0
100
AcDbLine
 62
7
  6
CONTINUOUS
 10
97.3314313867
 20
73.2769069043
 11
97.3448811249
 21
73.2640002361
  0
LINE
  5
228
100
AcDbEntity
  8
0
100
AcDbLine
 62
7
  6
CONTINUOUS
 10
99.1457167234
 20
73.2769068664
 11
99.1591664219
 21
73.2640002361
  0
LINE
  5
229
100
AcDbEntity
  8
0
100
AcDbLine
 62
7
  6
CONTINUOUS
 10
99.6591664219
 20
72.1640002361
 11
100.0921791238
 21
71.4140002361
  0
LINE
  5
22A
100
AcDbEntity
  8
0
100
AcDbLine
 62
7
  6
CONTINUOUS
 10
96.7261233726
 20
74.4382956548
 11
97.3314313867
 21
73.2769069043
  0
LINE
  5
22B
100
AcDbEntity
  8
0
100
AcDbLine
 62
7
  6
CONTINUOUS
 10
98.540408727
 20
74.4382955896
 11
99.1457167234
 21
73.2769068664
  0
LINE
  5
22C
100
AcDbEntity
  8
0
100
AcDbLine
 62
7
  6
CONTINUOUS
 10
92.5044658835
 20
100.1640002361
 11
92.5044658835
 21
100.1245173948
  0
LINE
  5
22D
100
AcDbEntity
  8
0
100
AcDbLine
 62
7
  6
CONTINUOUS
 10
92.5044658835
 20
93.5861689795
 11
92.5044658835
 21
91.7023486514
  0
LINE
  5
22E
100
AcDbEntity
  8
0
100
AcDbLine
 62
7
  6
CONTINUOUS
 10
92.5044658835
 20
78.6256518208
 11
92.5044658835
 21
76.7418314927
  0
LINE
  5
22F
100
AcDbEntity
  8
0
100
AcDbLine
 62
7
  6
CONTINUOUS
 10
92.5044658835
 20
70.2034830773
 11
92.5044658835
 21
70.1640002361
  0
LINE
  5
230
100
AcDbEntity
  8
0
100
AcDbLine
 62
7
  6
CONTINUOUS
 10
93.6591664219
 20
98.1640002361
 11
93.6591664219
 21
72.1640002361
  0
LINE
  5
231
100
AcDbEntity
  8
0
100
AcDbLine
 62
7
  6
CONTINUOUS
 10
83.3035039892
 20
98.6640002361
 11
84.0251918257
 21
99.9140002361
  0
LINE
  5
232
100
AcDbEntity
  8
0
100
AcDbLine
 62
7
  6
CONTINUOUS
 10
93.8344938014
 20
95.8897048313
 11
93.6591664219
 21
96.2260709149
  0
LINE
  5
233
100
AcDbEntity
  8
0
100
AcDbLine
 62
7
  6
CONTINUOUS
 10
99.6591664219
 20
72.1641872087
 11
99.6591664219
 21
98.1638132635
  0
LINE
  5
234
100
AcDbEntity
  8
0
100
AcDbLine
 62
7
  6
CONTINUOUS
 10
100.0921791238
 20
98.9140002361
 11
100.0921791238
 21
98.8885184919
  0
LINE
  5
235
100
AcDbEntity
  8
0
100
AcDbLine
 62
7
  6
CONTINUOUS
 10
100.0921791238
 20
71.4394819803
 11
100.0921791238
 21
71.4140002361
  0
LINE
  5
236
100
AcDbEntity
  8
0
100
AcDbLine
 62
7
  6
CONTINUOUS
 10
100.0921791238
 20
74.8676506466
 11
100.0921791238
 21
76.0509499711
  0
LINE
  5
237
100
AcDbEntity
  8
0
100
AcDbLine
 62
7
  6
CONTINUOUS
 10
100.0921791238
 20
84.3272812595
 11
100.0921791238
 21
86.0007192126
  0
LINE
  5
238
100
AcDbEntity
  8
0
100
AcDbLine
 62
7
  6
CONTINUOUS
 10
100.0921791238
 20
94.277050501
 11
100.0921791238
 21
95.4603498256
  0
LINE
  5
239
100
AcDbEntity
  8
0
100
AcDbLine
 62
7
  6
CONTINUOUS
 10
111.0233799843
 20
70.9997866737
 11
109.9449528595
 21
72.0782137985
  0
LINE
  5
23A
100
AcDbEntity
  8
0
100
AcDbLine
 62
7
  6
CONTINUOUS
 10
92.5044658835
 20
100.1640002361
 11
93.6591664219
 21
98.1640002361
  0
LINE
  5
23B
100
AcDbEntity
  8
0
100
AcDbLine
 62
7
  6
CONTINUOUS
 10
95.6487799837
 20
95.8897047986
 11
95.0434719614
 21
97.0510935628
  0
LINE
  5
23C
100
AcDbEntity
  8
0
100
AcDbLine
 62
7
  6
CONTINUOUS
 10
97.4630662708
 20
95.8897048498
 11
96.8577582684
 21
97.0510935812
  0
LINE
  5
23D
100
AcDbEntity
  8
0
100
AcDbLine
 62
7
  6
CONTINUOUS
 10
103.9488034508
 20
95.4598179229
 11
103.9488034508
 21
94.2776514334
  0
LINE
  5
23E
100
AcDbEntity
  8
0
100
AcDbLine
 62
7
  6
CONTINUOUS
 10
103.9488034508
 20
85.9999181768
 11
103.9488034508
 21
84.3280822947
  0
LINE
  5
23F
100
AcDbEntity
  8
0
100
AcDbLine
 62
7
  6
CONTINUOUS
 10
103.9488034508
 20
76.0503490381
 11
103.9488034508
 21
74.8681825486
  0
LINE
  5
240
100
AcDbEntity
  8
0
100
AcDbLine
 62
7
  6
CONTINUOUS
 10
103.9488034508
 20
71.4140002361
 11
103.9488034508
 21
71.4394331684
  0
LINE
  5
241
100
AcDbEntity
  8
0
100
AcDbLine
 62
7
  6
CONTINUOUS
 10
103.9488034508
 20
98.8885673038
 11
103.9488034508
 21
98.9140002361
  0
LINE
  5
242
100
AcDbEntity
  8
0
100
AcDbLine
 62
7
  6
CONTINUOUS
 10
104.3818161527
 20
98.6640002361
 11
104.3818161527
 21
98.6438615879
  0
LINE
  5
243
100
AcDbEntity
  8
0
100
AcDbLine
 62
7
  6
CONTINUOUS
 10
104.3818161527
 20
95.2169203629
 11
104.3818161527
 21
94.1744828662
  0
LINE
  5
244
100
AcDbEntity
  8
0
100
AcDbLine
 62
7
  6
CONTINUOUS
 10
104.3818161527
 20
85.9011148528
 11
104.3818161527
 21
84.4268856356
  0
LINE
  5
245
100
AcDbEntity
  8
0
100
AcDbLine
 62
7
  6
CONTINUOUS
 10
104.3818161527
 20
76.1535176231
 11
104.3818161527
 21
75.1110801245
  0
LINE
  5
246
100
AcDbEntity
  8
0
100
AcDbLine
 62
7
  6
CONTINUOUS
 10
104.3818161527
 20
71.6841388852
 11
104.3818161527
 21
71.6640002361
  0
LINE
  5
247
100
AcDbEntity
  8
0
100
AcDbLine
 62
7
  6
CONTINUOUS
 10
104.6591664219
 20
106.1640002361
 11
104.6591664219
 21
103.7949403438
  0
LINE
  5
248
100
AcDbEntity
  8
0
100
AcDbLine
 62
7
  6
CONTINUOUS
 10
104.8148288546
 20
97.9140002361
 11
104.8148288546
 21
72.4140002361
  0
LINE
  5
249
100
AcDbEntity
  8
0
100
AcDbLine
 62
7
  6
CONTINUOUS
 10
105.0591664219
 20
106.1640002361
 11
105.0591664219
 21
103.7949403438
  0
LINE
  5
24A
100
AcDbEntity
  8
0
100
AcDbLine
 62
7
  6
CONTINUOUS
 10
105.1591664219
 20
102.6640002361
 11
105.1591664219
 21
103.2753251015
  0
LINE
  5
24B
100
AcDbEntity
  8
0
100
AcDbLine
 62
7
  6
CONTINUOUS
 10
105.1591664219
 20
106.5640002361
 11
105.1591664219
 21
116.6640002361
  0
LINE
  5
24C
100
AcDbEntity
  8
0
100
AcDbLine
 62
7
  6
CONTINUOUS
 10
105.2478415565
 20
97.6640002361
 11
105.2478415565
 21
72.6640002361
  0
LINE
  5
24D
100
AcDbEntity
  8
0
100
AcDbLine
 62
7
  6
CONTINUOUS
 10
94.6100019392
 20
97.0510935861
 11
94.0121454963
 21
95.9040002063
  0
LINE
  5
24E
100
AcDbEntity
  8
0
100
AcDbLine
 62
7
  6
CONTINUOUS
 10
96.424288077
 20
97.0510935639
 11
95.8264316397
 21
95.9040001981
  0
LINE
  5
24F
100
AcDbEntity
  8
0
100
AcDbLine
 62
7
  6
CONTINUOUS
 10
95.0434719614
 20
97.0510935628
 11
95.0300222183
 21
97.0640002361
  0
LINE
  5
250
100
AcDbEntity
  8
0
100
AcDbLine
 62
7
  6
CONTINUOUS
 10
96.8577582684
 20
97.0510935812
 11
96.8443085444
 21
97.0640002361
  0
LINE
  5
251
100
AcDbEntity
  8
0
100
AcDbLine
 62
7
  6
CONTINUOUS
 10
123.8662732031
 20
69.7068934549
 11
123.4520596407
 21
70.1211070173
  0
LINE
  5
252
100
AcDbEntity
  8
0
100
AcDbLine
 62
7
  6
CONTINUOUS
 10
108.1591664219
 20
106.5640002361
 11
108.1591664219
 21
116.1640002361
  0
LINE
  5
253
100
AcDbEntity
  8
0
100
AcDbLine
 62
7
  6
CONTINUOUS
 10
108.5307392972
 20
72.6640002361
 11
108.5307392972
 21
97.6640002361
  0
LINE
  5
254
100
AcDbEntity
  8
0
100
AcDbLine
 62
7
  6
CONTINUOUS
 10
108.9091664219
 20
107.8140002361
 11
108.9091664219
 21
110.3140002361
  0
LINE
  5
255
100
AcDbEntity
  8
0
100
AcDbLine
 62
7
  6
CONTINUOUS
 10
109.1591664219
 20
106.9640002361
 11
109.1591664219
 21
107.3568934549
  0
LINE
  5
256
100
AcDbEntity
  8
0
100
AcDbLine
 62
7
  6
CONTINUOUS
 10
109.193438769
 20
106.1640002361
 11
109.193438769
 21
104.0625283735
  0
LINE
  5
257
100
AcDbEntity
  8
0
100
AcDbLine
 62
7
  6
CONTINUOUS
 10
109.5758924115
 20
106.1640002361
 11
109.5758924115
 21
104.0625283735
  0
LINE
  5
258
100
AcDbEntity
  8
0
100
AcDbLine
 62
7
  6
CONTINUOUS
 10
109.9091664219
 20
98.6126096991
 11
109.9091664219
 21
100.3019712152
  0
LINE
  5
259
100
AcDbEntity
  8
0
100
AcDbLine
 62
7
  6
CONTINUOUS
 10
109.9449528595
 20
72.0782137985
 11
109.9449528595
 21
98.0699911294
  0
LINE
  5
25A
100
AcDbEntity
  8
0
100
AcDbLine
 62
7
  6
CONTINUOUS
 10
109.9808889431
 20
102.8154720987
 11
109.9808889431
 21
100.9533825213
  0
LINE
  5
25B
100
AcDbEntity
  8
0
100
AcDbLine
 62
7
  6
CONTINUOUS
 10
110.3602671935
 20
102.8154720987
 11
110.3602671935
 21
100.9533825213
  0
LINE
  5
25C
100
AcDbEntity
  8
0
100
AcDbLine
 62
7
  6
CONTINUOUS
 10
111.0233799843
 20
70.9997866737
 11
111.0233799843
 21
98.5240127025
  0
LINE
  5
25D
100
AcDbEntity
  8
0
100
AcDbLine
 62
7
  6
CONTINUOUS
 10
111.4091664219
 20
114.1309875342
 11
111.4091664219
 21
111.5640002361
  0
LINE
  5
25E
100
AcDbEntity
  8
0
100
AcDbLine
 62
7
  6
CONTINUOUS
 10
111.424347225
 20
114.1309875342
 11
111.424347225
 21
111.5640002361
  0
LWPOLYLINE
  5
25F
100
AcDbEntity
  8
0
100
AcDbPolyline
 62
7
  6
CONTINUOUS
 90
6
 70
0
 10
111.3546122868
 20
110.7100881983
 10
111.3468572963
 20
110.6925550107
 10
111.3384884223
 20
110.6801603034
 10
111.330483902
 20
110.6713984556
 10
111.3236665497
 20
110.6656101825
 10
111.3216896308
 20
110.6641846425
  0
LINE
  5
260
100
AcDbEntity
  8
0
100
AcDbLine
 62
7
  6
CONTINUOUS
 10
98.2385743865
 20
97.0510935818
 11
97.6407179586
 21
95.9040002288
  0
LINE
  5
261
100
AcDbEntity
  8
0
100
AcDbLine
 62
7
  6
CONTINUOUS
 10
99.6591664219
 20
98.1640002361
 11
100.0811452049
 21
98.8948889279
  0
LINE
  5
262
100
AcDbEntity
  8
0
100
AcDbLine
 62
7
  6
CONTINUOUS
 10
105.0591664219
 20
103.7949403438
 11
104.8591664219
 21
103.4485301822
  0
LINE
  5
263
100
AcDbEntity
  8
0
100
AcDbLine
 62
7
  6
CONTINUOUS
 10
106.3760484301
 20
116.6640002361
 11
105.1591664219
 21
115.3590540467
  0
LINE
  5
264
100
AcDbEntity
  8
0
100
AcDbLine
 62
7
  6
CONTINUOUS
 10
107.0475887004
 20
116.6640002361
 11
105.1591664219
 21
114.6389152733
  0
LINE
  5
265
100
AcDbEntity
  8
0
100
AcDbLine
 62
7
  6
CONTINUOUS
 10
129.9591664219
 20
68.9140002361
 11
128.9478415565
 21
68.9140002361
  0
LINE
  5
266
100
AcDbEntity
  8
0
100
AcDbLine
 62
7
  6
CONTINUOUS
 10
130.1591664219
 20
68.9140002361
 11
131.5406202401
 21
68.9140002361
  0
LINE
  5
267
100
AcDbEntity
  8
0
100
AcDbLine
 62
7
  6
CONTINUOUS
 10
124.5733799843
 20
69.4140002361
 11
128.3127562604
 21
69.4140002361
  0
LINE
  5
268
100
AcDbEntity
  8
0
100
AcDbLine
 62
7
  6
CONTINUOUS
 10
153.3601283162
 20
70.1640002361
 11
145.3138669603
 21
70.1640002361
  0
LINE
  5
269
100
AcDbEntity
  8
0
100
AcDbLine
 62
7
  6
CONTINUOUS
 10
84.4582045276
 20
70.1640002361
 11
92.5044658835
 21
70.1640002361
  0
LINE
  5
26A
100
AcDbEntity
  8
0
100
AcDbLine
 62
7
  6
CONTINUOUS
 10
153.3303184454
 20
70.2034830773
 11
145.3138669603
 21
70.2034830773
  0
LINE
  5
26B
100
AcDbEntity
  8
0
100
AcDbLine
 62
7
  6
CONTINUOUS
 10
84.4880143984
 20
70.2034830773
 11
92.5044658835
 21
70.2034830773
  0
LINE
  5
26C
100
AcDbEntity
  8
0
100
AcDbLine
 62
7
  6
CONTINUOUS
 10
104.3818161527
 20
98.6640002361
 11
104.8148288546
 21
97.9140002361
  0
LINE
  5
26D
100
AcDbEntity
  8
0
100
AcDbLine
 62
7
  6
CONTINUOUS
 10
115.4640594714
 20
80.9439347864
 11
114.6691664219
 21
82.5040002361
  0
LINE
  5
26E
100
AcDbEntity
  8
0
100
AcDbLine
 62
7
  6
CONTINUOUS
 10
115.6773014566
 20
81.3624457466
 11
115.0956503922
 21
82.5040002361
  0
LINE
  5
26F
100
AcDbEntity
  8
0
100
AcDbLine
 62
7
  6
CONTINUOUS
 10
112.4375935467
 20
98.2150689152
 11
112.4375935467
 21
70.4140002361
  0
LINE
  5
270
100
AcDbEntity
  8
0
100
AcDbLine
 62
7
  6
CONTINUOUS
 10
112.6591664219
 20
120.3175900746
 11
112.6591664219
 21
119.6640002361
  0
LINE
  5
271
100
AcDbEntity
  8
0
100
AcDbLine
 62
7
  6
CONTINUOUS
 10
113.5591664219
 20
85.1640002361
 11
113.5591664219
 21
85.9140002361
  0
LINE
  5
272
100
AcDbEntity
  8
0
100
AcDbLine
 62
7
  6
CONTINUOUS
 10
113.5591664219
 20
87.5440002361
 11
113.5591664219
 21
90.6640002361
  0
LINE
  5
273
100
AcDbEntity
  8
0
100
AcDbLine
 62
7
  6
CONTINUOUS
 10
113.7591664219
 20
79.6640002361
 11
113.7591664219
 21
84.1640002361
  0
LINE
  5
274
100
AcDbEntity
  8
0
100
AcDbLine
 62
7
  6
CONTINUOUS
 10
114.0403642684
 20
121.4614351846
 11
114.0403642684
 21
124.3067346462
  0
LINE
  5
275
100
AcDbEntity
  8
0
100
AcDbLine
 62
7
  6
CONTINUOUS
 10
114.1391664219
 20
80.0440002361
 11
114.1391664219
 21
83.7840002361
  0
LINE
  5
276
100
AcDbEntity
  8
0
100
AcDbLine
 62
7
  6
CONTINUOUS
 10
114.1591664219
 20
116.1640002361
 11
114.1591664219
 21
114.5640002361
  0
LINE
  5
277
100
AcDbEntity
  8
0
100
AcDbLine
 62
7
  6
CONTINUOUS
 10
114.3091664219
 20
88.2940002361
 11
114.3091664219
 21
89.9140002361
  0
LINE
  5
278
100
AcDbEntity
  8
0
100
AcDbLine
 62
7
  6
CONTINUOUS
 10
114.6356553697
 20
114.1309875342
 11
114.6356553697
 21
111.5640002361
  0
LINE
  5
279
100
AcDbEntity
  8
0
100
AcDbLine
 62
7
  6
CONTINUOUS
 10
114.8091664219
 20
91.6640002361
 11
114.8091664219
 21
92.6640002361
  0
LINE
  5
27A
100
AcDbEntity
  8
0
100
AcDbLine
 62
7
  6
CONTINUOUS
 10
115.3091664219
 20
85.9140002361
 11
115.3091664219
 21
87.5440002361
  0
LINE
  5
27B
100
AcDbEntity
  8
0
100
AcDbLine
 62
7
  6
CONTINUOUS
 10
115.4478582773
 20
114.1309875342
 11
115.4478582773
 21
111.5640002361
  0
LINE
  5
27C
100
AcDbEntity
  8
0
100
AcDbLine
 62
7
  6
CONTINUOUS
 10
116.0591664219
 20
85.1640002361
 11
116.0591664219
 21
88.2940002361
  0
LINE
  5
27D
100
AcDbEntity
  8
0
100
AcDbLine
 62
7
  6
CONTINUOUS
 10
116.0591664219
 20
89.9140002361
 11
116.0591664219
 21
90.6640002361
  0
LINE
  5
27E
100
AcDbEntity
  8
0
100
AcDbLine
 62
7
  6
CONTINUOUS
 10
116.1785531671
 20
116.6640002361
 11
116.1785531671
 21
115.7130540461
  0
LINE
  5
27F
100
AcDbEntity
  8
0
100
AcDbLine
 62
7
  6
CONTINUOUS
 10
116.2391664219
 20
101.1954720987
 11
116.2391664219
 21
100.2354720987
  0
LINE
  5
280
100
AcDbEntity
  8
0
100
AcDbLine
 62
7
  6
CONTINUOUS
 10
116.3497653452
 20
121.4614351846
 11
116.3497653452
 21
124.3067346462
  0
LINE
  5
281
100
AcDbEntity
  8
0
100
AcDbLine
 62
7
  6
CONTINUOUS
 10
94.1363286755
 20
73.2769069031
 11
94.719317741
 21
74.3954781921
  0
LINE
  5
282
100
AcDbEntity
  8
0
100
AcDbLine
 62
7
  6
CONTINUOUS
 10
94.719317741
 20
74.3954781921
 11
94.7341851107
 21
74.4240002794
  0
LINE
  5
283
100
AcDbEntity
  8
0
100
AcDbLine
 62
7
  6
CONTINUOUS
 10
95.9506152801
 20
73.2769069053
 11
96.5336043338
 21
74.3954781736
  0
LINE
  5
284
100
AcDbEntity
  8
0
100
AcDbLine
 62
7
  6
CONTINUOUS
 10
96.5336043338
 20
74.3954781736
 11
96.5484717025
 21
74.424000259
  0
LINE
  5
285
100
AcDbEntity
  8
0
100
AcDbLine
 62
7
  6
CONTINUOUS
 10
92.5044658835
 20
70.1640002361
 11
93.6591664219
 21
72.1640002361
  0
LINE
  5
286
100
AcDbEntity
  8
0
100
AcDbLine
 62
7
  6
CONTINUOUS
 10
114.6453636204
 20
116.6501974346
 11
114.1591664219
 21
116.1640002361
  0
LINE
  5
287
100
AcDbEntity
  8
0
100
AcDbLine
 62
7
  6
CONTINUOUS
 10
108.9091664219
 20
110.3140002361
 11
109.1591664219
 21
110.5640002361
  0
LINE
  5
288
100
AcDbEntity
  8
0
100
AcDbLine
 62
7
  6
CONTINUOUS
 10
111.3591664219
 20
111.5640002361
 11
110.8558557509
 21
111.0606895651
  0
LINE
  5
289
100
AcDbEntity
  8
0
100
AcDbLine
 62
7
  6
CONTINUOUS
 10
94.6100019391
 20
97.0510935861
 11
94.6234516584
 21
97.0640002361
  0
LINE
  5
28A
100
AcDbEntity
  8
0
100
AcDbLine
 62
7
  6
CONTINUOUS
 10
96.424288077
 20
97.0510935639
 11
96.4377378193
 21
97.0640002361
  0
LINE
  5
28B
100
AcDbEntity
  8
0
100
AcDbLine
 62
7
  6
CONTINUOUS
 10
114.0403642684
 20
124.3067346462
 11
114.6591664219
 21
124.6640002361
  0
LINE
  5
28C
100
AcDbEntity
  8
0
100
AcDbLine
 62
7
  6
CONTINUOUS
 10
114.0403642684
 20
121.4614351846
 11
112.9591664219
 21
120.8372053168
  0
LWPOLYLINE
  5
28D
100
AcDbEntity
  8
GEOM
100
AcDbPolyline
 62
7
  6
CONTINUOUS
 90
10
 70
0
 10
132.4741215894
 20
71.962064704
 10
132.536959526
 20
71.964931601
 10
132.5621554371
 20
71.9653054327
 10
132.5842993729
 20
71.9651867694
 10
132.6038254024
 20
71.9659267958
 10
132.6202994566
 20
71.9667071838
 10
132.633406386
 20
71.9662092747
 10
132.6430411407
 20
71.9649856913
 10
132.6493087706
 20
71.9647320381
 10
132.6522092756
 20
71.9666062791
  0
LINE
  5
28E
100
AcDbEntity
  8
GEOM
100
AcDbLine
 62
7
  6
CONTINUOUS
 10
132.3947985065
 20
71.9614256617
 11
132.6522092756
 21
71.9666062791
  0
LINE
  5
28F
100
AcDbEntity
  8
0
100
AcDbLine
 62
7
  6
CONTINUOUS
 10
122.7449528595
 20
70.4140002361
 11
112.4375935467
 21
70.4140002361
  0
LINE
  5
290
100
AcDbEntity
  8
0
100
AcDbLine
 62
7
  6
CONTINUOUS
 10
103.9488034508
 20
71.4140002361
 11
100.0921791238
 21
71.4140002361
  0
LINE
  5
291
100
AcDbEntity
  8
0
100
AcDbLine
 62
7
  6
CONTINUOUS
 10
103.9324807629
 20
71.4394819803
 11
100.0921791238
 21
71.4394819803
  0
LINE
  5
292
100
AcDbEntity
  8
0
100
AcDbLine
 62
7
  6
CONTINUOUS
 10
82.8704912873
 20
71.9140002361
 11
81.1591664219
 21
71.9140002361
  0
LINE
  5
293
100
AcDbEntity
  8
0
100
AcDbLine
 62
7
  6
CONTINUOUS
 10
154.9478415565
 20
71.9140002361
 11
156.6591664219
 21
71.9140002361
  0
LINE
  5
294
100
AcDbEntity
  8
GEOM
100
AcDbLine
 62
7
  6
CONTINUOUS
 10
138.5240811258
 20
72.1640002361
 11
132.6767062927
 21
72.1640002361
  0
LINE
  5
295
100
AcDbEntity
  8
GEOM
100
AcDbLine
 62
7
  6
CONTINUOUS
 10
138.0910684239
 20
72.1923021229
 11
132.6611393862
 21
72.1923021229
  0
LINE
  5
296
100
AcDbEntity
  8
0
100
AcDbLine
 62
7
  6
CONTINUOUS
 10
105.2478415565
 20
72.6640002361
 11
108.5307392972
 21
72.6640002361
  0
LINE
  5
297
100
AcDbEntity
  8
GEOM
100
AcDbLine
 62
7
  6
CONTINUOUS
 10
132.6611393862
 20
72.7669115216
 11
138.0910684239
 21
72.7669115216
  0
LINE
  5
298
100
AcDbEntity
  8
GEOM
100
AcDbLine
 62
7
  6
CONTINUOUS
 10
132.6767062927
 20
72.864161357
 11
138.1068299872
 21
72.864161357
  0
LINE
  5
299
100
AcDbEntity
  8
GEOM
100
AcDbLine
 62
7
  6
CONTINUOUS
 10
143.1281095518
 20
73.2640002361
 11
142.6772789834
 21
73.2640002361
  0
LINE
  5
29A
100
AcDbEntity
  8
GEOM
100
AcDbLine
 62
7
  6
CONTINUOUS
 10
141.3150538605
 20
73.2640002361
 11
140.8623346748
 21
73.2640002361
  0
LINE
  5
29B
100
AcDbEntity
  8
GEOM
100
AcDbLine
 62
7
  6
CONTINUOUS
 10
139.5019981691
 20
73.2640002361
 11
139.1591664219
 21
73.2640002361
  0
LINE
  5
29C
100
AcDbEntity
  8
0
100
AcDbLine
 62
7
  6
CONTINUOUS
 10
95.9371655412
 20
73.2640002361
 11
95.5305945462
 21
73.2640002361
  0
LINE
  5
29D
100
AcDbEntity
  8
0
100
AcDbLine
 62
7
  6
CONTINUOUS
 10
94.122878939
 20
73.2640002361
 11
93.7163094689
 21
73.2640002361
  0
LINE
  5
29E
100
AcDbEntity
  8
0
100
AcDbLine
 62
7
  6
CONTINUOUS
 10
97.3448811249
 20
73.2640002361
 11
99.6591664219
 21
73.2640002361
  0
LINE
  5
29F
100
AcDbEntity
  8
GEOM
100
AcDbLine
 62
7
  6
CONTINUOUS
 10
140.8393227017
 20
73.3017425138
 11
139.4790101421
 21
73.3017425138
  0
LINE
  5
2A0
100
AcDbEntity
  8
0
100
AcDbLine
 62
7
  6
CONTINUOUS
 10
98.5553086433
 20
74.4240002361
 11
98.3553086433
 21
74.4240002361
  0
LINE
  5
2A1
100
AcDbEntity
  8
0
100
AcDbLine
 62
7
  6
CONTINUOUS
 10
94.7267367426
 20
74.4240002794
 11
94.9267367426
 21
74.4240002794
  0
LINE
  5
2A2
100
AcDbEntity
  8
0
100
AcDbLine
 62
7
  6
CONTINUOUS
 10
96.5410233332
 20
74.424000259
 11
96.7410233332
 21
74.424000259
  0
LINE
  5
2A3
100
AcDbEntity
  8
0
100
AcDbLine
 62
7
  6
CONTINUOUS
 10
103.9324807629
 20
74.8676506466
 11
100.0921791238
 21
74.8676506466
  0
LWPOLYLINE
  5
2A4
100
AcDbEntity
  8
GEOM
100
AcDbPolyline
 62
7
  6
CONTINUOUS
 90
3
 70
0
 10
132.3947985065
 20
71.9614256617
 10
132.4364795639
 20
71.9610822602
 10
132.4741215894
 20
71.962064704
  0
LINE
  5
2A5
100
AcDbEntity
  8
0
100
AcDbLine
 62
7
  6
CONTINUOUS
 10
128.8323715027
 20
69.1140002361
 11
128.9478415565
 21
68.9140002361
  0
LINE
  5
2A6
100
AcDbEntity
  8
0
100
AcDbLine
 62
7
  6
CONTINUOUS
 10
116.6591664219
 20
101.1954720987
 11
116.6591664219
 21
100.2354720987
  0
LINE
  5
2A7
100
AcDbEntity
  8
0
100
AcDbLine
 62
7
  6
CONTINUOUS
 10
117.0591664219
 20
85.1640002361
 11
117.0591664219
 21
91.6640002361
  0
LINE
  5
2A8
100
AcDbEntity
  8
0
100
AcDbLine
 62
7
  6
CONTINUOUS
 10
117.5521343625
 20
80.6040002361
 11
117.5521343625
 21
82.5040002361
  0
LINE
  5
2A9
100
AcDbEntity
  8
0
100
AcDbLine
 62
7
  6
CONTINUOUS
 10
117.5521343625
 20
82.8840002361
 11
117.5521343625
 21
83.2640002361
  0
LINE
  5
2AA
100
AcDbEntity
  8
0
100
AcDbLine
 62
7
  6
CONTINUOUS
 10
117.9321343625
 20
80.6040002361
 11
117.9321343625
 21
82.5040002361
  0
LINE
  5
2AB
100
AcDbEntity
  8
0
100
AcDbLine
 62
7
  6
CONTINUOUS
 10
117.9321343625
 20
82.8840002361
 11
117.9321343625
 21
83.2640002361
  0
LINE
  5
2AC
100
AcDbEntity
  8
0
100
AcDbLine
 62
7
  6
CONTINUOUS
 10
118.0591664219
 20
85.1640002361
 11
118.0591664219
 21
91.6640002361
  0
LINE
  5
2AD
100
AcDbEntity
  8
0
100
AcDbLine
 62
7
  6
CONTINUOUS
 10
118.2391664219
 20
102.0954720987
 11
118.2391664219
 21
99.3354720987
  0
LINE
  5
2AE
100
AcDbEntity
  8
0
100
AcDbLine
 62
7
  6
CONTINUOUS
 10
118.4621343625
 20
80.6040002361
 11
118.4621343625
 21
80.7040002361
  0
LINE
  5
2AF
100
AcDbEntity
  8
0
100
AcDbLine
 62
7
  6
CONTINUOUS
 10
118.4621343625
 20
81.6834044226
 11
118.4621343625
 21
82.5040002361
  0
LINE
  5
2B0
100
AcDbEntity
  8
0
100
AcDbLine
 62
7
  6
CONTINUOUS
 10
118.6591664219
 20
102.0954720987
 11
118.6591664219
 21
100.8954720987
  0
LINE
  5
2B1
100
AcDbEntity
  8
0
100
AcDbLine
 62
7
  6
CONTINUOUS
 10
118.6591664219
 20
100.3953735657
 11
118.6591664219
 21
98.9154720987
  0
LINE
  5
2B2
100
AcDbEntity
  8
0
100
AcDbLine
 62
7
  6
CONTINUOUS
 10
118.8421343625
 20
82.1240002361
 11
118.8421343625
 21
82.5040002361
  0
LINE
  5
2B3
100
AcDbEntity
  8
0
100
AcDbLine
 62
7
  6
CONTINUOUS
 10
119.0591664219
 20
85.1640002361
 11
119.0591664219
 21
90.6640002361
  0
LINE
  5
2B4
100
AcDbEntity
  8
0
100
AcDbLine
 62
7
  6
CONTINUOUS
 10
119.8091664219
 20
85.1640002361
 11
119.8091664219
 21
87.5440002361
  0
LINE
  5
2B5
100
AcDbEntity
  8
0
100
AcDbLine
 62
7
  6
CONTINUOUS
 10
119.8091664219
 20
88.2940002361
 11
119.8091664219
 21
89.9140002361
  0
LINE
  5
2B6
100
AcDbEntity
  8
0
100
AcDbLine
 62
7
  6
CONTINUOUS
 10
119.8821343625
 20
81.9040002361
 11
119.8821343625
 21
82.2740002361
  0
LINE
  5
2B7
100
AcDbEntity
  8
0
100
AcDbLine
 62
7
  6
CONTINUOUS
 10
120.2621343625
 20
81.793832157
 11
120.2621343625
 21
82.2740002361
  0
LINE
  5
2B8
100
AcDbEntity
  8
0
100
AcDbLine
 62
7
  6
CONTINUOUS
 10
120.3091664219
 20
91.6640002361
 11
120.3091664219
 21
92.6640002361
  0
LINE
  5
2B9
100
AcDbEntity
  8
0
100
AcDbLine
 62
7
  6
CONTINUOUS
 10
120.8791664219
 20
80.0440002361
 11
120.8791664219
 21
83.7840002361
  0
LINE
  5
2BA
100
AcDbEntity
  8
0
100
AcDbLine
 62
7
  6
CONTINUOUS
 10
120.9685674987
 20
121.4614351846
 11
120.9685674987
 21
124.3067346462
  0
LINE
  5
2BB
100
AcDbEntity
  8
0
100
AcDbLine
 62
7
  6
CONTINUOUS
 10
121.1591664219
 20
102.6640002361
 11
121.1591664219
 21
109.6640002361
  0
LINE
  5
2BC
100
AcDbEntity
  8
0
100
AcDbLine
 62
7
  6
CONTINUOUS
 10
121.2591664219
 20
79.6640002361
 11
121.2591664219
 21
84.1640002361
  0
LINE
  5
2BD
100
AcDbEntity
  8
0
100
AcDbLine
 62
7
  6
CONTINUOUS
 10
98.3553086433
 20
74.4240002361
 11
97.7514508646
 21
73.2640002361
  0
LINE
  5
2BE
100
AcDbEntity
  8
0
100
AcDbLine
 62
7
  6
CONTINUOUS
 10
109.9191480788
 20
102.9568934549
 11
110.1875988945
 21
103.239736162
  0
LINE
  5
2BF
100
AcDbEntity
  8
0
100
AcDbLine
 62
7
  6
CONTINUOUS
 10
109.5002090192
 20
103.3554215923
 11
109.7698577713
 21
103.6382643048
  0
LINE
  5
2C0
100
AcDbEntity
  8
0
100
AcDbLine
 62
7
  6
CONTINUOUS
 10
98.2385743865
 20
97.0510935818
 11
98.2520241101
 21
97.0640002361
  0
LWPOLYLINE
  5
2C1
100
AcDbEntity
  8
0
100
AcDbPolyline
 62
7
  6
CONTINUOUS
 90
3
 70
0
 10
111.3216896308
 20
110.6641846425
 10
111.3190822241
 20
110.6624799982
 10
111.3168584048
 20
110.661203137
  0
LINE
  5
2C2
100
AcDbEntity
  8
0
100
AcDbLine
 62
7
  6
CONTINUOUS
 10
112.1591664219
 20
114.5640002361
 11
111.4091664219
 21
114.1309875342
  0
LINE
  5
2C3
100
AcDbEntity
  8
0
100
AcDbLine
 62
7
  6
CONTINUOUS
 10
103.9324807629
 20
76.0509499711
 11
100.0921791238
 21
76.0509499711
  0
LINE
  5
2C4
100
AcDbEntity
  8
0
100
AcDbLine
 62
7
  6
CONTINUOUS
 10
153.3303184454
 20
76.7418314927
 11
145.3138669603
 21
76.7418314927
  0
LINE
  5
2C5
100
AcDbEntity
  8
0
100
AcDbLine
 62
7
  6
CONTINUOUS
 10
84.4880143984
 20
76.7418314927
 11
92.5044658835
 21
76.7418314927
  0
LINE
  5
2C6
100
AcDbEntity
  8
0
100
AcDbLine
 62
7
  6
CONTINUOUS
 10
153.3303184454
 20
78.6256518208
 11
145.3138669603
 21
78.6256518208
  0
LINE
  5
2C7
100
AcDbEntity
  8
0
100
AcDbLine
 62
7
  6
CONTINUOUS
 10
84.4880143984
 20
78.6256518208
 11
92.5044658835
 21
78.6256518208
  0
LINE
  5
2C8
100
AcDbEntity
  8
GEOM
100
AcDbLine
 62
7
  6
CONTINUOUS
 10
138.1068299872
 20
79.0790628043
 11
132.6767062927
 21
79.0790628043
  0
LINE
  5
2C9
100
AcDbEntity
  8
GEOM
100
AcDbLine
 62
7
  6
CONTINUOUS
 10
138.0910684239
 20
79.2163375519
 11
132.6611393862
 21
79.2163375519
  0
LINE
  5
2CA
100
AcDbEntity
  8
0
100
AcDbLine
 62
7
  6
CONTINUOUS
 10
121.2591664219
 20
79.6640002361
 11
113.7591664219
 21
79.6640002361
  0
LINE
  5
2CB
100
AcDbEntity
  8
0
100
AcDbLine
 62
7
  6
CONTINUOUS
 10
120.8791664219
 20
80.0440002361
 11
114.1391664219
 21
80.0440002361
  0
LINE
  5
2CC
100
AcDbEntity
  8
GEOM
100
AcDbLine
 62
7
  6
CONTINUOUS
 10
132.3947985062
 20
80.80159268
 11
132.6767062922
 21
80.7694012755
  0
LINE
  5
2CD
100
AcDbEntity
  8
GEOM
100
AcDbLine
 62
7
  6
CONTINUOUS
 10
142.6638194943
 20
73.2769162548
 11
142.6772789834
 21
73.2640002361
  0
LINE
  5
2CE
100
AcDbEntity
  8
0
100
AcDbLine
 62
7
  6
CONTINUOUS
 10
120.2639114925
 20
98.9154720987
 11
119.3391664219
 21
100.3953735657
  0
LINE
  5
2CF
100
AcDbEntity
  8
0
100
AcDbLine
 62
7
  6
CONTINUOUS
 10
121.5591664219
 20
87.5440002361
 11
121.5591664219
 21
88.2940002361
  0
LINE
  5
2D0
100
AcDbEntity
  8
0
100
AcDbLine
 62
7
  6
CONTINUOUS
 10
121.5591664219
 20
89.9140002361
 11
121.5591664219
 21
90.6640002361
  0
LINE
  5
2D1
100
AcDbEntity
  8
0
100
AcDbLine
 62
7
  6
CONTINUOUS
 10
122.7449528595
 20
70.4140002361
 11
122.7449528595
 21
97.432779599
  0
LINE
  5
2D2
100
AcDbEntity
  8
0
100
AcDbLine
 62
7
  6
CONTINUOUS
 10
123.2779685754
 20
121.4614351846
 11
123.2779685754
 21
124.3067346462
  0
LINE
  5
2D3
100
AcDbEntity
  8
0
100
AcDbLine
 62
7
  6
CONTINUOUS
 10
123.4520596407
 20
97.7407477787
 11
123.4520596407
 21
70.1211070173
  0
LINE
  5
2D4
100
AcDbEntity
  8
0
100
AcDbLine
 62
7
  6
CONTINUOUS
 10
123.8662732031
 20
69.7068934549
 11
123.8662732031
 21
98.3584799007
  0
LINE
  5
2D5
100
AcDbEntity
  8
0
100
AcDbLine
 62
7
  6
CONTINUOUS
 10
124.5733799843
 20
99.2047322888
 11
124.5733799843
 21
69.4140002361
  0
LINE
  5
2D6
100
AcDbEntity
  8
0
100
AcDbLine
 62
7
  6
CONTINUOUS
 10
124.6591664219
 20
120.3175900746
 11
124.6591664219
 21
119.6640002361
  0
LINE
  5
2D7
100
AcDbEntity
  8
0
100
AcDbLine
 62
7
  6
CONTINUOUS
 10
104.3818161527
 20
71.6640002361
 11
104.8148288546
 21
72.4140002361
  0
LINE
  5
2D8
100
AcDbEntity
  8
0
100
AcDbLine
 62
7
  6
CONTINUOUS
 10
111.3168584048
 20
110.661203137
 11
111.1304152455
 21
110.5640002361
  0
LINE
  5
2D9
100
AcDbEntity
  8
GEOM
100
AcDbLine
 62
7
  6
CONTINUOUS
 10
132.6611393862
 20
80.6035673553
 11
138.0910684239
 21
80.6035673553
  0
LINE
  5
2DA
100
AcDbEntity
  8
0
100
AcDbLine
 62
7
  6
CONTINUOUS
 10
118.8321343625
 20
80.6040002361
 11
118.4621343625
 21
80.6040002361
  0
LINE
  5
2DB
100
AcDbEntity
  8
0
100
AcDbLine
 62
7
  6
CONTINUOUS
 10
117.9321343625
 20
80.6040002361
 11
117.5521343625
 21
80.6040002361
  0
LINE
  5
2DC
100
AcDbEntity
  8
0
100
AcDbLine
 62
7
  6
CONTINUOUS
 10
116.0540360085
 20
80.6040002361
 11
115.6275520382
 21
80.6040002361
  0
LINE
  5
2DD
100
AcDbEntity
  8
GEOM
100
AcDbLine
 62
7
  6
CONTINUOUS
 10
132.6767062927
 20
80.7694012783
 11
138.1068299872
 21
80.7694012783
  0
LINE
  5
2DE
100
AcDbEntity
  8
0
100
AcDbLine
 62
7
  6
CONTINUOUS
 10
119.8821343625
 20
81.9040002361
 11
119.6621343625
 21
81.9040002361
  0
LINE
  5
2DF
100
AcDbEntity
  8
0
100
AcDbLine
 62
7
  6
CONTINUOUS
 10
120.2621343625
 20
82.2740002361
 11
119.8821343625
 21
82.2740002361
  0
LINE
  5
2E0
100
AcDbEntity
  8
0
100
AcDbLine
 62
7
  6
CONTINUOUS
 10
118.8421343625
 20
82.5040002361
 11
118.4621343625
 21
82.5040002361
  0
LINE
  5
2E1
100
AcDbEntity
  8
0
100
AcDbLine
 62
7
  6
CONTINUOUS
 10
117.9321343625
 20
82.5040002361
 11
117.5521343625
 21
82.5040002361
  0
LINE
  5
2E2
100
AcDbEntity
  8
0
100
AcDbLine
 62
7
  6
CONTINUOUS
 10
117.0221343625
 20
82.5040002361
 11
116.5956503922
 21
82.5040002361
  0
LINE
  5
2E3
100
AcDbEntity
  8
0
100
AcDbLine
 62
7
  6
CONTINUOUS
 10
115.0956503922
 20
82.5040002361
 11
114.6691664219
 21
82.5040002361
  0
LINE
  5
2E4
100
AcDbEntity
  8
0
100
AcDbLine
 62
7
  6
CONTINUOUS
 10
117.9321343625
 20
82.8840002361
 11
117.5521343625
 21
82.8840002361
  0
LINE
  5
2E5
100
AcDbEntity
  8
0
100
AcDbLine
 62
7
  6
CONTINUOUS
 10
117.9321343625
 20
83.2640002361
 11
117.5521343625
 21
83.2640002361
  0
LINE
  5
2E6
100
AcDbEntity
  8
0
100
AcDbLine
 62
7
  6
CONTINUOUS
 10
120.8791664219
 20
83.7840002361
 11
114.1391664219
 21
83.7840002361
  0
LINE
  5
2E7
100
AcDbEntity
  8
0
100
AcDbLine
 62
7
  6
CONTINUOUS
 10
121.2591664219
 20
84.1640002361
 11
113.7591664219
 21
84.1640002361
  0
LINE
  5
2E8
100
AcDbEntity
  8
0
100
AcDbLine
 62
7
  6
CONTINUOUS
 10
103.9324807629
 20
84.3272812595
 11
100.0921791238
 21
84.3272812595
  0
LINE
  5
2E9
100
AcDbEntity
  8
0
100
AcDbLine
 62
7
  6
CONTINUOUS
 10
83.7365166911
 20
87.7257379276
 11
83.3035039559
 21
87.7740726047
  0
LINE
  5
2EA
100
AcDbEntity
  8
0
100
AcDbLine
 62
7
  6
CONTINUOUS
 10
154.0818161527
 20
82.6022625446
 11
154.5148288879
 21
82.5539278675
  0
LINE
  5
2EB
100
AcDbEntity
  8
0
100
AcDbLine
 62
7
  6
CONTINUOUS
 10
104.8591664219
 20
103.4485301822
 11
109.9534098566
 21
100.5073673639
  0
LINE
  5
2EC
100
AcDbEntity
  8
0
100
AcDbLine
 62
7
  6
CONTINUOUS
 10
105.0591664219
 20
103.7949403438
 11
109.9808889431
 21
100.9533825213
  0
LINE
  5
2ED
100
AcDbEntity
  8
0
100
AcDbLine
 62
7
  6
CONTINUOUS
 10
109.9120184853
 20
100.3002863203
 11
109.9091664219
 21
100.3019712152
  0
LINE
  5
2EE
100
AcDbEntity
  8
0
100
AcDbLine
 62
7
  6
CONTINUOUS
 10
110.142732548
 20
100.1609572024
 11
109.9091664219
 21
100.3019712153
  0
LINE
  5
2EF
100
AcDbEntity
  8
0
100
AcDbLine
 62
7
  6
CONTINUOUS
 10
110.0938119072
 20
100.1905239614
 11
110.0505654943
 21
100.2166266857
  0
LINE
  5
2F0
100
AcDbEntity
  8
0
100
AcDbLine
 62
7
  6
CONTINUOUS
 10
109.0127198125
 20
107.7104468455
 11
108.9091664219
 21
107.8140002361
  0
LINE
  5
2F1
100
AcDbEntity
  8
0
100
AcDbLine
 62
7
  6
CONTINUOUS
 10
120.7591664219
 20
98.9154720987
 11
119.7767207235
 21
100.4877138727
  0
LINE
  5
2F2
100
AcDbEntity
  8
0
100
AcDbLine
 62
7
  6
CONTINUOUS
 10
127.4091664219
 20
101.7140002361
 11
127.4091664219
 21
102.8154720987
  0
LINE
  5
2F3
100
AcDbEntity
  8
0
100
AcDbLine
 62
7
  6
CONTINUOUS
 10
128.1591664219
 20
104.0625283735
 11
128.1591664219
 21
107.3568934549
  0
LINE
  5
2F4
100
AcDbEntity
  8
0
100
AcDbLine
 62
7
  6
CONTINUOUS
 10
128.3127562604
 20
69.4140002361
 11
128.3127562604
 21
100.9140002361
  0
LINE
  5
2F5
100
AcDbEntity
  8
0
100
AcDbLine
 62
7
  6
CONTINUOUS
 10
128.4091664219
 20
107.8140002361
 11
128.4091664219
 21
107.9434597029
  0
LINE
  5
2F6
100
AcDbEntity
  8
0
100
AcDbLine
 62
7
  6
CONTINUOUS
 10
128.8323715027
 20
69.1140002361
 11
128.8323715027
 21
101.2140002361
  0
LINE
  5
2F7
100
AcDbEntity
  8
0
100
AcDbLine
 62
7
  6
CONTINUOUS
 10
128.9478415565
 20
101.4140002361
 11
128.9478415565
 21
68.9140002361
  0
LINE
  5
2F8
100
AcDbEntity
  8
0
100
AcDbLine
 62
7
  6
CONTINUOUS
 10
129.9591664219
 20
68.9140002361
 11
129.9591664219
 21
101.4140002361
  0
LINE
  5
2F9
100
AcDbEntity
  8
0
100
AcDbLine
 62
7
  6
CONTINUOUS
 10
130.1591664219
 20
68.9140002361
 11
130.1591664219
 21
101.4140002361
  0
LINE
  5
2FA
100
AcDbEntity
  8
0
100
AcDbLine
 62
7
  6
CONTINUOUS
 10
130.5479142292
 20
116.6640002361
 11
130.5479142292
 21
113.3219270018
  0
LINE
  5
2FB
100
AcDbEntity
  8
0
100
AcDbLine
 62
7
  6
CONTINUOUS
 10
131.7429069012
 20
116.1258893906
 11
130.5479142292
 21
113.3219270018
  0
LINE
  5
2FC
100
AcDbEntity
  8
0
100
AcDbLine
 62
7
  6
CONTINUOUS
 10
131.5483010347
 20
115.3092081247
 11
126.1591664219
 21
102.6640002361
  0
LINE
  5
2FD
100
AcDbEntity
  8
0
100
AcDbLine
 62
7
  6
CONTINUOUS
 10
115.4640594714
 20
80.9439347864
 11
115.6773014566
 21
81.3624457466
  0
LINE
  5
2FE
100
AcDbEntity
  8
0
100
AcDbLine
 62
7
  6
CONTINUOUS
 10
115.6275520382
 20
80.6040002361
 11
116.5956503922
 21
82.5040002361
  0
LINE
  5
2FF
100
AcDbEntity
  8
0
100
AcDbLine
 62
7
  6
CONTINUOUS
 10
116.0540360085
 20
80.6040002361
 11
117.0221343625
 21
82.5040002361
  0
LINE
  5
300
100
AcDbEntity
  8
0
100
AcDbLine
 62
7
  6
CONTINUOUS
 10
151.5303203014
 20
136.2351506748
 11
137.925210865
 21
120.0212126264
  0
LINE
  5
301
100
AcDbEntity
  8
0
100
AcDbLine
 62
7
  6
CONTINUOUS
 10
128.3130160018
 20
107.717849816
 11
128.4091664219
 21
107.8140002361
  0
LINE
  5
302
100
AcDbEntity
  8
0
100
AcDbLine
 62
7
  6
CONTINUOUS
 10
154.0818161527
 20
87.7257379276
 11
154.5148288555
 21
87.7740726011
  0
LINE
  5
303
100
AcDbEntity
  8
0
100
AcDbLine
 62
7
  6
CONTINUOUS
 10
83.7365166911
 20
82.6022625446
 11
83.3035039883
 21
82.5539278711
  0
LINE
  5
304
100
AcDbEntity
  8
0
100
AcDbLine
 62
7
  6
CONTINUOUS
 10
119.8091664219
 20
85.1640002361
 11
119.0591664219
 21
85.1640002361
  0
LINE
  5
305
100
AcDbEntity
  8
0
100
AcDbLine
 62
7
  6
CONTINUOUS
 10
118.0591664219
 20
85.1640002361
 11
117.0591664219
 21
85.1640002361
  0
LINE
  5
306
100
AcDbEntity
  8
0
100
AcDbLine
 62
7
  6
CONTINUOUS
 10
116.0591664219
 20
85.1640002361
 11
113.5591664219
 21
85.1640002361
  0
LINE
  5
307
100
AcDbEntity
  8
0
100
AcDbLine
 62
7
  6
CONTINUOUS
 10
115.3091664219
 20
85.9140002361
 11
113.5591664219
 21
85.9140002361
  0
LINE
  5
308
100
AcDbEntity
  8
0
100
AcDbLine
 62
7
  6
CONTINUOUS
 10
103.9324807629
 20
86.0007192126
 11
100.0921791238
 21
86.0007192126
  0
LINE
  5
309
100
AcDbEntity
  8
0
100
AcDbLine
 62
7
  6
CONTINUOUS
 10
121.5591664219
 20
87.5440002361
 11
119.8091664219
 21
87.5440002361
  0
LINE
  5
30A
100
AcDbEntity
  8
0
100
AcDbLine
 62
7
  6
CONTINUOUS
 10
115.3091664219
 20
87.5440002361
 11
113.5591664219
 21
87.5440002361
  0
LINE
  5
30B
100
AcDbEntity
  8
0
100
AcDbLine
 62
7
  6
CONTINUOUS
 10
121.5591664219
 20
88.2940002361
 11
119.8091664219
 21
88.2940002361
  0
LINE
  5
30C
100
AcDbEntity
  8
0
100
AcDbLine
 62
7
  6
CONTINUOUS
 10
116.0591664219
 20
88.2940002361
 11
114.3091664219
 21
88.2940002361
  0
LINE
  5
30D
100
AcDbEntity
  8
GEOM
100
AcDbLine
 62
7
  6
CONTINUOUS
 10
138.1068299872
 20
89.5585991939
 11
132.6767062927
 21
89.5585991939
  0
LINE
  5
30E
100
AcDbEntity
  8
GEOM
100
AcDbLine
 62
7
  6
CONTINUOUS
 10
138.0910684239
 20
89.7244331168
 11
132.6611393862
 21
89.7244331168
  0
LINE
  5
30F
100
AcDbEntity
  8
0
100
AcDbLine
 62
7
  6
CONTINUOUS
 10
121.5591664219
 20
89.9140002361
 11
119.8091664219
 21
89.9140002361
  0
LINE
  5
310
100
AcDbEntity
  8
0
100
AcDbLine
 62
7
  6
CONTINUOUS
 10
116.0591664219
 20
89.9140002361
 11
114.3091664219
 21
89.9140002361
  0
LINE
  5
311
100
AcDbEntity
  8
0
100
AcDbLine
 62
7
  6
CONTINUOUS
 10
145.3138669603
 20
70.1640002361
 11
144.1591664219
 21
72.1640002361
  0
LINE
  5
312
100
AcDbEntity
  8
GEOM
100
AcDbLine
 62
7
  6
CONTINUOUS
 10
142.0708394324
 20
74.4146996809
 11
142.0699949184
 21
74.4162738405
  0
LINE
  5
313
100
AcDbEntity
  8
GEOM
100
AcDbLine
 62
7
  6
CONTINUOUS
 10
143.884623513
 20
74.4169051923
 11
143.8839924155
 21
74.4180902352
  0
LINE
  5
314
100
AcDbEntity
  8
GEOM
100
AcDbLine
 62
7
  6
CONTINUOUS
 10
142.0699949184
 20
74.4162738405
 11
142.6638194943
 21
73.2769162548
  0
LINE
  5
315
100
AcDbEntity
  8
GEOM
100
AcDbLine
 62
7
  6
CONTINUOUS
 10
143.8839924155
 20
74.4180902352
 11
144.1591664219
 21
73.890154191
  0
LINE
  5
316
100
AcDbEntity
  8
0
100
AcDbLine
 62
7
  6
CONTINUOUS
 10
131.5406202401
 20
101.4140002361
 11
131.5406202401
 21
68.9140002361
  0
LINE
  5
317
100
AcDbEntity
  8
0
100
AcDbLine
 62
7
  6
CONTINUOUS
 10
131.550754488
 20
68.9403841214
 11
131.550754488
 21
101.3876163507
  0
LINE
  5
318
100
AcDbEntity
  8
GEOM
100
AcDbLine
 62
7
  6
CONTINUOUS
 10
132.3792315999
 20
98.3219190634
 11
132.3792315999
 21
97.7390606158
  0
LINE
  5
319
100
AcDbEntity
  8
GEOM
100
AcDbLine
 62
7
  6
CONTINUOUS
 10
132.3792315999
 20
91.1970471147
 11
132.3792315999
 21
89.7899023453
  0
LINE
  5
31A
100
AcDbEntity
  8
GEOM
100
AcDbLine
 62
7
  6
CONTINUOUS
 10
132.3792315999
 20
80.5380981268
 11
132.3792315999
 21
79.1309533575
  0
LINE
  5
31B
100
AcDbEntity
  8
GEOM
100
AcDbLine
 62
7
  6
CONTINUOUS
 10
132.3792315999
 20
72.5889398564
 11
132.3792315999
 21
72.0060814087
  0
LINE
  5
31C
100
AcDbEntity
  8
0
100
AcDbLine
 62
7
  6
CONTINUOUS
 10
132.536016688
 20
119.6640002361
 11
132.536016688
 21
116.6640002361
  0
LINE
  5
31D
100
AcDbEntity
  8
GEOM
100
AcDbLine
 62
7
  6
CONTINUOUS
 10
132.6611393862
 20
98.1356983493
 11
132.6611393862
 21
97.5610889506
  0
LINE
  5
31E
100
AcDbEntity
  8
GEOM
100
AcDbLine
 62
7
  6
CONTINUOUS
 10
132.6611393862
 20
91.1116629203
 11
132.6611393862
 21
89.7244331168
  0
LINE
  5
31F
100
AcDbEntity
  8
GEOM
100
AcDbLine
 62
7
  6
CONTINUOUS
 10
132.6611393862
 20
80.6035673553
 11
132.6611393862
 21
79.2163375519
  0
LINE
  5
320
100
AcDbEntity
  8
GEOM
100
AcDbLine
 62
7
  6
CONTINUOUS
 10
132.6611393862
 20
72.7669115216
 11
132.6611393862
 21
72.1923021229
  0
LINE
  5
321
100
AcDbEntity
  8
0
100
AcDbLine
 62
7
  6
CONTINUOUS
 10
133.0028069012
 20
119.6640002361
 11
133.0028069012
 21
116.6640002361
  0
LINE
  5
322
100
AcDbEntity
  8
0
100
AcDbLine
 62
7
  6
CONTINUOUS
 10
128.8323715027
 20
101.2140002361
 11
128.9478415565
 21
101.4140002361
  0
LINE
  5
323
100
AcDbEntity
  8
0
100
AcDbLine
 62
7
  6
CONTINUOUS
 10
140.2233441944
 20
118.0928497973
 11
153.5287168458
 21
133.9495754555
  0
LINE
  5
324
100
AcDbEntity
  8
0
100
AcDbLine
 62
7
  6
CONTINUOUS
 10
127.9834304906
 20
103.6382643048
 11
127.5849023532
 21
103.2397361674
  0
LINE
  5
325
100
AcDbEntity
  8
0
100
AcDbLine
 62
7
  6
CONTINUOUS
 10
94.1363286756
 20
73.2769069031
 11
94.122878939
 21
73.2640002361
  0
LINE
  5
326
100
AcDbEntity
  8
0
100
AcDbLine
 62
7
  6
CONTINUOUS
 10
95.9506152801
 20
73.2769069053
 11
95.9371655412
 21
73.2640002361
  0
LINE
  5
327
100
AcDbEntity
  8
GEOM
100
AcDbLine
 62
7
  6
CONTINUOUS
 10
132.3947985065
 20
89.5264077899
 11
132.6767062927
 21
89.5585991939
  0
LINE
  5
328
100
AcDbEntity
  8
0
100
AcDbLine
 62
7
  6
CONTINUOUS
 10
121.5591664219
 20
90.6640002361
 11
119.0591664219
 21
90.6640002361
  0
LINE
  5
329
100
AcDbEntity
  8
0
100
AcDbLine
 62
7
  6
CONTINUOUS
 10
116.0591664219
 20
90.6640002361
 11
113.5591664219
 21
90.6640002361
  0
LINE
  5
32A
100
AcDbEntity
  8
GEOM
100
AcDbLine
 62
7
  6
CONTINUOUS
 10
132.6611393862
 20
91.1116629203
 11
138.0910684239
 21
91.1116629203
  0
LINE
  5
32B
100
AcDbEntity
  8
GEOM
100
AcDbLine
 62
7
  6
CONTINUOUS
 10
132.6767064854
 20
91.2489389309
 11
138.1068299872
 21
91.2489376678
  0
LINE
  5
32C
100
AcDbEntity
  8
0
100
AcDbLine
 62
7
  6
CONTINUOUS
 10
120.3091664219
 20
91.6640002361
 11
118.0591664219
 21
91.6640002361
  0
LINE
  5
32D
100
AcDbEntity
  8
0
100
AcDbLine
 62
7
  6
CONTINUOUS
 10
117.0591664219
 20
91.6640002361
 11
114.8091664219
 21
91.6640002361
  0
LINE
  5
32E
100
AcDbEntity
  8
0
100
AcDbLine
 62
7
  6
CONTINUOUS
 10
153.3303184454
 20
91.7023486514
 11
145.3138669603
 21
91.7023486514
  0
LINE
  5
32F
100
AcDbEntity
  8
0
100
AcDbLine
 62
7
  6
CONTINUOUS
 10
84.4880143984
 20
91.7023486514
 11
92.5044658835
 21
91.7023486514
  0
LINE
  5
330
100
AcDbEntity
  8
0
100
AcDbLine
 62
7
  6
CONTINUOUS
 10
120.3091664219
 20
92.6640002361
 11
114.8091664219
 21
92.6640002361
  0
LINE
  5
331
100
AcDbEntity
  8
0
100
AcDbLine
 62
7
  6
CONTINUOUS
 10
153.3303184454
 20
93.5861689795
 11
145.3138669603
 21
93.5861689795
  0
LINE
  5
332
100
AcDbEntity
  8
0
100
AcDbLine
 62
7
  6
CONTINUOUS
 10
84.4880143984
 20
93.5861689795
 11
92.5044658835
 21
93.5861689795
  0
LINE
  5
333
100
AcDbEntity
  8
0
100
AcDbLine
 62
7
  6
CONTINUOUS
 10
103.9324807629
 20
94.277050501
 11
100.0921791238
 21
94.277050501
  0
LINE
  5
334
100
AcDbEntity
  8
0
100
AcDbLine
 62
7
  6
CONTINUOUS
 10
110.8592080446
 20
111.0533833846
 11
111.3166589346
 21
110.814903918
  0
LWPOLYLINE
  5
335
100
AcDbEntity
  8
0
100
AcDbPolyline
 62
7
  6
CONTINUOUS
 90
10
 70
0
 10
111.3165244543
 20
110.8149742413
 10
111.3173766295
 20
110.8145178869
 10
111.3208197615
 20
110.8124087048
 10
111.3258968472
 20
110.8086491408
 10
111.3334275563
 20
110.8016533187
 10
111.3432073427
 20
110.7893775962
 10
111.3523189182
 20
110.7721698657
 10
111.3578979342
 20
110.7527099423
 10
111.3589231747
 20
110.7315866958
 10
111.3546122868
 20
110.7100881983
  0
LWPOLYLINE
  5
336
100
AcDbEntity
  8
GEOM
100
AcDbPolyline
 62
7
  6
CONTINUOUS
 90
12
 70
0
 10
132.6522092756
 20
98.3613941931
 10
132.6508529267
 20
98.3623513398
 10
132.6480256573
 20
98.362216066
 10
132.6437274675
 20
98.3615736595
 10
132.6377885715
 20
98.3614682143
 10
132.6303787551
 20
98.3619495858
 10
132.6220073758
 20
98.3620303855
 10
132.6127195265
 20
98.3620366292
 10
132.6024701143
 20
98.3625073368
 10
132.5916332179
 20
98.3626622991
 10
132.5802475345
 20
98.3627466267
 10
132.5682743669
 20
98.3631925817
  0
LINE
  5
337
100
AcDbEntity
  8
0
100
AcDbLine
 62
7
  6
CONTINUOUS
 10
129.9591664219
 20
101.4140002361
 11
130.1591664219
 21
101.2140002361
  0
LINE
  5
338
100
AcDbEntity
  8
0
100
AcDbLine
 62
7
  6
CONTINUOUS
 10
121.1591664219
 20
109.6640002361
 11
114.631560819
 21
116.6640002361
  0
LINE
  5
339
100
AcDbEntity
  8
0
100
AcDbLine
 62
7
  6
CONTINUOUS
 10
116.1785531671
 20
115.7130540461
 11
115.2917814989
 21
116.6640002361
  0
LINE
  5
33A
100
AcDbEntity
  8
GEOM
100
AcDbLine
 62
7
  6
CONTINUOUS
 10
132.6522092756
 20
98.3613941931
 11
131.550754488
 21
101.3876163507
  0
LINE
  5
33B
100
AcDbEntity
  8
GEOM
100
AcDbLine
 62
7
  6
CONTINUOUS
 10
138.0910684239
 20
98.1356983493
 11
138.0910684239
 21
97.5610889506
  0
LINE
  5
33C
100
AcDbEntity
  8
GEOM
100
AcDbLine
 62
7
  6
CONTINUOUS
 10
138.0910684239
 20
91.1116629203
 11
138.0910684239
 21
89.7244331168
  0
LINE
  5
33D
100
AcDbEntity
  8
GEOM
100
AcDbLine
 62
7
  6
CONTINUOUS
 10
138.0910684239
 20
80.6035673553
 11
138.0910684239
 21
79.2163375519
  0
LINE
  5
33E
100
AcDbEntity
  8
GEOM
100
AcDbLine
 62
7
  6
CONTINUOUS
 10
138.0910684239
 20
72.7669115216
 11
138.0910684239
 21
72.1923021229
  0
LINE
  5
33F
100
AcDbEntity
  8
GEOM
100
AcDbLine
 62
7
  6
CONTINUOUS
 10
139.1591664219
 20
73.2640002361
 11
139.1591664219
 21
97.0640002361
  0
LINE
  5
340
100
AcDbEntity
  8
0
100
AcDbLine
 62
7
  6
CONTINUOUS
 10
103.9324807629
 20
95.4603498256
 11
100.0921791238
 21
95.4603498256
  0
LINE
  5
341
100
AcDbEntity
  8
0
100
AcDbLine
 62
7
  6
CONTINUOUS
 10
97.6481663274
 20
95.9040002288
 11
97.4481663274
 21
95.9040002288
  0
LINE
  5
342
100
AcDbEntity
  8
0
100
AcDbLine
 62
7
  6
CONTINUOUS
 10
95.8338800189
 20
95.9040001981
 11
95.6338800189
 21
95.9040001981
  0
LINE
  5
343
100
AcDbEntity
  8
0
100
AcDbLine
 62
7
  6
CONTINUOUS
 10
94.0195938624
 20
95.9040002063
 11
93.8344938014
 21
95.9040002063
  0
LINE
  5
344
100
AcDbEntity
  8
GEOM
100
AcDbLine
 62
7
  6
CONTINUOUS
 10
144.0346373975
 20
97.0640002361
 11
143.5847511377
 21
97.0640002361
  0
LINE
  5
345
100
AcDbEntity
  8
GEOM
100
AcDbLine
 62
7
  6
CONTINUOUS
 10
142.2215817061
 20
97.0640002361
 11
141.7698068291
 21
97.0640002361
  0
LINE
  5
346
100
AcDbEntity
  8
GEOM
100
AcDbLine
 62
7
  6
CONTINUOUS
 10
140.4085260148
 20
97.0640002361
 11
139.1591664219
 21
97.0640002361
  0
LINE
  5
347
100
AcDbEntity
  8
0
100
AcDbLine
 62
7
  6
CONTINUOUS
 10
99.6591664219
 20
97.0640002361
 11
98.2520241101
 21
97.0640002361
  0
LINE
  5
348
100
AcDbEntity
  8
0
100
AcDbLine
 62
7
  6
CONTINUOUS
 10
96.8443085444
 20
97.0640002361
 11
96.4377378193
 21
97.0640002361
  0
LINE
  5
349
100
AcDbEntity
  8
0
100
AcDbLine
 62
7
  6
CONTINUOUS
 10
95.0300222183
 20
97.0640002361
 11
94.6234516584
 21
97.0640002361
  0
LINE
  5
34A
100
AcDbEntity
  8
GEOM
100
AcDbLine
 62
7
  6
CONTINUOUS
 10
138.1068299872
 20
97.4638391152
 11
132.6767062927
 21
97.4638391152
  0
LINE
  5
34B
100
AcDbEntity
  8
GEOM
100
AcDbLine
 62
7
  6
CONTINUOUS
 10
138.0910684239
 20
97.5610889506
 11
132.6611393862
 21
97.5610889506
  0
LINE
  5
34C
100
AcDbEntity
  8
0
100
AcDbLine
 62
7
  6
CONTINUOUS
 10
105.2478415565
 20
97.6640002361
 11
108.5307392972
 21
97.6640002361
  0
LINE
  5
34D
100
AcDbEntity
  8
GEOM
100
AcDbLine
 62
7
  6
CONTINUOUS
 10
132.6611393862
 20
98.1356983493
 11
138.0910684239
 21
98.1356983493
  0
LINE
  5
34E
100
AcDbEntity
  8
GEOM
100
AcDbLine
 62
7
  6
CONTINUOUS
 10
132.6767062927
 20
98.1640002361
 11
138.5240811258
 21
98.1640002361
  0
LINE
  5
34F
100
AcDbEntity
  8
0
100
AcDbLine
 62
7
  6
CONTINUOUS
 10
82.8704912873
 20
98.4140002361
 11
81.1591664219
 21
98.4140002361
  0
LINE
  5
350
100
AcDbEntity
  8
0
100
AcDbLine
 62
7
  6
CONTINUOUS
 10
154.9478415565
 20
98.4140002361
 11
156.6591664219
 21
98.4140002361
  0
LINE
  5
351
100
AcDbEntity
  8
0
100
AcDbLine
 62
7
  6
CONTINUOUS
 10
103.9324807629
 20
98.8885184919
 11
100.0921791238
 21
98.8885184919
  0
LINE
  5
352
100
AcDbEntity
  8
0
100
AcDbLine
 62
7
  6
CONTINUOUS
 10
103.9488034508
 20
98.9140002361
 11
100.0921791238
 21
98.9140002361
  0
LINE
  5
353
100
AcDbEntity
  8
0
100
AcDbLine
 62
7
  6
CONTINUOUS
 10
120.7591664219
 20
98.9154720987
 11
120.2639114925
 21
98.9154720987
  0
LINE
  5
354
100
AcDbEntity
  8
0
100
AcDbLine
 62
7
  6
CONTINUOUS
 10
118.6591664219
 20
98.9154720987
 11
117.5591664219
 21
98.9154720987
  0
LINE
  5
355
100
AcDbEntity
  8
0
100
AcDbLine
 62
7
  6
CONTINUOUS
 10
118.2391664219
 20
99.3354720987
 11
117.5591664219
 21
99.3354720987
  0
LINE
  5
356
100
AcDbEntity
  8
GEOM
100
AcDbLine
 62
7
  6
CONTINUOUS
 10
132.4362982278
 20
98.3657752542
 11
132.4225308505
 21
98.3659085534
  0
LWPOLYLINE
  5
357
100
AcDbEntity
  8
GEOM
100
AcDbPolyline
 62
7
  6
CONTINUOUS
 90
3
 70
0
 10
132.5559717028
 20
98.3633942889
 10
132.5433717268
 20
98.3635316697
 10
132.5304422544
 20
98.3639457116
  0
LWPOLYLINE
  5
358
100
AcDbEntity
  8
GEOM
100
AcDbPolyline
 62
7
  6
CONTINUOUS
 90
4
 70
0
 10
132.5173447201
 20
98.3641753104
 10
132.5041053379
 20
98.3643481139
 10
132.4906978939
 20
98.3647284638
 10
132.4636483302
 20
98.3651708751
  0
LINE
  5
359
100
AcDbEntity
  8
GEOM
100
AcDbLine
 62
7
  6
CONTINUOUS
 10
132.6522092756
 20
98.3613941931
 11
132.3947985065
 21
98.3665748104
  0
LINE
  5
35A
100
AcDbEntity
  8
GEOM
100
AcDbLine
 62
7
  6
CONTINUOUS
 10
132.4636483302
 20
98.3651708751
 11
132.4500062105
 21
98.3655195846
  0
LINE
  5
35B
100
AcDbEntity
  8
GEOM
100
AcDbLine
 62
7
  6
CONTINUOUS
 10
132.40869761
 20
98.366142714
 11
132.3947985065
 21
98.3665748104
  0
LINE
  5
35C
100
AcDbEntity
  8
GEOM
100
AcDbLine
 62
7
  6
CONTINUOUS
 10
140.4219575272
 20
97.0511110399
 11
140.4085260148
 21
97.0640002361
  0
LINE
  5
35D
100
AcDbEntity
  8
GEOM
100
AcDbLine
 62
7
  6
CONTINUOUS
 10
142.2350132186
 20
97.0511110397
 11
142.2215817061
 21
97.0640002361
  0
LINE
  5
35E
100
AcDbEntity
  8
GEOM
100
AcDbLine
 62
7
  6
CONTINUOUS
 10
144.0480689101
 20
97.0511110396
 11
144.0346373975
 21
97.0640002361
  0
LWPOLYLINE
  5
35F
100
AcDbEntity
  8
GEOM
100
AcDbPolyline
 62
7
  6
CONTINUOUS
 90
3
 70
0
 10
142.8346334463
 20
95.9031064034
 10
142.8300090371
 20
95.9096035172
 10
142.8290082035
 20
95.9114172735
  0
LWPOLYLINE
  5
360
100
AcDbEntity
  8
GEOM
100
AcDbPolyline
 62
7
  6
CONTINUOUS
 90
3
 70
0
 10
141.0192189547
 20
95.9067079263
 10
141.0156436837
 20
95.9120439364
 10
141.0151018982
 20
95.9130524416
  0
LINE
  5
361
100
AcDbEntity
  8
GEOM
100
AcDbLine
 62
7
  6
CONTINUOUS
 10
139.1591664219
 20
97.0640002361
 11
138.5240811258
 21
98.1640002361
  0
LINE
  5
362
100
AcDbEntity
  8
GEOM
100
AcDbLine
 62
7
  6
CONTINUOUS
 10
142.8293237672
 20
95.9108183038
 11
142.8290082035
 21
95.9114172735
  0
LINE
  5
363
100
AcDbEntity
  8
GEOM
100
AcDbLine
 62
7
  6
CONTINUOUS
 10
141.0153212674
 20
95.9126346982
 11
140.4219575272
 21
97.0511110399
  0
LINE
  5
364
100
AcDbEntity
  8
GEOM
100
AcDbLine
 62
7
  6
CONTINUOUS
 10
142.8293237672
 20
95.9108183038
 11
142.2350132186
 21
97.0511110397
  0
LINE
  5
365
100
AcDbEntity
  8
GEOM
100
AcDbLine
 62
7
  6
CONTINUOUS
 10
144.1591664219
 20
96.837930251
 11
144.0480689101
 21
97.0511110396
  0
LINE
  5
366
100
AcDbEntity
  8
0
100
AcDbLine
 62
7
  6
CONTINUOUS
 10
144.1591664219
 20
72.1640002361
 11
144.1591664219
 21
98.1640002361
  0
LINE
  5
367
100
AcDbEntity
  8
0
100
AcDbLine
 62
7
  6
CONTINUOUS
 10
145.3138669603
 20
70.1640002361
 11
145.3138669603
 21
70.2034830773
  0
LINE
  5
368
100
AcDbEntity
  8
0
100
AcDbLine
 62
7
  6
CONTINUOUS
 10
145.3138669603
 20
76.7418314927
 11
145.3138669603
 21
78.6256518208
  0
LINE
  5
369
100
AcDbEntity
  8
0
100
AcDbLine
 62
7
  6
CONTINUOUS
 10
145.3138669603
 20
91.7023486514
 11
145.3138669603
 21
93.5861689795
  0
LINE
  5
36A
100
AcDbEntity
  8
0
100
AcDbLine
 62
7
  6
CONTINUOUS
 10
145.3138669603
 20
100.1245173948
 11
145.3138669603
 21
100.1640002361
  0
LINE
  5
36B
100
AcDbEntity
  8
GEOM
100
AcDbLine
 62
7
  6
CONTINUOUS
 10
132.6522092756
 20
71.9666062791
 11
131.550754488
 21
68.9403841214
  0
LWPOLYLINE
  5
36C
100
AcDbEntity
  8
GEOM
100
AcDbPolyline
 62
7
  6
CONTINUOUS
 90
5
 70
0
 10
141.1635724058
 20
95.9137188893
 10
141.1629600567
 20
95.9125295408
 10
141.1591250969
 20
95.906758086
 10
141.1510105974
 20
95.8978146844
 10
141.137750232
 20
95.8875494453
  0
LINE
  5
36D
100
AcDbEntity
  8
GEOM
100
AcDbLine
 62
7
  6
CONTINUOUS
 10
141.75634734
 20
97.0510842175
 11
141.1629961695
 21
95.9126348287
  0
LINE
  5
36E
100
AcDbEntity
  8
GEOM
100
AcDbLine
 62
7
  6
CONTINUOUS
 10
141.1635724058
 20
95.9137188893
 11
141.1629961695
 21
95.9126348287
  0
LINE
  5
36F
100
AcDbEntity
  8
0
100
AcDbLine
 62
7
  6
CONTINUOUS
 10
153.3303184454
 20
100.1245173948
 11
145.3138669603
 21
100.1245173948
  0
LINE
  5
370
100
AcDbEntity
  8
0
100
AcDbLine
 62
7
  6
CONTINUOUS
 10
84.4880143984
 20
100.1245173948
 11
92.5044658835
 21
100.1245173948
  0
LINE
  5
371
100
AcDbEntity
  8
0
100
AcDbLine
 62
7
  6
CONTINUOUS
 10
153.3601283162
 20
100.1640002361
 11
145.3138669603
 21
100.1640002361
  0
LINE
  5
372
100
AcDbEntity
  8
0
100
AcDbLine
 62
7
  6
CONTINUOUS
 10
84.4582045276
 20
100.1640002361
 11
92.5044658835
 21
100.1640002361
  0
LINE
  5
373
100
AcDbEntity
  8
0
100
AcDbLine
 62
7
  6
CONTINUOUS
 10
119.3391664219
 20
100.3953735657
 11
118.6591664219
 21
100.3953735657
  0
LINE
  5
374
100
AcDbEntity
  8
0
100
AcDbLine
 62
7
  6
CONTINUOUS
 10
119.6191664219
 20
100.8954720987
 11
118.6591664219
 21
100.8954720987
  0
LINE
  5
375
100
AcDbEntity
  8
0
100
AcDbLine
 62
7
  6
CONTINUOUS
 10
128.2091664219
 20
100.9140002361
 11
128.3127562604
 21
100.9140002361
  0
LINE
  5
376
100
AcDbEntity
  8
0
100
AcDbLine
 62
7
  6
CONTINUOUS
 10
109.9808889431
 20
100.9533825213
 11
110.3602671935
 21
100.9533825213
  0
LINE
  5
377
100
AcDbEntity
  8
0
100
AcDbLine
 62
7
  6
CONTINUOUS
 10
129.9591664219
 20
101.4140002361
 11
128.9478415565
 21
101.4140002361
  0
LINE
  5
378
100
AcDbEntity
  8
0
100
AcDbLine
 62
7
  6
CONTINUOUS
 10
130.1591664219
 20
101.4140002361
 11
131.5406202401
 21
101.4140002361
  0
LINE
  5
379
100
AcDbEntity
  8
0
100
AcDbLine
 62
7
  6
CONTINUOUS
 10
119.6191664219
 20
102.0954720987
 11
118.6591664219
 21
102.0954720987
  0
LINE
  5
37A
100
AcDbEntity
  8
0
100
AcDbLine
 62
7
  6
CONTINUOUS
 10
118.2391664219
 20
102.0954720987
 11
117.5591664219
 21
102.0954720987
  0
LINE
  5
37B
100
AcDbEntity
  8
0
100
AcDbLine
 62
7
  6
CONTINUOUS
 10
119.6191664219
 20
102.5154720987
 11
117.5591664219
 21
102.5154720987
  0
LINE
  5
37C
100
AcDbEntity
  8
0
100
AcDbLine
 62
7
  6
CONTINUOUS
 10
105.1591664219
 20
102.6640002361
 11
106.2180121487
 21
102.6640002361
  0
LINE
  5
37D
100
AcDbEntity
  8
0
100
AcDbLine
 62
7
  6
CONTINUOUS
 10
121.1591664219
 20
102.6640002361
 11
126.1591664219
 21
102.6640002361
  0
LINE
  5
37E
100
AcDbEntity
  8
0
100
AcDbLine
 62
7
  6
CONTINUOUS
 10
127.4091664219
 20
102.8154720987
 11
126.2237206993
 21
102.8154720987
  0
LINE
  5
37F
100
AcDbEntity
  8
0
100
AcDbLine
 62
7
  6
CONTINUOUS
 10
109.9808889431
 20
102.8154720987
 11
121.1591664219
 21
102.8154720987
  0
LINE
  5
380
100
AcDbEntity
  8
0
100
AcDbLine
 62
7
  6
CONTINUOUS
 10
110.1875988996
 20
103.2397361674
 11
121.1591664219
 21
103.2397361674
  0
LINE
  5
381
100
AcDbEntity
  8
0
100
AcDbLine
 62
7
  6
CONTINUOUS
 10
126.4045335572
 20
103.2397361674
 11
127.5849023532
 21
103.2397361674
  0
LINE
  5
382
100
AcDbEntity
  8
0
100
AcDbLine
 62
7
  6
CONTINUOUS
 10
127.9834304906
 20
103.6382643048
 11
126.5743782762
 21
103.6382643048
  0
LINE
  5
383
100
AcDbEntity
  8
0
100
AcDbLine
 62
7
  6
CONTINUOUS
 10
121.1591664219
 20
103.6382643048
 11
109.7698577713
 21
103.6382643048
  0
LINE
  5
384
100
AcDbEntity
  8
0
100
AcDbLine
 62
7
  6
CONTINUOUS
 10
109.193438769
 20
104.0625283735
 11
121.1591664219
 21
104.0625283735
  0
LINE
  5
385
100
AcDbEntity
  8
0
100
AcDbLine
 62
7
  6
CONTINUOUS
 10
126.7551911341
 20
104.0625283735
 11
128.1591664219
 21
104.0625283735
  0
LINE
  5
386
100
AcDbEntity
  8
GEOM
100
AcDbLine
 62
7
  6
CONTINUOUS
 10
143.5712916486
 20
97.0510842173
 11
142.9769936671
 21
95.9108184344
  0
LINE
  5
387
100
AcDbEntity
  8
GEOM
100
AcDbLine
 62
7
  6
CONTINUOUS
 10
142.9777395103
 20
95.9122134212
 11
142.9769936671
 21
95.9108184344
  0
LINE
  5
388
100
AcDbEntity
  8
0
100
AcDbLine
 62
7
  6
CONTINUOUS
 10
145.3138669603
 20
100.1640002361
 11
144.1591664219
 21
98.1640002361
  0
LWPOLYLINE
  5
389
100
AcDbEntity
  8
GEOM
100
AcDbPolyline
 62
7
  6
CONTINUOUS
 90
4
 70
0
 10
142.9777395103
 20
95.9122134212
 10
142.9745748564
 20
95.9069324141
 10
142.9676221941
 20
95.8985666596
 10
142.9556827046
 20
95.8883744181
  0
LINE
  5
38A
100
AcDbEntity
  8
GEOM
100
AcDbLine
 62
7
  6
CONTINUOUS
 10
141.75634734
 20
97.0510842175
 11
141.7698068291
 21
97.0640002361
  0
LINE
  5
38B
100
AcDbEntity
  8
GEOM
100
AcDbLine
 62
7
  6
CONTINUOUS
 10
143.5712916486
 20
97.0510842173
 11
143.5847511377
 21
97.0640002361
  0
LWPOLYLINE
  5
38C
100
AcDbEntity
  8
GEOM
100
AcDbPolyline
 62
7
  6
CONTINUOUS
 90
7
 70
0
 10
141.137750232
 20
95.8875494453
 10
141.1191602857
 20
95.8784372901
 10
141.0927156736
 20
95.8731462935
 10
141.0625545935
 20
95.8772845624
 10
141.0395068377
 20
95.8882380548
 10
141.0264613581
 20
95.8986193619
 10
141.0192189547
 20
95.9067079263
  0
LINE
  5
38D
100
AcDbEntity
  8
0
100
AcDbLine
 62
7
  6
CONTINUOUS
 10
105.0591664219
 20
106.1640002361
 11
109.5758924115
 21
106.1640002361
  0
LINE
  5
38E
100
AcDbEntity
  8
0
100
AcDbLine
 62
7
  6
CONTINUOUS
 10
108.984457124
 20
106.5640002361
 11
105.0591664219
 21
106.5640002361
  0
LINE
  5
38F
100
AcDbEntity
  8
0
100
AcDbLine
 62
7
  6
CONTINUOUS
 10
109.1591664219
 20
106.9640002361
 11
109.3753544693
 21
106.9640002361
  0
LINE
  5
390
100
AcDbEntity
  8
0
100
AcDbLine
 62
7
  6
CONTINUOUS
 10
121.1591664219
 20
107.3568934549
 11
109.1591664219
 21
107.3568934549
  0
LINE
  5
391
100
AcDbEntity
  8
0
100
AcDbLine
 62
7
  6
CONTINUOUS
 10
121.1591664219
 20
107.7104468441
 11
109.0127198125
 21
107.7104468455
  0
LINE
  5
392
100
AcDbEntity
  8
0
100
AcDbLine
 62
7
  6
CONTINUOUS
 10
108.9091664219
 20
107.8140002361
 11
121.1591664219
 21
107.8140002361
  0
LINE
  5
393
100
AcDbEntity
  8
0
100
AcDbLine
 62
7
  6
CONTINUOUS
 10
128.3539933872
 20
107.8140002361
 11
128.4091664219
 21
107.8140002361
  0
LINE
  5
394
100
AcDbEntity
  8
0
100
AcDbLine
 62
7
  6
CONTINUOUS
 10
123.2779685754
 20
121.4614351846
 11
124.3591664219
 21
120.8372053168
  0
LINE
  5
395
100
AcDbEntity
  8
0
100
AcDbLine
 62
7
  6
CONTINUOUS
 10
154.5148288546
 20
98.6640002361
 11
153.7931410181
 21
99.9140002361
  0
LINE
  5
396
100
AcDbEntity
  8
0
100
AcDbLine
 62
7
  6
CONTINUOUS
 10
153.1591664219
 20
135.000675278
 11
153.1591664219
 21
137.3273251942
  0
LINE
  5
397
100
AcDbEntity
  8
0
100
AcDbLine
 62
7
  6
CONTINUOUS
 10
153.1591664219
 20
137.6640002361
 11
153.1591664219
 21
137.8640002361
  0
LINE
  5
398
100
AcDbEntity
  8
0
100
AcDbLine
 62
7
  6
CONTINUOUS
 10
153.3601283162
 20
93.5845378945
 11
153.3601283162
 21
91.7041225234
  0
LINE
  5
399
100
AcDbEntity
  8
0
100
AcDbLine
 62
7
  6
CONTINUOUS
 10
153.3601283162
 20
78.6238779486
 11
153.3601283162
 21
76.7434625775
  0
LINE
  5
39A
100
AcDbEntity
  8
0
100
AcDbLine
 62
7
  6
CONTINUOUS
 10
153.3601283162
 20
70.1640002361
 11
153.3601283162
 21
70.2033402904
  0
LINE
  5
39B
100
AcDbEntity
  8
0
100
AcDbLine
 62
7
  6
CONTINUOUS
 10
153.3601283162
 20
100.1246601818
 11
153.3601283162
 21
100.1640002361
  0
LINE
  5
39C
100
AcDbEntity
  8
0
100
AcDbLine
 62
7
  6
CONTINUOUS
 10
153.7931410181
 20
93.349764117
 11
153.7931410181
 21
91.6973512724
  0
LINE
  5
39D
100
AcDbEntity
  8
0
100
AcDbLine
 62
7
  6
CONTINUOUS
 10
153.7931410181
 20
78.6306492025
 11
153.7931410181
 21
76.978236358
  0
LINE
  5
39E
100
AcDbEntity
  8
0
100
AcDbLine
 62
7
  6
CONTINUOUS
 10
153.7931410181
 20
70.4140002361
 11
153.7931410181
 21
70.4448853194
  0
LINE
  5
39F
100
AcDbEntity
  8
0
100
AcDbLine
 62
7
  6
CONTINUOUS
 10
153.7931410181
 20
99.883115153
 11
153.7931410181
 21
99.9140002361
  0
LINE
  5
3A0
100
AcDbEntity
  8
0
100
AcDbLine
 62
7
  6
CONTINUOUS
 10
154.4591664219
 20
133.1640002361
 11
154.4591664219
 21
139.1640002361
  0
LINE
  5
3A1
100
AcDbEntity
  8
0
100
AcDbLine
 62
7
  6
CONTINUOUS
 10
154.5148288546
 20
71.6640002361
 11
154.5148288546
 21
72.388212479
  0
LINE
  5
3A2
100
AcDbEntity
  8
0
100
AcDbLine
 62
7
  6
CONTINUOUS
 10
154.5148288576
 20
74.9982848339
 11
154.5148288546
 21
82.5539278712
  0
LINE
  5
3A3
100
AcDbEntity
  8
0
100
AcDbLine
 62
7
  6
CONTINUOUS
 10
154.5148288578
 20
87.7740725779
 11
154.5148288546
 21
95.3297156283
  0
LINE
  5
3A4
100
AcDbEntity
  8
0
100
AcDbLine
 62
7
  6
CONTINUOUS
 10
154.5148288546
 20
97.9397879932
 11
154.5148288546
 21
98.6640002361
  0
LINE
  5
3A5
100
AcDbEntity
  8
0
100
AcDbLine
 62
7
  6
CONTINUOUS
 10
154.9478415565
 20
71.9140002361
 11
154.9478415565
 21
98.4140002361
  0
LINE
  5
3A6
100
AcDbEntity
  8
GEOM
100
AcDbLine
 62
7
  6
CONTINUOUS
 10
155.6069275919
 20
139.1640002361
 11
155.6069275919
 21
139.1804181466
  0
LINE
  5
3A7
100
AcDbEntity
  8
GEOM
100
AcDbLine
 62
7
  6
CONTINUOUS
 10
139.5154296815
 20
73.2768894322
 11
139.5283814928
 21
73.3017425138
  0
LINE
  5
3A8
100
AcDbEntity
  8
GEOM
100
AcDbLine
 62
7
  6
CONTINUOUS
 10
139.1591664219
 20
73.2640002361
 11
138.5240811258
 21
72.1640002361
  0
LWPOLYLINE
  5
3A9
100
AcDbEntity
  8
GEOM
100
AcDbPolyline
 62
7
  6
CONTINUOUS
 90
7
 70
0
 10
142.9556827046
 20
95.8883744181
 10
142.9381968403
 20
95.8786053163
 10
142.9124435808
 20
95.8717731694
 10
142.8821961268
 20
95.8738722943
 10
142.8581546006
 20
95.8835724768
 10
142.8434970141
 20
95.8940064154
 10
142.8346334463
 20
95.9031064034
  0
LINE
  5
3AA
100
AcDbEntity
  8
0
100
AcDbLine
 62
7
  6
CONTINUOUS
 10
105.1591664219
 20
109.6640002361
 11
108.1591664219
 21
109.6640002361
  0
LINE
  5
3AB
100
AcDbEntity
  8
0
100
AcDbLine
 62
7
  6
CONTINUOUS
 10
108.9091664219
 20
110.3140002361
 11
120.5530316159
 21
110.3140002361
  0
LINE
  5
3AC
100
AcDbEntity
  8
0
100
AcDbLine
 62
7
  6
CONTINUOUS
 10
109.1591664219
 20
110.5640002361
 11
120.3199028444
 21
110.5640002361
  0
LINE
  5
3AD
100
AcDbEntity
  8
0
100
AcDbLine
 62
7
  6
CONTINUOUS
 10
111.3591989807
 20
111.5640002361
 11
119.3873877583
 21
111.5640002361
  0
LINE
  5
3AE
100
AcDbEntity
  8
0
100
AcDbLine
 62
7
  6
CONTINUOUS
 10
111.4091664219
 20
114.1309875342
 11
111.424347225
 21
114.1309875342
  0
LINE
  5
3AF
100
AcDbEntity
  8
0
100
AcDbLine
 62
7
  6
CONTINUOUS
 10
114.6356553697
 20
114.1309875342
 11
115.4478582773
 21
114.1309875342
  0
LINE
  5
3B0
100
AcDbEntity
  8
0
100
AcDbLine
 62
7
  6
CONTINUOUS
 10
123.2779685754
 20
124.3067346462
 11
122.6591664219
 21
124.6640002361
  0
LINE
  5
3B1
100
AcDbEntity
  8
GEOM
100
AcDbLine
 62
7
  6
CONTINUOUS
 10
156.4715251509
 20
139.1640002361
 11
156.4715251509
 21
139.1804181466
  0
LINE
  5
3B2
100
AcDbEntity
  8
0
100
AcDbLine
 62
7
  6
CONTINUOUS
 10
156.6591664219
 20
98.4140002361
 11
156.6591664219
 21
71.9140002361
  0
LINE
  5
3B3
100
AcDbEntity
  8
GEOM
100
AcDbLine
 62
7
  6
CONTINUOUS
 10
157.1069275919
 20
139.1640002361
 11
157.1069275919
 21
139.1804181466
  0
LINE
  5
3B4
100
AcDbEntity
  8
0
100
AcDbLine
 62
7
  6
CONTINUOUS
 10
157.1591664219
 20
97.9140002361
 11
157.1591664219
 21
72.4140002361
  0
LINE
  5
3B5
100
AcDbEntity
  8
GEOM
100
AcDbLine
 62
7
  6
CONTINUOUS
 10
157.7036796684
 20
139.1640002361
 11
157.7036796684
 21
139.1804181466
  0
LINE
  5
3B6
100
AcDbEntity
  8
GEOM
100
AcDbLine
 62
7
  6
CONTINUOUS
 10
158.9059184725
 20
139.1640002361
 11
158.9059184725
 21
139.1804181466
  0
LINE
  5
3B7
100
AcDbEntity
  8
GEOM
100
AcDbLine
 62
7
  6
CONTINUOUS
 10
159.6270362123
 20
139.1640002361
 11
159.6270362123
 21
139.1804181466
  0
LINE
  5
3B8
100
AcDbEntity
  8
GEOM
100
AcDbLine
 62
7
  6
CONTINUOUS
 10
141.3284853729
 20
73.2768894324
 11
141.9223225172
 21
74.4162739711
  0
LINE
  5
3B9
100
AcDbEntity
  8
GEOM
100
AcDbLine
 62
7
  6
CONTINUOUS
 10
143.1415410644
 20
73.2768894325
 11
143.7363250175
 21
74.4180903659
  0
LINE
  5
3BA
100
AcDbEntity
  8
GEOM
100
AcDbLine
 62
7
  6
CONTINUOUS
 10
143.7363250175
 20
74.4180903659
 11
143.7359567213
 21
74.4173925565
  0
LWPOLYLINE
  5
3BB
100
AcDbEntity
  8
GEOM
100
AcDbPolyline
 62
7
  6
CONTINUOUS
 90
12
 70
0
 10
141.9221665138
 20
74.4159762572
 10
141.9225076833
 20
74.4166187471
 10
141.9257329435
 20
74.4215535651
 10
141.9325286899
 20
74.4293691819
 10
141.9452698575
 20
74.4398453226
 10
141.9684473948
 20
74.4512630899
 10
141.9991704211
 20
74.4557833211
 10
142.0262915711
 20
74.4504226787
 10
142.0455783721
 20
74.4408316996
 10
142.0592828101
 20
74.4298791551
 10
142.0672735145
 20
74.4205897609
 10
142.0704163143
 20
74.415465414
  0
LWPOLYLINE
  5
3BC
100
AcDbEntity
  8
GEOM
100
AcDbPolyline
 62
7
  6
CONTINUOUS
 90
12
 70
0
 10
143.7359567213
 20
74.4173925565
 10
143.7381824859
 20
74.4211541803
 10
143.744882127
 20
74.429492482
 10
143.7566816128
 20
74.4398488116
 10
143.7737774699
 20
74.4497162958
 10
143.7983704135
 20
74.4568203485
 10
143.8272624983
 20
74.4559067408
 10
143.8508797773
 20
74.4476496912
 10
143.8661804458
 20
74.4379178512
 10
143.8761543413
 20
74.4287101874
 10
143.881946671
 20
74.4214336255
 10
143.884623513
 20
74.4169051923
  0
LINE
  5
3BD
100
AcDbEntity
  8
0
100
AcDbLine
 62
7
  6
CONTINUOUS
 10
129.9591664219
 20
68.9140002361
 11
130.1591664219
 21
69.1140002361
  0
LINE
  5
3BE
100
AcDbEntity
  8
0
100
AcDbLine
 62
7
  6
CONTINUOUS
 10
116.5898424998
 20
114.5640002361
 11
112.1591664219
 21
114.5640002361
  0
LINE
  5
3BF
100
AcDbEntity
  8
0
100
AcDbLine
 62
7
  6
CONTINUOUS
 10
115.097818362
 20
116.1640002361
 11
114.1591664219
 21
116.1640002361
  0
LINE
  5
3C0
100
AcDbEntity
  8
0
100
AcDbLine
 62
7
  6
CONTINUOUS
 10
106.3760484301
 20
116.6640002361
 11
115.2917814989
 21
116.6640002361
  0
LINE
  5
3C1
100
AcDbEntity
  8
0
100
AcDbLine
 62
7
  6
CONTINUOUS
 10
116.1785531671
 20
116.6640002361
 11
130.5479142292
 21
116.6640002361
  0
LINE
  5
3C2
100
AcDbEntity
  8
0
100
AcDbLine
 62
7
  6
CONTINUOUS
 10
132.0833703694
 20
116.6640002361
 11
137.1591664219
 21
116.6640002361
  0
LINE
  5
3C3
100
AcDbEntity
  8
GEOM
100
AcDbLine
 62
7
  6
CONTINUOUS
 10
162.5016630735
 20
139.1640002361
 11
162.5016630735
 21
139.1804181466
  0
LINE
  5
3C4
100
AcDbEntity
  8
GEOM
100
AcDbLine
 62
7
  6
CONTINUOUS
 10
163.2348898571
 20
139.1640002361
 11
163.2348898571
 21
139.1804181466
  0
LINE
  5
3C5
100
AcDbEntity
  8
GEOM
100
AcDbLine
 62
7
  6
CONTINUOUS
 10
164.5311585118
 20
139.1640002361
 11
164.5311585118
 21
139.1804181466
  0
LINE
  5
3C6
100
AcDbEntity
  8
GEOM
100
AcDbLine
 62
7
  6
CONTINUOUS
 10
165.0953376154
 20
139.1640002361
 11
165.0953376154
 21
139.1804181466
  0
LINE
  5
3C7
100
AcDbEntity
  8
GEOM
100
AcDbLine
 62
7
  6
CONTINUOUS
 10
165.1960838839
 20
139.1640002361
 11
165.1960838839
 21
139.1804181466
  0
LINE
  5
3C8
100
AcDbEntity
  8
GEOM
100
AcDbLine
 62
7
  6
CONTINUOUS
 10
165.3707107493
 20
139.1640002361
 11
165.3707107493
 21
139.1804181466
  0
LINE
  5
3C9
100
AcDbEntity
  8
GEOM
100
AcDbLine
 62
7
  6
CONTINUOUS
 10
141.3284853729
 20
73.2768894324
 11
141.3150538605
 21
73.2640002361
  0
LINE
  5
3CA
100
AcDbEntity
  8
0
100
AcDbLine
 62
7
  6
CONTINUOUS
 10
108.1591664219
 20
119.6640002361
 11
137.1591664219
 21
119.6640002361
  0
LINE
  5
3CB
100
AcDbEntity
  8
0
100
AcDbLine
 62
7
  6
CONTINUOUS
 10
112.6591664219
 20
120.3175900746
 11
124.6591664219
 21
120.3175900746
  0
LINE
  5
3CC
100
AcDbEntity
  8
0
100
AcDbLine
 62
7
  6
CONTINUOUS
 10
112.9591664219
 20
120.8372053168
 11
124.3591664219
 21
120.8372053168
  0
LINE
  5
3CD
100
AcDbEntity
  8
GEOM
100
AcDbLine
 62
7
  6
CONTINUOUS
 10
166.0678749273
 20
139.1640002361
 11
166.0678749273
 21
139.1804181466
  0
LINE
  5
3CE
100
AcDbEntity
  8
GEOM
100
AcDbLine
 62
7
  6
CONTINUOUS
 10
166.5847032847
 20
139.1640002361
 11
166.5847032847
 21
139.1804181466
  0
LINE
  5
3CF
100
AcDbEntity
  8
GEOM
100
AcDbLine
 62
7
  6
CONTINUOUS
 10
167.1304122391
 20
139.1640002361
 11
167.1304122391
 21
139.1804181466
  0
LINE
  5
3D0
100
AcDbEntity
  8
GEOM
100
AcDbLine
 62
7
  6
CONTINUOUS
 10
167.674442089
 20
139.1640002361
 11
167.674442089
 21
139.1804181466
  0
LINE
  5
3D1
100
AcDbEntity
  8
GEOM
100
AcDbLine
 62
7
  6
CONTINUOUS
 10
168.0035465661
 20
139.1640002361
 11
168.0035465661
 21
139.1804181466
  0
LINE
  5
3D2
100
AcDbEntity
  8
GEOM
100
AcDbLine
 62
7
  6
CONTINUOUS
 10
168.7759346246
 20
139.1640002361
 11
168.7759346246
 21
139.1804181466
  0
LINE
  5
3D3
100
AcDbEntity
  8
GEOM
100
AcDbLine
 62
7
  6
CONTINUOUS
 10
169.5953376084
 20
139.1640002361
 11
169.5953376084
 21
139.1804181466
  0
LINE
  5
3D4
100
AcDbEntity
  8
GEOM
100
AcDbLine
 62
7
  6
CONTINUOUS
 10
169.6051830506
 20
139.1640002361
 11
169.6051830506
 21
139.1804181466
  0
LINE
  5
3D5
100
AcDbEntity
  8
GEOM
100
AcDbLine
 62
7
  6
CONTINUOUS
 10
170.0722032793
 20
139.1640002361
 11
170.0722032793
 21
139.1804181466
  0
LINE
  5
3D6
100
AcDbEntity
  8
GEOM
100
AcDbLine
 62
7
  6
CONTINUOUS
 10
170.3677256669
 20
139.1640002361
 11
170.3677256669
 21
139.1804181466
  0
LINE
  5
3D7
100
AcDbEntity
  8
0
100
AcDbLine
 62
7
  6
CONTINUOUS
 10
154.5148288546
 20
71.6640002361
 11
153.7931410181
 21
70.4140002361
  0
LINE
  5
3D8
100
AcDbEntity
  8
GEOM
100
AcDbLine
 62
7
  6
CONTINUOUS
 10
143.1415410644
 20
73.2768894325
 11
143.1281095518
 21
73.2640002361
  0
LINE
  5
3D9
100
AcDbEntity
  8
0
100
AcDbLine
 62
7
  6
CONTINUOUS
 10
114.6592134977
 20
124.6640002361
 11
122.6591193461
 21
124.6640002361
  0
LINE
  5
3DA
100
AcDbEntity
  8
GEOM
100
AcDbLine
 62
7
  6
CONTINUOUS
 10
172.3893674548
 20
139.1640002361
 11
172.3893674548
 21
139.1804181466
  0
LINE
  5
3DB
100
AcDbEntity
  8
GEOM
100
AcDbLine
 62
7
  6
CONTINUOUS
 10
173.9498515648
 20
139.1640002361
 11
173.9498515648
 21
139.1804181466
  0
LINE
  5
3DC
100
AcDbEntity
  8
GEOM
100
AcDbLine
 62
7
  6
CONTINUOUS
 10
174.0483226761
 20
139.1640002361
 11
174.0483226761
 21
139.1804181466
  0
LINE
  5
3DD
100
AcDbEntity
  8
GEOM
100
AcDbLine
 62
7
  6
CONTINUOUS
 10
174.8878749136
 20
139.1640002361
 11
174.8878749136
 21
139.1804181466
  0
LINE
  5
3DE
100
AcDbEntity
  8
GEOM
100
AcDbLine
 62
7
  6
CONTINUOUS
 10
175.0356341949
 20
139.1804181466
 11
175.0356341949
 21
139.1640002361
  0
LINE
  5
3DF
100
AcDbEntity
  8
GEOM
100
AcDbLine
 62
7
  6
CONTINUOUS
 10
175.4722032709
 20
139.1640002361
 11
175.4722032709
 21
139.1804181466
  0
LINE
  5
3E0
100
AcDbEntity
  8
0
100
AcDbLine
 62
7
  6
CONTINUOUS
 10
154.4591664219
 20
133.1640002361
 11
207.6591664219
 21
133.1640002361
  0
LINE
  5
3E1
100
AcDbEntity
  8
GEOM
100
AcDbLine
 62
7
  6
CONTINUOUS
 10
176.9229495373
 20
139.1640002361
 11
176.9229495373
 21
139.1804181466
  0
LINE
  5
3E2
100
AcDbEntity
  8
GEOM
100
AcDbLine
 62
7
  6
CONTINUOUS
 10
178.1069275882
 20
139.1640002361
 11
178.1069275882
 21
139.1804181466
  0
LINE
  5
3E3
100
AcDbEntity
  8
GEOM
100
AcDbLine
 62
7
  6
CONTINUOUS
 10
178.7551540706
 20
139.1640002361
 11
178.7551540706
 21
139.1804181466
  0
LINE
  5
3E4
100
AcDbEntity
  8
GEOM
100
AcDbLine
 62
7
  6
CONTINUOUS
 10
179.0288238974
 20
139.1640002361
 11
179.0288238974
 21
139.1804181466
  0
LINE
  5
3E5
100
AcDbEntity
  8
GEOM
100
AcDbLine
 62
7
  6
CONTINUOUS
 10
179.2153118009
 20
139.1640002361
 11
179.2153118009
 21
139.1804181466
  0
LINE
  5
3E6
100
AcDbEntity
  8
GEOM
100
AcDbLine
 62
7
  6
CONTINUOUS
 10
179.339601515
 20
139.1640002361
 11
179.339601515
 21
139.1804181466
  0
LINE
  5
3E7
100
AcDbEntity
  8
GEOM
100
AcDbLine
 62
7
  6
CONTINUOUS
 10
179.3906247768
 20
139.1640002361
 11
179.3906247768
 21
139.1804181466
  0
LINE
  5
3E8
100
AcDbEntity
  8
GEOM
100
AcDbLine
 62
7
  6
CONTINUOUS
 10
179.4819047572
 20
139.1640002361
 11
179.4819047572
 21
139.1804181466
  0
LINE
  5
3E9
100
AcDbEntity
  8
GEOM
100
AcDbLine
 62
7
  6
CONTINUOUS
 10
179.6689329896
 20
139.1640002361
 11
179.6689329896
 21
139.1804181466
  0
LINE
  5
3EA
100
AcDbEntity
  8
GEOM
100
AcDbLine
 62
7
  6
CONTINUOUS
 10
179.8776641998
 20
139.1640002361
 11
179.8776641998
 21
139.1804181466
  0
LINE
  5
3EB
100
AcDbEntity
  8
GEOM
100
AcDbLine
 62
7
  6
CONTINUOUS
 10
180.0829166207
 20
139.1640002361
 11
180.0829166207
 21
139.1804181466
  0
LINE
  5
3EC
100
AcDbEntity
  8
GEOM
100
AcDbLine
 62
7
  6
CONTINUOUS
 10
180.1687283788
 20
139.1640002361
 11
180.1687283788
 21
139.1804181466
  0
LINE
  5
3ED
100
AcDbEntity
  8
GEOM
100
AcDbLine
 62
7
  6
CONTINUOUS
 10
180.1919207129
 20
139.1640002361
 11
180.1919207129
 21
139.1804181466
  0
LINE
  5
3EE
100
AcDbEntity
  8
GEOM
100
AcDbLine
 62
7
  6
CONTINUOUS
 10
180.3264365349
 20
139.1640002361
 11
180.3264365349
 21
139.1804181466
  0
LINE
  5
3EF
100
AcDbEntity
  8
0
100
AcDbLine
 62
7
  6
CONTINUOUS
 10
153.1591664219
 20
135.6640002361
 11
210.1591664219
 21
135.6640002361
  0
LINE
  5
3F0
100
AcDbEntity
  8
0
100
AcDbLine
 62
7
  6
CONTINUOUS
 10
153.1591664219
 20
136.6640002361
 11
210.1591664219
 21
136.6640002361
  0
LINE
  5
3F1
100
AcDbEntity
  8
0
100
AcDbLine
 62
7
  6
CONTINUOUS
 10
153.1591664219
 20
137.6640002361
 11
153.1769368989
 21
137.6640002361
  0
LINE
  5
3F2
100
AcDbEntity
  8
GEOM
100
AcDbLine
 62
7
  6
CONTINUOUS
 10
180.4978777343
 20
139.1640002361
 11
180.4978777343
 21
139.1804181466
  0
LINE
  5
3F3
100
AcDbEntity
  8
GEOM
100
AcDbLine
 62
7
  6
CONTINUOUS
 10
180.6256874545
 20
139.1640002361
 11
180.6256874545
 21
139.1804181466
  0
LINE
  5
3F4
100
AcDbEntity
  8
GEOM
100
AcDbLine
 62
7
  6
CONTINUOUS
 10
180.7427393589
 20
139.1640002361
 11
180.7427393589
 21
139.1804181466
  0
LINE
  5
3F5
100
AcDbEntity
  8
GEOM
100
AcDbLine
 62
7
  6
CONTINUOUS
 10
181.2112250361
 20
139.1640002361
 11
181.2112250361
 21
139.1804181466
  0
LINE
  5
3F6
100
AcDbEntity
  8
GEOM
100
AcDbLine
 62
7
  6
CONTINUOUS
 10
181.2541309152
 20
139.1640002361
 11
181.2541309152
 21
139.1804181466
  0
LINE
  5
3F7
100
AcDbEntity
  8
GEOM
100
AcDbLine
 62
7
  6
CONTINUOUS
 10
181.4385101948
 20
139.1640002361
 11
181.4385101948
 21
139.1804181466
  0
LINE
  5
3F8
100
AcDbEntity
  8
GEOM
100
AcDbLine
 62
7
  6
CONTINUOUS
 10
181.6460816059
 20
139.1640002361
 11
181.6460816059
 21
139.1804181466
  0
LINE
  5
3F9
100
AcDbEntity
  8
GEOM
100
AcDbLine
 62
7
  6
CONTINUOUS
 10
181.8861225281
 20
139.1640002361
 11
181.8861225281
 21
139.1804181466
  0
LINE
  5
3FA
100
AcDbEntity
  8
GEOM
100
AcDbLine
 62
7
  6
CONTINUOUS
 10
181.9429439697
 20
139.1640002361
 11
181.9429439697
 21
139.1804181466
  0
LINE
  5
3FB
100
AcDbEntity
  8
GEOM
100
AcDbLine
 62
7
  6
CONTINUOUS
 10
181.974253479
 20
139.1640002361
 11
181.974253479
 21
139.1804181466
  0
LINE
  5
3FC
100
AcDbEntity
  8
GEOM
100
AcDbLine
 62
7
  6
CONTINUOUS
 10
182.0153375891
 20
139.1640002361
 11
182.0153375891
 21
139.1804181466
  0
LINE
  5
3FD
100
AcDbEntity
  8
GEOM
100
AcDbLine
 62
7
  6
CONTINUOUS
 10
182.0461500797
 20
139.1640002361
 11
182.0461500797
 21
139.1804181466
  0
LINE
  5
3FE
100
AcDbEntity
  8
GEOM
100
AcDbLine
 62
7
  6
CONTINUOUS
 10
182.2548810873
 20
139.1640002361
 11
182.2548810873
 21
139.1804181466
  0
LINE
  5
3FF
100
AcDbEntity
  8
GEOM
100
AcDbLine
 62
7
  6
CONTINUOUS
 10
182.2895900612
 20
139.1640002361
 11
182.2895900612
 21
139.1804181466
  0
LINE
  5
400
100
AcDbEntity
  8
GEOM
100
AcDbLine
 62
7
  6
CONTINUOUS
 10
182.3671500103
 20
139.1640002361
 11
182.3671500103
 21
139.1804181466
  0
LINE
  5
401
100
AcDbEntity
  8
GEOM
100
AcDbLine
 62
7
  6
CONTINUOUS
 10
182.4902836237
 20
139.1640002361
 11
182.4902836237
 21
139.1804181466
  0
LINE
  5
402
100
AcDbEntity
  8
GEOM
100
AcDbLine
 62
7
  6
CONTINUOUS
 10
182.6433531914
 20
139.1640002361
 11
182.6433531914
 21
139.1804181466
  0
LINE
  5
403
100
AcDbEntity
  8
GEOM
100
AcDbLine
 62
7
  6
CONTINUOUS
 10
182.7152493868
 20
139.1640002361
 11
182.7152493868
 21
139.1804181466
  0
LINE
  5
404
100
AcDbEntity
  8
GEOM
100
AcDbLine
 62
7
  6
CONTINUOUS
 10
182.8404882345
 20
139.1640002361
 11
182.8404882345
 21
139.1804181466
  0
LINE
  5
405
100
AcDbEntity
  8
GEOM
100
AcDbLine
 62
7
  6
CONTINUOUS
 10
183.0492196474
 20
139.1640002361
 11
183.0492196474
 21
139.1804181466
  0
LINE
  5
406
100
AcDbEntity
  8
0
100
AcDbLine
 62
7
  6
CONTINUOUS
 10
154.4591664219
 20
139.1640002361
 11
207.6591664219
 21
139.1640002361
  0
LINE
  5
407
100
AcDbEntity
  8
GEOM
100
AcDbLine
 62
7
  6
CONTINUOUS
 10
155.6069275919
 20
139.1804181466
 11
157.1069275919
 21
139.1804181466
  0
LINE
  5
408
100
AcDbEntity
  8
GEOM
100
AcDbLine
 62
7
  6
CONTINUOUS
 10
157.7036796684
 20
139.1804181466
 11
164.5311585118
 21
139.1804181466
  0
LINE
  5
409
100
AcDbEntity
  8
GEOM
100
AcDbLine
 62
7
  6
CONTINUOUS
 10
164.5430111091
 20
139.1804181466
 11
170.0722032793
 21
139.1804181466
  0
LINE
  5
40A
100
AcDbEntity
  8
GEOM
100
AcDbLine
 62
7
  6
CONTINUOUS
 10
170.3677256669
 20
139.1804181466
 11
174.0483226761
 21
139.1804181466
  0
LINE
  5
40B
100
AcDbEntity
  8
GEOM
100
AcDbLine
 62
7
  6
CONTINUOUS
 10
174.0588067001
 20
139.1804181466
 11
174.8878749136
 21
139.1804181466
  0
LINE
  5
40C
100
AcDbEntity
  8
GEOM
100
AcDbLine
 62
7
  6
CONTINUOUS
 10
175.0356824396
 20
139.1804181466
 11
181.2503164588
 21
139.1804181466
  0
LINE
  5
40D
100
AcDbEntity
  8
GEOM
100
AcDbLine
 62
7
  6
CONTINUOUS
 10
181.2541309152
 20
139.1804181466
 11
183.0492196474
 21
139.1804181466
  0
LINE
  5
40E
100
AcDbEntity
  8
GEOM
100
AcDbLine
 62
7
  6
CONTINUOUS
 10
192.6885110944
 20
139.1804181466
 11
193.8233375563
 21
139.1804181466
  0
LINE
  5
40F
100
AcDbEntity
  8
GEOM
100
AcDbLine
 62
7
  6
CONTINUOUS
 10
194.0183222152
 20
139.1804181466
 11
194.9859025964
 21
139.1804181466
  0
LINE
  5
410
100
AcDbEntity
  8
GEOM
100
AcDbLine
 62
7
  6
CONTINUOUS
 10
195.044642605
 20
139.1804181466
 11
195.8890318941
 21
139.1804181466
  0
LINE
  5
411
100
AcDbEntity
  8
GEOM
100
AcDbLine
 62
7
  6
CONTINUOUS
 10
196.9786950849
 20
139.1804181466
 11
200.1414691683
 21
139.1804181466
  0
LINE
  5
412
100
AcDbEntity
  8
GEOM
100
AcDbLine
 62
7
  6
CONTINUOUS
 10
192.6885110944
 20
139.1640002361
 11
192.6885110944
 21
139.1804181466
  0
LINE
  5
413
100
AcDbEntity
  8
GEOM
100
AcDbLine
 62
7
  6
CONTINUOUS
 10
192.8449480508
 20
139.1640002361
 11
192.8449480508
 21
139.1804181466
  0
LINE
  5
414
100
AcDbEntity
  8
GEOM
100
AcDbLine
 62
7
  6
CONTINUOUS
 10
193.2587797643
 20
139.1640002361
 11
193.2587797643
 21
139.1804181466
  0
LINE
  5
415
100
AcDbEntity
  8
GEOM
100
AcDbLine
 62
7
  6
CONTINUOUS
 10
193.6699606339
 20
139.1640002361
 11
193.6699606339
 21
139.1804181466
  0
LINE
  5
416
100
AcDbEntity
  8
GEOM
100
AcDbLine
 62
7
  6
CONTINUOUS
 10
193.8233375563
 20
139.1640002361
 11
193.8233375563
 21
139.1804181466
  0
LINE
  5
417
100
AcDbEntity
  8
GEOM
100
AcDbLine
 62
7
  6
CONTINUOUS
 10
194.0183222152
 20
139.1640002361
 11
194.0183222152
 21
139.1804181466
  0
LINE
  5
418
100
AcDbEntity
  8
GEOM
100
AcDbLine
 62
7
  6
CONTINUOUS
 10
194.0281122405
 20
139.1640002361
 11
194.0281122405
 21
139.1804181466
  0
LINE
  5
419
100
AcDbEntity
  8
GEOM
100
AcDbLine
 62
7
  6
CONTINUOUS
 10
194.27286273
 20
139.1640002361
 11
194.27286273
 21
139.1804181466
  0
LINE
  5
41A
100
AcDbEntity
  8
GEOM
100
AcDbLine
 62
7
  6
CONTINUOUS
 10
194.7974447166
 20
139.1640002361
 11
194.7974447166
 21
139.1804181466
  0
LINE
  5
41B
100
AcDbEntity
  8
GEOM
100
AcDbLine
 62
7
  6
CONTINUOUS
 10
194.8725015296
 20
139.1640002361
 11
194.8725015296
 21
139.1804181466
  0
LINE
  5
41C
100
AcDbEntity
  8
GEOM
100
AcDbLine
 62
7
  6
CONTINUOUS
 10
194.9859025964
 20
139.1640002361
 11
194.9859025964
 21
139.1804181466
  0
LINE
  5
41D
100
AcDbEntity
  8
GEOM
100
AcDbLine
 62
7
  6
CONTINUOUS
 10
195.044642605
 20
139.1640002361
 11
195.044642605
 21
139.1804181466
  0
LINE
  5
41E
100
AcDbEntity
  8
GEOM
100
AcDbLine
 62
7
  6
CONTINUOUS
 10
195.2893930945
 20
139.1640002361
 11
195.2893930945
 21
139.1804181466
  0
LINE
  5
41F
100
AcDbEntity
  8
GEOM
100
AcDbLine
 62
7
  6
CONTINUOUS
 10
195.8139750811
 20
139.1640002361
 11
195.8139750811
 21
139.1804181466
  0
LINE
  5
420
100
AcDbEntity
  8
GEOM
100
AcDbLine
 62
7
  6
CONTINUOUS
 10
195.8890318941
 20
139.1640002361
 11
195.8890318941
 21
139.1804181466
  0
LINE
  5
421
100
AcDbEntity
  8
GEOM
100
AcDbLine
 62
7
  6
CONTINUOUS
 10
196.9786950849
 20
139.1640002361
 11
196.9786950849
 21
139.1804181466
  0
LINE
  5
422
100
AcDbEntity
  8
GEOM
100
AcDbLine
 62
7
  6
CONTINUOUS
 10
198.3234825827
 20
139.1640002361
 11
198.3234825827
 21
139.1804181466
  0
LINE
  5
423
100
AcDbEntity
  8
GEOM
100
AcDbLine
 62
7
  6
CONTINUOUS
 10
200.1415525798
 20
139.1640002361
 11
200.1415525798
 21
139.1804181466
  0
LINE
  5
424
100
AcDbEntity
  8
0
100
AcDbLine
 62
7
  6
CONTINUOUS
 10
200.6591664219
 20
133.1640002361
 11
200.6591664219
 21
139.1640002361
  0
LINE
  5
425
100
AcDbEntity
  8
0
100
AcDbLine
 62
7
  6
CONTINUOUS
 10
210.1591664219
 20
135.6640002361
 11
210.1591664219
 21
136.6640002361
  0
ARC
  5
426
100
AcDbEntity
  8
0
100
AcDbCircle
 62
7
  6
CONTINUOUS
 10
84.4877870164
 20
67.1391540068
 40
3.064329079
100
AcDbArc
 50
89.9957482426
 51
90.5531318731
  0
ARC
  5
427
100
AcDbEntity
  8
0
100
AcDbCircle
 62
7
  6
CONTINUOUS
 10
103.932551676
 20
68.7340199306
 40
2.7054620506
100
AcDbArc
 50
89.6558208217
 51
90.0015050583
  0
ARC
  5
428
100
AcDbEntity
  8
0
100
AcDbCircle
 62
7
  6
CONTINUOUS
 10
112.4375935467
 20
72.4140002361
 40
2.0
100
AcDbArc
 50
225.0
 51
270.0
  0
ARC
  5
429
100
AcDbEntity
  8
0
100
AcDbCircle
 62
7
  6
CONTINUOUS
 10
108.5307392972
 20
70.6640002361
 40
2.0
100
AcDbArc
 50
45.0
 51
90.0
  0
ARC
  5
42A
100
AcDbEntity
  8
0
100
AcDbCircle
 62
7
  6
CONTINUOUS
 10
84.4582045276
 20
70.6640002361
 40
0.5
100
AcDbArc
 50
210.0
 51
270.0
  0
ARC
  5
42B
100
AcDbEntity
  8
0
100
AcDbCircle
 62
7
  6
CONTINUOUS
 10
82.8704912873
 20
71.4140002361
 40
0.5
100
AcDbArc
 50
29.9999999999
 51
90.0
  0
ARC
  5
42C
100
AcDbEntity
  8
0
100
AcDbCircle
 62
7
  6
CONTINUOUS
 10
81.1591664219
 20
72.4140002361
 40
0.5
100
AcDbArc
 50
180.0
 51
270.0
  0
ARC
  5
42D
100
AcDbEntity
  8
0
100
AcDbCircle
 62
7
  6
CONTINUOUS
 10
103.9488034508
 20
71.9140002361
 40
0.5
100
AcDbArc
 50
270.0
 51
330.0
  0
ARC
  5
42E
100
AcDbEntity
  8
0
100
AcDbCircle
 62
7
  6
CONTINUOUS
 10
105.2478415565
 20
72.1640002361
 40
0.5
100
AcDbArc
 50
90.0
 51
150.0000000001
  0
ARC
  5
42F
100
AcDbEntity
  8
0
100
AcDbCircle
 62
7
  6
CONTINUOUS
 10
84.4878291828
 20
77.0116660784
 40
0.2698346493
100
AcDbArc
 50
263.6968947424
 51
270.0393310106
  0
ARC
  5
430
100
AcDbEntity
  8
0
100
AcDbCircle
 62
7
  6
CONTINUOUS
 10
103.9325449983
 20
75.1163957594
 40
0.2487451211
100
AcDbArc
 50
269.9851693382
 51
273.7476324085
  0
ARC
  5
431
100
AcDbEntity
  8
0
100
AcDbCircle
 62
7
  6
CONTINUOUS
 10
84.4878405903
 20
78.3772086907
 40
0.2484431909
100
AcDbArc
 50
89.9599133117
 51
96.8509597093
  0
ARC
  5
432
100
AcDbEntity
  8
0
100
AcDbCircle
 62
7
  6
CONTINUOUS
 10
103.9325414975
 20
75.8306188358
 40
0.2203311438
100
AcDbArc
 50
85.767328685
 51
90.0158338269
  0
ARC
  5
433
100
AcDbEntity
  8
0
100
AcDbCircle
 62
7
  6
CONTINUOUS
 10
103.9325309198
 20
85.8350372382
 40
0.1656819821
100
AcDbArc
 50
84.3635823784
 51
90.0173985263
  0
ARC
  5
434
100
AcDbEntity
  8
0
100
AcDbCircle
 62
7
  6
CONTINUOUS
 10
103.9325309278
 20
84.4929632073
 40
0.1656819554
100
AcDbArc
 50
269.9825996049
 51
275.6364157473
  0
ARC
  5
435
100
AcDbEntity
  8
0
100
AcDbCircle
 62
7
  6
CONTINUOUS
 10
96.8064905981
 20
74.4801175113
 40
0.0905886793
100
AcDbArc
 50
204.8510925571
 51
207.4807305515
  0
ARC
  5
436
100
AcDbEntity
  8
0
100
AcDbCircle
 62
7
  6
CONTINUOUS
 10
84.4877870179
 20
103.1888465155
 40
3.0643291291
100
AcDbArc
 50
269.4468681073
 51
270.0042517409
  0
ARC
  5
437
100
AcDbEntity
  8
0
100
AcDbCircle
 62
7
  6
CONTINUOUS
 10
103.9325516841
 20
101.5939801064
 40
2.7054616154
100
AcDbArc
 50
269.9984948264
 51
270.3441790625
  0
ARC
  5
438
100
AcDbEntity
  8
0
100
AcDbCircle
 62
7
  6
CONTINUOUS
 10
108.5307392972
 20
99.6640002361
 40
2.0
100
AcDbArc
 50
270.0
 51
298.8175849919
  0
ARC
  5
439
100
AcDbEntity
  8
0
100
AcDbCircle
 62
7
  6
CONTINUOUS
 10
117.5591664219
 20
101.1954720987
 40
1.32
100
AcDbArc
 50
90.0
 51
180.0
  0
ARC
  5
43A
100
AcDbEntity
  8
0
100
AcDbCircle
 62
7
  6
CONTINUOUS
 10
117.5591664219
 20
100.2354720987
 40
1.32
100
AcDbArc
 50
180.0
 51
270.0
  0
ARC
  5
43B
100
AcDbEntity
  8
0
100
AcDbCircle
 62
7
  6
CONTINUOUS
 10
117.5591664219
 20
100.2354720987
 40
0.9
100
AcDbArc
 50
180.0
 51
270.0
  0
ARC
  5
43C
100
AcDbEntity
  8
0
100
AcDbCircle
 62
7
  6
CONTINUOUS
 10
117.5591664219
 20
101.1954720987
 40
0.9
100
AcDbArc
 50
90.0
 51
180.0
  0
ARC
  5
43D
100
AcDbEntity
  8
0
100
AcDbCircle
 62
7
  6
CONTINUOUS
 10
109.1091664453
 20
98.6126088957
 40
0.799999998
100
AcDbArc
 50
298.8176112585
 51
0.0000575383
  0
ARC
  5
43E
100
AcDbEntity
  8
0
100
AcDbCircle
 62
7
  6
CONTINUOUS
 10
84.4582045276
 20
99.6640002361
 40
0.5
100
AcDbArc
 50
90.0
 51
150.0
  0
ARC
  5
43F
100
AcDbEntity
  8
0
100
AcDbCircle
 62
7
  6
CONTINUOUS
 10
82.8704912873
 20
98.9140002361
 40
0.5
100
AcDbArc
 50
270.0
 51
330.0000000001
  0
ARC
  5
440
100
AcDbEntity
  8
0
100
AcDbCircle
 62
7
  6
CONTINUOUS
 10
81.1591664219
 20
97.9140002361
 40
0.5
100
AcDbArc
 50
90.0
 51
180.0
  0
ARC
  5
441
100
AcDbEntity
  8
0
100
AcDbCircle
 62
7
  6
CONTINUOUS
 10
103.9488034508
 20
98.4140002361
 40
0.5
100
AcDbArc
 50
30.0
 51
90.0
  0
ARC
  5
442
100
AcDbEntity
  8
0
100
AcDbCircle
 62
7
  6
CONTINUOUS
 10
108.6591664219
 20
107.3568934549
 40
0.5
100
AcDbArc
 50
0.0
 51
45.0000000001
  0
ARC
  5
443
100
AcDbEntity
  8
0
100
AcDbCircle
 62
7
  6
CONTINUOUS
 10
105.2478415565
 20
98.1640002361
 40
0.5
100
AcDbArc
 50
209.9999999999
 51
270.0
  0
ARC
  5
444
100
AcDbEntity
  8
0
100
AcDbCircle
 62
7
  6
CONTINUOUS
 10
108.7591664219
 20
106.9640002361
 40
0.4
100
AcDbArc
 50
282.0
 51
360.0
  0
ARC
  5
445
100
AcDbEntity
  8
0
100
AcDbCircle
 62
7
  6
CONTINUOUS
 10
105.0591664219
 20
106.1640002361
 40
0.4
100
AcDbArc
 50
90.0
 51
180.0
  0
ARC
  5
446
100
AcDbEntity
  8
0
100
AcDbCircle
 62
7
  6
CONTINUOUS
 10
105.0591664219
 20
103.7949403438
 40
0.4
100
AcDbArc
 50
180.0
 51
240.0
  0
ARC
  5
447
100
AcDbEntity
  8
0
100
AcDbCircle
 62
7
  6
CONTINUOUS
 10
109.5091665235
 20
100.3019711565
 40
0.3999999956
100
AcDbArc
 50
0.0000084025
 51
40.0000138935
  0
ARC
  5
448
100
AcDbEntity
  8
0
100
AcDbCircle
 62
7
  6
CONTINUOUS
 10
84.4878291809
 20
93.3163343995
 40
0.2698346436
100
AcDbArc
 50
89.9606687533
 51
96.3031049768
  0
ARC
  5
449
100
AcDbEntity
  8
0
100
AcDbCircle
 62
7
  6
CONTINUOUS
 10
103.932544987
 20
95.2116046571
 40
0.2487451768
100
AcDbArc
 50
86.2523658362
 51
90.0148289185
  0
ARC
  5
44A
100
AcDbEntity
  8
0
100
AcDbCircle
 62
7
  6
CONTINUOUS
 10
84.4878405921
 20
91.9507917865
 40
0.2484431959
100
AcDbArc
 50
263.149040007
 51
270.0400864465
  0
ARC
  5
44B
100
AcDbEntity
  8
0
100
AcDbCircle
 62
7
  6
CONTINUOUS
 10
103.9325415088
 20
94.4973815867
 40
0.2203310941
100
AcDbArc
 50
269.984164196
 51
274.2326693263
  0
ARC
  5
44C
100
AcDbEntity
  8
0
100
AcDbCircle
 62
7
  6
CONTINUOUS
 10
153.3305458259
 20
67.1391539567
 40
3.0643291291
100
AcDbArc
 50
89.4468681073
 51
90.004251741
  0
ARC
  5
44D
100
AcDbEntity
  8
0
100
AcDbCircle
 62
7
  6
CONTINUOUS
 10
120.0421343625
 20
80.6040002361
 40
1.21
100
AcDbArc
 50
79.5243183036
 51
180.0
  0
ARC
  5
44E
100
AcDbEntity
  8
0
100
AcDbCircle
 62
7
  6
CONTINUOUS
 10
119.6621343625
 20
80.7040002361
 40
1.2
100
AcDbArc
 50
90.0
 51
180.0
  0
ARC
  5
44F
100
AcDbEntity
  8
0
100
AcDbCircle
 62
7
  6
CONTINUOUS
 10
124.5733799843
 20
70.4140002361
 40
1.0
100
AcDbArc
 50
225.0
 51
270.0
  0
ARC
  5
450
100
AcDbEntity
  8
0
100
AcDbCircle
 62
7
  6
CONTINUOUS
 10
122.7449528595
 20
69.4140002361
 40
1.0
100
AcDbArc
 50
45.0
 51
90.0
  0
ARC
  5
451
100
AcDbEntity
  8
0
100
AcDbCircle
 62
7
  6
CONTINUOUS
 10
119.208331031
 20
81.4240002361
 40
0.79
100
AcDbArc
 50
117.6157798177
 51
160.830752033
  0
ARC
  5
452
100
AcDbEntity
  8
0
100
AcDbCircle
 62
7
  6
CONTINUOUS
 10
128.3127562604
 20
68.8140002361
 40
0.6
100
AcDbArc
 50
29.9999999999
 51
90.0
  0
ARC
  5
453
100
AcDbEntity
  8
0
100
AcDbCircle
 62
7
  6
CONTINUOUS
 10
153.3601283162
 20
70.6640002361
 40
0.5
100
AcDbArc
 50
270.0
 51
330.0
  0
ARC
  5
454
100
AcDbEntity
  8
0
100
AcDbCircle
 62
7
  6
CONTINUOUS
 10
154.9478415565
 20
71.4140002361
 40
0.5
100
AcDbArc
 50
90.0
 51
150.0000000001
  0
ARC
  5
455
100
AcDbEntity
  8
0
100
AcDbCircle
 62
7
  6
CONTINUOUS
 10
156.6591664219
 20
72.4140002361
 40
0.5
100
AcDbArc
 50
270.0
 51
360.0
  0
ARC
  5
456
100
AcDbEntity
  8
GEOM
100
AcDbCircle
 62
7
  6
CONTINUOUS
 10
132.9341170619
 20
71.8640002361
 40
0.3
100
AcDbArc
 50
90.0
 51
160.0
  0
ARC
  5
457
100
AcDbEntity
  8
0
100
AcDbCircle
 62
7
  6
CONTINUOUS
 10
153.330503663
 20
77.0116660726
 40
0.2698346436
100
AcDbArc
 50
269.9606687533
 51
276.3031049768
  0
ARC
  5
458
100
AcDbEntity
  8
0
100
AcDbCircle
 62
7
  6
CONTINUOUS
 10
153.3304922518
 20
78.3772086857
 40
0.2484431959
100
AcDbArc
 50
83.149040007
 51
90.0400864466
  0
ARC
  5
459
100
AcDbEntity
  8
0
100
AcDbCircle
 62
7
  6
CONTINUOUS
 10
153.3305458275
 20
103.1888464654
 40
3.064329079
100
AcDbArc
 50
269.9957482426
 51
270.5531318731
  0
ARC
  5
45A
100
AcDbEntity
  8
0
100
AcDbCircle
 62
7
  6
CONTINUOUS
 10
119.6191664219
 20
101.4954720987
 40
1.02
100
AcDbArc
 50
278.8857694273
 51
90.0
  0
ARC
  5
45B
100
AcDbEntity
  8
0
100
AcDbCircle
 62
7
  6
CONTINUOUS
 10
128.2091655431
 20
101.7139996635
 40
0.7999999264
100
AcDbArc
 50
179.9999589924
 51
270.0000629424
  0
ARC
  5
45C
100
AcDbEntity
  8
0
100
AcDbCircle
 62
7
  6
CONTINUOUS
 10
119.6191664219
 20
101.4954720987
 40
0.6
100
AcDbArc
 50
270.0
 51
90.0
  0
ARC
  5
45D
100
AcDbEntity
  8
0
100
AcDbCircle
 62
7
  6
CONTINUOUS
 10
127.5591664219
 20
104.0625283735
 40
0.6
100
AcDbArc
 50
315.0
 51
360.0
  0
ARC
  5
45E
100
AcDbEntity
  8
0
100
AcDbCircle
 62
7
  6
CONTINUOUS
 10
128.0091664219
 20
102.8154720987
 40
0.6
100
AcDbArc
 50
135.0
 51
180.0
  0
ARC
  5
45F
100
AcDbEntity
  8
0
100
AcDbCircle
 62
7
  6
CONTINUOUS
 10
128.3127562604
 20
101.5140002361
 40
0.6
100
AcDbArc
 50
270.0
 51
330.0000000001
  0
ARC
  5
460
100
AcDbEntity
  8
0
100
AcDbCircle
 62
7
  6
CONTINUOUS
 10
153.3601283162
 20
99.6640002361
 40
0.5
100
AcDbArc
 50
30.0
 51
90.0
  0
ARC
  5
461
100
AcDbEntity
  8
0
100
AcDbCircle
 62
7
  6
CONTINUOUS
 10
154.9478415565
 20
98.9140002361
 40
0.5
100
AcDbArc
 50
209.9999999999
 51
270.0
  0
ARC
  5
462
100
AcDbEntity
  8
0
100
AcDbCircle
 62
7
  6
CONTINUOUS
 10
156.6591664219
 20
97.9140002361
 40
0.5
100
AcDbArc
 50
0.0
 51
90.0
  0
ARC
  5
463
100
AcDbEntity
  8
GEOM
100
AcDbCircle
 62
7
  6
CONTINUOUS
 10
132.9341170619
 20
98.4640002361
 40
0.3
100
AcDbArc
 50
200.0
 51
270.0
  0
ARC
  5
464
100
AcDbEntity
  8
0
100
AcDbCircle
 62
7
  6
CONTINUOUS
 10
153.330503661
 20
93.3163343938
 40
0.2698346493
100
AcDbArc
 50
83.6968947424
 51
90.0393310106
  0
ARC
  5
465
100
AcDbEntity
  8
0
100
AcDbCircle
 62
7
  6
CONTINUOUS
 10
153.3304922536
 20
91.9507917815
 40
0.2484431909
100
AcDbArc
 50
269.9599133117
 51
276.8509597093
  0
ARC
  5
466
100
AcDbEntity
  8
0
100
AcDbCircle
 62
7
  6
CONTINUOUS
 10
154.5944980739
 20
133.6640002361
 40
4.0
100
AcDbArc
 50
111.0331393818
 51
140.0
  0
ARC
  5
467
100
AcDbEntity
  8
0
100
AcDbCircle
 62
7
  6
CONTINUOUS
 10
137.1591664219
 20
120.6640002361
 40
4.0
100
AcDbArc
 50
270.0
 51
320.0
  0
ARC
  5
468
100
AcDbEntity
  8
0
100
AcDbCircle
 62
7
  6
CONTINUOUS
 10
157.0145178667
 20
137.3283138127
 40
3.8553515715
100
AcDbArc
 50
179.0238597861
 51
180.0146922186
  0
ARC
  5
469
100
AcDbEntity
  8
0
100
AcDbCircle
 62
7
  6
CONTINUOUS
 10
108.1591664219
 20
116.6640002361
 40
3.0
100
AcDbArc
 50
90.0
 51
180.0
  0
ARC
  5
46A
100
AcDbEntity
  8
0
100
AcDbCircle
 62
7
  6
CONTINUOUS
 10
207.6591664219
 20
136.6640002361
 40
2.5
100
AcDbArc
 50
0.0
 51
90.0
  0
ARC
  5
46B
100
AcDbEntity
  8
0
100
AcDbCircle
 62
7
  6
CONTINUOUS
 10
207.6591664219
 20
135.6640002361
 40
2.5
100
AcDbArc
 50
270.0
 51
360.0
  0
ARC
  5
46C
100
AcDbEntity
  8
0
100
AcDbCircle
 62
7
  6
CONTINUOUS
 10
154.4591664219
 20
134.4640002361
 40
1.3
100
AcDbArc
 50
212.8904173777
 51
270.0
  0
ARC
  5
46D
100
AcDbEntity
  8
0
100
AcDbCircle
 62
7
  6
CONTINUOUS
 10
154.4591664219
 20
137.8640002361
 40
1.3
100
AcDbArc
 50
90.0
 51
180.0
  0
ARC
  5
46E
100
AcDbEntity
  8
0
100
AcDbCircle
 62
7
  6
CONTINUOUS
 10
137.1591664219
 20
120.6640002361
 40
1.0
100
AcDbArc
 50
270.0
 51
320.0
  0
ARC
  5
46F
100
AcDbEntity
  8
0
100
AcDbCircle
 62
7
  6
CONTINUOUS
 10
113.2591664219
 20
120.3175900746
 40
0.6
100
AcDbArc
 50
120.0
 51
180.0
  0
ARC
  5
470
100
AcDbEntity
  8
0
100
AcDbCircle
 62
7
  6
CONTINUOUS
 10
124.0591664219
 20
120.3175900746
 40
0.6
100
AcDbArc
 50
0.0
 51
60.0
  0
ARC
  5
471
100
AcDbEntity
  8
0
100
AcDbCircle
 62
7
  6
CONTINUOUS
 10
108.6591664219
 20
116.1640002361
 40
0.5
100
AcDbArc
 50
90.0
 51
180.0
  0
ARC
  5
472
100
AcDbEntity
  8
0
100
AcDbCircle
 62
7
  6
CONTINUOUS
 10
382.8577652104
 20
-75.7531902339
 40
312.0760590133
100
AcDbArc
 50
146.0883256619
 51
146.2248751143
  0
ARC
  5
473
100
AcDbEntity
  8
0
100
AcDbCircle
 62
7
  6
CONTINUOUS
 10
354.2185704799
 20
-41.4457932641
 40
270.5241536673
100
AcDbArc
 50
148.7632639403
 51
148.9186120947
  0
ARC
  5
474
100
AcDbEntity
  8
0
100
AcDbCircle
 62
7
  6
CONTINUOUS
 10
305.1783069829
 20
308.0491257478
 40
282.7866020503
100
AcDbArc
 50
226.2898653776
 51
226.4068429475
  0
ARC
  5
475
100
AcDbEntity
  8
0
100
AcDbCircle
 62
7
  6
CONTINUOUS
 10
288.9484170301
 20
291.5747445483
 40
260.0541729954
100
AcDbArc
 50
226.3665948787
 51
226.4939890519
  0
SPLINE
  5
476
100
AcDbEntity
  8
0
100
AcDbSpline
 62
7
  6
CONTINUOUS
 70
0
 71
3
 72
11
 73
7
 74
0
 42
0.0000001
 43
0.0000001
 44
0.0000000001
 40
0.0
 40
0.0
 40
0.0
 40
0.0
 40
0.2222577893
 40
0.4105852687
 40
0.6535694726
 40
1.0
 40
1.0
 40
1.0
 40
1.0
 10
110.8558571007
 20
111.060689568
 30
0.0
 10
110.855346437
 20
111.0601794201
 30
0.0
 10
110.8544585882
 20
111.059046332
 30
0.0
 10
110.8547277698
 20
111.0567520607
 30
0.0
 10
110.8565814999
 20
111.0548891072
 30
0.0
 10
110.8582147083
 20
111.0539031942
 30
0.0
 10
110.8592125207
 20
111.0533833743
 30
0.0
  0
LINE
  5
477
100
AcDbEntity
  8
0
100
AcDbLine
 62
7
  6
CONTINUOUS
 10
120.2043841764
 20
110.6882525751
 11
118.6591664219
 21
110.6469226546
  0
SPLINE
  5
478
100
AcDbEntity
  8
0
100
AcDbSpline
 62
7
  6
CONTINUOUS
 70
0
 71
3
 72
8
 73
4
 74
0
 42
0.0000001
 43
0.0000001
 44
0.0000000001
 40
0.0
 40
0.0
 40
0.0
 40
0.0
 40
1.0
 40
1.0
 40
1.0
 40
1.0
 10
116.7395825358
 20
114.4037699712
 30
0.0
 10
116.3052804863
 20
114.332747763
 30
0.0
 10
115.8742086775
 20
114.2400185409
 30
0.0
 10
115.4478582773
 20
114.1309875342
 30
0.0
  0
SPLINE
  5
479
100
AcDbEntity
  8
0
100
AcDbSpline
 62
7
  6
CONTINUOUS
 70
0
 71
3
 72
36
 73
32
 74
0
 42
0.0000001
 43
0.0000001
 44
0.0000000001
 40
0.0
 40
0.0
 40
0.0
 40
0.0
 40
0.000676644
 40
0.0012171227
 40
0.001986046
 40
0.0027603293
 40
0.0033053094
 40
0.0039866864
 40
0.0057964179
 40
0.0082332191
 40
0.0113113438
 40
0.0150354316
 40
0.0194065891
 40
0.0244242595
 40
0.036391674
 40
0.0509089522
 40
0.0679352314
 40
0.0874236025
 40
0.1093134354
 40
0.1335406147
 40
0.1600316941
 40
0.1887046703
 40
0.2194745388
 40
0.2869174865
 40
0.361537111
 40
0.4424205916
 40
0.5285770934
 40
0.6189514372
 40
0.7124368839
 40
0.8078882478
 40
1.0
 40
1.0
 40
1.0
 40
1.0
 10
111.316525416
 20
110.8149742353
 30
0.0
 10
111.3148349033
 20
110.8158606277
 30
0.0
 10
111.3118523411
 20
110.8176236128
 30
0.0
 10
111.3074900247
 20
110.8210188244
 30
0.0
 10
111.3040566964
 20
110.8267811235
 30
0.0
 10
111.3075998756
 20
110.8324859581
 30
0.0
 10
111.3120084849
 20
110.8358854706
 30
0.0
 10
111.3194633582
 20
110.840219527
 30
0.0
 10
111.3324617273
 20
110.8452426992
 30
0.0
 10
111.3523234657
 20
110.8509882919
 30
0.0
 10
111.377753032
 20
110.8567487016
 30
0.0
 10
111.4087375517
 20
110.8625569772
 30
0.0
 10
111.4452708541
 20
110.8683828966
 30
0.0
 10
111.5049472713
 20
110.8766659789
 30
0.0
 10
111.5932511983
 20
110.8867574623
 30
0.0
 10
111.7154496488
 20
110.8983545435
 30
0.0
 10
111.8589422912
 20
110.9099938952
 30
0.0
 10
112.0232883749
 20
110.9216654176
 30
0.0
 10
112.2079917232
 20
110.9333597769
 30
0.0
 10
112.4124840051
 20
110.9450688114
 30
0.0
 10
112.6361392586
 20
110.9567886656
 30
0.0
 10
112.8782740481
 20
110.9685186458
 30
0.0
 10
113.2358530691
 20
110.9846633748
 30
0.0
 10
113.7230041377
 20
111.004617683
 30
0.0
 10
114.3514997359
 20
111.0279411361
 30
0.0
 10
115.0328181305
 20
111.0512965539
 30
0.0
 10
115.7586037128
 20
111.0746763062
 30
0.0
 10
116.5199561726
 20
111.0980719117
 30
0.0
 10
117.307540834
 20
111.121477903
 30
0.0
 10
118.3820174732
 20
111.152760441
 30
0.0
 10
119.1928933212
 20
111.1760762819
 30
0.0
 10
119.7346061573
 20
111.1919097868
 30
0.0
  0
SPLINE
  5
47A
100
AcDbEntity
  8
0
100
AcDbSpline
 62
7
  6
CONTINUOUS
 70
0
 71
3
 72
9
 73
5
 74
0
 42
0.0000001
 43
0.0000001
 44
0.0000000001
 40
0.0
 40
0.0
 40
0.0
 40
0.0
 40
0.2560145394
 40
1.0
 40
1.0
 40
1.0
 40
1.0
 10
118.6591664219
 20
110.6469226546
 30
0.0
 10
118.3996153878
 20
110.6400240804
 30
0.0
 10
117.3858020751
 20
110.613070833
 30
0.0
 10
116.3719994559
 20
110.585673531
 30
0.0
 10
115.6177818134
 20
110.5640000752
 30
0.0
  0
SPLINE
  5
47B
100
AcDbEntity
  8
0
100
AcDbSpline
 62
7
  6
CONTINUOUS
 70
0
 71
3
 72
11
 73
7
 74
0
 42
0.0000001
 43
0.0000001
 44
0.0000000001
 40
0.0
 40
0.0
 40
0.0
 40
0.0
 40
0.2424504748
 40
0.4884289769
 40
0.7405228275
 40
1.0
 40
1.0
 40
1.0
 40
1.0
 10
113.0300012972
 20
114.5640002361
 30
0.0
 10
112.8943886853
 20
114.56400023
 30
0.0
 10
112.6208089593
 20
114.5439997951
 30
0.0
 10
112.2147842087
 20
114.4565438189
 30
0.0
 10
111.8136115954
 20
114.3174928713
 30
0.0
 10
111.5535632879
 20
114.1970766356
 30
0.0
 10
111.424347225
 20
114.1309875342
 30
0.0
  0
SPLINE
  5
47C
100
AcDbEntity
  8
0
100
AcDbSpline
 62
7
  6
CONTINUOUS
 70
0
 71
3
 72
9
 73
5
 74
0
 42
0.0000001
 43
0.0000001
 44
0.0000000001
 40
0.0
 40
0.0
 40
0.0
 40
0.0
 40
0.2164147945
 40
1.0
 40
1.0
 40
1.0
 40
1.0
 10
111.3166623391
 20
110.661098231
 30
0.0
 10
111.317727773
 20
110.6616539449
 30
0.0
 10
111.3227255815
 20
110.6640786706
 30
0.0
 10
111.327939093
 20
110.6660319948
 30
0.0
 10
111.3320590114
 20
110.6674307457
 30
0.0
  0
SPLINE
  5
47D
100
AcDbEntity
  8
0
100
AcDbSpline
 62
7
  6
CONTINUOUS
 70
0
 71
3
 72
9
 73
5
 74
0
 42
0.0000001
 43
0.0000001
 44
0.0000000001
 40
0.0
 40
0.0
 40
0.0
 40
0.0
 40
0.2123460468
 40
1.0
 40
1.0
 40
1.0
 40
1.0
 10
111.3320590114
 20
110.6674307457
 30
0.0
 10
111.334674586
 20
110.6683187578
 30
0.0
 10
111.3470857445
 20
110.672224804
 30
0.0
 10
111.3597504186
 20
110.6752723815
 30
0.0
 10
111.3697592469
 20
110.6774634254
 30
0.0
  0
SPLINE
  5
47E
100
AcDbEntity
  8
0
100
AcDbSpline
 62
7
  6
CONTINUOUS
 70
0
 71
3
 72
20
 73
16
 74
0
 42
0.0000001
 43
0.0000001
 44
0.0000000001
 40
0.0
 40
0.0
 40
0.0
 40
0.0
 40
0.0069045908
 40
0.0159186475
 40
0.0402191456
 40
0.0726962523
 40
0.1130365239
 40
0.1608420968
 40
0.2156355168
 40
0.2768659363
 40
0.3439186528
 40
0.4927424045
 40
0.6561277869
 40
0.8275098191
 40
1.0
 40
1.0
 40
1.0
 40
1.0
 10
111.3697592469
 20
110.6774634254
 30
0.0
 10
111.3889473592
 20
110.6816639166
 30
0.0
 10
111.433579984
 20
110.6895073434
 30
0.0
 10
111.5469559447
 20
110.7049633701
 30
0.0
 10
111.7332996968
 20
110.7230775495
 30
0.0
 10
112.0088050587
 20
110.7438072401
 30
0.0
 10
112.3513367241
 20
110.7646705675
 30
0.0
 10
112.7574346357
 20
110.785698663
 30
0.0
 10
113.2230295122
 20
110.8067924086
 30
0.0
 10
113.7434256723
 20
110.8279432367
 30
0.0
 10
114.5312098821
 20
110.8572123594
 30
0.0
 10
115.6095612525
 20
110.8929986594
 30
0.0
 10
116.9846696694
 20
110.9347805217
 30
0.0
 10
118.4271326664
 20
110.9766336457
 30
0.0
 10
119.4049898028
 20
111.0048308888
 30
0.0
 10
119.8954868983
 20
111.019218017
 30
0.0
  0
SPLINE
  5
47F
100
AcDbEntity
  8
0
100
AcDbSpline
 62
7
  6
CONTINUOUS
 70
0
 71
3
 72
11
 73
7
 74
0
 42
0.0000001
 43
0.0000001
 44
0.0000000001
 40
0.0
 40
0.0
 40
0.0
 40
0.0
 40
0.2594721663
 40
0.511565791
 40
0.7575467579
 40
1.0
 40
1.0
 40
1.0
 40
1.0
 10
114.6356553697
 20
114.1309875342
 30
0.0
 10
114.506441753
 20
114.1970753844
 30
0.0
 10
114.2463963879
 20
114.3174910701
 30
0.0
 10
113.8452261631
 20
114.4565446525
 30
0.0
 10
113.4391983699
 20
114.5440016026
 30
0.0
 10
113.165615506
 20
114.5640002422
 30
0.0
 10
113.0300012972
 20
114.5640002361
 30
0.0
  0
SPLINE
  5
480
100
AcDbEntity
  8
0
100
AcDbSpline
 62
7
  6
CONTINUOUS
 70
0
 71
3
 72
30
 73
26
 74
0
 42
0.0000001
 43
0.0000001
 44
0.0000000001
 40
0.0
 40
0.0
 40
0.0
 40
0.0
 40
0.1854447285
 40
0.2776930327
 40
0.368205704
 40
0.4559479415
 40
0.5399231812
 40
0.6191832874
 40
0.6928383678
 40
0.760067864
 40
0.8201292789
 40
0.8723644031
 40
0.8953652646
 40
0.9162058263
 40
0.93482837
 40
0.9511849953
 40
0.9652344107
 40
0.9769389869
 40
0.9862738862
 40
0.9900466267
 40
0.993220349
 40
0.9957954854
 40
0.9977751194
 40
0.9991674319
 40
1.0
 40
1.0
 40
1.0
 40
1.0
 10
119.6352344652
 20
111.2984358897
 30
0.0
 10
119.0922653902
 20
111.2882910281
 30
0.0
 10
118.27919474
 20
111.2733715083
 30
0.0
 10
117.2011106913
 20
111.2534295945
 30
0.0
 10
116.4090982384
 20
111.2385310567
 30
0.0
 10
115.6413166896
 20
111.223666556
 30
0.0
 10
114.9064932611
 20
111.2088389146
 30
0.0
 10
114.2129311674
 20
111.1940518887
 30
0.0
 10
113.5684188312
 20
111.17930985
 30
0.0
 10
112.9801431665
 20
111.1646220587
 30
0.0
 10
112.4546145861
 20
111.1499953974
 30
0.0
 10
112.0586023786
 20
111.1374066797
 30
0.0
 10
111.7774334167
 20
111.1271780617
 30
0.0
 10
111.5946576859
 20
111.1198520308
 30
0.0
 10
111.4313554696
 20
111.1125453896
 30
0.0
 10
111.2879622056
 20
111.1052616573
 30
0.0
 10
111.1648541757
 20
111.0980166642
 30
0.0
 10
111.0623505844
 20
111.0908103085
 30
0.0
 10
110.9899522594
 20
111.0845206334
 30
0.0
 10
110.9425600557
 20
111.0793136897
 30
0.0
 10
110.914899218
 20
111.0757109061
 30
0.0
 10
110.8925701763
 20
111.0721326262
 30
0.0
 10
110.8754441611
 20
111.0686235227
 30
0.0
 10
110.8637301752
 20
111.0651747323
 30
0.0
 10
110.8575819871
 20
111.0624127122
 30
0.0
 10
110.8558571007
 20
111.060689568
 30
0.0
  0
SPLINE
  5
481
100
AcDbEntity
  8
0
100
AcDbSpline
 62
7
  6
CONTINUOUS
 70
0
 71
3
 72
11
 73
7
 74
0
 42
0.0000001
 43
0.0000001
 44
0.0000000001
 40
0.0
 40
0.0
 40
0.0
 40
0.0
 40
0.2616427032
 40
0.5144968934
 40
0.7595946658
 40
1.0
 40
1.0
 40
1.0
 40
1.0
 10
114.0403642684
 20
124.3067346462
 30
0.0
 10
114.1326692996
 20
124.3600269808
 30
0.0
 10
114.3183684852
 20
124.4578961589
 30
0.0
 10
114.6063059908
 20
124.5731716421
 30
0.0
 10
114.89898659
 20
124.6469260429
 30
0.0
 10
115.0971315458
 20
124.6640002361
 30
0.0
 10
115.1950648064
 20
124.6640002361
 30
0.0
  0
SPLINE
  5
482
100
AcDbEntity
  8
0
100
AcDbSpline
 62
7
  6
CONTINUOUS
 70
0
 71
3
 72
11
 73
7
 74
0
 42
0.0000001
 43
0.0000001
 44
0.0000000001
 40
0.0
 40
0.0
 40
0.0
 40
0.0
 40
0.2404053342
 40
0.4855030662
 40
0.7383571529
 40
1.0
 40
1.0
 40
1.0
 40
1.0
 10
115.1950648064
 20
124.6640002361
 30
0.0
 10
115.2929980672
 20
124.6640002361
 30
0.0
 10
115.4911430055
 20
124.6469260408
 30
0.0
 10
115.7838235568
 20
124.573171685
 30
0.0
 10
116.0717610573
 20
124.4578961861
 30
0.0
 10
116.257460263
 20
124.3600270102
 30
0.0
 10
116.3497653452
 20
124.3067346462
 30
0.0
  0
SPLINE
  5
483
100
AcDbEntity
  8
0
100
AcDbSpline
 62
7
  6
CONTINUOUS
 70
0
 71
3
 72
15
 73
11
 74
0
 42
0.0000001
 43
0.0000001
 44
0.0000000001
 40
0.0
 40
0.0
 40
0.0
 40
0.0
 40
0.1308200724
 40
0.2572467341
 40
0.3797970183
 40
0.5000000228
 40
0.620203024
 40
0.7427533002
 40
0.8691799394
 40
1.0
 40
1.0
 40
1.0
 40
1.0
 10
116.3497653452
 20
121.4614351846
 30
0.0
 10
116.2574612982
 20
121.5147269509
 30
0.0
 10
116.071759292
 20
121.612595224
 30
0.0
 10
115.78384108
 20
121.7278722276
 30
0.0
 10
115.4910948414
 20
121.8016236915
 30
0.0
 10
115.1950647546
 20
121.8271460212
 30
0.0
 10
114.899034678
 20
121.8016236587
 30
0.0
 10
114.6062884695
 20
121.727872194
 30
0.0
 10
114.3183702875
 20
121.6125952081
 30
0.0
 10
114.132668307
 20
121.5147269461
 30
0.0
 10
114.0403642684
 20
121.4614351846
 30
0.0
  0
SPLINE
  5
484
100
AcDbEntity
  8
0
100
AcDbSpline
 62
7
  6
CONTINUOUS
 70
0
 71
3
 72
10
 73
6
 74
0
 42
0.0000001
 43
0.0000001
 44
0.0000000001
 40
0.0
 40
0.0
 40
0.0
 40
0.0
 40
0.4999011814
 40
0.7499517172
 40
1.0
 40
1.0
 40
1.0
 40
1.0
 10
116.3497653452
 20
124.3067346462
 30
0.0
 10
116.7249916237
 20
124.4150531426
 30
0.0
 10
117.2970345788
 20
124.55046593
 30
0.0
 10
118.0729068413
 20
124.6473287529
 30
0.0
 10
118.4638161533
 20
124.6640002361
 30
0.0
 10
118.6591664218
 20
124.6640002361
 30
0.0
  0
SPLINE
  5
485
100
AcDbEntity
  8
0
100
AcDbSpline
 62
7
  6
CONTINUOUS
 70
0
 71
3
 72
10
 73
6
 74
0
 42
0.0000001
 43
0.0000001
 44
0.0000000001
 40
0.0
 40
0.0
 40
0.0
 40
0.0
 40
0.2500483041
 40
0.5000988454
 40
1.0
 40
1.0
 40
1.0
 40
1.0
 10
118.6591664218
 20
124.6640002361
 30
0.0
 10
118.854516707
 20
124.6640002361
 30
0.0
 10
119.2454260403
 20
124.647328756
 30
0.0
 10
120.0212983015
 20
124.5504659187
 30
0.0
 10
120.5933412401
 20
124.4150531369
 30
0.0
 10
120.9685674987
 20
124.3067346462
 30
0.0
  0
SPLINE
  5
486
100
AcDbEntity
  8
0
100
AcDbSpline
 62
7
  6
CONTINUOUS
 70
0
 71
3
 72
10
 73
6
 74
0
 42
0.0000001
 43
0.0000001
 44
0.0000000001
 40
0.0
 40
0.0
 40
0.0
 40
0.0
 40
0.4999007856
 40
0.7499513904
 40
1.0
 40
1.0
 40
1.0
 40
1.0
 10
120.9685674987
 20
121.4614351846
 30
0.0
 10
120.5933415164
 20
121.5697535955
 30
0.0
 10
120.0212988123
 20
121.7051662889
 30
0.0
 10
119.245426574
 20
121.8020293431
 30
0.0
 10
118.8545169461
 20
121.8187007745
 30
0.0
 10
118.6591664219
 20
121.8187007745
 30
0.0
  0
SPLINE
  5
487
100
AcDbEntity
  8
0
100
AcDbSpline
 62
7
  6
CONTINUOUS
 70
0
 71
3
 72
10
 73
6
 74
0
 42
0.0000001
 43
0.0000001
 44
0.0000000001
 40
0.0
 40
0.0
 40
0.0
 40
0.0
 40
0.2500490219
 40
0.5000997455
 40
1.0
 40
1.0
 40
1.0
 40
1.0
 10
118.6591664219
 20
121.8187007745
 30
0.0
 10
118.463815575
 20
121.8187007745
 30
0.0
 10
118.0729055253
 20
121.8020293865
 30
0.0
 10
117.2970333113
 20
121.7051660908
 30
0.0
 10
116.7249909299
 20
121.5697534807
 30
0.0
 10
116.3497653452
 20
121.4614351846
 30
0.0
  0
SPLINE
  5
488
100
AcDbEntity
  8
0
100
AcDbSpline
 62
7
  6
CONTINUOUS
 70
0
 71
3
 72
11
 73
7
 74
0
 42
0.0000001
 43
0.0000001
 44
0.0000000001
 40
0.0
 40
0.0
 40
0.0
 40
0.0
 40
0.2616429466
 40
0.5144970929
 40
0.7595947853
 40
1.0
 40
1.0
 40
1.0
 40
1.0
 10
120.9685674987
 20
124.3067346462
 30
0.0
 10
121.0608726158
 20
124.3600270304
 30
0.0
 10
121.2465718835
 20
124.4578962252
 30
0.0
 10
121.5345094302
 20
124.5731717451
 30
0.0
 10
121.8271899567
 20
124.6469260245
 30
0.0
 10
122.0253348256
 20
124.6640002361
 30
0.0
 10
122.1232680375
 20
124.6640002361
 30
0.0
  0
SPLINE
  5
489
100
AcDbEntity
  8
0
100
AcDbSpline
 62
7
  6
CONTINUOUS
 70
0
 71
3
 72
11
 73
7
 74
0
 42
0.0000001
 43
0.0000001
 44
0.0000000001
 40
0.0
 40
0.0
 40
0.0
 40
0.0
 40
0.2404052601
 40
0.485503008
 40
0.7383572234
 40
1.0
 40
1.0
 40
1.0
 40
1.0
 10
122.1232680375
 20
124.6640002361
 30
0.0
 10
122.2212012677
 20
124.6640002361
 30
0.0
 10
122.4193461808
 20
124.6469260349
 30
0.0
 10
122.712026759
 20
124.5731716784
 30
0.0
 10
122.9999642946
 20
124.4578961865
 30
0.0
 10
123.1856635185
 20
124.3600269957
 30
0.0
 10
123.2779685754
 20
124.3067346462
 30
0.0
  0
SPLINE
  5
48A
100
AcDbEntity
  8
0
100
AcDbSpline
 62
7
  6
CONTINUOUS
 70
0
 71
3
 72
15
 73
11
 74
0
 42
0.0000001
 43
0.0000001
 44
0.0000000001
 40
0.0
 40
0.0
 40
0.0
 40
0.0
 40
0.1308200724
 40
0.2572467341
 40
0.3797970183
 40
0.5000000228
 40
0.620203024
 40
0.7427533002
 40
0.8691799394
 40
1.0
 40
1.0
 40
1.0
 40
1.0
 10
123.2779685754
 20
121.4614351846
 30
0.0
 10
123.1856645284
 20
121.5147269509
 30
0.0
 10
122.9999625223
 20
121.612595224
 30
0.0
 10
122.7120443102
 20
121.7278722276
 30
0.0
 10
122.4192980717
 20
121.8016236915
 30
0.0
 10
122.1232679848
 20
121.8271460212
 30
0.0
 10
121.8272379083
 20
121.8016236587
 30
0.0
 10
121.5344916997
 20
121.727872194
 30
0.0
 10
121.2465735178
 20
121.6125952081
 30
0.0
 10
121.0608715373
 20
121.5147269461
 30
0.0
 10
120.9685674987
 20
121.4614351846
 30
0.0
  0
SPLINE
  5
48B
100
AcDbEntity
  8
0
100
AcDbSpline
 62
7
  6
CONTINUOUS
 70
0
 71
3
 72
8
 73
4
 74
0
 42
0.0000001
 43
0.0000001
 44
0.0000000001
 40
0.0
 40
0.0
 40
0.0
 40
0.0
 40
1.0
 40
1.0
 40
1.0
 40
1.0
 10
153.1591664219
 20
135.000675278
 30
0.0
 10
153.1591664219
 20
134.888294045
 30
0.0
 10
153.1637527947
 20
134.7756054372
 30
0.0
 10
153.1769368989
 20
134.6640002361
 30
0.0
  0
SPLINE
  5
48C
100
AcDbEntity
  8
0
100
AcDbSpline
 62
7
  6
CONTINUOUS
 70
0
 71
3
 72
8
 73
4
 74
0
 42
0.0000001
 43
0.0000001
 44
0.0000000001
 40
0.0
 40
0.0
 40
0.0
 40
0.0
 40
1.0
 40
1.0
 40
1.0
 40
1.0
 10
153.1769368989
 20
137.6640002361
 30
0.0
 10
153.1663567849
 20
137.5744381596
 30
0.0
 10
153.1612853422
 20
137.4841650718
 30
0.0
 10
153.1597257984
 20
137.3939937229
 30
0.0
  0
SPLINE
  5
48D
100
AcDbEntity
  8
0
100
AcDbSpline
 62
7
  6
CONTINUOUS
 70
0
 71
3
 72
15
 73
11
 74
0
 42
0.0000001
 43
0.0000001
 44
0.0000000001
 40
0.0
 40
0.0
 40
0.0
 40
0.0
 40
0.1296055658
 40
0.2556110137
 40
0.3786556667
 40
0.5000000095
 40
0.6213443508
 40
0.7443890015
 40
0.8703944382
 40
1.0
 40
1.0
 40
1.0
 40
1.0
 10
92.5044658835
 20
93.5861689795
 30
0.0
 10
92.6369932663
 20
93.8494741895
 30
0.0
 10
92.8782304486
 20
94.3793918726
 30
0.0
 10
93.1561631929
 20
95.1962994179
 30
0.0
 10
93.3306428503
 20
96.022868731
 30
0.0
 10
93.3902768895
 20
96.8553432486
 30
0.0
 10
93.330642833
 20
97.6878177595
 30
0.0
 10
93.1561631664
 20
98.5143870358
 30
0.0
 10
92.8782304277
 20
99.3312945401
 30
0.0
 10
92.6369932622
 20
99.8612121929
 30
0.0
 10
92.5044658835
 20
100.1245173948
 30
0.0
  0
SPLINE
  5
48E
100
AcDbEntity
  8
0
100
AcDbSpline
 62
7
  6
CONTINUOUS
 70
0
 71
3
 72
13
 73
9
 74
0
 42
0.0000001
 43
0.0000001
 44
0.0000000001
 40
0.0
 40
0.0
 40
0.0
 40
0.0
 40
0.2499536736
 40
0.3749770092
 40
0.5000000097
 40
0.6250230087
 40
0.7500463415
 40
1.0
 40
1.0
 40
1.0
 40
1.0
 10
92.5044658835
 20
78.6256518208
 30
0.0
 10
92.7732882834
 20
79.6938437214
 30
0.0
 10
93.1014722434
 20
81.3180048152
 30
0.0
 10
93.3312972372
 20
83.5107712948
 30
0.0
 10
93.3900882904
 20
85.1640003581
 30
0.0
 10
93.3312972203
 20
86.8172294085
 30
0.0
 10
93.1014722123
 20
89.0099958001
 30
0.0
 10
92.7732882671
 20
90.6341568153
 30
0.0
 10
92.5044658835
 20
91.7023486514
 30
0.0
  0
SPLINE
  5
48F
100
AcDbEntity
  8
0
100
AcDbSpline
 62
7
  6
CONTINUOUS
 70
0
 71
3
 72
15
 73
11
 74
0
 42
0.0000001
 43
0.0000001
 44
0.0000000001
 40
0.0
 40
0.0
 40
0.0
 40
0.0
 40
0.1296055658
 40
0.2556110137
 40
0.3786556667
 40
0.5000000095
 40
0.6213443508
 40
0.7443890015
 40
0.8703944382
 40
1.0
 40
1.0
 40
1.0
 40
1.0
 10
92.5044658835
 20
70.2034830773
 30
0.0
 10
92.6369932663
 20
70.4667882873
 30
0.0
 10
92.8782304486
 20
70.9967059704
 30
0.0
 10
93.1561631929
 20
71.8136135157
 30
0.0
 10
93.3306428503
 20
72.6401828288
 30
0.0
 10
93.3902768895
 20
73.4726573465
 30
0.0
 10
93.330642833
 20
74.3051318573
 30
0.0
 10
93.1561631664
 20
75.1317011336
 30
0.0
 10
92.8782304277
 20
75.9486086379
 30
0.0
 10
92.6369932622
 20
76.4785262907
 30
0.0
 10
92.5044658835
 20
76.7418314927
 30
0.0
  0
SPLINE
  5
490
100
AcDbEntity
  8
0
100
AcDbSpline
 62
7
  6
CONTINUOUS
 70
0
 71
3
 72
9
 73
5
 74
0
 42
0.0000001
 43
0.0000001
 44
0.0000000001
 40
0.0
 40
0.0
 40
0.0
 40
0.0
 40
0.5088419909
 40
1.0
 40
1.0
 40
1.0
 40
1.0
 10
84.4880143984
 20
100.1245173948
 30
0.0
 10
84.3216301596
 20
99.8038258174
 30
0.0
 10
84.0242887622
 20
99.1573925762
 30
0.0
 10
83.8124996254
 20
98.4765626608
 30
0.0
 10
83.7365166911
 20
98.1362120329
 30
0.0
  0
SPLINE
  5
491
100
AcDbEntity
  8
0
100
AcDbSpline
 62
7
  6
CONTINUOUS
 70
0
 71
3
 72
9
 73
5
 74
0
 42
0.0000001
 43
0.0000001
 44
0.0000000001
 40
0.0
 40
0.0
 40
0.0
 40
0.0
 40
0.5079443374
 40
1.0
 40
1.0
 40
1.0
 40
1.0
 10
84.0251918257
 20
99.8831151528
 30
0.0
 10
83.8652931459
 20
99.5698595845
 30
0.0
 10
83.5797648911
 20
98.9374175323
 30
0.0
 10
83.3769015424
 20
98.2724919501
 30
0.0
 10
83.3035039892
 20
97.9397879932
 30
0.0
  0
SPLINE
  5
492
100
AcDbEntity
  8
0
100
AcDbSpline
 62
7
  6
CONTINUOUS
 70
0
 71
3
 72
11
 73
7
 74
0
 42
0.0000001
 43
0.0000001
 44
0.0000000001
 40
0.0
 40
0.0
 40
0.0
 40
0.0
 40
0.254454519
 40
0.5058360677
 40
0.7540744692
 40
1.0
 40
1.0
 40
1.0
 40
1.0
 10
84.4582045276
 20
100.1246601818
 30
0.0
 10
84.4142925567
 20
100.1250873815
 30
0.0
 10
84.3264766148
 20
100.1144487717
 30
0.0
 10
84.2042715112
 20
100.0656705201
 30
0.0
 10
84.1001669453
 20
99.9876356654
 30
0.0
 10
84.0467665992
 20
99.9196645926
 30
0.0
 10
84.0251918257
 20
99.8831151528
 30
0.0
  0
SPLINE
  5
493
100
AcDbEntity
  8
0
100
AcDbSpline
 62
7
  6
CONTINUOUS
 70
0
 71
3
 72
12
 73
8
 74
0
 42
0.0000001
 43
0.0000001
 44
0.0000000001
 40
0.0
 40
0.0
 40
0.0
 40
0.0
 40
0.251614836
 40
0.4998769032
 40
0.6236757604
 40
0.748386938
 40
1.0
 40
1.0
 40
1.0
 40
1.0
 10
83.7365166911
 20
98.1362120329
 30
0.0
 10
83.6890814889
 20
97.9234510739
 30
0.0
 10
83.5851061016
 20
97.5032766816
 30
0.0
 10
83.5188731157
 20
96.9632318888
 30
0.0
 10
83.5449467959
 20
96.5326784016
 30
0.0
 10
83.6109910773
 20
96.1040619445
 30
0.0
 10
83.6890567872
 20
95.7872282171
 30
0.0
 10
83.7365166911
 20
95.5744743414
 30
0.0
  0
SPLINE
  5
494
100
AcDbEntity
  8
0
100
AcDbSpline
 62
7
  6
CONTINUOUS
 70
0
 71
3
 72
11
 73
7
 74
0
 42
0.0000001
 43
0.0000001
 44
0.0000000001
 40
0.0
 40
0.0
 40
0.0
 40
0.0
 40
0.2182656306
 40
0.4573150539
 40
0.7179993772
 40
1.0
 40
1.0
 40
1.0
 40
1.0
 10
83.3035039892
 20
97.9397879932
 30
0.0
 10
83.2780965062
 20
97.7509215169
 30
0.0
 10
83.2236570363
 20
97.3552883963
 30
0.0
 10
83.1886104415
 20
96.7280961108
 30
0.0
 10
83.229410962
 20
96.0458183129
 30
0.0
 10
83.2801296126
 20
95.5748184785
 30
0.0
 10
83.3035039863
 20
95.329715668
 30
0.0
  0
SPLINE
  5
495
100
AcDbEntity
  8
0
100
AcDbSpline
 62
7
  6
CONTINUOUS
 70
0
 71
3
 72
10
 73
6
 74
0
 42
0.0000001
 43
0.0000001
 44
0.0000000001
 40
0.0
 40
0.0
 40
0.0
 40
0.0
 40
0.51594247
 40
0.7626830247
 40
1.0
 40
1.0
 40
1.0
 40
1.0
 10
83.7365166911
 20
98.1362121828
 30
0.0
 10
83.6517033846
 20
98.140945696
 30
0.0
 10
83.5214112294
 20
98.1192088909
 30
0.0
 10
83.3800766282
 20
98.0319503869
 30
0.0
 10
83.3252570728
 20
97.972244676
 30
0.0
 10
83.3035043873
 20
97.9397877757
 30
0.0
  0
SPLINE
  5
496
100
AcDbEntity
  8
0
100
AcDbSpline
 62
7
  6
CONTINUOUS
 70
0
 71
3
 72
9
 73
5
 74
0
 42
0.0000001
 43
0.0000001
 44
0.0000000001
 40
0.0
 40
0.0
 40
0.0
 40
0.0
 40
0.5107256143
 40
1.0
 40
1.0
 40
1.0
 40
1.0
 10
83.7365166911
 20
95.5744743423
 30
0.0
 10
83.6495665102
 20
95.5696214725
 30
0.0
 10
83.4792974735
 20
95.5211707387
 30
0.0
 10
83.347647043
 20
95.4005081799
 30
0.0
 10
83.3035039882
 20
95.3297156287
 30
0.0
  0
SPLINE
  5
497
100
AcDbEntity
  8
0
100
AcDbSpline
 62
7
  6
CONTINUOUS
 70
0
 71
3
 72
9
 73
5
 74
0
 42
0.0000001
 43
0.0000001
 44
0.0000000001
 40
0.0
 40
0.0
 40
0.0
 40
0.0
 40
0.4911578963
 40
1.0
 40
1.0
 40
1.0
 40
1.0
 10
83.7365166911
 20
95.5744743414
 30
0.0
 10
83.8124996214
 20
95.2341237945
 30
0.0
 10
84.0242887232
 20
94.5532938732
 30
0.0
 10
84.321630099
 20
93.9068606159
 30
0.0
 10
84.4880143984
 20
93.5861689795
 30
0.0
  0
SPLINE
  5
498
100
AcDbEntity
  8
0
100
AcDbSpline
 62
7
  6
CONTINUOUS
 70
0
 71
3
 72
10
 73
6
 74
0
 42
0.0000001
 43
0.0000001
 44
0.0000000001
 40
0.0
 40
0.0
 40
0.0
 40
0.0
 40
0.2651210894
 40
0.5253429206
 40
1.0
 40
1.0
 40
1.0
 40
1.0
 10
84.4582045276
 20
93.5845378946
 30
0.0
 10
84.4139236852
 20
93.5796122353
 30
0.0
 10
84.3268307361
 20
93.5611036711
 30
0.0
 10
84.1715298048
 20
93.4961079861
 30
0.0
 10
84.0714914327
 20
93.4147185829
 30
0.0
 10
84.0251918257
 20
93.3497641142
 30
0.0
  0
SPLINE
  5
499
100
AcDbEntity
  8
0
100
AcDbSpline
 62
7
  6
CONTINUOUS
 70
0
 71
3
 72
9
 73
5
 74
0
 42
0.0000001
 43
0.0000001
 44
0.0000000001
 40
0.0
 40
0.0
 40
0.0
 40
0.0
 40
0.4912010975
 40
1.0
 40
1.0
 40
1.0
 40
1.0
 10
83.3035039863
 20
95.3297156383
 30
0.0
 10
83.3771201851
 20
94.9919321446
 30
0.0
 10
83.580435066
 20
94.3153384683
 30
0.0
 10
83.8653947226
 20
93.6702309166
 30
0.0
 10
84.0251918257
 20
93.3497641142
 30
0.0
  0
SPLINE
  5
49A
100
AcDbEntity
  8
0
100
AcDbSpline
 62
7
  6
CONTINUOUS
 70
0
 71
3
 72
9
 73
5
 74
0
 42
0.0000001
 43
0.0000001
 44
0.0000000001
 40
0.0
 40
0.0
 40
0.0
 40
0.0
 40
0.500013025
 40
1.0
 40
1.0
 40
1.0
 40
1.0
 10
84.4880143984
 20
91.7023486514
 30
0.0
 10
84.3185328776
 20
91.0490259408
 30
0.0
 10
84.0174157965
 20
89.7321597027
 30
0.0
 10
83.8113884777
 20
88.3964847496
 30
0.0
 10
83.7365166911
 20
87.7257379276
 30
0.0
  0
SPLINE
  5
49B
100
AcDbEntity
  8
0
100
AcDbSpline
 62
7
  6
CONTINUOUS
 70
0
 71
3
 72
9
 73
5
 74
0
 42
0.0000001
 43
0.0000001
 44
0.0000000001
 40
0.0
 40
0.0
 40
0.0
 40
0.0
 40
0.5000090617
 40
1.0
 40
1.0
 40
1.0
 40
1.0
 10
84.0251918257
 20
91.6973512697
 30
0.0
 10
83.8624858475
 20
91.0522954784
 30
0.0
 10
83.5738777088
 20
89.7525176342
 30
0.0
 10
83.3760013489
 20
88.4353458121
 30
0.0
 10
83.3035039892
 20
87.774072601
 30
0.0
  0
SPLINE
  5
49C
100
AcDbEntity
  8
0
100
AcDbSpline
 62
7
  6
CONTINUOUS
 70
0
 71
3
 72
11
 73
7
 74
0
 42
0.0000001
 43
0.0000001
 44
0.0000000001
 40
0.0
 40
0.0
 40
0.0
 40
0.0
 40
0.3017472845
 40
0.579469844
 40
0.8161963209
 40
1.0
 40
1.0
 40
1.0
 40
1.0
 10
84.4582045276
 20
91.7041225236
 30
0.0
 10
84.4147519199
 20
91.7093787838
 30
0.0
 10
84.3309879542
 20
91.7169789724
 30
0.0
 10
84.2125156327
 20
91.7201719183
 30
0.0
 10
84.1113186524
 20
91.7147488576
 30
0.0
 10
84.050790102
 20
91.7048046174
 30
0.0
 10
84.0251918257
 20
91.6973512697
 30
0.0
  0
SPLINE
  5
49D
100
AcDbEntity
  8
0
100
AcDbSpline
 62
7
  6
CONTINUOUS
 70
0
 71
3
 72
15
 73
11
 74
0
 42
0.0000001
 43
0.0000001
 44
0.0000000001
 40
0.0
 40
0.0
 40
0.0
 40
0.0
 40
0.1249941828
 40
0.2499934972
 40
0.374995044
 40
0.4999997699
 40
0.6250050616
 40
0.7500063222
 40
0.8750058608
 40
1.0
 40
1.0
 40
1.0
 40
1.0
 10
83.7365166911
 20
87.7257379276
 30
0.0
 10
83.7127449319
 20
87.5127935259
 30
0.0
 10
83.6630934372
 20
87.0871390273
 30
0.0
 10
83.5941258441
 20
86.4479936477
 30
0.0
 10
83.544424985
 20
85.8069126327
 30
0.0
 10
83.5256818624
 20
85.1640004552
 30
0.0
 10
83.544422543
 20
84.5210885842
 30
0.0
 10
83.5941275648
 20
83.8800070317
 30
0.0
 10
83.6630920151
 20
83.240861532
 30
0.0
 10
83.71274493
 20
82.8152068709
 30
0.0
 10
83.7365166911
 20
82.6022625446
 30
0.0
  0
SPLINE
  5
49E
100
AcDbEntity
  8
0
100
AcDbSpline
 62
7
  6
CONTINUOUS
 70
0
 71
3
 72
13
 73
9
 74
0
 42
0.0000001
 43
0.0000001
 44
0.0000000001
 40
0.0
 40
0.0
 40
0.0
 40
0.0
 40
0.2496931973
 40
0.3748065971
 40
0.4999998535
 40
0.6251932478
 40
0.7503066122
 40
1.0
 40
1.0
 40
1.0
 40
1.0
 10
83.3035039892
 20
87.774072601
 30
0.0
 10
83.279254788
 20
87.339877347
 30
0.0
 10
83.239943906
 20
86.6882533052
 30
0.0
 10
83.2072945589
 20
85.8179956375
 30
0.0
 10
83.1981674022
 20
85.1640007958
 30
0.0
 10
83.2072934477
 20
84.5100059779
 30
0.0
 10
83.2399450849
 20
83.6397478832
 30
0.0
 10
83.2792546873
 20
82.9881235164
 30
0.0
 10
83.3035039861
 20
82.5539279355
 30
0.0
  0
SPLINE
  5
49F
100
AcDbEntity
  8
0
100
AcDbSpline
 62
7
  6
CONTINUOUS
 70
0
 71
3
 72
9
 73
5
 74
0
 42
0.0000001
 43
0.0000001
 44
0.0000000001
 40
0.0
 40
0.0
 40
0.0
 40
0.0
 40
0.4999869749
 40
1.0
 40
1.0
 40
1.0
 40
1.0
 10
83.7365166911
 20
82.6022625446
 30
0.0
 10
83.8113884849
 20
81.9315157234
 30
0.0
 10
84.017415804
 20
80.5958407719
 30
0.0
 10
84.3185328593
 20
79.2789745267
 30
0.0
 10
84.4880143984
 20
78.6256518208
 30
0.0
  0
SPLINE
  5
4A0
100
AcDbEntity
  8
0
100
AcDbSpline
 62
7
  6
CONTINUOUS
 70
0
 71
3
 72
11
 73
7
 74
0
 42
0.0000001
 43
0.0000001
 44
0.0000000001
 40
0.0
 40
0.0
 40
0.0
 40
0.0
 40
0.3017472865
 40
0.5794698504
 40
0.8161963281
 40
1.0
 40
1.0
 40
1.0
 40
1.0
 10
84.4582045276
 20
78.6238779488
 30
0.0
 10
84.4147519198
 20
78.6186216887
 30
0.0
 10
84.3309879537
 20
78.6110214978
 30
0.0
 10
84.212515631
 20
78.6078285618
 30
0.0
 10
84.1113186528
 20
78.6132516261
 30
0.0
 10
84.0507901009
 20
78.6231958525
 30
0.0
 10
84.0251918257
 20
78.6306491998
 30
0.0
  0
SPLINE
  5
4A1
100
AcDbEntity
  8
0
100
AcDbSpline
 62
7
  6
CONTINUOUS
 70
0
 71
3
 72
9
 73
5
 74
0
 42
0.0000001
 43
0.0000001
 44
0.0000000001
 40
0.0
 40
0.0
 40
0.0
 40
0.0
 40
0.4999909383
 40
1.0
 40
1.0
 40
1.0
 40
1.0
 10
83.3035039861
 20
82.5539278943
 30
0.0
 10
83.3760013518
 20
81.8926546795
 30
0.0
 10
83.5738777079
 20
80.5754828488
 30
0.0
 10
83.8624858397
 20
79.2757049936
 30
0.0
 10
84.0251918257
 20
78.6306491998
 30
0.0
  0
SPLINE
  5
4A2
100
AcDbEntity
  8
0
100
AcDbSpline
 62
7
  6
CONTINUOUS
 70
0
 71
3
 72
9
 73
5
 74
0
 42
0.0000001
 43
0.0000001
 44
0.0000000001
 40
0.0
 40
0.0
 40
0.0
 40
0.0
 40
0.5088421038
 40
1.0
 40
1.0
 40
1.0
 40
1.0
 10
84.4880143984
 20
76.7418314927
 30
0.0
 10
84.3216301153
 20
76.4211398477
 30
0.0
 10
84.0242887171
 20
75.7747066029
 30
0.0
 10
83.812499614
 20
75.0938766792
 30
0.0
 10
83.7365166911
 20
74.7535261307
 30
0.0
  0
SPLINE
  5
4A3
100
AcDbEntity
  8
0
100
AcDbSpline
 62
7
  6
CONTINUOUS
 70
0
 71
3
 72
9
 73
5
 74
0
 42
0.0000001
 43
0.0000001
 44
0.0000000001
 40
0.0
 40
0.0
 40
0.0
 40
0.0
 40
0.5087989019
 40
1.0
 40
1.0
 40
1.0
 40
1.0
 10
84.0251918257
 20
76.9782363552
 30
0.0
 10
83.8653947307
 20
76.6577695517
 30
0.0
 10
83.5804350661
 20
76.0126620094
 30
0.0
 10
83.3771201818
 20
75.3360683372
 30
0.0
 10
83.3035039892
 20
74.9982848439
 30
0.0
  0
SPLINE
  5
4A4
100
AcDbEntity
  8
0
100
AcDbSpline
 62
7
  6
CONTINUOUS
 70
0
 71
3
 72
10
 73
6
 74
0
 42
0.0000001
 43
0.0000001
 44
0.0000000001
 40
0.0
 40
0.0
 40
0.0
 40
0.0
 40
0.2651210908
 40
0.5253429254
 40
1.0
 40
1.0
 40
1.0
 40
1.0
 10
84.4582045276
 20
76.7434625777
 30
0.0
 10
84.4139236853
 20
76.7483882372
 30
0.0
 10
84.3268307351
 20
76.7668967994
 30
0.0
 10
84.1715298113
 20
76.8318924969
 30
0.0
 10
84.0714914318
 20
76.9132818876
 30
0.0
 10
84.0251918257
 20
76.9782363552
 30
0.0
  0
SPLINE
  5
4A5
100
AcDbEntity
  8
0
100
AcDbSpline
 62
7
  6
CONTINUOUS
 70
0
 71
3
 72
11
 73
7
 74
0
 42
0.0000001
 43
0.0000001
 44
0.0000000001
 40
0.0
 40
0.0
 40
0.0
 40
0.0
 40
0.2516788655
 40
0.4999942207
 40
0.7483199675
 40
1.0
 40
1.0
 40
1.0
 40
1.0
 10
83.7365166911
 20
74.7535261307
 30
0.0
 10
83.6890637854
 20
74.5407704981
 30
0.0
 10
83.5852343124
 20
74.1206254345
 30
0.0
 10
83.5054818811
 20
73.472664009
 30
0.0
 10
83.5851742977
 20
72.8246869929
 30
0.0
 10
83.6890739735
 20
72.4045473795
 30
0.0
 10
83.7365166911
 20
72.1917884393
 30
0.0
  0
SPLINE
  5
4A6
100
AcDbEntity
  8
0
100
AcDbSpline
 62
7
  6
CONTINUOUS
 70
0
 71
3
 72
11
 73
7
 74
0
 42
0.0000001
 43
0.0000001
 44
0.0000000001
 40
0.0
 40
0.0
 40
0.0
 40
0.0
 40
0.2820010103
 40
0.5426858422
 40
0.7817347943
 40
1.0
 40
1.0
 40
1.0
 40
1.0
 10
83.3035039892
 20
74.9982848439
 30
0.0
 10
83.2801322588
 20
74.7531814246
 30
0.0
 10
83.2294069628
 20
74.2821815931
 30
0.0
 10
83.1886049946
 20
73.5999027423
 30
0.0
 10
83.2236657901
 20
72.9727119339
 30
0.0
 10
83.2780933151
 20
72.5770781647
 30
0.0
 10
83.3035039892
 20
72.388212479
 30
0.0
  0
SPLINE
  5
4A7
100
AcDbEntity
  8
0
100
AcDbSpline
 62
7
  6
CONTINUOUS
 70
0
 71
3
 72
9
 73
5
 74
0
 42
0.0000001
 43
0.0000001
 44
0.0000000001
 40
0.0
 40
0.0
 40
0.0
 40
0.0
 40
0.5107256453
 40
1.0
 40
1.0
 40
1.0
 40
1.0
 10
83.7365166911
 20
74.753526041
 30
0.0
 10
83.6495665367
 20
74.7583790001
 30
0.0
 10
83.4792975996
 20
74.8068298274
 30
0.0
 10
83.3476472638
 20
74.9274924134
 30
0.0
 10
83.3035042697
 20
74.9982849658
 30
0.0
  0
SPLINE
  5
4A8
100
AcDbEntity
  8
0
100
AcDbSpline
 62
7
  6
CONTINUOUS
 70
0
 71
3
 72
10
 73
6
 74
0
 42
0.0000001
 43
0.0000001
 44
0.0000000001
 40
0.0
 40
0.0
 40
0.0
 40
0.0
 40
0.5159424852
 40
0.7626830394
 40
1.0
 40
1.0
 40
1.0
 40
1.0
 10
83.7365166911
 20
72.1917884384
 30
0.0
 10
83.6517033502
 20
72.18705483
 30
0.0
 10
83.5214111122
 20
72.2087915188
 30
0.0
 10
83.3800763612
 20
72.2960499158
 30
0.0
 10
83.3252567184
 20
72.3557555904
 30
0.0
 10
83.3035039882
 20
72.3882124784
 30
0.0
  0
SPLINE
  5
4A9
100
AcDbEntity
  8
0
100
AcDbSpline
 62
7
  6
CONTINUOUS
 70
0
 71
3
 72
9
 73
5
 74
0
 42
0.0000001
 43
0.0000001
 44
0.0000000001
 40
0.0
 40
0.0
 40
0.0
 40
0.0
 40
0.4911580092
 40
1.0
 40
1.0
 40
1.0
 40
1.0
 10
83.7365166911
 20
72.1917884393
 30
0.0
 10
83.812499632
 20
71.8514378128
 30
0.0
 10
84.0242887666
 20
71.170607899
 30
0.0
 10
84.3216301465
 20
70.5241746479
 30
0.0
 10
84.4880143984
 20
70.2034830773
 30
0.0
  0
SPLINE
  5
4AA
100
AcDbEntity
  8
0
100
AcDbSpline
 62
7
  6
CONTINUOUS
 70
0
 71
3
 72
11
 73
7
 74
0
 42
0.0000001
 43
0.0000001
 44
0.0000000001
 40
0.0
 40
0.0
 40
0.0
 40
0.0
 40
0.2544545197
 40
0.505836072
 40
0.7540744736
 40
1.0
 40
1.0
 40
1.0
 40
1.0
 10
84.4582045276
 20
70.2033402904
 30
0.0
 10
84.4142925566
 20
70.2029130907
 30
0.0
 10
84.3264766139
 20
70.2135517003
 30
0.0
 10
84.2042715103
 20
70.2623299537
 30
0.0
 10
84.1001669444
 20
70.3403648079
 30
0.0
 10
84.0467665989
 20
70.4083358801
 30
0.0
 10
84.0251918257
 20
70.4448853192
 30
0.0
  0
SPLINE
  5
4AB
100
AcDbEntity
  8
0
100
AcDbSpline
 62
7
  6
CONTINUOUS
 70
0
 71
3
 72
9
 73
5
 74
0
 42
0.0000001
 43
0.0000001
 44
0.0000000001
 40
0.0
 40
0.0
 40
0.0
 40
0.0
 40
0.492055663
 40
1.0
 40
1.0
 40
1.0
 40
1.0
 10
83.3035039892
 20
72.388212479
 30
0.0
 10
83.3769015473
 20
72.055508523
 30
0.0
 10
83.5797648909
 20
71.3905829401
 30
0.0
 10
83.8652931418
 20
70.7581408852
 30
0.0
 10
84.0251918257
 20
70.4448853192
 30
0.0
  0
SPLINE
  5
4AC
100
AcDbEntity
  8
0
100
AcDbSpline
 62
7
  6
CONTINUOUS
 70
0
 71
3
 72
15
 73
11
 74
0
 42
0.0000001
 43
0.0000001
 44
0.0000000001
 40
0.0
 40
0.0
 40
0.0
 40
0.0
 40
0.1296055658
 40
0.2556110137
 40
0.3786556667
 40
0.5000000095
 40
0.6213443508
 40
0.7443890015
 40
0.8703944382
 40
1.0
 40
1.0
 40
1.0
 40
1.0
 10
145.3138669603
 20
76.7418314927
 30
0.0
 10
145.1813395775
 20
76.4785262827
 30
0.0
 10
144.9401023952
 20
75.9486085996
 30
0.0
 10
144.662169651
 20
75.1317010543
 30
0.0
 10
144.4876899935
 20
74.3051317412
 30
0.0
 10
144.4280559543
 20
73.4726572235
 30
0.0
 10
144.4876900108
 20
72.6401827127
 30
0.0
 10
144.6621696774
 20
71.8136134364
 30
0.0
 10
144.9401024161
 20
70.9967059321
 30
0.0
 10
145.1813395816
 20
70.4667882793
 30
0.0
 10
145.3138669603
 20
70.2034830773
 30
0.0
  0
SPLINE
  5
4AD
100
AcDbEntity
  8
0
100
AcDbSpline
 62
7
  6
CONTINUOUS
 70
0
 71
3
 72
13
 73
9
 74
0
 42
0.0000001
 43
0.0000001
 44
0.0000000001
 40
0.0
 40
0.0
 40
0.0
 40
0.0
 40
0.2499536736
 40
0.3749770092
 40
0.5000000097
 40
0.6250230087
 40
0.7500463415
 40
1.0
 40
1.0
 40
1.0
 40
1.0
 10
145.3138669603
 20
91.7023486514
 30
0.0
 10
145.0450445605
 20
90.6341567507
 30
0.0
 10
144.7168606004
 20
89.009995657
 30
0.0
 10
144.4870356066
 20
86.8172291774
 30
0.0
 10
144.4282445535
 20
85.1640001141
 30
0.0
 10
144.4870356236
 20
83.5107710637
 30
0.0
 10
144.7168606316
 20
81.3180046721
 30
0.0
 10
145.0450445767
 20
79.6938436568
 30
0.0
 10
145.3138669603
 20
78.6256518208
 30
0.0
  0
SPLINE
  5
4AE
100
AcDbEntity
  8
0
100
AcDbSpline
 62
7
  6
CONTINUOUS
 70
0
 71
3
 72
15
 73
11
 74
0
 42
0.0000001
 43
0.0000001
 44
0.0000000001
 40
0.0
 40
0.0
 40
0.0
 40
0.0
 40
0.1296055658
 40
0.2556110137
 40
0.3786556667
 40
0.5000000095
 40
0.6213443508
 40
0.7443890015
 40
0.8703944382
 40
1.0
 40
1.0
 40
1.0
 40
1.0
 10
145.3138669603
 20
100.1245173948
 30
0.0
 10
145.1813395775
 20
99.8612121848
 30
0.0
 10
144.9401023952
 20
99.3312945018
 30
0.0
 10
144.662169651
 20
98.5143869565
 30
0.0
 10
144.4876899935
 20
97.6878176433
 30
0.0
 10
144.4280559543
 20
96.8553431257
 30
0.0
 10
144.4876900108
 20
96.0228686148
 30
0.0
 10
144.6621696774
 20
95.1962993386
 30
0.0
 10
144.9401024161
 20
94.3793918343
 30
0.0
 10
145.1813395816
 20
93.8494741814
 30
0.0
 10
145.3138669603
 20
93.5861689795
 30
0.0
  0
SPLINE
  5
4AF
100
AcDbEntity
  8
0
100
AcDbSpline
 62
7
  6
CONTINUOUS
 70
0
 71
3
 72
9
 73
5
 74
0
 42
0.0000001
 43
0.0000001
 44
0.0000000001
 40
0.0
 40
0.0
 40
0.0
 40
0.0
 40
0.5088419909
 40
1.0
 40
1.0
 40
1.0
 40
1.0
 10
153.3303184454
 20
70.2034830773
 30
0.0
 10
153.4967026842
 20
70.5241746548
 30
0.0
 10
153.7940440816
 20
71.170607896
 30
0.0
 10
154.0058332185
 20
71.8514378113
 30
0.0
 10
154.0818161527
 20
72.1917884393
 30
0.0
  0
SPLINE
  5
4B0
100
AcDbEntity
  8
0
100
AcDbSpline
 62
7
  6
CONTINUOUS
 70
0
 71
3
 72
9
 73
5
 74
0
 42
0.0000001
 43
0.0000001
 44
0.0000000001
 40
0.0
 40
0.0
 40
0.0
 40
0.0
 40
0.5079443374
 40
1.0
 40
1.0
 40
1.0
 40
1.0
 10
153.7931410181
 20
70.4448853194
 30
0.0
 10
153.953039698
 20
70.7581408877
 30
0.0
 10
154.2385679527
 20
71.3905829399
 30
0.0
 10
154.4414313014
 20
72.0555085221
 30
0.0
 10
154.5148288546
 20
72.388212479
 30
0.0
  0
SPLINE
  5
4B1
100
AcDbEntity
  8
0
100
AcDbSpline
 62
7
  6
CONTINUOUS
 70
0
 71
3
 72
11
 73
7
 74
0
 42
0.0000001
 43
0.0000001
 44
0.0000000001
 40
0.0
 40
0.0
 40
0.0
 40
0.0
 40
0.254454519
 40
0.5058360677
 40
0.7540744692
 40
1.0
 40
1.0
 40
1.0
 40
1.0
 10
153.3601283162
 20
70.2033402904
 30
0.0
 10
153.4040402872
 20
70.2029130907
 30
0.0
 10
153.491856229
 20
70.2135517005
 30
0.0
 10
153.6140613326
 20
70.2623299521
 30
0.0
 10
153.7181658986
 20
70.3403648068
 30
0.0
 10
153.7715662446
 20
70.4083358796
 30
0.0
 10
153.7931410181
 20
70.4448853194
 30
0.0
  0
SPLINE
  5
4B2
100
AcDbEntity
  8
0
100
AcDbSpline
 62
7
  6
CONTINUOUS
 70
0
 71
3
 72
12
 73
8
 74
0
 42
0.0000001
 43
0.0000001
 44
0.0000000001
 40
0.0
 40
0.0
 40
0.0
 40
0.0
 40
0.251614836
 40
0.4998769032
 40
0.6236757604
 40
0.748386938
 40
1.0
 40
1.0
 40
1.0
 40
1.0
 10
154.0818161527
 20
72.1917884393
 30
0.0
 10
154.129251355
 20
72.4045493982
 30
0.0
 10
154.2332267422
 20
72.8247237906
 30
0.0
 10
154.2994597281
 20
73.3647685834
 30
0.0
 10
154.2733860479
 20
73.7953220706
 30
0.0
 10
154.2073417666
 20
74.2239385277
 30
0.0
 10
154.1292760566
 20
74.5407722551
 30
0.0
 10
154.0818161527
 20
74.7535261307
 30
0.0
  0
SPLINE
  5
4B3
100
AcDbEntity
  8
0
100
AcDbSpline
 62
7
  6
CONTINUOUS
 70
0
 71
3
 72
11
 73
7
 74
0
 42
0.0000001
 43
0.0000001
 44
0.0000000001
 40
0.0
 40
0.0
 40
0.0
 40
0.0
 40
0.2182656306
 40
0.4573150539
 40
0.7179993772
 40
1.0
 40
1.0
 40
1.0
 40
1.0
 10
154.5148288546
 20
72.388212479
 30
0.0
 10
154.5402363376
 20
72.5770789553
 30
0.0
 10
154.5946758076
 20
72.9727120758
 30
0.0
 10
154.6297224024
 20
73.5999043614
 30
0.0
 10
154.5889218819
 20
74.2821821593
 30
0.0
 10
154.5382032313
 20
74.7531819937
 30
0.0
 10
154.5148288576
 20
74.9982848042
 30
0.0
  0
SPLINE
  5
4B4
100
AcDbEntity
  8
0
100
AcDbSpline
 62
7
  6
CONTINUOUS
 70
0
 71
3
 72
10
 73
6
 74
0
 42
0.0000001
 43
0.0000001
 44
0.0000000001
 40
0.0
 40
0.0
 40
0.0
 40
0.0
 40
0.51594247
 40
0.7626830247
 40
1.0
 40
1.0
 40
1.0
 40
1.0
 10
154.0818161527
 20
72.1917882894
 30
0.0
 10
154.1666294592
 20
72.1870547761
 30
0.0
 10
154.2969216145
 20
72.2087915813
 30
0.0
 10
154.4382562156
 20
72.2960500852
 30
0.0
 10
154.4930757711
 20
72.3557557962
 30
0.0
 10
154.5148284566
 20
72.3882126964
 30
0.0
  0
SPLINE
  5
4B5
100
AcDbEntity
  8
0
100
AcDbSpline
 62
7
  6
CONTINUOUS
 70
0
 71
3
 72
9
 73
5
 74
0
 42
0.0000001
 43
0.0000001
 44
0.0000000001
 40
0.0
 40
0.0
 40
0.0
 40
0.0
 40
0.5107256143
 40
1.0
 40
1.0
 40
1.0
 40
1.0
 10
154.0818161527
 20
74.7535261299
 30
0.0
 10
154.1687663337
 20
74.7583789997
 30
0.0
 10
154.3390353704
 20
74.8068297334
 30
0.0
 10
154.4706858009
 20
74.9274922923
 30
0.0
 10
154.5148288556
 20
74.9982848434
 30
0.0
  0
SPLINE
  5
4B6
100
AcDbEntity
  8
0
100
AcDbSpline
 62
7
  6
CONTINUOUS
 70
0
 71
3
 72
9
 73
5
 74
0
 42
0.0000001
 43
0.0000001
 44
0.0000000001
 40
0.0
 40
0.0
 40
0.0
 40
0.0
 40
0.4911578963
 40
1.0
 40
1.0
 40
1.0
 40
1.0
 10
154.0818161527
 20
74.7535261307
 30
0.0
 10
154.0058332225
 20
75.0938766777
 30
0.0
 10
153.7940441206
 20
75.774706599
 30
0.0
 10
153.4967027448
 20
76.4211398562
 30
0.0
 10
153.3303184454
 20
76.7418314927
 30
0.0
  0
SPLINE
  5
4B7
100
AcDbEntity
  8
0
100
AcDbSpline
 62
7
  6
CONTINUOUS
 70
0
 71
3
 72
10
 73
6
 74
0
 42
0.0000001
 43
0.0000001
 44
0.0000000001
 40
0.0
 40
0.0
 40
0.0
 40
0.0
 40
0.2651210894
 40
0.5253429206
 40
1.0
 40
1.0
 40
1.0
 40
1.0
 10
153.3601283162
 20
76.7434625775
 30
0.0
 10
153.4044091587
 20
76.7483882369
 30
0.0
 10
153.4915021077
 20
76.766896801
 30
0.0
 10
153.646803039
 20
76.8318924861
 30
0.0
 10
153.7468414112
 20
76.9132818892
 30
0.0
 10
153.7931410181
 20
76.978236358
 30
0.0
  0
SPLINE
  5
4B8
100
AcDbEntity
  8
0
100
AcDbSpline
 62
7
  6
CONTINUOUS
 70
0
 71
3
 72
9
 73
5
 74
0
 42
0.0000001
 43
0.0000001
 44
0.0000000001
 40
0.0
 40
0.0
 40
0.0
 40
0.0
 40
0.4912010975
 40
1.0
 40
1.0
 40
1.0
 40
1.0
 10
154.5148288576
 20
74.9982848339
 30
0.0
 10
154.4412126588
 20
75.3360683276
 30
0.0
 10
154.2378977778
 20
76.0126620039
 30
0.0
 10
153.9529381213
 20
76.6577695556
 30
0.0
 10
153.7931410181
 20
76.978236358
 30
0.0
  0
SPLINE
  5
4B9
100
AcDbEntity
  8
0
100
AcDbSpline
 62
7
  6
CONTINUOUS
 70
0
 71
3
 72
9
 73
5
 74
0
 42
0.0000001
 43
0.0000001
 44
0.0000000001
 40
0.0
 40
0.0
 40
0.0
 40
0.0
 40
0.500013025
 40
1.0
 40
1.0
 40
1.0
 40
1.0
 10
153.3303184454
 20
78.6256518208
 30
0.0
 10
153.4997999662
 20
79.2789745314
 30
0.0
 10
153.8009170473
 20
80.5958407695
 30
0.0
 10
154.0069443662
 20
81.9315157226
 30
0.0
 10
154.0818161527
 20
82.6022625446
 30
0.0
  0
SPLINE
  5
4BA
100
AcDbEntity
  8
0
100
AcDbSpline
 62
7
  6
CONTINUOUS
 70
0
 71
3
 72
9
 73
5
 74
0
 42
0.0000001
 43
0.0000001
 44
0.0000000001
 40
0.0
 40
0.0
 40
0.0
 40
0.0
 40
0.5000090617
 40
1.0
 40
1.0
 40
1.0
 40
1.0
 10
153.7931410181
 20
78.6306492025
 30
0.0
 10
153.9558469964
 20
79.2757049938
 30
0.0
 10
154.244455135
 20
80.5754828379
 30
0.0
 10
154.4423314949
 20
81.89265466
 30
0.0
 10
154.5148288546
 20
82.5539278712
 30
0.0
  0
SPLINE
  5
4BB
100
AcDbEntity
  8
0
100
AcDbSpline
 62
7
  6
CONTINUOUS
 70
0
 71
3
 72
11
 73
7
 74
0
 42
0.0000001
 43
0.0000001
 44
0.0000000001
 40
0.0
 40
0.0
 40
0.0
 40
0.0
 40
0.3017472845
 40
0.579469844
 40
0.8161963209
 40
1.0
 40
1.0
 40
1.0
 40
1.0
 10
153.3601283162
 20
78.6238779486
 30
0.0
 10
153.403580924
 20
78.6186216883
 30
0.0
 10
153.4873448897
 20
78.6110214998
 30
0.0
 10
153.6058172112
 20
78.6078285539
 30
0.0
 10
153.7070141914
 20
78.6132516146
 30
0.0
 10
153.7675427419
 20
78.6231958548
 30
0.0
 10
153.7931410181
 20
78.6306492025
 30
0.0
  0
SPLINE
  5
4BC
100
AcDbEntity
  8
0
100
AcDbSpline
 62
7
  6
CONTINUOUS
 70
0
 71
3
 72
15
 73
11
 74
0
 42
0.0000001
 43
0.0000001
 44
0.0000000001
 40
0.0
 40
0.0
 40
0.0
 40
0.0
 40
0.1249941828
 40
0.2499934972
 40
0.374995044
 40
0.4999997699
 40
0.6250050616
 40
0.7500063222
 40
0.8750058608
 40
1.0
 40
1.0
 40
1.0
 40
1.0
 10
154.0818161527
 20
82.6022625446
 30
0.0
 10
154.105587912
 20
82.8152069463
 30
0.0
 10
154.1552394066
 20
83.2408614449
 30
0.0
 10
154.2242069997
 20
83.8800068245
 30
0.0
 10
154.2739078588
 20
84.5210878395
 30
0.0
 10
154.2926509815
 20
85.164000017
 30
0.0
 10
154.2739103008
 20
85.806911888
 30
0.0
 10
154.224205279
 20
86.4479934405
 30
0.0
 10
154.1552408287
 20
87.0871389402
 30
0.0
 10
154.1055879138
 20
87.5127936012
 30
0.0
 10
154.0818161527
 20
87.7257379276
 30
0.0
  0
SPLINE
  5
4BD
100
AcDbEntity
  8
0
100
AcDbSpline
 62
7
  6
CONTINUOUS
 70
0
 71
3
 72
13
 73
9
 74
0
 42
0.0000001
 43
0.0000001
 44
0.0000000001
 40
0.0
 40
0.0
 40
0.0
 40
0.0
 40
0.2496931973
 40
0.3748065971
 40
0.4999998535
 40
0.6251932478
 40
0.7503066122
 40
1.0
 40
1.0
 40
1.0
 40
1.0
 10
154.5148288546
 20
82.5539278712
 30
0.0
 10
154.5390780559
 20
82.9881231251
 30
0.0
 10
154.5783889378
 20
83.639747167
 30
0.0
 10
154.6110382849
 20
84.5100048347
 30
0.0
 10
154.6201654417
 20
85.1639996764
 30
0.0
 10
154.6110393962
 20
85.8179944943
 30
0.0
 10
154.578387759
 20
86.688252589
 30
0.0
 10
154.5390781565
 20
87.3398769558
 30
0.0
 10
154.5148288578
 20
87.7740725367
 30
0.0
  0
SPLINE
  5
4BE
100
AcDbEntity
  8
0
100
AcDbSpline
 62
7
  6
CONTINUOUS
 70
0
 71
3
 72
9
 73
5
 74
0
 42
0.0000001
 43
0.0000001
 44
0.0000000001
 40
0.0
 40
0.0
 40
0.0
 40
0.0
 40
0.4999869749
 40
1.0
 40
1.0
 40
1.0
 40
1.0
 10
154.0818161527
 20
87.7257379276
 30
0.0
 10
154.006944359
 20
88.3964847487
 30
0.0
 10
153.8009170398
 20
89.7321597003
 30
0.0
 10
153.4997999846
 20
91.0490259455
 30
0.0
 10
153.3303184454
 20
91.7023486514
 30
0.0
  0
SPLINE
  5
4BF
100
AcDbEntity
  8
0
100
AcDbSpline
 62
7
  6
CONTINUOUS
 70
0
 71
3
 72
11
 73
7
 74
0
 42
0.0000001
 43
0.0000001
 44
0.0000000001
 40
0.0
 40
0.0
 40
0.0
 40
0.0
 40
0.3017472865
 40
0.5794698504
 40
0.8161963281
 40
1.0
 40
1.0
 40
1.0
 40
1.0
 10
153.3601283162
 20
91.7041225234
 30
0.0
 10
153.4035809241
 20
91.7093787835
 30
0.0
 10
153.4873448902
 20
91.7169789744
 30
0.0
 10
153.6058172129
 20
91.7201719104
 30
0.0
 10
153.7070141911
 20
91.7147488461
 30
0.0
 10
153.7675427429
 20
91.7048046197
 30
0.0
 10
153.7931410181
 20
91.6973512724
 30
0.0
  0
SPLINE
  5
4C0
100
AcDbEntity
  8
0
100
AcDbSpline
 62
7
  6
CONTINUOUS
 70
0
 71
3
 72
9
 73
5
 74
0
 42
0.0000001
 43
0.0000001
 44
0.0000000001
 40
0.0
 40
0.0
 40
0.0
 40
0.0
 40
0.4999909383
 40
1.0
 40
1.0
 40
1.0
 40
1.0
 10
154.5148288578
 20
87.7740725779
 30
0.0
 10
154.442331492
 20
88.4353457927
 30
0.0
 10
154.2444551359
 20
89.7525176234
 30
0.0
 10
153.9558470041
 20
91.0522954786
 30
0.0
 10
153.7931410181
 20
91.6973512724
 30
0.0
  0
SPLINE
  5
4C1
100
AcDbEntity
  8
0
100
AcDbSpline
 62
7
  6
CONTINUOUS
 70
0
 71
3
 72
9
 73
5
 74
0
 42
0.0000001
 43
0.0000001
 44
0.0000000001
 40
0.0
 40
0.0
 40
0.0
 40
0.0
 40
0.5088421038
 40
1.0
 40
1.0
 40
1.0
 40
1.0
 10
153.3303184454
 20
93.5861689795
 30
0.0
 10
153.4967027285
 20
93.9068606245
 30
0.0
 10
153.7940441267
 20
94.5532938692
 30
0.0
 10
154.0058332298
 20
95.2341237929
 30
0.0
 10
154.0818161527
 20
95.5744743414
 30
0.0
  0
SPLINE
  5
4C2
100
AcDbEntity
  8
0
100
AcDbSpline
 62
7
  6
CONTINUOUS
 70
0
 71
3
 72
9
 73
5
 74
0
 42
0.0000001
 43
0.0000001
 44
0.0000000001
 40
0.0
 40
0.0
 40
0.0
 40
0.0
 40
0.5087989019
 40
1.0
 40
1.0
 40
1.0
 40
1.0
 10
153.7931410181
 20
93.349764117
 30
0.0
 10
153.9529381132
 20
93.6702309205
 30
0.0
 10
154.2378977778
 20
94.3153384627
 30
0.0
 10
154.4412126621
 20
94.991932135
 30
0.0
 10
154.5148288546
 20
95.3297156283
 30
0.0
  0
SPLINE
  5
4C3
100
AcDbEntity
  8
0
100
AcDbSpline
 62
7
  6
CONTINUOUS
 70
0
 71
3
 72
10
 73
6
 74
0
 42
0.0000001
 43
0.0000001
 44
0.0000000001
 40
0.0
 40
0.0
 40
0.0
 40
0.0
 40
0.2651210908
 40
0.5253429254
 40
1.0
 40
1.0
 40
1.0
 40
1.0
 10
153.3601283162
 20
93.5845378945
 30
0.0
 10
153.4044091586
 20
93.579612235
 30
0.0
 10
153.4915021088
 20
93.5611036728
 30
0.0
 10
153.6468030325
 20
93.4961079753
 30
0.0
 10
153.746841412
 20
93.4147185846
 30
0.0
 10
153.7931410181
 20
93.349764117
 30
0.0
  0
SPLINE
  5
4C4
100
AcDbEntity
  8
0
100
AcDbSpline
 62
7
  6
CONTINUOUS
 70
0
 71
3
 72
11
 73
7
 74
0
 42
0.0000001
 43
0.0000001
 44
0.0000000001
 40
0.0
 40
0.0
 40
0.0
 40
0.0
 40
0.2516788655
 40
0.4999942207
 40
0.7483199675
 40
1.0
 40
1.0
 40
1.0
 40
1.0
 10
154.0818161527
 20
95.5744743414
 30
0.0
 10
154.1292690585
 20
95.7872299741
 30
0.0
 10
154.2330985314
 20
96.2073750376
 30
0.0
 10
154.3128509627
 20
96.8553364632
 30
0.0
 10
154.2331585462
 20
97.5033134792
 30
0.0
 10
154.1292588704
 20
97.9234530927
 30
0.0
 10
154.0818161527
 20
98.1362120329
 30
0.0
  0
SPLINE
  5
4C5
100
AcDbEntity
  8
0
100
AcDbSpline
 62
7
  6
CONTINUOUS
 70
0
 71
3
 72
11
 73
7
 74
0
 42
0.0000001
 43
0.0000001
 44
0.0000000001
 40
0.0
 40
0.0
 40
0.0
 40
0.0
 40
0.2820010103
 40
0.5426858422
 40
0.7817347943
 40
1.0
 40
1.0
 40
1.0
 40
1.0
 10
154.5148288546
 20
95.3297156283
 30
0.0
 10
154.538200585
 20
95.5748190476
 30
0.0
 10
154.588925881
 20
96.045818879
 30
0.0
 10
154.6297278492
 20
96.7280977299
 30
0.0
 10
154.5946670538
 20
97.3552885383
 30
0.0
 10
154.5402395288
 20
97.7509223074
 30
0.0
 10
154.5148288546
 20
97.9397879932
 30
0.0
  0
SPLINE
  5
4C6
100
AcDbEntity
  8
0
100
AcDbSpline
 62
7
  6
CONTINUOUS
 70
0
 71
3
 72
9
 73
5
 74
0
 42
0.0000001
 43
0.0000001
 44
0.0000000001
 40
0.0
 40
0.0
 40
0.0
 40
0.0
 40
0.5107256453
 40
1.0
 40
1.0
 40
1.0
 40
1.0
 10
154.0818161527
 20
95.5744744312
 30
0.0
 10
154.1687663071
 20
95.569621472
 30
0.0
 10
154.3390352442
 20
95.5211706447
 30
0.0
 10
154.47068558
 20
95.4005080588
 30
0.0
 10
154.5148285742
 20
95.3297155064
 30
0.0
  0
SPLINE
  5
4C7
100
AcDbEntity
  8
0
100
AcDbSpline
 62
7
  6
CONTINUOUS
 70
0
 71
3
 72
10
 73
6
 74
0
 42
0.0000001
 43
0.0000001
 44
0.0000000001
 40
0.0
 40
0.0
 40
0.0
 40
0.0
 40
0.5159424852
 40
0.7626830394
 40
1.0
 40
1.0
 40
1.0
 40
1.0
 10
154.0818161527
 20
98.1362120338
 30
0.0
 10
154.1666294936
 20
98.1409456422
 30
0.0
 10
154.2969217317
 20
98.1192089534
 30
0.0
 10
154.4382564827
 20
98.0319505564
 30
0.0
 10
154.4930761255
 20
97.9722448818
 30
0.0
 10
154.5148288556
 20
97.9397879937
 30
0.0
  0
SPLINE
  5
4C8
100
AcDbEntity
  8
0
100
AcDbSpline
 62
7
  6
CONTINUOUS
 70
0
 71
3
 72
9
 73
5
 74
0
 42
0.0000001
 43
0.0000001
 44
0.0000000001
 40
0.0
 40
0.0
 40
0.0
 40
0.0
 40
0.4911580092
 40
1.0
 40
1.0
 40
1.0
 40
1.0
 10
154.0818161527
 20
98.1362120329
 30
0.0
 10
154.0058332119
 20
98.4765626594
 30
0.0
 10
153.7940440773
 20
99.1573925732
 30
0.0
 10
153.4967026973
 20
99.8038258243
 30
0.0
 10
153.3303184454
 20
100.1245173948
 30
0.0
  0
SPLINE
  5
4C9
100
AcDbEntity
  8
0
100
AcDbSpline
 62
7
  6
CONTINUOUS
 70
0
 71
3
 72
11
 73
7
 74
0
 42
0.0000001
 43
0.0000001
 44
0.0000000001
 40
0.0
 40
0.0
 40
0.0
 40
0.0
 40
0.2544545197
 40
0.505836072
 40
0.7540744736
 40
1.0
 40
1.0
 40
1.0
 40
1.0
 10
153.3601283162
 20
100.1246601818
 30
0.0
 10
153.4040402873
 20
100.1250873815
 30
0.0
 10
153.4918562299
 20
100.1144487719
 30
0.0
 10
153.6140613336
 20
100.0656705185
 30
0.0
 10
153.7181658995
 20
99.9876356643
 30
0.0
 10
153.771566245
 20
99.919664592
 30
0.0
 10
153.7931410181
 20
99.883115153
 30
0.0
  0
SPLINE
  5
4CA
100
AcDbEntity
  8
0
100
AcDbSpline
 62
7
  6
CONTINUOUS
 70
0
 71
3
 72
9
 73
5
 74
0
 42
0.0000001
 43
0.0000001
 44
0.0000000001
 40
0.0
 40
0.0
 40
0.0
 40
0.0
 40
0.492055663
 40
1.0
 40
1.0
 40
1.0
 40
1.0
 10
154.5148288546
 20
97.9397879932
 30
0.0
 10
154.4414312965
 20
98.2724919492
 30
0.0
 10
154.238567953
 20
98.937417532
 30
0.0
 10
153.953039702
 20
99.569859587
 30
0.0
 10
153.7931410181
 20
99.883115153
 30
0.0
  0
SPLINE
  5
4CB
100
AcDbEntity
  8
GEOM
100
AcDbSpline
 62
7
  6
CONTINUOUS
 70
0
 71
3
 72
9
 73
5
 74
0
 42
0.0000001
 43
0.0000001
 44
0.0000000001
 40
0.0
 40
0.0
 40
0.0
 40
0.0
 40
0.3254009542
 40
1.0
 40
1.0
 40
1.0
 40
1.0
 10
140.8488751858
 20
73.2769162415
 30
0.0
 10
140.8497122716
 20
73.2753099583
 30
0.0
 10
140.8524371264
 20
73.270566099
 30
0.0
 10
140.8562499035
 20
73.2657530085
 30
0.0
 10
140.8597777319
 20
73.2644664836
 30
0.0
  0
SPLINE
  5
4CC
100
AcDbEntity
  8
GEOM
100
AcDbSpline
 62
7
  6
CONTINUOUS
 70
0
 71
3
 72
8
 73
4
 74
0
 42
0.0000001
 43
0.0000001
 44
0.0000000001
 40
0.0
 40
0.0
 40
0.0
 40
0.0
 40
1.0
 40
1.0
 40
1.0
 40
1.0
 10
140.8597777319
 20
73.2644664836
 30
0.0
 10
140.8605916661
 20
73.2641696589
 30
0.0
 10
140.8614683066
 20
73.2640002361
 30
0.0
 10
140.8623346748
 20
73.2640002361
 30
0.0
  0
SPLINE
  5
4CD
100
AcDbEntity
  8
GEOM
100
AcDbSpline
 62
7
  6
CONTINUOUS
 70
0
 71
3
 72
9
 73
5
 74
0
 42
0.0000001
 43
0.0000001
 44
0.0000000001
 40
0.0
 40
0.0
 40
0.0
 40
0.0
 40
0.2917320806
 40
1.0
 40
1.0
 40
1.0
 40
1.0
 10
139.5154296702
 20
73.2769133052
 30
0.0
 10
139.5149101778
 20
73.2759153671
 30
0.0
 10
139.513048241
 20
73.2725454888
 30
0.0
 10
139.5108304018
 20
73.2693173416
 30
0.0
 10
139.5088858652
 20
73.2673991627
 30
0.0
  0
SPLINE
  5
4CE
100
AcDbEntity
  8
GEOM
100
AcDbSpline
 62
7
  6
CONTINUOUS
 70
0
 71
3
 72
9
 73
5
 74
0
 42
0.0000001
 43
0.0000001
 44
0.0000000001
 40
0.0
 40
0.0
 40
0.0
 40
0.0
 40
0.2923183011
 40
1.0
 40
1.0
 40
1.0
 40
1.0
 10
139.5088858652
 20
73.2673991627
 30
0.0
 10
139.5083459532
 20
73.2668665691
 30
0.0
 10
139.5064201538
 20
73.2651523724
 30
0.0
 10
139.5038341856
 20
73.2640002361
 30
0.0
 10
139.5019981691
 20
73.2640002361
 30
0.0
  0
SPLINE
  5
4CF
100
AcDbEntity
  8
GEOM
100
AcDbSpline
 62
7
  6
CONTINUOUS
 70
0
 71
3
 72
9
 73
5
 74
0
 42
0.0000001
 43
0.0000001
 44
0.0000000001
 40
0.0
 40
0.0
 40
0.0
 40
0.0
 40
0.4116232709
 40
1.0
 40
1.0
 40
1.0
 40
1.0
 10
142.069994931
 20
74.4162755778
 30
0.0
 10
142.0659860392
 20
74.4239631504
 30
0.0
 10
142.0588613935
 20
74.4439241543
 30
0.0
 10
142.0536587769
 20
74.4643201497
 30
0.0
 10
142.050897789
 20
74.4764017205
 30
0.0
  0
SPLINE
  5
4D0
100
AcDbEntity
  8
GEOM
100
AcDbSpline
 62
7
  6
CONTINUOUS
 70
0
 71
3
 72
46
 73
42
 74
0
 42
0.0000001
 43
0.0000001
 44
0.0000000001
 40
0.0
 40
0.0
 40
0.0
 40
0.0
 40
0.0034538451
 40
0.008030262
 40
0.0205311061
 40
0.0374076702
 40
0.0585142296
 40
0.0836594958
 40
0.1126131053
 40
0.1451115422
 40
0.1808542946
 40
0.2607342746
 40
0.3493188966
 40
0.44335295
 40
0.5393801746
 40
0.6338705332
 40
0.6794485943
 40
0.7233510062
 40
0.7651746324
 40
0.8045335674
 40
0.8410657985
 40
0.8744362323
 40
0.9043364176
 40
0.9178993729
 40
0.9304941709
 40
0.9420925505
 40
0.9526692124
 40
0.9621990931
 40
0.9706604126
 40
0.9780361696
 40
0.9843101972
 40
0.9894690062
 40
0.9916282297
 40
0.9935068398
 40
0.9951050247
 40
0.9964238267
 40
0.9974660982
 40
0.9982395169
 40
0.9987648938
 40
0.9991112481
 40
1.0
 40
1.0
 40
1.0
 40
1.0
 10
142.050897789
 20
74.4764017205
 30
0.0
 10
142.0453827833
 20
74.5005343628
 30
0.0
 10
142.03517341
 20
74.5572246648
 30
0.0
 10
142.0150438072
 20
74.703002619
 30
0.0
 10
141.9915685432
 20
74.9453056268
 30
0.0
 10
141.9646740211
 20
75.3061346697
 30
0.0
 10
141.9376137739
 20
75.7578041777
 30
0.0
 10
141.9103202323
 20
76.2961355567
 30
0.0
 10
141.8829380534
 20
76.9162055605
 30
0.0
 10
141.8554808027
 20
77.6122913945
 30
0.0
 10
141.8173868164
 20
78.6732403899
 30
0.0
 10
141.7708105378
 20
80.1361221603
 30
0.0
 10
141.7165168633
 20
82.0167497816
 30
0.0
 10
141.6621141229
 20
84.0131517628
 30
0.0
 10
141.6076634168
 20
86.0518955009
 30
0.0
 10
141.5617857688
 20
87.7434453889
 30
0.0
 10
141.5245564799
 20
89.0614965818
 30
0.0
 10
141.4969792192
 20
90.0021903677
 30
0.0
 10
141.4694188104
 20
90.8982903145
 30
0.0
 10
141.4418789293
 20
91.7415402153
 30
0.0
 10
141.4143690701
 20
92.5241701573
 30
0.0
 10
141.3869004385
 20
93.2389623609
 30
0.0
 10
141.3633595426
 20
93.7891521694
 30
0.0
 10
141.3443161304
 20
94.1904861574
 30
0.0
 10
141.3305087794
 20
94.4607444448
 30
0.0
 10
141.3167115665
 20
94.7095695144
 30
0.0
 10
141.3029292167
 20
94.9363915785
 30
0.0
 10
141.2891653733
 20
95.140685189
 30
0.0
 10
141.2754240402
 20
95.321980626
 30
0.0
 10
141.2617252625
 20
95.479869347
 30
0.0
 10
141.2480781102
 20
95.6139891119
 30
0.0
 10
141.2361913575
 20
95.7106934619
 30
0.0
 10
141.2264389874
 20
95.7758881386
 30
0.0
 10
141.2195773555
 20
95.8156984793
 30
0.0
 10
141.2127570253
 20
95.84939908
 30
0.0
 10
141.2059344945
 20
95.8769412243
 30
0.0
 10
141.1992829596
 20
95.8984558942
 30
0.0
 10
141.1924359901
 20
95.9137705626
 30
0.0
 10
141.1861587692
 20
95.923931668
 30
0.0
 10
141.173284288
 20
95.9298415937
 30
0.0
 10
141.1666102875
 20
95.9193135259
 30
0.0
 10
141.1635724246
 20
95.9137146126
 30
0.0
  0
SPLINE
  5
4D1
100
AcDbEntity
  8
GEOM
100
AcDbSpline
 62
7
  6
CONTINUOUS
 70
0
 71
3
 72
11
 73
7
 74
0
 42
0.0000001
 43
0.0000001
 44
0.0000000001
 40
0.0
 40
0.0
 40
0.0
 40
0.0
 40
0.1429770447
 40
0.3332979936
 40
0.6147813755
 40
1.0
 40
1.0
 40
1.0
 40
1.0
 10
132.3947985065
 20
98.3665748104
 30
0.0
 10
132.3923735094
 20
98.366621052
 30
0.0
 10
132.3865905204
 20
98.3640391383
 30
0.0
 10
132.3821885065
 20
98.3540710535
 30
0.0
 10
132.3796171169
 20
98.3398263844
 30
0.0
 10
132.3792316627
 20
98.3284538458
 30
0.0
 10
132.3792315999
 20
98.3219190634
 30
0.0
  0
SPLINE
  5
4D2
100
AcDbEntity
  8
GEOM
100
AcDbSpline
 62
7
  6
CONTINUOUS
 70
0
 71
3
 72
9
 73
5
 74
0
 42
0.0000001
 43
0.0000001
 44
0.0000000001
 40
0.0
 40
0.0
 40
0.0
 40
0.0
 40
0.1949175533
 40
1.0
 40
1.0
 40
1.0
 40
1.0
 10
143.8839924147
 20
74.4180902428
 30
0.0
 10
143.8826255933
 20
74.420712474
 30
0.0
 10
143.8763687168
 20
74.4345558295
 30
0.0
 10
143.8721587445
 20
74.4492134479
 30
0.0
 10
143.8690796072
 20
74.4610327776
 30
0.0
  0
SPLINE
  5
4D3
100
AcDbEntity
  8
GEOM
100
AcDbSpline
 62
7
  6
CONTINUOUS
 70
0
 71
3
 72
47
 73
43
 74
0
 42
0.0000001
 43
0.0000001
 44
0.0000000001
 40
0.0
 40
0.0
 40
0.0
 40
0.0
 40
0.0031296436
 40
0.0073907005
 40
0.0192956404
 40
0.0356294913
 40
0.0562511732
 40
0.0809726926
 40
0.1095655558
 40
0.1417673621
 40
0.177277743
 40
0.2568814645
 40
0.34542647
 40
0.4396296805
 40
0.535997312
 40
0.630954782
 40
0.6767987874
 40
0.72098038
 40
0.7630900192
 40
0.8027360664
 40
0.8395499683
 40
0.8731914225
 40
0.9033465976
 40
0.9170293978
 40
0.9297380024
 40
0.9414442627
 40
0.952121888
 40
0.9617450029
 40
0.9702922784
 40
0.9777459833
 40
0.9840890035
 40
0.9893083196
 40
0.9914945714
 40
0.9933978944
 40
0.9950183434
 40
0.9963568125
 40
0.997416196
 40
0.9982041903
 40
0.9987408149
 40
0.9990924406
 40
0.9994505098
 40
1.0
 40
1.0
 40
1.0
 40
1.0
 10
143.8690796072
 20
74.4610327776
 30
0.0
 10
143.8634209145
 20
74.4827537823
 30
0.0
 10
143.8531255242
 20
74.5348191674
 30
0.0
 10
143.8328018049
 20
74.671712178
 30
0.0
 10
143.8093103818
 20
74.9037195172
 30
0.0
 10
143.7823365659
 20
75.2530982953
 30
0.0
 10
143.7552042748
 20
75.6946404555
 30
0.0
 10
143.7278052447
 20
76.2242070298
 30
0.0
 10
143.7003147323
 20
76.8369230008
 30
0.0
 10
143.6727421597
 20
77.5270797397
 30
0.0
 10
143.6344439342
 20
78.5829461833
 30
0.0
 10
143.5876450944
 20
80.042857207
 30
0.0
 10
143.5331247898
 20
81.9236725685
 30
0.0
 10
143.4784893978
 20
83.9247635697
 30
0.0
 10
143.4238016317
 20
85.9718598547
 30
0.0
 10
143.3777351285
 20
87.6722278258
 30
0.0
 10
143.3403495632
 20
88.9984112031
 30
0.0
 10
143.3126482139
 20
89.9456886106
 30
0.0
 10
143.2849633453
 20
90.8484946162
 30
0.0
 10
143.2572995386
 20
91.6984336132
 30
0.0
 10
143.2296652034
 20
92.487605127
 30
0.0
 10
143.2020724379
 20
93.2086637922
 30
0.0
 10
143.1784270385
 20
93.7638506089
 30
0.0
 10
143.1592996699
 20
94.1689555833
 30
0.0
 10
143.1454292806
 20
94.4418428301
 30
0.0
 10
143.1315698191
 20
94.6931474036
 30
0.0
 10
143.1177253151
 20
94.9222870113
 30
0.0
 10
143.1038981005
 20
95.1287261189
 30
0.0
 10
143.0900943431
 20
95.311987061
 30
0.0
 10
143.0763337703
 20
95.4716524132
 30
0.0
 10
143.0626228084
 20
95.6073507621
 30
0.0
 10
143.0506826053
 20
95.7052447747
 30
0.0
 10
143.0408882354
 20
95.7712906554
 30
0.0
 10
143.0339956753
 20
95.8116626259
 30
0.0
 10
143.0271422279
 20
95.8458634146
 30
0.0
 10
143.0202920146
 20
95.8738645383
 30
0.0
 10
143.013595315
 20
95.8957389314
 30
0.0
 10
143.006744639
 20
95.9114595154
 30
0.0
 10
143.0003918607
 20
95.9217218054
 30
0.0
 10
142.9915885199
 20
95.92647442
 30
0.0
 10
142.9829263598
 20
95.9212604544
 30
0.0
 10
142.9796359517
 20
95.9156673026
 30
0.0
 10
142.977739519
 20
95.9122126177
 30
0.0
  0
SPLINE
  5
4D4
100
AcDbEntity
  8
GEOM
100
AcDbSpline
 62
7
  6
CONTINUOUS
 70
0
 71
3
 72
9
 73
5
 74
0
 42
0.0000001
 43
0.0000001
 44
0.0000000001
 40
0.0
 40
0.0
 40
0.0
 40
0.0
 40
0.4390189253
 40
1.0
 40
1.0
 40
1.0
 40
1.0
 10
132.3792315999
 20
97.7390606158
 30
0.0
 10
132.3792316703
 20
97.7162851169
 30
0.0
 10
132.3829423368
 20
97.6644344385
 30
0.0
 10
132.3901387235
 20
97.613045409
 30
0.0
 10
132.3947985065
 20
97.5843182103
 30
0.0
  0
SPLINE
  5
4D5
100
AcDbEntity
  8
GEOM
100
AcDbSpline
 62
7
  6
CONTINUOUS
 70
0
 71
3
 72
11
 73
7
 74
0
 42
0.0000001
 43
0.0000001
 44
0.0000000001
 40
0.0
 40
0.0
 40
0.0
 40
0.0
 40
0.2508595681
 40
0.5005940079
 40
0.7500110422
 40
1.0
 40
1.0
 40
1.0
 40
1.0
 10
132.3947985065
 20
97.5843182103
 30
0.0
 10
132.477754356
 20
97.0729008291
 30
0.0
 10
132.6072916441
 20
96.045981125
 30
0.0
 10
132.6745900611
 20
94.4965861537
 30
0.0
 10
132.6074459804
 20
92.948976625
 30
0.0
 10
132.4778212287
 20
91.9245271125
 30
0.0
 10
132.3947985065
 20
91.4149422832
 30
0.0
  0
SPLINE
  5
4D6
100
AcDbEntity
  8
GEOM
100
AcDbSpline
 62
7
  6
CONTINUOUS
 70
0
 71
3
 72
9
 73
5
 74
0
 42
0.0000001
 43
0.0000001
 44
0.0000000001
 40
0.0
 40
0.0
 40
0.0
 40
0.0
 40
0.22714301
 40
1.0
 40
1.0
 40
1.0
 40
1.0
 10
132.3947985065
 20
91.4149422832
 30
0.0
 10
132.392137269
 20
91.3986074485
 30
0.0
 10
132.3823553129
 20
91.3263789748
 30
0.0
 10
132.379231799
 20
91.25335937
 30
0.0
 10
132.3792315999
 20
91.1970471147
 30
0.0
  0
SPLINE
  5
4D7
100
AcDbEntity
  8
GEOM
100
AcDbSpline
 62
7
  6
CONTINUOUS
 70
0
 71
3
 72
9
 73
5
 74
0
 42
0.0000001
 43
0.0000001
 44
0.0000000001
 40
0.0
 40
0.0
 40
0.0
 40
0.0
 40
0.2437389093
 40
1.0
 40
1.0
 40
1.0
 40
1.0
 10
132.3792315999
 20
89.7899023453
 30
0.0
 10
132.3792316303
 20
89.7684504581
 30
0.0
 10
132.3806196011
 20
89.6804421971
 30
0.0
 10
132.3871974804
 20
89.592532213
 30
0.0
 10
132.3947985065
 20
89.5264077898
 30
0.0
  0
SPLINE
  5
4D8
100
AcDbEntity
  8
GEOM
100
AcDbSpline
 62
7
  6
CONTINUOUS
 70
0
 71
3
 72
9
 73
5
 74
0
 42
0.0000001
 43
0.0000001
 44
0.0000000001
 40
0.0
 40
0.0
 40
0.0
 40
0.0
 40
0.2546175689
 40
1.0
 40
1.0
 40
1.0
 40
1.0
 10
138.1068299872
 20
89.5585991939
 30
0.0
 10
138.1042575678
 20
89.5725122562
 30
0.0
 10
138.095324629
 20
89.6273594328
 30
0.0
 10
138.0910684239
 20
89.6830128709
 30
0.0
 10
138.0910684239
 20
89.7244331168
 30
0.0
  0
SPLINE
  5
4D9
100
AcDbEntity
  8
GEOM
100
AcDbSpline
 62
7
  6
CONTINUOUS
 70
0
 71
3
 72
9
 73
5
 74
0
 42
0.0000001
 43
0.0000001
 44
0.0000000001
 40
0.0
 40
0.0
 40
0.0
 40
0.0
 40
0.2438165237
 40
1.0
 40
1.0
 40
1.0
 40
1.0
 10
132.6611393862
 20
89.7244331168
 30
0.0
 10
132.66113942
 20
89.7108857269
 30
0.0
 10
132.6625340146
 20
89.6553266212
 30
0.0
 10
132.6691554032
 20
89.599931612
 30
0.0
 10
132.6767062927
 20
89.5585991939
 30
0.0
  0
SPLINE
  5
4DA
100
AcDbEntity
  8
GEOM
100
AcDbSpline
 62
7
  6
CONTINUOUS
 70
0
 71
3
 72
31
 73
27
 74
0
 42
0.0000001
 43
0.0000001
 44
0.0000000001
 40
0.0
 40
0.0
 40
0.0
 40
0.0
 40
0.0006361396
 40
0.0011417944
 40
0.0017989697
 40
0.0035938491
 40
0.0060485386
 40
0.0129632058
 40
0.0225499144
 40
0.0347812589
 40
0.0496175991
 40
0.0670010547
 40
0.0868687714
 40
0.1091436426
 40
0.1337403724
 40
0.1605660659
 40
0.1895155138
 40
0.2533377643
 40
0.3242236651
 40
0.4010817395
 40
0.4827271038
 40
0.5679014111
 40
0.6552935862
 40
0.743555665
 40
0.8313253782
 40
1.0
 40
1.0
 40
1.0
 40
1.0
 10
143.5847511377
 20
97.0640002361
 30
0.0
 10
143.5883026947
 20
97.0640002361
 30
0.0
 10
143.593850018
 20
97.0589218734
 30
0.0
 10
143.5987161361
 20
97.0504546968
 30
0.0
 10
143.6053850478
 20
97.0351711239
 30
0.0
 10
143.6129649799
 20
97.0088633119
 30
0.0
 10
143.6261755364
 20
96.9478887696
 30
0.0
 10
143.6412892134
 20
96.8430773204
 30
0.0
 10
143.6587006753
 20
96.6836059939
 30
0.0
 10
143.6761866189
 20
96.4796962195
 30
0.0
 10
143.6938578587
 20
96.2321530576
 30
0.0
 10
143.7115899818
 20
95.9418859059
 30
0.0
 10
143.7293742633
 20
95.6100271954
 30
0.0
 10
143.7471906942
 20
95.2378472289
 30
0.0
 10
143.7650315252
 20
94.8267823863
 30
0.0
 10
143.7828886926
 20
94.378422239
 30
0.0
 10
143.8075256082
 20
93.7111659141
 30
0.0
 10
143.8379140793
 20
92.7979709152
 30
0.0
 10
143.8733960313
 20
91.6173320254
 30
0.0
 10
143.9089340305
 20
90.337147457
 30
0.0
 10
143.9445139272
 20
88.9771635961
 30
0.0
 10
143.980118747
 20
87.5583495522
 30
0.0
 10
144.0157392116
 20
86.1025836908
 30
0.0
 10
144.0513627331
 20
84.6323234845
 30
0.0
 10
144.0982486791
 20
82.7084046668
 30
0.0
 10
144.1341656894
 20
81.277129532
 30
0.0
 10
144.1591669819
 20
80.3357538327
 30
0.0
  0
SPLINE
  5
4DB
100
AcDbEntity
  8
GEOM
100
AcDbSpline
 62
7
  6
CONTINUOUS
 70
0
 71
3
 72
15
 73
11
 74
0
 42
0.0000001
 43
0.0000001
 44
0.0000000001
 40
0.0
 40
0.0
 40
0.0
 40
0.0
 40
0.3952945108
 40
0.5573055379
 40
0.695053604
 40
0.8082950677
 40
0.8968277683
 40
0.9605898357
 40
0.9832809389
 40
1.0
 40
1.0
 40
1.0
 40
1.0
 10
144.1591661573
 20
95.9729445881
 30
0.0
 10
144.1508852438
 20
96.1157773301
 30
0.0
 10
144.1382379008
 20
96.3171019064
 30
0.0
 10
144.1186201079
 20
96.567910204
 30
0.0
 10
144.104945006
 20
96.716765819
 30
0.0
 10
144.0914063448
 20
96.8389278091
 30
0.0
 10
144.0779555263
 20
96.9340789703
 30
0.0
 10
144.0661894779
 20
96.9964132589
 30
0.0
 10
144.0560240526
 20
97.032351715
 30
0.0
 10
144.0508628824
 20
97.0457182069
 30
0.0
 10
144.0480688981
 20
97.0510858591
 30
0.0
  0
SPLINE
  5
4DC
100
AcDbEntity
  8
GEOM
100
AcDbSpline
 62
7
  6
CONTINUOUS
 70
0
 71
3
 72
9
 73
5
 74
0
 42
0.0000001
 43
0.0000001
 44
0.0000000001
 40
0.0
 40
0.0
 40
0.0
 40
0.0
 40
0.2284227121
 40
1.0
 40
1.0
 40
1.0
 40
1.0
 10
138.1068299872
 20
91.2489376678
 30
0.0
 10
138.1041643055
 20
91.2387429726
 30
0.0
 10
138.0943223451
 20
91.1936351514
 30
0.0
 10
138.0910684239
 20
91.1472567996
 30
0.0
 10
138.0910684239
 20
91.1116629203
 30
0.0
  0
SPLINE
  5
4DD
100
AcDbEntity
  8
GEOM
100
AcDbSpline
 62
7
  6
CONTINUOUS
 70
0
 71
3
 72
9
 73
5
 74
0
 42
0.0000001
 43
0.0000001
 44
0.0000000001
 40
0.0
 40
0.0
 40
0.0
 40
0.0
 40
0.2284136366
 40
1.0
 40
1.0
 40
1.0
 40
1.0
 10
132.6767065733
 20
91.2489389309
 30
0.0
 10
132.674071978
 20
91.2387386043
 30
0.0
 10
132.6643440202
 20
91.1936155313
 30
0.0
 10
132.6611395417
 20
91.1472506309
 30
0.0
 10
132.6611393862
 20
91.1116629203
 30
0.0
  0
SPLINE
  5
4DE
100
AcDbEntity
  8
GEOM
100
AcDbSpline
 62
7
  6
CONTINUOUS
 70
0
 71
3
 72
9
 73
5
 74
0
 42
0.0000001
 43
0.0000001
 44
0.0000000001
 40
0.0
 40
0.0
 40
0.0
 40
0.0
 40
0.5622525641
 40
1.0
 40
1.0
 40
1.0
 40
1.0
 10
138.1068299872
 20
97.4638391152
 30
0.0
 10
138.1021506558
 20
97.4817348593
 30
0.0
 10
138.0948793136
 20
97.5138369255
 30
0.0
 10
138.0910684239
 20
97.5466876123
 30
0.0
 10
138.0910684239
 20
97.5610889506
 30
0.0
  0
SPLINE
  5
4DF
100
AcDbEntity
  8
GEOM
100
AcDbSpline
 62
7
  6
CONTINUOUS
 70
0
 71
3
 72
9
 73
5
 74
0
 42
0.0000001
 43
0.0000001
 44
0.0000000001
 40
0.0
 40
0.0
 40
0.0
 40
0.0
 40
0.4378359994
 40
1.0
 40
1.0
 40
1.0
 40
1.0
 10
132.6611393862
 20
97.5610889506
 30
0.0
 10
132.6611394645
 20
97.5466898026
 30
0.0
 10
132.6648987865
 20
97.513849291
 30
0.0
 10
132.6720816343
 20
97.4817392884
 30
0.0
 10
132.6767062927
 20
97.4638391152
 30
0.0
  0
SPLINE
  5
4E0
100
AcDbEntity
  8
GEOM
100
AcDbSpline
 62
7
  6
CONTINUOUS
 70
0
 71
3
 72
10
 73
6
 74
0
 42
0.0000001
 43
0.0000001
 44
0.0000000001
 40
0.0
 40
0.0
 40
0.0
 40
0.0
 40
0.3270742198
 40
0.6156212116
 40
1.0
 40
1.0
 40
1.0
 40
1.0
 10
139.5019981691
 20
73.2640002361
 30
0.0
 10
139.4970404289
 20
73.2640002361
 30
0.0
 10
139.4899760097
 20
73.2731725514
 30
0.0
 10
139.4840842515
 20
73.2863048869
 30
0.0
 10
139.4807083523
 20
73.2961691412
 30
0.0
 10
139.4790101421
 20
73.3017425138
 30
0.0
  0
SPLINE
  5
4E1
100
AcDbEntity
  8
GEOM
100
AcDbSpline
 62
7
  6
CONTINUOUS
 70
0
 71
3
 72
47
 73
43
 74
0
 42
0.0000001
 43
0.0000001
 44
0.0000000001
 40
0.0
 40
0.0
 40
0.0
 40
0.0
 40
0.0003272141
 40
0.0008543738
 40
0.0016408836
 40
0.0027030766
 40
0.0056744984
 40
0.0097864447
 40
0.0150353742
 40
0.0214119867
 40
0.0289048202
 40
0.037496594
 40
0.0471671525
 40
0.0578957666
 40
0.0824235715
 40
0.1108529983
 40
0.1429187475
 40
0.1783233434
 40
0.2167358011
 40
0.2577972709
 40
0.3011255266
 40
0.3463147375
 40
0.3929431572
 40
0.4887690089
 40
0.5850295203
 40
0.6781331036
 40
0.7646104912
 40
0.8043454043
 40
0.8412412252
 40
0.8749544817
 40
0.9051695777
 40
0.9316056803
 40
0.9540185358
 40
0.9636490543
 40
0.9721999679
 40
0.9796514055
 40
0.9859862266
 40
0.9911930341
 40
0.9952626627
 40
0.9981919645
 40
0.9992334705
 40
1.0
 40
1.0
 40
1.0
 40
1.0
 10
141.3150538605
 20
73.2640002361
 30
0.0
 10
141.3124558501
 20
73.2640002361
 30
0.0
 10
141.3061608472
 20
73.2682175616
 30
0.0
 10
141.2999285829
 20
73.2796262509
 30
0.0
 10
141.2930661999
 20
73.2972816489
 30
0.0
 10
141.2829771805
 20
73.3342176965
 30
0.0
 10
141.2710612244
 20
73.3978660874
 30
0.0
 10
141.2575803009
 20
73.4948496178
 30
0.0
 10
141.2439533962
 20
73.6190750817
 30
0.0
 10
141.2302166894
 20
73.7702511286
 30
0.0
 10
141.216428018
 20
73.9480592649
 30
0.0
 10
141.2025987911
 20
74.152083675
 30
0.0
 10
141.1887409293
 20
74.3818498255
 30
0.0
 10
141.1693676303
 20
74.7380354829
 30
0.0
 10
141.1455767376
 20
75.2431335039
 30
0.0
 10
141.1180291923
 20
75.9176379831
 30
0.0
 10
141.0904120538
 20
76.6785627206
 30
0.0
 10
141.0627425373
 20
77.5187951587
 30
0.0
 10
141.0350383364
 20
78.4304859669
 30
0.0
 10
141.0073081909
 20
79.4051150629
 30
0.0
 10
140.9795610258
 20
80.433570131
 30
0.0
 10
140.9518002436
 20
81.5062405339
 30
0.0
 10
140.9144357453
 20
82.9956211277
 30
0.0
 10
140.868385379
 20
84.8904060193
 30
0.0
 10
140.813603276
 20
87.1540904194
 30
0.0
 10
140.7588826262
 20
89.343529337
 30
0.0
 10
140.7122093028
 20
91.0842272332
 30
0.0
 10
140.6741722421
 20
92.3787128844
 30
0.0
 10
140.6464822767
 20
93.2543838364
 30
0.0
 10
140.6188365751
 20
94.0544300808
 30
0.0
 10
140.5912568533
 20
94.7713769676
 30
0.0
 10
140.5637591938
 20
95.3985293045
 30
0.0
 10
140.5399406353
 20
95.8622407767
 30
0.0
 10
140.5204682168
 20
96.1839645336
 30
0.0
 10
140.5066381177
 20
96.3870154607
 30
0.0
 10
140.4928540408
 20
96.5638368337
 30
0.0
 10
140.4791143488
 20
96.7140116797
 30
0.0
 10
140.4655094905
 20
96.8372366999
 30
0.0
 10
140.4519940682
 20
96.9331892918
 30
0.0
 10
140.4401727681
 20
96.9960281301
 30
0.0
 10
140.4299552961
 20
97.0322336342
 30
0.0
 10
140.4247677538
 20
97.0456887946
 30
0.0
 10
140.4219575156
 20
97.0510872143
 30
0.0
  0
SPLINE
  5
4E2
100
AcDbEntity
  8
GEOM
100
AcDbSpline
 62
7
  6
CONTINUOUS
 70
0
 71
3
 72
9
 73
5
 74
0
 42
0.0000001
 43
0.0000001
 44
0.0000000001
 40
0.0
 40
0.0
 40
0.0
 40
0.0
 40
0.2929773328
 40
1.0
 40
1.0
 40
1.0
 40
1.0
 10
140.8393227017
 20
73.3017425138
 30
0.0
 10
140.8400810978
 20
73.2992561164
 30
0.0
 10
140.8427934624
 20
73.29081413
 30
0.0
 10
140.8459760849
 20
73.2824793237
 30
0.0
 10
140.8488751858
 20
73.2769162415
 30
0.0
  0
SPLINE
  5
4E3
100
AcDbEntity
  8
GEOM
100
AcDbSpline
 62
7
  6
CONTINUOUS
 70
0
 71
3
 72
47
 73
43
 74
0
 42
0.0000001
 43
0.0000001
 44
0.0000000001
 40
0.0
 40
0.0
 40
0.0
 40
0.0
 40
0.000327213
 40
0.0008543663
 40
0.0016408645
 40
0.0027030404
 40
0.0056744121
 40
0.0097862447
 40
0.0150349663
 40
0.0214113241
 40
0.0289037876
 40
0.0374950025
 40
0.0471650823
 40
0.0578933783
 40
0.0824203664
 40
0.1108494172
 40
0.1429150909
 40
0.1783197948
 40
0.2167328112
 40
0.2577944497
 40
0.3011221615
 40
0.3463111784
 40
0.3929398733
 40
0.4887663511
 40
0.5850264131
 40
0.6781295379
 40
0.7646076128
 40
0.8043421052
 40
0.8412375552
 40
0.8749507022
 40
0.9051662293
 40
0.9316028363
 40
0.9540164834
 40
0.9636474924
 40
0.9721989644
 40
0.9796507636
 40
0.9859858382
 40
0.9911928501
 40
0.9952625874
 40
0.9981919375
 40
0.9992334596
 40
1.0
 40
1.0
 40
1.0
 40
1.0
 10
143.1281095518
 20
73.2640002361
 30
0.0
 10
143.1255115507
 20
73.2640002361
 30
0.0
 10
143.1192165743
 20
73.2682174545
 30
0.0
 10
143.1129842907
 20
73.2796259784
 30
0.0
 10
143.1061219425
 20
73.2972810854
 30
0.0
 10
143.0960329941
 20
73.3342165084
 30
0.0
 10
143.0841173163
 20
73.3978634904
 30
0.0
 10
143.0706367156
 20
73.4948440824
 30
0.0
 10
143.057010074
 20
73.6190649708
 30
0.0
 10
143.0432738455
 20
73.7702344218
 30
0.0
 10
143.0294856497
 20
73.9480331673
 30
0.0
 10
143.015656645
 20
74.1520463898
 30
0.0
 10
143.0017992276
 20
74.3818017834
 30
0.0
 10
142.9824266517
 20
74.7379746471
 30
0.0
 10
142.9586354252
 20
75.2430606382
 30
0.0
 10
142.9310880934
 20
75.9175550459
 30
0.0
 10
142.903470768
 20
76.6784770421
 30
0.0
 10
142.8758006922
 20
77.5187141539
 30
0.0
 10
142.8480962615
 20
78.4304115867
 30
0.0
 10
142.8203658999
 20
79.4050421283
 30
0.0
 10
142.7926187211
 20
80.4334926697
 30
0.0
 10
142.7648580312
 20
81.5061593937
 30
0.0
 10
142.7274932691
 20
82.9955455901
 30
0.0
 10
142.6814428153
 20
84.8903340581
 30
0.0
 10
142.626660777
 20
87.1540162091
 30
0.0
 10
142.5719402874
 20
89.3434533662
 30
0.0
 10
142.5252671232
 20
91.0841497322
 30
0.0
 10
142.4872303272
 20
92.3786345547
 30
0.0
 10
142.4595408358
 20
93.2542983587
 30
0.0
 10
142.4318952488
 20
94.0543442109
 30
0.0
 10
142.4043159117
 20
94.7712976722
 30
0.0
 10
142.3768180022
 20
95.3984637202
 30
0.0
 10
142.3529991099
 20
95.8621893758
 30
0.0
 10
142.3335260461
 20
96.1839277306
 30
0.0
 10
142.3196957346
 20
96.3869898678
 30
0.0
 10
142.3059111623
 20
96.5638205483
 30
0.0
 10
142.2921710025
 20
96.7140018842
 30
0.0
 10
142.2785658871
 20
96.8372314013
 30
0.0
 10
142.265050129
 20
96.9331868467
 30
0.0
 10
142.2532285677
 20
96.9960270321
 30
0.0
 10
142.2430110202
 20
97.0322331347
 30
0.0
 10
142.237823456
 20
97.0456885155
 30
0.0
 10
142.2350132069
 20
97.0510870265
 30
0.0
  0
SPLINE
  5
4E4
100
AcDbEntity
  8
GEOM
100
AcDbSpline
 62
7
  6
CONTINUOUS
 70
0
 71
3
 72
47
 73
43
 74
0
 42
0.0000001
 43
0.0000001
 44
0.0000000001
 40
0.0
 40
0.0
 40
0.0
 40
0.0
 40
0.0003274792
 40
0.0008547873
 40
0.001641375
 40
0.0027036017
 40
0.005674999
 40
0.0097867868
 40
0.0150354083
 40
0.0214116181
 40
0.02890389
 40
0.0374948738
 40
0.0471646842
 40
0.0578926743
 40
0.0824189551
 40
0.1108471861
 40
0.1429119478
 40
0.1783156696
 40
0.2167276571
 40
0.2577882367
 40
0.3011148764
 40
0.3463028296
 40
0.3929304989
 40
0.4887551502
 40
0.5850138455
 40
0.6781161884
 40
0.7645942109
 40
0.8043289904
 40
0.8412249528
 40
0.8749388458
 40
0.9051553502
 40
0.9315931687
 40
0.9540082608
 40
0.9636400827
 40
0.9721924269
 40
0.9796451599
 40
0.9859812266
 40
0.9911892898
 40
0.9952601426
 40
0.9981906763
 40
0.9992328189
 40
1.0
 40
1.0
 40
1.0
 40
1.0
 10
141.7698068291
 20
97.0640002361
 30
0.0
 10
141.7724069473
 20
97.0640002361
 30
0.0
 10
141.7787068386
 20
97.0597855186
 30
0.0
 10
141.7849475814
 20
97.0483759041
 30
0.0
 10
141.7918166147
 20
97.0307211498
 30
0.0
 10
141.8019162665
 20
96.9937869755
 30
0.0
 10
141.8138440206
 20
96.9301418857
 30
0.0
 10
141.827338614
 20
96.8331639915
 30
0.0
 10
141.8409792233
 20
96.7089467827
 30
0.0
 10
141.8547295732
 20
96.5577818898
 30
0.0
 10
141.868531919
 20
96.3799885267
 30
0.0
 10
141.882375117
 20
96.1759814777
 30
0.0
 10
141.896246754
 20
95.9462330251
 30
0.0
 10
141.9156392067
 20
95.5900709314
 30
0.0
 10
141.9394548433
 20
95.0849999296
 30
0.0
 10
141.9670304427
 20
94.4105250951
 30
0.0
 10
141.9946761081
 20
93.6496246045
 30
0.0
 10
142.0223745794
 20
92.8094104521
 30
0.0
 10
142.0501074429
 20
91.8977369726
 30
0.0
 10
142.0778662649
 20
90.9231309542
 30
0.0
 10
142.1056419166
 20
89.894705095
 30
0.0
 10
142.1334310926
 20
88.8220626938
 30
0.0
 10
142.1708342304
 20
87.332706445
 30
0.0
 10
142.2169320042
 20
85.4379499419
 30
0.0
 10
142.2717702964
 20
83.1742975077
 30
0.0
 10
142.3265469893
 20
80.9848761268
 30
0.0
 10
142.3732680018
 20
79.2441829127
 30
0.0
 10
142.4113437415
 20
77.9496914594
 30
0.0
 10
142.4390616625
 20
77.0740150305
 30
0.0
 10
142.466735639
 20
76.2739512587
 30
0.0
 10
142.4943433203
 20
75.5569745457
 30
0.0
 10
142.5218694934
 20
74.9297799606
 30
0.0
 10
142.5457127934
 20
74.4660273015
 30
0.0
 10
142.5652057223
 20
74.1442647899
 30
0.0
 10
142.5790502563
 20
73.9411824858
 30
0.0
 10
142.5928490277
 20
73.7643303722
 30
0.0
 10
142.6066033473
 20
73.6141263661
 30
0.0
 10
142.6202226364
 20
73.4908729994
 30
0.0
 10
142.6337524253
 20
73.3948924771
 30
0.0
 10
142.645586553
 20
73.3320309665
 30
0.0
 10
142.6558141871
 20
73.2958074203
 30
0.0
 10
142.6610068947
 20
73.2823433253
 30
0.0
 10
142.6638195062
 20
73.2769402991
 30
0.0
  0
SPLINE
  5
4E5
100
AcDbEntity
  8
GEOM
100
AcDbSpline
 62
7
  6
CONTINUOUS
 70
0
 71
3
 72
11
 73
7
 74
0
 42
0.0000001
 43
0.0000001
 44
0.0000000001
 40
0.0
 40
0.0
 40
0.0
 40
0.0
 40
0.1952500898
 40
0.3963619538
 40
0.6558338718
 40
1.0
 40
1.0
 40
1.0
 40
1.0
 10
138.1068299872
 20
98.1640002361
 30
0.0
 10
138.104482849
 20
98.1640002361
 30
0.0
 10
138.0995190874
 20
98.162880784
 30
0.0
 10
138.0941649613
 20
98.156555313
 30
0.0
 10
138.0915039672
 20
98.1471108763
 30
0.0
 10
138.0910684239
 20
98.1398356353
 30
0.0
 10
138.0910684239
 20
98.1356983493
 30
0.0
  0
SPLINE
  5
4E6
100
AcDbEntity
  8
GEOM
100
AcDbSpline
 62
7
  6
CONTINUOUS
 70
0
 71
3
 72
11
 73
7
 74
0
 42
0.0000001
 43
0.0000001
 44
0.0000000001
 40
0.0
 40
0.0
 40
0.0
 40
0.0
 40
0.1938275161
 40
0.3945529148
 40
0.6546117075
 40
1.0
 40
1.0
 40
1.0
 40
1.0
 10
132.6767062927
 20
98.1640002361
 30
0.0
 10
132.6743849237
 20
98.1640001906
 30
0.0
 10
132.6694604053
 20
98.1628695525
 30
0.0
 10
132.6641887512
 20
98.1565341702
 30
0.0
 10
132.6615686003
 20
98.1471052399
 30
0.0
 10
132.6611394353
 20
98.1398348811
 30
0.0
 10
132.6611393862
 20
98.1356983493
 30
0.0
  0
SPLINE
  5
4E7
100
AcDbEntity
  8
GEOM
100
AcDbSpline
 62
7
  6
CONTINUOUS
 70
0
 71
3
 72
11
 73
7
 74
0
 42
0.0000001
 43
0.0000001
 44
0.0000000001
 40
0.0
 40
0.0
 40
0.0
 40
0.0
 40
0.2499989493
 40
0.4999949655
 40
0.7499950462
 40
1.0
 40
1.0
 40
1.0
 40
1.0
 10
132.3947985065
 20
89.5264077898
 30
0.0
 10
132.4780070487
 20
88.8025429465
 30
0.0
 10
132.6075515388
 20
87.350205435
 30
0.0
 10
132.674536427
 20
85.1640324598
 30
0.0
 10
132.6075556847
 20
82.9778417517
 30
0.0
 10
132.4780087658
 20
81.5254749438
 30
0.0
 10
132.3947985065
 20
80.8015926823
 30
0.0
  0
SPLINE
  5
4E8
100
AcDbEntity
  8
GEOM
100
AcDbSpline
 62
7
  6
CONTINUOUS
 70
0
 71
3
 72
9
 73
5
 74
0
 42
0.0000001
 43
0.0000001
 44
0.0000000001
 40
0.0
 40
0.0
 40
0.0
 40
0.0
 40
0.2545711647
 40
1.0
 40
1.0
 40
1.0
 40
1.0
 10
132.3947985065
 20
80.8015926823
 30
0.0
 10
132.3922399442
 20
80.7793342234
 30
0.0
 10
132.3833870454
 20
80.6917686924
 30
0.0
 10
132.3792318216
 20
80.6037039592
 30
0.0
 10
132.3792315999
 20
80.5380981268
 30
0.0
  0
SPLINE
  5
4E9
100
AcDbEntity
  8
GEOM
100
AcDbSpline
 62
7
  6
CONTINUOUS
 70
0
 71
3
 72
9
 73
5
 74
0
 42
0.0000001
 43
0.0000001
 44
0.0000000001
 40
0.0
 40
0.0
 40
0.0
 40
0.0
 40
0.271562692
 40
1.0
 40
1.0
 40
1.0
 40
1.0
 10
132.3792315999
 20
79.1309533575
 30
0.0
 10
132.3792316293
 20
79.111167979
 30
0.0
 10
132.380410224
 20
79.03833362
 30
0.0
 10
132.3862644
 20
78.9654396646
 30
0.0
 10
132.3947985065
 20
78.913058189
 30
0.0
  0
SPLINE
  5
4EA
100
AcDbEntity
  8
GEOM
100
AcDbSpline
 62
7
  6
CONTINUOUS
 70
0
 71
3
 72
11
 73
7
 74
0
 42
0.0000001
 43
0.0000001
 44
0.0000000001
 40
0.0
 40
0.0
 40
0.0
 40
0.0
 40
0.2510768456
 40
0.5000000057
 40
0.748923164
 40
1.0
 40
1.0
 40
1.0
 40
1.0
 10
138.1068299872
 20
91.2489376678
 30
0.0
 10
138.2398682785
 20
91.7577324094
 30
0.0
 10
138.4501875652
 20
92.7866809865
 30
0.0
 10
138.5608687611
 20
94.3563884238
 30
0.0
 10
138.4501875723
 20
95.9260958429
 30
0.0
 10
138.2398682735
 20
96.955044393
 30
0.0
 10
138.1068299872
 20
97.4638391152
 30
0.0
  0
SPLINE
  5
4EB
100
AcDbEntity
  8
GEOM
100
AcDbSpline
 62
7
  6
CONTINUOUS
 70
0
 71
3
 72
11
 73
7
 74
0
 42
0.0000001
 43
0.0000001
 44
0.0000000001
 40
0.0
 40
0.0
 40
0.0
 40
0.0
 40
0.2510768456
 40
0.5000000057
 40
0.748923164
 40
1.0
 40
1.0
 40
1.0
 40
1.0
 10
138.1068299872
 20
72.864161357
 30
0.0
 10
138.2398682785
 20
73.3729560985
 30
0.0
 10
138.4501875652
 20
74.4019046757
 30
0.0
 10
138.5608687611
 20
75.9716121129
 30
0.0
 10
138.4501875723
 20
77.5413195321
 30
0.0
 10
138.2398682735
 20
78.5702680822
 30
0.0
 10
138.1068299872
 20
79.0790628043
 30
0.0
  0
SPLINE
  5
4EC
100
AcDbEntity
  8
GEOM
100
AcDbSpline
 62
7
  6
CONTINUOUS
 70
0
 71
3
 72
11
 73
7
 74
0
 42
0.0000001
 43
0.0000001
 44
0.0000000001
 40
0.0
 40
0.0
 40
0.0
 40
0.0
 40
0.2504220779
 40
0.5000047762
 40
0.7495838927
 40
1.0
 40
1.0
 40
1.0
 40
1.0
 10
132.6767062927
 20
79.0790628043
 30
0.0
 10
132.7597633146
 20
78.5647432965
 30
0.0
 10
132.8893232614
 20
77.5314335485
 30
0.0
 10
132.9564748354
 20
75.9715896023
 30
0.0
 10
132.8893275977
 20
74.4117575024
 30
0.0
 10
132.7597619711
 20
73.3784684997
 30
0.0
 10
132.6767062927
 20
72.864161357
 30
0.0
  0
SPLINE
  5
4ED
100
AcDbEntity
  8
GEOM
100
AcDbSpline
 62
7
  6
CONTINUOUS
 70
0
 71
3
 72
11
 73
7
 74
0
 42
0.0000001
 43
0.0000001
 44
0.0000000001
 40
0.0
 40
0.0
 40
0.0
 40
0.0
 40
0.2500071277
 40
0.5000000058
 40
0.7499928821
 40
1.0
 40
1.0
 40
1.0
 40
1.0
 10
138.1068299872
 20
80.7694012783
 30
0.0
 10
138.2407388884
 20
81.49365444
 30
0.0
 10
138.4509671299
 20
82.9537595215
 30
0.0
 10
138.5606370804
 20
85.164000282
 30
0.0
 10
138.4509671372
 20
87.3742410152
 30
0.0
 10
138.2407388832
 20
88.8343460603
 30
0.0
 10
138.1068299872
 20
89.5585991939
 30
0.0
  0
SPLINE
  5
4EE
100
AcDbEntity
  8
GEOM
100
AcDbSpline
 62
7
  6
CONTINUOUS
 70
0
 71
3
 72
11
 73
7
 74
0
 42
0.0000001
 43
0.0000001
 44
0.0000000001
 40
0.0
 40
0.0
 40
0.0
 40
0.0
 40
0.249999047
 40
0.4999950312
 40
0.7499950182
 40
1.0
 40
1.0
 40
1.0
 40
1.0
 10
132.6767062927
 20
89.5585991939
 30
0.0
 10
132.7599798729
 20
88.829352354
 30
0.0
 10
132.8895084529
 20
87.3662654021
 30
0.0
 10
132.9564196465
 20
85.1640323011
 30
0.0
 10
132.8895126471
 20
82.9617815278
 30
0.0
 10
132.7599813286
 20
81.4986654893
 30
0.0
 10
132.6767062927
 20
80.7694012783
 30
0.0
  0
SPLINE
  5
4EF
100
AcDbEntity
  8
GEOM
100
AcDbSpline
 62
7
  6
CONTINUOUS
 70
0
 71
3
 72
11
 73
7
 74
0
 42
0.0000001
 43
0.0000001
 44
0.0000000001
 40
0.0
 40
0.0
 40
0.0
 40
0.0
 40
0.1952500898
 40
0.3963619538
 40
0.6558338718
 40
1.0
 40
1.0
 40
1.0
 40
1.0
 10
138.1068299872
 20
72.1640002361
 30
0.0
 10
138.104482849
 20
72.1640002361
 30
0.0
 10
138.0995190874
 20
72.1651196882
 30
0.0
 10
138.0941649613
 20
72.1714451591
 30
0.0
 10
138.0915039672
 20
72.1808895959
 30
0.0
 10
138.0910684239
 20
72.1881648368
 30
0.0
 10
138.0910684239
 20
72.1923021229
 30
0.0
  0
SPLINE
  5
4F0
100
AcDbEntity
  8
GEOM
100
AcDbSpline
 62
7
  6
CONTINUOUS
 70
0
 71
3
 72
11
 73
7
 74
0
 42
0.0000001
 43
0.0000001
 44
0.0000000001
 40
0.0
 40
0.0
 40
0.0
 40
0.0
 40
0.3454475308
 40
0.6055072456
 40
0.806203011
 40
1.0
 40
1.0
 40
1.0
 40
1.0
 10
132.6611393862
 20
72.1923021229
 30
0.0
 10
132.6611394155
 20
72.188164871
 30
0.0
 10
132.6615686086
 20
72.1808937253
 30
0.0
 10
132.6641897214
 20
72.1714646191
 30
0.0
 10
132.6694614531
 20
72.165130248
 30
0.0
 10
132.6743852833
 20
72.1640002398
 30
0.0
 10
132.6767062927
 20
72.1640002361
 30
0.0
  0
SPLINE
  5
4F1
100
AcDbEntity
  8
GEOM
100
AcDbSpline
 62
7
  6
CONTINUOUS
 70
0
 71
3
 72
9
 73
5
 74
0
 42
0.0000001
 43
0.0000001
 44
0.0000000001
 40
0.0
 40
0.0
 40
0.0
 40
0.0
 40
0.5622525641
 40
1.0
 40
1.0
 40
1.0
 40
1.0
 10
138.1068299872
 20
72.864161357
 30
0.0
 10
138.1021506558
 20
72.8462656128
 30
0.0
 10
138.0948793136
 20
72.8141635467
 30
0.0
 10
138.0910684239
 20
72.7813128599
 30
0.0
 10
138.0910684239
 20
72.7669115216
 30
0.0
  0
SPLINE
  5
4F2
100
AcDbEntity
  8
GEOM
100
AcDbSpline
 62
7
  6
CONTINUOUS
 70
0
 71
3
 72
9
 73
5
 74
0
 42
0.0000001
 43
0.0000001
 44
0.0000000001
 40
0.0
 40
0.0
 40
0.0
 40
0.0
 40
0.5622334708
 40
1.0
 40
1.0
 40
1.0
 40
1.0
 10
132.6767062927
 20
72.864161357
 30
0.0
 10
132.6720822707
 20
72.846258657
 30
0.0
 10
132.6648976543
 20
72.8141490541
 30
0.0
 10
132.6611395173
 20
72.7813083869
 30
0.0
 10
132.6611393862
 20
72.7669115216
 30
0.0
  0
SPLINE
  5
4F3
100
AcDbEntity
  8
GEOM
100
AcDbSpline
 62
7
  6
CONTINUOUS
 70
0
 71
3
 72
9
 73
5
 74
0
 42
0.0000001
 43
0.0000001
 44
0.0000000001
 40
0.0
 40
0.0
 40
0.0
 40
0.0
 40
0.2284227121
 40
1.0
 40
1.0
 40
1.0
 40
1.0
 10
138.1068299872
 20
79.0790628043
 30
0.0
 10
138.1041643055
 20
79.0892574996
 30
0.0
 10
138.0943223451
 20
79.1343653208
 30
0.0
 10
138.0910684239
 20
79.1807436725
 30
0.0
 10
138.0910684239
 20
79.2163375519
 30
0.0
  0
SPLINE
  5
4F4
100
AcDbEntity
  8
GEOM
100
AcDbSpline
 62
7
  6
CONTINUOUS
 70
0
 71
3
 72
9
 73
5
 74
0
 42
0.0000001
 43
0.0000001
 44
0.0000000001
 40
0.0
 40
0.0
 40
0.0
 40
0.0
 40
0.2709955071
 40
1.0
 40
1.0
 40
1.0
 40
1.0
 10
132.6611393862
 20
79.2163375519
 30
0.0
 10
132.6611394188
 20
79.20384044
 30
0.0
 10
132.6623166415
 20
79.157757422
 30
0.0
 10
132.6682968186
 20
79.1116124797
 30
0.0
 10
132.6767062927
 20
79.0790628043
 30
0.0
  0
SPLINE
  5
4F5
100
AcDbEntity
  8
GEOM
100
AcDbSpline
 62
7
  6
CONTINUOUS
 70
0
 71
3
 72
9
 73
5
 74
0
 42
0.0000001
 43
0.0000001
 44
0.0000000001
 40
0.0
 40
0.0
 40
0.0
 40
0.0
 40
0.2546175689
 40
1.0
 40
1.0
 40
1.0
 40
1.0
 10
138.1068299872
 20
80.7694012783
 30
0.0
 10
138.1042575678
 20
80.755488216
 30
0.0
 10
138.095324629
 20
80.7006410394
 30
0.0
 10
138.0910684239
 20
80.6449876013
 30
0.0
 10
138.0910684239
 20
80.6035673553
 30
0.0
  0
SPLINE
  5
4F6
100
AcDbEntity
  8
GEOM
100
AcDbSpline
 62
7
  6
CONTINUOUS
 70
0
 71
3
 72
9
 73
5
 74
0
 42
0.0000001
 43
0.0000001
 44
0.0000000001
 40
0.0
 40
0.0
 40
0.0
 40
0.0
 40
0.2546531625
 40
1.0
 40
1.0
 40
1.0
 40
1.0
 10
132.6767062927
 20
80.7694012783
 30
0.0
 10
132.6741642229
 20
80.7554824504
 30
0.0
 10
132.6653355537
 20
80.7006254415
 30
0.0
 10
132.6611395591
 20
80.6449803767
 30
0.0
 10
132.6611393862
 20
80.6035673553
 30
0.0
  0
SPLINE
  5
4F7
100
AcDbEntity
  8
GEOM
100
AcDbSpline
 62
7
  6
CONTINUOUS
 70
0
 71
3
 72
11
 73
7
 74
0
 42
0.0000001
 43
0.0000001
 44
0.0000000001
 40
0.0
 40
0.0
 40
0.0
 40
0.0
 40
0.2146869994
 40
0.4539606758
 40
0.718480753
 40
1.0
 40
1.0
 40
1.0
 40
1.0
 10
132.3947985062
 20
72.7436822602
 30
0.0
 10
132.4051656073
 20
72.7643335112
 30
0.0
 10
132.4370937599
 20
72.8032358617
 30
0.0
 10
132.5046044865
 20
72.843258847
 30
0.0
 10
132.5871915145
 20
72.8650225817
 30
0.0
 10
132.6465038614
 20
72.8666000317
 30
0.0
 10
132.6767062922
 20
72.8641613551
 30
0.0
  0
SPLINE
  5
4F8
100
AcDbEntity
  8
GEOM
100
AcDbSpline
 62
7
  6
CONTINUOUS
 70
0
 71
3
 72
10
 73
6
 74
0
 42
0.0000001
 43
0.0000001
 44
0.0000000001
 40
0.0
 40
0.0
 40
0.0
 40
0.0
 40
0.2408399706
 40
0.4895038066
 40
1.0
 40
1.0
 40
1.0
 40
1.0
 10
132.3792315999
 20
72.5889398564
 30
0.0
 10
132.3897629062
 20
72.615027412
 30
0.0
 10
132.420433728
 20
72.6647204461
 30
0.0
 10
132.5099735529
 20
72.7417523168
 30
0.0
 10
132.6015071784
 20
72.7669115216
 30
0.0
 10
132.6611393862
 20
72.7669115216
 30
0.0
  0
SPLINE
  5
4F9
100
AcDbEntity
  8
GEOM
100
AcDbSpline
 62
7
  6
CONTINUOUS
 70
0
 71
3
 72
11
 73
7
 74
0
 42
0.0000001
 43
0.0000001
 44
0.0000000001
 40
0.0
 40
0.0
 40
0.0
 40
0.0
 40
0.2440457349
 40
0.4926227779
 40
0.7452631616
 40
1.0
 40
1.0
 40
1.0
 40
1.0
 10
132.3792315999
 20
72.0060814087
 30
0.0
 10
132.3897025213
 20
72.0332216145
 30
0.0
 10
132.4199628847
 20
72.0848723452
 30
0.0
 10
132.4869747967
 20
72.1451989226
 30
0.0
 10
132.5699547413
 20
72.1834686495
 30
0.0
 10
132.6307749662
 20
72.1923021212
 30
0.0
 10
132.6611393862
 20
72.1923021229
 30
0.0
  0
SPLINE
  5
4FA
100
AcDbEntity
  8
GEOM
100
AcDbSpline
 62
7
  6
CONTINUOUS
 70
0
 71
3
 72
9
 73
5
 74
0
 42
0.0000001
 43
0.0000001
 44
0.0000000001
 40
0.0
 40
0.0
 40
0.0
 40
0.0
 40
0.500891714
 40
1.0
 40
1.0
 40
1.0
 40
1.0
 10
132.3947985065
 20
71.9614256617
 30
0.0
 10
132.4144535579
 20
72.0190406415
 30
0.0
 10
132.4914000722
 20
72.1245695005
 30
0.0
 10
132.6160477004
 20
72.1640002361
 30
0.0
 10
132.6767062927
 20
72.1640002361
 30
0.0
  0
SPLINE
  5
4FB
100
AcDbEntity
  8
GEOM
100
AcDbSpline
 62
7
  6
CONTINUOUS
 70
0
 71
3
 72
11
 73
7
 74
0
 42
0.0000001
 43
0.0000001
 44
0.0000000001
 40
0.0
 40
0.0
 40
0.0
 40
0.0
 40
0.2504230392
 40
0.5000061631
 40
0.7495860777
 40
1.0
 40
1.0
 40
1.0
 40
1.0
 10
132.6767062927
 20
97.4638391152
 30
0.0
 10
132.7597640909
 20
96.9495177965
 30
0.0
 10
132.889329675
 20
95.916205845
 30
0.0
 10
132.9564724047
 20
94.3563571391
 30
0.0
 10
132.8893277903
 20
92.79652741
 30
0.0
 10
132.7597615954
 20
91.7632414711
 30
0.0
 10
132.6767064854
 20
91.2489389309
 30
0.0
  0
SPLINE
  5
4FC
100
AcDbEntity
  8
GEOM
100
AcDbSpline
 62
7
  6
CONTINUOUS
 70
0
 71
3
 72
11
 73
7
 74
0
 42
0.0000001
 43
0.0000001
 44
0.0000000001
 40
0.0
 40
0.0
 40
0.0
 40
0.0
 40
0.2499972207
 40
0.4994170661
 40
0.7491474505
 40
1.0
 40
1.0
 40
1.0
 40
1.0
 10
132.3947985065
 20
78.913058189
 30
0.0
 10
132.4778235169
 20
78.4034564617
 30
0.0
 10
132.6074410911
 20
77.3789830991
 30
0.0
 10
132.674592612
 20
75.831359666
 30
0.0
 10
132.6072895418
 20
74.2819816977
 30
0.0
 10
132.4777521181
 20
73.2550853016
 30
0.0
 10
132.3947985065
 20
72.7436822619
 30
0.0
  0
SPLINE
  5
4FD
100
AcDbEntity
  8
GEOM
100
AcDbSpline
 62
7
  6
CONTINUOUS
 70
0
 71
3
 72
9
 73
5
 74
0
 42
0.0000001
 43
0.0000001
 44
0.0000000001
 40
0.0
 40
0.0
 40
0.0
 40
0.0
 40
0.5610429589
 40
1.0
 40
1.0
 40
1.0
 40
1.0
 10
132.3947985065
 20
72.7436822619
 30
0.0
 10
132.3901382867
 20
72.7149518808
 30
0.0
 10
132.382941777
 20
72.6635628398
 30
0.0
 10
132.3792317677
 20
72.6117121455
 30
0.0
 10
132.3792315999
 20
72.5889398564
 30
0.0
  0
SPLINE
  5
4FE
100
AcDbEntity
  8
GEOM
100
AcDbSpline
 62
7
  6
CONTINUOUS
 70
0
 71
3
 72
11
 73
7
 74
0
 42
0.0000001
 43
0.0000001
 44
0.0000000001
 40
0.0
 40
0.0
 40
0.0
 40
0.0
 40
0.3852757002
 40
0.666755754
 40
0.8570459872
 40
1.0
 40
1.0
 40
1.0
 40
1.0
 10
132.3792315999
 20
72.0060814087
 30
0.0
 10
132.3792316263
 20
71.9995456337
 30
0.0
 10
132.3796171445
 20
71.9881720923
 30
0.0
 10
132.3821892267
 20
71.973927135
 30
0.0
 10
132.3865915546
 20
71.9639600944
 30
0.0
 10
132.3923738928
 20
71.9613793303
 30
0.0
 10
132.3947985065
 20
71.9614256617
 30
0.0
  0
SPLINE
  5
4FF
100
AcDbEntity
  8
GEOM
100
AcDbSpline
 62
7
  6
CONTINUOUS
 70
0
 71
3
 72
47
 73
43
 74
0
 42
0.0000001
 43
0.0000001
 44
0.0000000001
 40
0.0
 40
0.0
 40
0.0
 40
0.0
 40
0.0005659777
 40
0.0009344374
 40
0.0010957075
 40
0.0012785481
 40
0.0017831044
 40
0.0025302825
 40
0.0035424809
 40
0.0048275373
 40
0.0063886024
 40
0.0082269563
 40
0.0103429845
 40
0.0154072587
 40
0.0215753397
 40
0.0288338746
 40
0.0371680376
 40
0.0465612981
 40
0.0569915457
 40
0.0684350485
 40
0.0808675837
 40
0.0942605985
 40
0.123802684
 40
0.1567956442
 40
0.1929387242
 40
0.2319035207
 40
0.2733366636
 40
0.3168599679
 40
0.362078561
 40
0.4559423077
 40
0.551518924
 40
0.6453368727
 40
0.7339890806
 40
0.8142568017
 40
0.8832267662
 40
0.9126746152
 40
0.9383990676
 40
0.9601672976
 40
0.977783694
 40
0.991096575
 40
0.9961030404
 40
1.0
 40
1.0
 40
1.0
 40
1.0
 10
141.9221664912
 20
74.4159866331
 30
0.0
 10
141.9202772987
 20
74.4124024553
 30
0.0
 10
141.9169341911
 20
74.4066366865
 30
0.0
 10
141.9099712971
 20
74.4016530726
 30
0.0
 10
141.9046922901
 20
74.4022311776
 30
0.0
 10
141.8993826292
 20
74.4054184647
 30
0.0
 10
141.8933056078
 20
74.4140331487
 30
0.0
 10
141.8867140239
 20
74.4288046537
 30
0.0
 10
141.8800202216
 20
74.4496052379
 30
0.0
 10
141.8732738864
 20
74.4763874025
 30
0.0
 10
141.8664840197
 20
74.5092388835
 30
0.0
 10
141.8596682637
 20
74.5481316535
 30
0.0
 10
141.8499671083
 20
74.6119640937
 30
0.0
 10
141.8381525845
 20
74.7068004574
 30
0.0
 10
141.8245883236
 20
74.8384771259
 30
0.0
 10
141.810971716
 20
74.9936616648
 30
0.0
 10
141.7973131366
 20
75.1720056146
 30
0.0
 10
141.7836325577
 20
75.3731113568
 30
0.0
 10
141.7699319142
 20
75.5965199517
 30
0.0
 10
141.7562168516
 20
75.8417215076
 30
0.0
 10
141.7424925886
 20
76.1081620234
 30
0.0
 10
141.7235584131
 20
76.5040631812
 30
0.0
 10
141.7001551232
 20
77.0470981514
 30
0.0
 10
141.672849934
 20
77.7529657194
 30
0.0
 10
141.645504627
 20
78.5263306857
 30
0.0
 10
141.6181284008
 20
79.3601487979
 30
0.0
 10
141.5907324249
 20
80.2468246778
 30
0.0
 10
141.5633193339
 20
81.1782884394
 30
0.0
 10
141.5262958235
 20
82.4849590536
 30
0.0
 10
141.4806672819
 20
84.1641615653
 30
0.0
 10
141.4265330513
 20
86.191162513
 30
0.0
 10
141.3724339027
 20
88.1808439026
 30
0.0
 10
141.3184625869
 20
90.06089799
 30
0.0
 10
141.2646901553
 20
91.7630020446
 30
0.0
 10
141.2181753725
 20
93.0412996758
 30
0.0
 10
141.1798116279
 20
93.929156799
 30
0.0
 10
141.152655669
 20
94.4792734874
 30
0.0
 10
141.1257016994
 20
94.9445952133
 30
0.0
 10
141.0989112768
 20
95.3208822096
 30
0.0
 10
141.0754921317
 20
95.5771218051
 30
0.0
 10
141.0556059354
 20
95.734920171
 30
0.0
 10
141.0455182633
 20
95.7978833121
 30
0.0
 10
141.0401623275
 20
95.8252609848
 30
0.0
  0
SPLINE
  5
500
100
AcDbEntity
  8
GEOM
100
AcDbSpline
 62
7
  6
CONTINUOUS
 70
0
 71
3
 72
9
 73
5
 74
0
 42
0.0000001
 43
0.0000001
 44
0.0000000001
 40
0.0
 40
0.0
 40
0.0
 40
0.0
 40
0.2859121453
 40
1.0
 40
1.0
 40
1.0
 40
1.0
 10
141.0401623275
 20
95.8252609848
 30
0.0
 10
141.0390919788
 20
95.8307322333
 30
0.0
 10
141.0351966407
 20
95.8498354514
 30
0.0
 10
141.0307137675
 20
95.8688392156
 30
0.0
 10
141.0267790292
 20
95.8821955964
 30
0.0
  0
SPLINE
  5
501
100
AcDbEntity
  8
GEOM
100
AcDbSpline
 62
7
  6
CONTINUOUS
 70
0
 71
3
 72
9
 73
5
 74
0
 42
0.0000001
 43
0.0000001
 44
0.0000000001
 40
0.0
 40
0.0
 40
0.0
 40
0.0
 40
0.284106904
 40
1.0
 40
1.0
 40
1.0
 40
1.0
 10
141.0267790292
 20
95.8821955964
 30
0.0
 10
141.0260648047
 20
95.8846200156
 30
0.0
 10
141.023453707
 20
95.893122025
 30
0.0
 10
141.0204532678
 20
95.9015223575
 30
0.0
 10
141.0178617813
 20
95.9073398912
 30
0.0
  0
LINE
  5
502
100
AcDbEntity
  8
GEOM
100
AcDbLine
 62
7
  6
CONTINUOUS
 10
141.0178617813
 20
95.9073398912
 11
141.0153212449
 21
95.9126269137
  0
SPLINE
  5
503
100
AcDbEntity
  8
GEOM
100
AcDbSpline
 62
7
  6
CONTINUOUS
 70
0
 71
3
 72
46
 73
42
 74
0
 42
0.0000001
 43
0.0000001
 44
0.0000000001
 40
0.0
 40
0.0
 40
0.0
 40
0.0
 40
0.0009036056
 40
0.0012501216
 40
0.0017762266
 40
0.002553378
 40
0.0036023583
 40
0.0049305662
 40
0.0065410648
 40
0.0084351307
 40
0.0106131803
 40
0.0158202479
 40
0.0221540791
 40
0.029601015
 40
0.038146342
 40
0.0477714623
 40
0.0584530166
 40
0.0701671599
 40
0.0828880658
 40
0.0965848412
 40
0.126778062
 40
0.1604671732
 40
0.1973394169
 40
0.2370500336
 40
0.2792305435
 40
0.3234868975
 40
0.3694067224
 40
0.4645134991
 40
0.5610118998
 40
0.6553113959
 40
0.7439036908
 40
0.8234931354
 40
0.8589706966
 40
0.8911208799
 40
0.9196452319
 40
0.9442775395
 40
0.9647927496
 40
0.9810021618
 40
0.9927642592
 40
0.9969494832
 40
1.0
 40
1.0
 40
1.0
 40
1.0
 10
143.7359567042
 20
74.4174072209
 30
0.0
 10
143.7329002054
 20
74.4116910622
 30
0.0
 10
143.7263169603
 20
74.4009133175
 30
0.0
 10
143.7132195495
 20
74.4066729143
 30
0.0
 10
143.7069043865
 20
74.4168992464
 30
0.0
 10
143.7000194493
 20
74.43228474
 30
0.0
 10
143.6933297519
 20
74.4539643106
 30
0.0
 10
143.686464717
 20
74.4817286448
 30
0.0
 10
143.6796024154
 20
74.5157242303
 30
0.0
 10
143.6726982654
 20
74.5559015648
 30
0.0
 10
143.6628833702
 20
74.6217434064
 30
0.0
 10
143.6509263282
 20
74.7194410902
 30
0.0
 10
143.6371940648
 20
74.8549617979
 30
0.0
 10
143.6234092659
 20
75.0145286688
 30
0.0
 10
143.6095846934
 20
75.1977770702
 30
0.0
 10
143.5957366529
 20
75.4042853693
 30
0.0
 10
143.5818677832
 20
75.633569311
 30
0.0
 10
143.5679855852
 20
75.8850968481
 30
0.0
 10
143.5540944195
 20
76.1582837185
 30
0.0
 10
143.534932451
 20
76.5639310815
 30
0.0
 10
143.5112498942
 20
77.1199444785
 30
0.0
 10
143.4836108305
 20
77.8421814367
 30
0.0
 10
143.4559338464
 20
78.6327355427
 30
0.0
 10
143.4282244137
 20
79.4842359159
 30
0.0
 10
143.4004955083
 20
80.3887318721
 30
0.0
 10
143.3727500676
 20
81.3377889446
 30
0.0
 10
143.3353053988
 20
82.6663911063
 30
0.0
 10
143.2891693927
 20
84.3696551921
 30
0.0
 10
143.234397621
 20
86.4198642186
 30
0.0
 10
143.1796798481
 20
88.4233266183
 30
0.0
 10
143.125079692
 20
90.3054481891
 30
0.0
 10
143.0782050584
 20
91.7656537097
 30
0.0
 10
143.0398406314
 20
92.8210229351
 30
0.0
 10
143.0122258603
 20
93.5102196278
 30
0.0
 10
142.9846998603
 20
94.1215551129
 30
0.0
 10
142.9572610434
 20
94.6493288573
 30
0.0
 10
142.9301010208
 20
95.0886597409
 30
0.0
 10
142.9031001738
 20
95.4354156826
 30
0.0
 10
142.8795944689
 20
95.6650024382
 30
0.0
 10
142.8592132007
 20
95.7997525931
 30
0.0
 10
142.8488967852
 20
95.8506982262
 30
0.0
 10
142.8431926113
 20
95.8718246212
 30
0.0
  0
SPLINE
  5
504
100
AcDbEntity
  8
GEOM
100
AcDbSpline
 62
7
  6
CONTINUOUS
 70
0
 71
3
 72
9
 73
5
 74
0
 42
0.0000001
 43
0.0000001
 44
0.0000000001
 40
0.0
 40
0.0
 40
0.0
 40
0.0
 40
0.28936599
 40
1.0
 40
1.0
 40
1.0
 40
1.0
 10
142.8431926113
 20
95.8718246212
 30
0.0
 10
142.8423289992
 20
95.8750231582
 30
0.0
 10
142.8392127489
 20
95.8860361581
 30
0.0
 10
142.8355891667
 20
95.8969375023
 30
0.0
 10
142.8323543509
 20
95.9044031702
 30
0.0
  0
LINE
  5
505
100
AcDbEntity
  8
GEOM
100
AcDbLine
 62
7
  6
CONTINUOUS
 10
142.8323543509
 20
95.9044031702
 11
142.8293237462
 21
95.9108058629
  0
SPLINE
  5
506
100
AcDbEntity
  8
GEOM
100
AcDbSpline
 62
7
  6
CONTINUOUS
 70
0
 71
3
 72
9
 73
5
 74
0
 42
0.0000001
 43
0.0000001
 44
0.0000000001
 40
0.0
 40
0.0
 40
0.0
 40
0.0
 40
0.5008918466
 40
1.0
 40
1.0
 40
1.0
 40
1.0
 10
132.3947985062
 20
98.3665748104
 30
0.0
 10
132.4144535537
 20
98.3089598113
 30
0.0
 10
132.4914000843
 20
98.2034309455
 30
0.0
 10
132.6160477151
 20
98.1640002361
 30
0.0
 10
132.6767062922
 20
98.1640002361
 30
0.0
  0
SPLINE
  5
507
100
AcDbEntity
  8
GEOM
100
AcDbSpline
 62
7
  6
CONTINUOUS
 70
0
 71
3
 72
11
 73
7
 74
0
 42
0.0000001
 43
0.0000001
 44
0.0000000001
 40
0.0
 40
0.0
 40
0.0
 40
0.0
 40
0.2440457391
 40
0.4926227794
 40
0.7452631625
 40
1.0
 40
1.0
 40
1.0
 40
1.0
 10
132.3792315999
 20
98.3219190635
 30
0.0
 10
132.389702521
 20
98.2947788567
 30
0.0
 10
132.4199628829
 20
98.2431281244
 30
0.0
 10
132.4869747949
 20
98.1828015453
 30
0.0
 10
132.5699547403
 20
98.1445318192
 30
0.0
 10
132.6307749661
 20
98.1356983493
 30
0.0
 10
132.6611393862
 20
98.1356983493
 30
0.0
  0
SPLINE
  5
508
100
AcDbEntity
  8
GEOM
100
AcDbSpline
 62
7
  6
CONTINUOUS
 70
0
 71
3
 72
10
 73
6
 74
0
 42
0.0000001
 43
0.0000001
 44
0.0000000001
 40
0.0
 40
0.0
 40
0.0
 40
0.0
 40
0.2408399832
 40
0.4895038233
 40
1.0
 40
1.0
 40
1.0
 40
1.0
 10
132.3792315999
 20
97.7390606158
 30
0.0
 10
132.3897629061
 20
97.7129730583
 30
0.0
 10
132.4204337281
 20
97.6632800212
 30
0.0
 10
132.5099735524
 20
97.5862481477
 30
0.0
 10
132.6015071798
 20
97.5610889463
 30
0.0
 10
132.6611393862
 20
97.5610889505
 30
0.0
  0
SPLINE
  5
509
100
AcDbEntity
  8
GEOM
100
AcDbSpline
 62
7
  6
CONTINUOUS
 70
0
 71
3
 72
11
 73
7
 74
0
 42
0.0000001
 43
0.0000001
 44
0.0000000001
 40
0.0
 40
0.0
 40
0.0
 40
0.0
 40
0.2146870279
 40
0.4539606207
 40
0.7184807367
 40
1.0
 40
1.0
 40
1.0
 40
1.0
 10
132.3947985065
 20
97.5843182103
 30
0.0
 10
132.4051656029
 20
97.5636669503
 30
0.0
 10
132.437093723
 20
97.5247645727
 30
0.0
 10
132.5046044563
 20
97.484741572
 30
0.0
 10
132.5871914949
 20
97.4629778453
 30
0.0
 10
132.6465038579
 20
97.4614004186
 30
0.0
 10
132.6767062927
 20
97.4638391152
 30
0.0
  0
SPLINE
  5
50A
100
AcDbEntity
  8
GEOM
100
AcDbSpline
 62
7
  6
CONTINUOUS
 70
0
 71
3
 72
10
 73
6
 74
0
 42
0.0000001
 43
0.0000001
 44
0.0000000001
 40
0.0
 40
0.0
 40
0.0
 40
0.0
 40
0.4617590788
 40
0.7269599282
 40
1.0
 40
1.0
 40
1.0
 40
1.0
 10
132.3947985062
 20
91.4149422815
 30
0.0
 10
132.4167654494
 20
91.3676365352
 30
0.0
 10
132.4816618045
 20
91.3073489209
 30
0.0
 10
132.5855810837
 20
91.2631132286
 30
0.0
 10
132.6459655307
 20
91.2514198098
 30
0.0
 10
132.6767062922
 20
91.2489376659
 30
0.0
  0
SPLINE
  5
50B
100
AcDbEntity
  8
GEOM
100
AcDbSpline
 62
7
  6
CONTINUOUS
 70
0
 71
3
 72
11
 73
7
 74
0
 42
0.0000001
 43
0.0000001
 44
0.0000000001
 40
0.0
 40
0.0
 40
0.0
 40
0.0
 40
0.1854297507
 40
0.4222483003
 40
0.7002267883
 40
1.0
 40
1.0
 40
1.0
 40
1.0
 10
132.3792315998
 20
91.1970471148
 30
0.0
 10
132.3912249821
 20
91.182793683
 30
0.0
 10
132.4266107522
 20
91.1574898398
 30
0.0
 10
132.4923845291
 20
91.1318146189
 30
0.0
 10
132.5729249135
 20
91.1154145202
 30
0.0
 10
132.6310246471
 20
91.1116629204
 30
0.0
 10
132.6611393862
 20
91.1116629204
 30
0.0
  0
SPLINE
  5
50C
100
AcDbEntity
  8
GEOM
100
AcDbSpline
 62
7
  6
CONTINUOUS
 70
0
 71
3
 72
11
 73
7
 74
0
 42
0.0000001
 43
0.0000001
 44
0.0000000001
 40
0.0
 40
0.0
 40
0.0
 40
0.0
 40
0.1745870618
 40
0.4100930079
 40
0.6927267026
 40
1.0
 40
1.0
 40
1.0
 40
1.0
 10
132.3792315999
 20
89.7899023454
 30
0.0
 10
132.391867294
 20
89.7783880645
 30
0.0
 10
132.4280994207
 20
89.7591057075
 30
0.0
 10
132.4931407652
 20
89.7397206401
 30
0.0
 10
132.5732687251
 20
89.727290606
 30
0.0
 10
132.6310521586
 20
89.7244331124
 30
0.0
 10
132.6611393862
 20
89.724433117
 30
0.0
  0
SPLINE
  5
50D
100
AcDbEntity
  8
GEOM
100
AcDbSpline
 62
7
  6
CONTINUOUS
 70
0
 71
3
 72
11
 73
7
 74
0
 42
0.0000001
 43
0.0000001
 44
0.0000000001
 40
0.0
 40
0.0
 40
0.0
 40
0.0
 40
0.1745870672
 40
0.4100930304
 40
0.6927267113
 40
1.0
 40
1.0
 40
1.0
 40
1.0
 10
132.3792315999
 20
80.5380981268
 30
0.0
 10
132.391867297
 20
80.5496124047
 30
0.0
 10
132.4280994292
 20
80.5688947532
 30
0.0
 10
132.4931407729
 20
80.5882798194
 30
0.0
 10
132.5732687304
 20
80.6007098556
 30
0.0
 10
132.63105216
 20
80.6035673551
 30
0.0
 10
132.6611393862
 20
80.6035673551
 30
0.0
  0
SPLINE
  5
50E
100
AcDbEntity
  8
GEOM
100
AcDbSpline
 62
7
  6
CONTINUOUS
 70
0
 71
3
 72
11
 73
7
 74
0
 42
0.0000001
 43
0.0000001
 44
0.0000000001
 40
0.0
 40
0.0
 40
0.0
 40
0.0
 40
0.1854296997
 40
0.4222482216
 40
0.7002267528
 40
1.0
 40
1.0
 40
1.0
 40
1.0
 10
132.3792315998
 20
79.1309533574
 30
0.0
 10
132.3912249811
 20
79.1452067828
 30
0.0
 10
132.4266107436
 20
79.1705106199
 30
0.0
 10
132.4923845181
 20
79.1961858342
 30
0.0
 10
132.5729249043
 20
79.2125859391
 30
0.0
 10
132.6310246441
 20
79.2163375475
 30
0.0
 10
132.6611393862
 20
79.2163375519
 30
0.0
  0
SPLINE
  5
50F
100
AcDbEntity
  8
GEOM
100
AcDbSpline
 62
7
  6
CONTINUOUS
 70
0
 71
3
 72
10
 73
6
 74
0
 42
0.0000001
 43
0.0000001
 44
0.0000000001
 40
0.0
 40
0.0
 40
0.0
 40
0.0
 40
0.4617588139
 40
0.7269598081
 40
1.0
 40
1.0
 40
1.0
 40
1.0
 10
132.3947985065
 20
78.913058189
 30
0.0
 10
132.4167654729
 20
78.9603638835
 30
0.0
 10
132.48166182
 20
79.0206514383
 30
0.0
 10
132.5855810693
 20
79.0648871508
 30
0.0
 10
132.6459655243
 20
79.0765806313
 30
0.0
 10
132.6767062927
 20
79.0790628043
 30
0.0
  0
SPLINE
  5
510
100
AcDbEntity
  8
0
100
AcDbSpline
 62
7
  6
CONTINUOUS
 70
0
 71
3
 72
9
 73
5
 74
0
 42
0.0000001
 43
0.0000001
 44
0.0000000001
 40
0.0
 40
0.0
 40
0.0
 40
0.0
 40
0.3078084573
 40
1.0
 40
1.0
 40
1.0
 40
1.0
 10
93.7028605287
 20
73.2769340766
 30
0.0
 10
93.7035386137
 20
73.2756312004
 30
0.0
 10
93.7058681055
 20
73.2714996312
 30
0.0
 10
93.7088126856
 20
73.2674911215
 30
0.0
 10
93.7115405235
 20
73.2656287958
 30
0.0
  0
SPLINE
  5
511
100
AcDbEntity
  8
0
100
AcDbSpline
 62
7
  6
CONTINUOUS
 70
0
 71
3
 72
8
 73
4
 74
0
 42
0.0000001
 43
0.0000001
 44
0.0000000001
 40
0.0
 40
0.0
 40
0.0
 40
0.0
 40
1.0
 40
1.0
 40
1.0
 40
1.0
 10
93.7115405235
 20
73.2656287958
 30
0.0
 10
93.7129278294
 20
73.2646816663
 30
0.0
 10
93.7146296856
 20
73.2640002361
 30
0.0
 10
93.7163094689
 20
73.2640002361
 30
0.0
  0
SPLINE
  5
512
100
AcDbEntity
  8
0
100
AcDbSpline
 62
7
  6
CONTINUOUS
 70
0
 71
3
 72
39
 73
35
 74
0
 42
0.0000001
 43
0.0000001
 44
0.0000000001
 40
0.0
 40
0.0
 40
0.0
 40
0.0
 40
0.0008495204
 40
0.0016201317
 40
0.002651901
 40
0.0055229585
 40
0.0094857767
 40
0.0145406388
 40
0.0206786037
 40
0.0278885918
 40
0.0361576504
 40
0.0557948752
 40
0.0794195594
 40
0.1068209368
 40
0.1377575897
 40
0.1719505755
 40
0.2090970707
 40
0.2488626007
 40
0.2908928977
 40
0.3802239028
 40
0.4738984485
 40
0.5685689701
 40
0.6608521777
 40
0.7474505148
 40
0.8252704032
 40
0.860005741
 40
0.8915336012
 40
0.9195747719
 40
0.943878038
 40
0.9642283566
 40
0.9804483254
 40
0.9923986894
 40
0.9967453695
 40
1.0
 40
1.0
 40
1.0
 40
1.0
 10
98.3553086433
 20
74.4240002361
 30
0.0
 10
98.3492359465
 20
74.4240002361
 30
0.0
 10
98.3409357371
 20
74.4359949839
 30
0.0
 10
98.3339846296
 20
74.4524863534
 30
0.0
 10
98.323739477
 20
74.4848832634
 30
0.0
 10
98.3123106117
 20
74.5396348661
 30
0.0
 10
98.2989686233
 20
74.6237459957
 30
0.0
 10
98.2856633197
 20
74.7312171553
 30
0.0
 10
98.2721877357
 20
74.8621026975
 30
0.0
 10
98.2586795975
 20
75.016035082
 30
0.0
 10
98.2394967878
 20
75.2663322369
 30
0.0
 10
98.2161316127
 20
75.6339649373
 30
0.0
 10
98.1892490946
 20
76.138382315
 30
0.0
 10
98.1622653461
 20
76.7236652638
 30
0.0
 10
98.1352044508
 20
77.384560585
 30
0.0
 10
98.1080914439
 20
78.1151679677
 30
0.0
 10
98.0809467494
 20
78.9089259124
 30
0.0
 10
98.0537740998
 20
79.7587373543
 30
0.0
 10
98.0167687981
 20
80.9814580099
 30
0.0
 10
97.9712252321
 20
82.5894566667
 30
0.0
 10
97.9175240515
 20
84.573664921
 30
0.0
 10
97.863806536
 20
86.5789837817
 30
0.0
 10
97.8101407176
 20
88.5337025944
 30
0.0
 10
97.7565901558
 20
90.367922158
 30
0.0
 10
97.7106230674
 20
91.7908108043
 30
0.0
 10
97.6730289388
 20
92.8200873447
 30
0.0
 10
97.645952152
 20
93.4936685996
 30
0.0
 10
97.6189561353
 20
94.0926162073
 30
0.0
 10
97.5920465963
 20
94.6115706126
 30
0.0
 10
97.5653726914
 20
95.0459195579
 30
0.0
 10
97.5388719544
 20
95.3917435775
 30
0.0
 10
97.5157366671
 20
95.6231201889
 30
0.0
 10
97.4958590377
 20
95.7614695569
 30
0.0
 10
97.4857815388
 20
95.8149173075
 30
0.0
 10
97.4803086433
 20
95.837529774
 30
0.0
  0
SPLINE
  5
513
100
AcDbEntity
  8
0
100
AcDbSpline
 62
7
  6
CONTINUOUS
 70
0
 71
3
 72
9
 73
5
 74
0
 42
0.0000001
 43
0.0000001
 44
0.0000000001
 40
0.0
 40
0.0
 40
0.0
 40
0.0
 40
0.5822363937
 40
1.0
 40
1.0
 40
1.0
 40
1.0
 10
97.4803086433
 20
95.837529774
 30
0.0
 10
97.4777968905
 20
95.8479076305
 30
0.0
 10
97.473034565
 20
95.865611862
 30
0.0
 10
97.4666089696
 20
95.8828929699
 30
0.0
 10
97.4630662464
 20
95.8896859138
 30
0.0
  0
LINE
  5
514
100
AcDbEntity
  8
0
100
AcDbLine
 62
7
  6
CONTINUOUS
 10
94.9118367951
 20
74.4382964432
 11
94.9094753099
 21
74.4431846137
  0
SPLINE
  5
515
100
AcDbEntity
  8
0
100
AcDbSpline
 62
7
  6
CONTINUOUS
 70
0
 71
3
 72
42
 73
38
 74
0
 42
0.0000001
 43
0.0000001
 44
0.0000000001
 40
0.0
 40
0.0
 40
0.0
 40
0.0
 40
0.0021169771
 40
0.0053493208
 40
0.0097077634
 40
0.0151912326
 40
0.0217905881
 40
0.0294908023
 40
0.0481278862
 40
0.0709361384
 40
0.0977085937
 40
0.1281967226
 40
0.1621221187
 40
0.1991685414
 40
0.2389954711
 40
0.3254908854
 40
0.4184130904
 40
0.5143281232
 40
0.6096909736
 40
0.7009773176
 40
0.7440288494
 40
0.7848141324
 40
0.8229575203
 40
0.8581047893
 40
0.8899315754
 40
0.9181446718
 40
0.9424823561
 40
0.9627245457
 40
0.9712492539
 40
0.9786849167
 40
0.9850161404
 40
0.990228699
 40
0.9943149791
 40
0.997276062
 40
0.9983394172
 40
0.9991322332
 40
1.0
 40
1.0
 40
1.0
 40
1.0
 10
94.9094753099
 20
74.4431846137
 30
0.0
 10
94.9032506983
 20
74.4570164821
 30
0.0
 10
94.8929647098
 20
74.4942059087
 30
0.0
 10
94.8796456962
 20
74.5623952711
 30
0.0
 10
94.8662274595
 20
74.6551765711
 30
0.0
 10
94.8525907364
 20
74.7721743594
 30
0.0
 10
94.8388965255
 20
74.9132680825
 30
0.0
 10
94.8192845307
 20
75.1484416828
 30
0.0
 10
94.7955233278
 20
75.4997818483
 30
0.0
 10
94.7682394055
 20
75.9877977642
 30
0.0
 10
94.7408431274
 20
76.560834202
 30
0.0
 10
94.713343715
 20
77.2135961895
 30
0.0
 10
94.6857929996
 20
77.9400264764
 30
0.0
 10
94.6581961095
 20
78.7334100736
 30
0.0
 10
94.6203187144
 20
79.9033195684
 30
0.0
 10
94.57382339
 20
81.4735000345
 30
0.0
 10
94.5192853729
 20
83.4454785122
 30
0.0
 10
94.4646933191
 20
85.4810132128
 30
0.0
 10
94.4101056017
 20
87.5048228632
 30
0.0
 10
94.3638391587
 20
89.1499573018
 30
0.0
 10
94.3262384938
 20
90.4041349563
 30
0.0
 10
94.2986059545
 20
91.2776750626
 30
0.0
 10
94.2710007962
 20
92.094552804
 30
0.0
 10
94.2434304326
 20
92.847205818
 30
0.0
 10
94.2159081144
 20
93.5286591037
 30
0.0
 10
94.1884709908
 20
94.1325971927
 30
0.0
 10
94.1611279718
 20
94.6534396504
 30
0.0
 10
94.1373762215
 20
95.0331981163
 30
0.0
 10
94.1178636242
 20
95.2918579179
 30
0.0
 10
94.1041252124
 20
95.4509798093
 30
0.0
 10
94.0904227004
 20
95.5863023572
 30
0.0
 10
94.0768910295
 20
95.6974183585
 30
0.0
 10
94.0633208959
 20
95.78439599
 30
0.0
 10
94.0517128951
 20
95.841011627
 30
0.0
 10
94.0412934443
 20
95.8745496093
 30
0.0
 10
94.0342486844
 20
95.8915418434
 30
0.0
 10
94.025811295
 20
95.9039915101
 30
0.0
 10
94.0195938331
 20
95.9039838786
 30
0.0
  0
SPLINE
  5
516
100
AcDbEntity
  8
0
100
AcDbSpline
 62
7
  6
CONTINUOUS
 70
0
 71
3
 72
15
 73
11
 74
0
 42
0.0000001
 43
0.0000001
 44
0.0000000001
 40
0.0
 40
0.0
 40
0.0
 40
0.0
 40
0.0441369395
 40
0.0748511769
 40
0.1124856172
 40
0.2088262755
 40
0.331675007
 40
0.4773500998
 40
0.6410470097
 40
1.0
 40
1.0
 40
1.0
 40
1.0
 10
109.3753544693
 20
106.9640002361
 30
0.0
 10
109.3878795096
 20
106.9639995326
 30
0.0
 10
109.4081625248
 20
106.9518055454
 30
0.0
 10
109.4286820513
 20
106.9278052316
 30
0.0
 10
109.4540876693
 20
106.888229079
 30
0.0
 10
109.4831290372
 20
106.8211150781
 30
0.0
 10
109.5137147211
 20
106.7220594606
 30
0.0
 10
109.5399465565
 20
106.6021122941
 30
0.0
 10
109.5678046732
 20
106.4144215918
 30
0.0
 10
109.575889011
 20
106.265862774
 30
0.0
 10
109.5758924115
 20
106.1640002361
 30
0.0
  0
SPLINE
  5
517
100
AcDbEntity
  8
0
100
AcDbSpline
 62
7
  6
CONTINUOUS
 70
0
 71
3
 72
11
 73
7
 74
0
 42
0.0000001
 43
0.0000001
 44
0.0000000001
 40
0.0
 40
0.0
 40
0.0
 40
0.0
 40
0.2473359643
 40
0.4962408145
 40
0.7473476717
 40
1.0
 40
1.0
 40
1.0
 40
1.0
 10
108.984457124
 20
106.5640002361
 30
0.0
 10
109.0353428801
 20
106.5640002361
 30
0.0
 10
109.1385887495
 20
106.5849867466
 30
0.0
 10
109.2685244727
 20
106.6743549915
 30
0.0
 10
109.3551718279
 20
106.807280875
 30
0.0
 10
109.3753544693
 20
106.9120207158
 30
0.0
 10
109.3753544693
 20
106.9640002361
 30
0.0
  0
SPLINE
  5
518
100
AcDbEntity
  8
0
100
AcDbSpline
 62
7
  6
CONTINUOUS
 70
0
 71
3
 72
39
 73
35
 74
0
 42
0.0000001
 43
0.0000001
 44
0.0000000001
 40
0.0
 40
0.0
 40
0.0
 40
0.0
 40
0.000850156
 40
0.0016220203
 40
0.0026562784
 40
0.0055347257
 40
0.0095057031
 40
0.0145703112
 40
0.0207225433
 40
0.0279489971
 40
0.0362345978
 40
0.055914623
 40
0.0795875269
 40
0.1070466266
 40
0.138043773
 40
0.1723040474
 40
0.2095190902
 40
0.249355755
 40
0.2914570827
 40
0.3809243084
 40
0.4747165952
 40
0.5694743061
 40
0.6618030378
 40
0.7483955079
 40
0.8261506036
 40
0.8608292419
 40
0.8922856858
 40
0.9202389141
 40
0.9444377891
 40
0.9646699797
 40
0.9807544812
 40
0.9925590288
 40
0.9968264007
 40
1.0
 40
1.0
 40
1.0
 40
1.0
 10
94.7267367669
 20
74.4240192594
 30
0.0
 10
94.720658283
 20
74.4240132458
 30
0.0
 10
94.7123282366
 20
74.4360117762
 30
0.0
 10
94.7053762945
 20
74.4525406555
 30
0.0
 10
94.6951202747
 20
74.485025507
 30
0.0
 10
94.6836900854
 20
74.5399199558
 30
0.0
 10
94.6703310574
 20
74.6242289316
 30
0.0
 10
94.657006953
 20
74.7319520418
 30
0.0
 10
94.643517629
 20
74.8631542483
 30
0.0
 10
94.629992936
 20
75.0174562809
 30
0.0
 10
94.6107805174
 20
75.2683464262
 30
0.0
 10
94.5873949472
 20
75.6368241907
 30
0.0
 10
94.5604745203
 20
76.1424082623
 30
0.0
 10
94.5334630386
 20
76.7290015222
 30
0.0
 10
94.5063653484
 20
77.3913585573
 30
0.0
 10
94.4792228351
 20
78.1235196235
 30
0.0
 10
94.4520435243
 20
78.9189200693
 30
0.0
 10
94.424839057
 20
79.7704123342
 30
0.0
 10
94.3877910134
 20
80.9953740714
 30
0.0
 10
94.3421961699
 20
82.6060259645
 30
0.0
 10
94.2884318322
 20
84.5930799001
 30
0.0
 10
94.2346517672
 20
86.600600091
 30
0.0
 10
94.1809246922
 20
88.5566257875
 30
0.0
 10
94.1273140743
 20
90.3910404007
 30
0.0
 10
94.081289603
 20
91.8133083816
 30
0.0
 10
94.0436406124
 20
92.8414141956
 30
0.0
 10
94.0165340383
 20
93.5135865957
 30
0.0
 10
93.9895103043
 20
94.1107685891
 30
0.0
 10
93.9625692874
 20
94.6276050412
 30
0.0
 10
93.9358826116
 20
95.0594795623
 30
0.0
 10
93.9093502497
 20
95.402506408
 30
0.0
 10
93.8862202702
 20
95.6313460015
 30
0.0
 10
93.8662884043
 20
95.7675038734
 30
0.0
 10
93.8561856232
 20
95.8197958995
 30
0.0
 10
93.8506790405
 20
95.8418083491
 30
0.0
  0
SPLINE
  5
519
100
AcDbEntity
  8
0
100
AcDbSpline
 62
7
  6
CONTINUOUS
 70
0
 71
3
 72
9
 73
5
 74
0
 42
0.0000001
 43
0.0000001
 44
0.0000000001
 40
0.0
 40
0.0
 40
0.0
 40
0.0
 40
0.3094324969
 40
1.0
 40
1.0
 40
1.0
 40
1.0
 10
93.8506790405
 20
95.8418083491
 30
0.0
 10
93.8494123631
 20
95.8468718656
 30
0.0
 10
93.8450443543
 20
95.8631368509
 30
0.0
 10
93.8398781641
 20
95.8793753551
 30
0.0
 10
93.8344938015
 20
95.8897048313
 30
0.0
  0
SPLINE
  5
51A
100
AcDbEntity
  8
0
100
AcDbSpline
 62
7
  6
CONTINUOUS
 70
0
 71
3
 72
12
 73
8
 74
0
 42
0.0000001
 43
0.0000001
 44
0.0000000001
 40
0.0
 40
0.0
 40
0.0
 40
0.0
 40
0.1549025691
 40
0.2563717413
 40
0.3755391666
 40
0.6636986728
 40
1.0
 40
1.0
 40
1.0
 40
1.0
 10
108.984457124
 20
106.5640002361
 30
0.0
 10
109.0093592918
 20
106.5639995323
 30
0.0
 10
109.0494582405
 20
106.5430642507
 30
0.0
 10
109.0910423958
 20
106.4998171079
 30
0.0
 10
109.1373998618
 20
106.4317372921
 30
0.0
 10
109.1809548484
 20
106.3188801464
 30
0.0
 10
109.1934310521
 20
106.2180641039
 30
0.0
 10
109.193438769
 20
106.1640002361
 30
0.0
  0
SPLINE
  5
51B
100
AcDbEntity
  8
0
100
AcDbSpline
 62
7
  6
CONTINUOUS
 70
0
 71
3
 72
42
 73
38
 74
0
 42
0.0000001
 43
0.0000001
 44
0.0000000001
 40
0.0
 40
0.0
 40
0.0
 40
0.0
 40
0.002075278
 40
0.0052677842
 40
0.0095886064
 40
0.0150341275
 40
0.021596812
 40
0.0292641651
 40
0.0478382595
 40
0.0705933904
 40
0.0973182121
 40
0.1277697074
 40
0.1616644377
 40
0.1986898677
 40
0.2385032497
 40
0.3249945617
 40
0.417939457
 40
0.5138993143
 40
0.609323488
 40
0.7006809867
 40
0.7437690082
 40
0.7845918974
 40
0.8227715184
 40
0.8579532053
 40
0.8898133827
 40
0.9180547242
 40
0.9424199012
 40
0.9626827269
 40
0.9712182097
 40
0.9786616742
 40
0.9849988094
 40
0.9902179873
 40
0.994309586
 40
0.997272782
 40
0.9983368219
 40
0.9991305398
 40
1.0
 40
1.0
 40
1.0
 40
1.0
 10
96.7242901516
 20
74.4420465851
 30
0.0
 10
96.7180264515
 20
74.4555330252
 30
0.0
 10
96.7077312529
 20
74.4921359964
 30
0.0
 10
96.6944189607
 20
74.5594509302
 30
0.0
 10
96.6810071327
 20
74.651408678
 30
0.0
 10
96.6673621239
 20
74.7676008378
 30
0.0
 10
96.6536604348
 20
74.9079292821
 30
0.0
 10
96.6340370566
 20
75.1421626391
 30
0.0
 10
96.6102553799
 20
75.4924525808
 30
0.0
 10
96.5829643317
 20
75.9793215483
 30
0.0
 10
96.5555490258
 20
76.5514051131
 30
0.0
 10
96.5280388608
 20
77.2033805874
 30
0.0
 10
96.500469899
 20
77.9292195672
 30
0.0
 10
96.4728588978
 20
78.7221815579
 30
0.0
 10
96.4349551352
 20
79.8918815486
 30
0.0
 10
96.3884312257
 20
81.4621890803
 30
0.0
 10
96.3338623757
 20
83.4347364779
 30
0.0
 10
96.2792392561
 20
85.4713127795
 30
0.0
 10
96.2246199797
 20
87.4965107175
 30
0.0
 10
96.1783286468
 20
89.1429517703
 30
0.0
 10
96.1407057813
 20
90.3982432858
 30
0.0
 10
96.1130575996
 20
91.2726248868
 30
0.0
 10
96.0854362172
 20
92.0903259724
 30
0.0
 10
96.0578481579
 20
92.8437683289
 30
0.0
 10
96.0303125692
 20
93.5259497686
 30
0.0
 10
96.0028544426
 20
94.1305615053
 30
0.0
 10
95.975501686
 20
94.6519819866
 30
0.0
 10
95.9517284397
 20
95.0321842068
 30
0.0
 10
95.9322098811
 20
95.2911405215
 30
0.0
 10
95.9184628462
 20
95.4504471307
 30
0.0
 10
95.9047486011
 20
95.5859230239
 30
0.0
 10
95.89120985
 20
95.6971731706
 30
0.0
 10
95.8776384393
 20
95.7842585357
 30
0.0
 10
95.8660175494
 20
95.8409332048
 30
0.0
 10
95.8555928225
 20
95.8745009569
 30
0.0
 10
95.8485352973
 20
95.8915110607
 30
0.0
 10
95.8401099858
 20
95.9039986666
 30
0.0
 10
95.8338800224
 20
95.904000105
 30
0.0
  0
SPLINE
  5
51C
100
AcDbEntity
  8
0
100
AcDbSpline
 62
7
  6
CONTINUOUS
 70
0
 71
3
 72
9
 73
5
 74
0
 42
0.0000001
 43
0.0000001
 44
0.0000000001
 40
0.0
 40
0.0
 40
0.0
 40
0.0
 40
0.50078802
 40
1.0
 40
1.0
 40
1.0
 40
1.0
 10
109.5758924115
 20
104.0625283735
 30
0.0
 10
109.5758953354
 20
103.982904663
 30
0.0
 10
109.611957927
 20
103.8220069509
 30
0.0
 10
109.7109461433
 20
103.6914574724
 30
0.0
 10
109.7698577713
 20
103.6382643048
 30
0.0
  0
SPLINE
  5
51D
100
AcDbEntity
  8
0
100
AcDbSpline
 62
7
  6
CONTINUOUS
 70
0
 71
3
 72
9
 73
5
 74
0
 42
0.0000001
 43
0.0000001
 44
0.0000000001
 40
0.0
 40
0.0
 40
0.0
 40
0.0
 40
0.4998876399
 40
1.0
 40
1.0
 40
1.0
 40
1.0
 10
109.193438769
 20
104.0625283735
 30
0.0
 10
109.1934447048
 20
103.9314057608
 30
0.0
 10
109.2488590171
 20
103.6662469637
 30
0.0
 10
109.4052666752
 20
103.4459453596
 30
0.0
 10
109.5002090192
 20
103.3554215923
 30
0.0
  0
SPLINE
  5
51E
100
AcDbEntity
  8
0
100
AcDbSpline
 62
7
  6
CONTINUOUS
 70
0
 71
3
 72
9
 73
5
 74
0
 42
0.0000001
 43
0.0000001
 44
0.0000000001
 40
0.0
 40
0.0
 40
0.0
 40
0.0
 40
0.4984492469
 40
1.0
 40
1.0
 40
1.0
 40
1.0
 10
110.1875988996
 20
103.2397361674
 30
0.0
 10
110.2419641101
 20
103.1844179106
 30
0.0
 10
110.3299218794
 20
103.0506322191
 30
0.0
 10
110.36026651
 20
102.8935155577
 30
0.0
 10
110.3602671935
 20
102.8154720987
 30
0.0
  0
SPLINE
  5
51F
100
AcDbEntity
  8
0
100
AcDbSpline
 62
7
  6
CONTINUOUS
 70
0
 71
3
 72
9
 73
5
 74
0
 42
0.0000001
 43
0.0000001
 44
0.0000000001
 40
0.0
 40
0.0
 40
0.0
 40
0.0
 40
0.5001319494
 40
1.0
 40
1.0
 40
1.0
 40
1.0
 10
109.9191480788
 20
102.9568934549
 30
0.0
 10
109.9382000425
 20
102.9388113247
 30
0.0
 10
109.9696647219
 20
102.8948174928
 30
0.0
 10
109.9808891782
 20
102.8417249621
 30
0.0
 10
109.9808889431
 20
102.8154720987
 30
0.0
  0
SPLINE
  5
520
100
AcDbEntity
  8
0
100
AcDbSpline
 62
7
  6
CONTINUOUS
 70
0
 71
3
 72
17
 73
13
 74
0
 42
0.0000001
 43
0.0000001
 44
0.0000000001
 40
0.0
 40
0.0
 40
0.0
 40
0.0
 40
0.1820153194
 40
0.3596340019
 40
0.5271190641
 40
0.6772017826
 40
0.8018112203
 40
0.8943716206
 40
0.9282301659
 40
0.9549704965
 40
0.9774248589
 40
1.0
 40
1.0
 40
1.0
 40
1.0
 10
110.3602671935
 20
100.9533825213
 30
0.0
 10
110.3602670497
 20
100.9002604748
 30
0.0
 10
110.3577752001
 20
100.7952801017
 30
0.0
 10
110.3460253672
 20
100.6418004476
 30
0.0
 10
110.3261968963
 20
100.4985617763
 30
0.0
 10
110.2989762443
 20
100.3721734957
 30
0.0
 10
110.2658366197
 20
100.2701961169
 30
0.0
 10
110.2328396846
 20
100.2038158421
 30
0.0
 10
110.2032342764
 20
100.1699721504
 30
0.0
 10
110.1826968959
 20
100.1562021149
 30
0.0
 10
110.1612123895
 20
100.1527403577
 30
0.0
 10
110.1483759325
 20
100.1575568055
 30
0.0
 10
110.142732548
 20
100.1609572024
 30
0.0
  0
SPLINE
  5
521
100
AcDbEntity
  8
0
100
AcDbSpline
 62
7
  6
CONTINUOUS
 70
0
 71
3
 72
16
 73
12
 74
0
 42
0.0000001
 43
0.0000001
 44
0.0000000001
 40
0.0
 40
0.0
 40
0.0
 40
0.0
 40
0.3392435947
 40
0.5015734729
 40
0.6503187885
 40
0.7738030872
 40
0.822818803
 40
0.8629819081
 40
0.89681461
 40
0.9285307209
 40
1.0
 40
1.0
 40
1.0
 40
1.0
 10
109.9808889431
 20
100.9533825213
 30
0.0
 10
110.0004659646
 20
100.8968314089
 30
0.0
 10
110.0256482959
 20
100.8117214756
 30
0.0
 10
110.0456907626
 20
100.6985950792
 30
0.0
 10
110.051092567
 20
100.6220297499
 30
0.0
 10
110.0461138378
 20
100.5649531814
 30
0.0
 10
110.0338993186
 20
100.5292483603
 30
0.0
 10
110.0220751658
 20
100.5106998199
 30
0.0
 10
110.0068675667
 20
100.499035464
 30
0.0
 10
109.9825209252
 20
100.4937861941
 30
0.0
 10
109.9643301064
 20
100.5010668855
 30
0.0
 10
109.9534098566
 20
100.5073673639
 30
0.0
  0
SPLINE
  5
522
100
AcDbEntity
  8
0
100
AcDbSpline
 62
7
  6
CONTINUOUS
 70
0
 71
3
 72
9
 73
5
 74
0
 42
0.0000001
 43
0.0000001
 44
0.0000000001
 40
0.0
 40
0.0
 40
0.0
 40
0.0
 40
0.4959837351
 40
1.0
 40
1.0
 40
1.0
 40
1.0
 10
109.9534098565
 20
100.5073673637
 30
0.0
 10
110.0120573623
 20
100.4735072123
 30
0.0
 10
110.1130100629
 20
100.3701380736
 30
0.0
 10
110.1448244074
 20
100.2297424476
 30
0.0
 10
110.1427325556
 20
100.1609572024
 30
0.0
  0
SPLINE
  5
523
100
AcDbEntity
  8
0
100
AcDbSpline
 62
7
  6
CONTINUOUS
 70
0
 71
3
 72
9
 73
5
 74
0
 42
0.0000001
 43
0.0000001
 44
0.0000000001
 40
0.0
 40
0.0
 40
0.0
 40
0.0
 40
0.5753182368
 40
1.0
 40
1.0
 40
1.0
 40
1.0
 10
93.6591655199
 20
73.496261516
 30
0.0
 10
93.6631649609
 20
73.4638541859
 30
0.0
 10
93.6707942873
 20
73.4076128687
 30
0.0
 10
93.6808134719
 20
73.3516900011
 30
0.0
 10
93.6863063035
 20
73.3282206595
 30
0.0
  0
SPLINE
  5
524
100
AcDbEntity
  8
0
100
AcDbSpline
 62
7
  6
CONTINUOUS
 70
0
 71
3
 72
9
 73
5
 74
0
 42
0.0000001
 43
0.0000001
 44
0.0000000001
 40
0.0
 40
0.0
 40
0.0
 40
0.0
 40
0.5857102011
 40
1.0
 40
1.0
 40
1.0
 40
1.0
 10
93.6863063035
 20
73.3282206595
 30
0.0
 10
93.6887078381
 20
73.31795957
 30
0.0
 10
93.6932453961
 20
73.3005576725
 30
0.0
 10
93.6994192062
 20
73.2835462521
 30
0.0
 10
93.7028605287
 20
73.2769340766
 30
0.0
  0
SPLINE
  5
525
100
AcDbEntity
  8
0
100
AcDbSpline
 62
7
  6
CONTINUOUS
 70
0
 71
3
 72
27
 73
23
 74
0
 42
0.0000001
 43
0.0000001
 44
0.0000000001
 40
0.0
 40
0.0
 40
0.0
 40
0.0
 40
0.0006608751
 40
0.0017450156
 40
0.0055700731
 40
0.0117384389
 40
0.0202786918
 40
0.0311808647
 40
0.0444228483
 40
0.059978485
 40
0.0778092604
 40
0.0978694454
 40
0.1201123598
 40
0.1709165571
 40
0.2297138998
 40
0.2959133819
 40
0.3688540361
 40
0.4478019824
 40
0.5319627266
 40
0.6204909946
 40
0.807051157
 40
1.0
 40
1.0
 40
1.0
 40
1.0
 10
94.122878939
 20
73.2640002361
 30
0.0
 10
94.1201611523
 20
73.2640002361
 30
0.0
 10
94.1135702751
 20
73.2686291277
 30
0.0
 10
94.1030126278
 20
73.2888633809
 30
0.0
 10
94.090768215
 20
73.3332513003
 30
0.0
 10
94.0771851677
 20
73.4080772586
 30
0.0
 10
94.0631980009
 20
73.512580565
 30
0.0
 10
94.0490449245
 20
73.6462192558
 30
0.0
 10
94.0347824553
 20
73.8088756418
 30
0.0
 10
94.020463979
 20
74.0000944997
 30
0.0
 10
94.0061040951
 20
74.2194228458
 30
0.0
 10
93.9917137777
 20
74.4662998977
 30
0.0
 10
93.9716028317
 20
74.8486681558
 30
0.0
 10
93.946907836
 20
75.3903092342
 30
0.0
 10
93.9183055028
 20
76.1127109078
 30
0.0
 10
93.8896311116
 20
76.9262069859
 30
0.0
 10
93.8609028798
 20
77.822614569
 30
0.0
 10
93.83213861
 20
78.7929197619
 30
0.0
 10
93.8033469547
 20
79.8273529092
 30
0.0
 10
93.764252194
 20
81.3042143513
 30
0.0
 10
93.7161771117
 20
83.2283739065
 30
0.0
 10
93.678425997
 20
84.7886123018
 30
0.0
 10
93.659165917
 20
85.5818625004
 30
0.0
  0
SPLINE
  5
526
100
AcDbEntity
  8
0
100
AcDbSpline
 62
7
  6
CONTINUOUS
 70
0
 71
3
 72
43
 73
39
 74
0
 42
0.0000001
 43
0.0000001
 44
0.0000000001
 40
0.0
 40
0.0
 40
0.0
 40
0.0
 40
0.0003273753
 40
0.0008546649
 40
0.0016412731
 40
0.0027035206
 40
0.0056748393
 40
0.0097866468
 40
0.015035741
 40
0.0214122512
 40
0.0289045986
 40
0.0374965448
 40
0.0578949723
 40
0.0824228957
 40
0.1108512861
 40
0.1429163506
 40
0.1783203471
 40
0.2167314091
 40
0.2577923651
 40
0.301119265
 40
0.3929358358
 40
0.4887612761
 40
0.5850214679
 40
0.6781243717
 40
0.7646031986
 40
0.8043393543
 40
0.8412362279
 40
0.8749495131
 40
0.9051658141
 40
0.9316023602
 40
0.9540158658
 40
0.972198666
 40
0.9796503958
 40
0.9859857818
 40
0.9911933848
 40
0.9952635731
 40
0.9981935479
 40
1.0
 40
1.0
 40
1.0
 40
1.0
 10
97.7514508646
 20
73.2640002361
 30
0.0
 10
97.7488515805
 20
73.2640002361
 30
0.0
 10
97.7425536971
 20
73.2682170156
 30
0.0
 10
97.7363167127
 20
73.2796270002
 30
0.0
 10
97.7294501574
 20
73.2972830482
 30
0.0
 10
97.7193545733
 20
73.3342177155
 30
0.0
 10
97.7074295948
 20
73.3978627856
 30
0.0
 10
97.6939384515
 20
73.4948441374
 30
0.0
 10
97.6803031205
 20
73.6190678263
 30
0.0
 10
97.6665575834
 20
73.7702393685
 30
0.0
 10
97.6527572386
 20
73.948042941
 30
0.0
 10
97.6331677063
 20
74.2370471278
 30
0.0
 10
97.6093059453
 20
74.6613116426
 30
0.0
 10
97.5818535195
 20
75.243087809
 30
0.0
 10
97.5542973054
 20
75.917578939
 30
0.0
 10
97.5266588051
 20
76.6784825203
 30
0.0
 10
97.4989725587
 20
77.518691508
 30
0.0
 10
97.4712489623
 20
78.4303598808
 30
0.0
 10
97.4435006931
 20
79.404960528
 30
0.0
 10
97.405747485
 20
80.8034739744
 30
0.0
 10
97.3592975395
 20
82.6367265042
 30
0.0
 10
97.3044831248
 20
84.8901779617
 30
0.0
 10
97.2496671046
 20
87.1538457249
 30
0.0
 10
97.1949088015
 20
89.3432826753
 30
0.0
 10
97.1482040774
 20
91.0839920313
 30
0.0
 10
97.110141254
 20
92.3785039519
 30
0.0
 10
97.0824325478
 20
93.2541908853
 30
0.0
 10
97.0547688483
 20
94.054253295
 30
0.0
 10
97.0271660275
 20
94.7712103051
 30
0.0
 10
96.999667839
 20
95.3983820564
 30
0.0
 10
96.9722943174
 20
95.9299057911
 30
0.0
 10
96.9484328921
 20
96.3106713509
 30
0.0
 10
96.928697615
 20
96.5637350245
 30
0.0
 10
96.9149700181
 20
96.7139445795
 30
0.0
 10
96.9012891124
 20
96.8371196609
 30
0.0
 10
96.8879402862
 20
96.9332527477
 30
0.0
 10
96.8745848335
 20
97.0016987129
 30
0.0
 10
96.8643836345
 20
97.0383437806
 30
0.0
 10
96.8577615505
 20
97.0510663712
 30
0.0
  0
SPLINE
  5
527
100
AcDbEntity
  8
0
100
AcDbSpline
 62
7
  6
CONTINUOUS
 70
0
 71
3
 72
43
 73
39
 74
0
 42
0.0000001
 43
0.0000001
 44
0.0000000001
 40
0.0
 40
0.0
 40
0.0
 40
0.0
 40
0.0003274558
 40
0.0008547684
 40
0.0016413791
 40
0.0027036223
 40
0.0056749311
 40
0.0097867412
 40
0.0150358525
 40
0.0214123802
 40
0.0289047368
 40
0.0374967005
 40
0.0578951776
 40
0.0824231778
 40
0.110851512
 40
0.1429164243
 40
0.1783203171
 40
0.2167317092
 40
0.257793496
 40
0.3011209944
 40
0.3929377437
 40
0.4887621684
 40
0.5850201637
 40
0.6781219336
 40
0.7646016582
 40
0.8043380383
 40
0.8412351668
 40
0.8749486293
 40
0.905165074
 40
0.9316016404
 40
0.9540150942
 40
0.9721980216
 40
0.9796497939
 40
0.9859853335
 40
0.9911931324
 40
0.9952634585
 40
0.9981935169
 40
1.0
 40
1.0
 40
1.0
 40
1.0
 10
96.4377378193
 20
97.0640002361
 30
0.0
 10
96.4403377432
 20
97.0640002361
 30
0.0
 10
96.446637066
 20
97.0597843711
 30
0.0
 10
96.4528752073
 20
97.0483735184
 30
0.0
 10
96.459741588
 20
97.0307174065
 30
0.0
 10
96.4698361942
 20
96.9937824403
 30
0.0
 10
96.4817591297
 20
96.9301371679
 30
0.0
 10
96.4952494658
 20
96.833155604
 30
0.0
 10
96.5088849698
 20
96.7089316349
 30
0.0
 10
96.5226311515
 20
96.5577597775
 30
0.0
 10
96.5364319656
 20
96.3799558645
 30
0.0
 10
96.5560215492
 20
96.0909510341
 30
0.0
 10
96.5798830277
 20
95.6666853034
 30
0.0
 10
96.607335555
 20
95.0849085077
 30
0.0
 10
96.6348918554
 20
94.4104183366
 30
0.0
 10
96.66253023
 20
93.6495171297
 30
0.0
 10
96.6902165575
 20
92.8093074446
 30
0.0
 10
96.7179404341
 20
91.8976305625
 30
0.0
 10
96.7456890831
 20
90.9230158232
 30
0.0
 10
96.7834426944
 20
89.5244894332
 30
0.0
 10
96.8298925483
 20
87.6912385542
 30
0.0
 10
96.8847064562
 20
85.4378108802
 30
0.0
 10
96.9395217001
 20
83.174177315
 30
0.0
 10
96.9942795747
 20
80.9847593852
 30
0.0
 10
97.0409841871
 20
79.2440498889
 30
0.0
 10
97.079047335
 20
77.9495268692
 30
0.0
 10
97.1067560859
 20
77.0738346067
 30
0.0
 10
97.134419982
 20
76.2737675229
 30
0.0
 10
97.1620228802
 20
75.5568077093
 30
0.0
 10
97.1895206914
 20
74.9296349666
 30
0.0
 10
97.2168945572
 20
74.3981104127
 30
0.0
 10
97.2407562759
 20
74.0173438942
 30
0.0
 10
97.2604907106
 20
73.7642775453
 30
0.0
 10
97.2742172978
 20
73.6140647678
 30
0.0
 10
97.2878980098
 20
73.4908857084
 30
0.0
 10
97.301249012
 20
73.3947496235
 30
0.0
 10
97.3146090083
 20
73.3263021794
 30
0.0
 10
97.3248126491
 20
73.2896572948
 30
0.0
 10
97.3314341463
 20
73.2769341196
 30
0.0
  0
SPLINE
  5
528
100
AcDbEntity
  8
0
100
AcDbSpline
 62
7
  6
CONTINUOUS
 70
0
 71
3
 72
43
 73
39
 74
0
 42
0.0000001
 43
0.0000001
 44
0.0000000001
 40
0.0
 40
0.0
 40
0.0
 40
0.0
 40
0.0003274705
 40
0.0008547799
 40
0.001641377
 40
0.0027035992
 40
0.0056748486
 40
0.0097865439
 40
0.0150354297
 40
0.0214116687
 40
0.0289036725
 40
0.0374950231
 40
0.0578923879
 40
0.0824192263
 40
0.1108472372
 40
0.1429122736
 40
0.1783172441
 40
0.2167297768
 40
0.2577923968
 40
0.3011205186
 40
0.3929367916
 40
0.4887599543
 40
0.5850188124
 40
0.6781216338
 40
0.7646002019
 40
0.8043355271
 40
0.8412315775
 40
0.874944312
 40
0.9051609068
 40
0.9315983478
 40
0.95401282
 40
0.9721970169
 40
0.9796491377
 40
0.985984968
 40
0.9911929887
 40
0.9952634121
 40
0.9981934982
 40
1.0
 40
1.0
 40
1.0
 40
1.0
 10
95.9371655412
 20
73.2640002361
 30
0.0
 10
95.9345655009
 20
73.2640002361
 30
0.0
 10
95.9282659229
 20
73.2682157867
 30
0.0
 10
95.922027538
 20
73.2796266191
 30
0.0
 10
95.9151612463
 20
73.297282398
 30
0.0
 10
95.9050669341
 20
73.3342166995
 30
0.0
 10
95.8931446835
 20
73.3978605006
 30
0.0
 10
95.8796548809
 20
73.49483893
 30
0.0
 10
95.8660195986
 20
73.6190578901
 30
0.0
 10
95.8522737195
 20
73.770222858
 30
0.0
 10
95.8384735135
 20
73.9480168192
 30
0.0
 10
95.8188842054
 20
74.2370051185
 30
0.0
 10
95.7950241146
 20
74.6612479537
 30
0.0
 10
95.7675714319
 20
75.2430040698
 30
0.0
 10
95.7400155227
 20
75.917483418
 30
0.0
 10
95.7123761507
 20
76.6783915374
 30
0.0
 10
95.6846892173
 20
77.5186197787
 30
0.0
 10
95.6569643634
 20
78.4303208344
 30
0.0
 10
95.6292150772
 20
79.4049561477
 30
0.0
 10
95.5914612516
 20
80.8034902639
 30
0.0
 10
95.5450115589
 20
82.6367322207
 30
0.0
 10
95.4901978196
 20
84.8901528568
 30
0.0
 10
95.4353824598
 20
87.1537915106
 30
0.0
 10
95.3806244658
 20
89.34321537
 30
0.0
 10
95.3339201865
 20
91.0839155943
 30
0.0
 10
95.2958578377
 20
92.3784124574
 30
0.0
 10
95.2681501259
 20
93.2540819913
 30
0.0
 10
95.2404868922
 20
94.0541359107
 30
0.0
 10
95.2128843309
 20
94.7710980646
 30
0.0
 10
95.1853864865
 20
95.3982870232
 30
0.0
 10
95.1580114726
 20
95.9298366294
 30
0.0
 10
95.1341501849
 20
96.3106241463
 30
0.0
 10
95.1144138074
 20
96.5637055348
 30
0.0
 10
95.1006858073
 20
96.7139250525
 30
0.0
 10
95.087004552
 20
96.837108878
 30
0.0
 10
95.0736547346
 20
96.9332479605
 30
0.0
 10
95.0602979623
 20
97.0016969339
 30
0.0
 10
95.0500961573
 20
97.0383430775
 30
0.0
 10
95.0434741037
 20
97.0510661296
 30
0.0
  0
SPLINE
  5
529
100
AcDbEntity
  8
0
100
AcDbSpline
 62
7
  6
CONTINUOUS
 70
0
 71
3
 72
43
 73
39
 74
0
 42
0.0000001
 43
0.0000001
 44
0.0000000001
 40
0.0
 40
0.0
 40
0.0
 40
0.0
 40
0.0003273774
 40
0.0008546618
 40
0.001641258
 40
0.0027034868
 40
0.005674747
 40
0.0097864309
 40
0.0150352833
 40
0.0214114851
 40
0.0289034561
 40
0.037494756
 40
0.0578920688
 40
0.0824188944
 40
0.1108468999
 40
0.1429118979
 40
0.1783168453
 40
0.2167293621
 40
0.2577919529
 40
0.301120054
 40
0.3929363579
 40
0.488760008
 40
0.5850192138
 40
0.6781220779
 40
0.7646004289
 40
0.8043355869
 40
0.8412315026
 40
0.8749442196
 40
0.9051608745
 40
0.9315983248
 40
0.954012789
 40
0.9721969879
 40
0.9796491083
 40
0.9859849354
 40
0.9911929545
 40
0.9952633854
 40
0.9981934901
 40
1.0
 40
1.0
 40
1.0
 40
1.0
 10
94.6234516584
 20
97.0640002361
 30
0.0
 10
94.6260509597
 20
97.0640002361
 30
0.0
 10
94.6323488738
 20
97.0597835949
 30
0.0
 10
94.6385859265
 20
97.048373746
 30
0.0
 10
94.6454524454
 20
97.0307180013
 30
0.0
 10
94.6555479214
 20
96.9937840283
 30
0.0
 10
94.6674725621
 20
96.9301405178
 30
0.0
 10
94.680963268
 20
96.8331625015
 30
0.0
 10
94.6945983088
 20
96.708944159
 30
0.0
 10
94.708343407
 20
96.5577799566
 30
0.0
 10
94.7221430833
 20
96.3799869267
 30
0.0
 10
94.741732411
 20
96.0909997244
 30
0.0
 10
94.7655928467
 20
95.6667578481
 30
0.0
 10
94.7930454238
 20
95.0850023135
 30
0.0
 10
94.8206012608
 20
94.4105234471
 30
0.0
 10
94.8482406732
 20
93.6496158998
 30
0.0
 10
94.8759275824
 20
92.8093883153
 30
0.0
 10
94.9036524084
 20
91.8976878476
 30
0.0
 10
94.931401689
 20
90.9230531072
 30
0.0
 10
94.9691554942
 20
89.5245192139
 30
0.0
 10
95.0156052774
 20
87.6912734021
 30
0.0
 10
95.0704191502
 20
85.4378460072
 30
0.0
 10
95.1252346519
 20
83.1742005018
 30
0.0
 10
95.1799926633
 20
80.9847753789
 30
0.0
 10
95.2266968755
 20
79.2440779555
 30
0.0
 10
95.2647590943
 20
77.9495852777
 30
0.0
 10
95.2924666981
 20
77.0739183227
 30
0.0
 10
95.320129941
 20
76.273865177
 30
0.0
 10
95.3477325056
 20
75.5569026478
 30
0.0
 10
95.3752301956
 20
74.929713228
 30
0.0
 10
95.4026053972
 20
74.3981636274
 30
0.0
 10
95.4264670953
 20
74.017376215
 30
0.0
 10
95.4462027346
 20
73.7642947939
 30
0.0
 10
95.459930027
 20
73.614075269
 30
0.0
 10
95.4736111007
 20
73.4908913796
 30
0.0
 10
95.4869620927
 20
73.3947523074
 30
0.0
 10
95.5003213968
 20
73.3263033675
 30
0.0
 10
95.5105245622
 20
73.2896576557
 30
0.0
 10
95.5171462304
 20
73.2769343313
 30
0.0
  0
SPLINE
  5
52A
100
AcDbEntity
  8
0
100
AcDbSpline
 62
7
  6
CONTINUOUS
 70
0
 71
3
 72
21
 73
17
 74
0
 42
0.0000001
 43
0.0000001
 44
0.0000000001
 40
0.0
 40
0.0
 40
0.0
 40
0.0
 40
0.1949288649
 40
0.3827395674
 40
0.5555980741
 40
0.7070929186
 40
0.7730199331
 40
0.8314905545
 40
0.8819225211
 40
0.9238821894
 40
0.9569478267
 40
0.9807664984
 40
0.9891521903
 40
0.9951646917
 40
0.9987861023
 40
1.0
 40
1.0
 40
1.0
 40
1.0
 10
105.0591664219
 20
106.1640002361
 30
0.0
 10
105.0331757799
 20
106.1640380279
 30
0.0
 10
104.9821435742
 20
106.1641085402
 30
0.0
 10
104.908063311
 20
106.1640554388
 30
0.0
 10
104.8397747105
 20
106.1638576801
 30
0.0
 10
104.7877364955
 20
106.1639658612
 30
0.0
 10
104.7509516718
 20
106.1640916402
 30
0.0
 10
104.7276388602
 20
106.1641185254
 30
0.0
 10
104.7075299046
 20
106.1640673425
 30
0.0
 10
104.6907851377
 20
106.1639663458
 30
0.0
 10
104.6776510911
 20
106.1639342237
 30
0.0
 10
104.6688539384
 20
106.1638394087
 30
0.0
 10
104.6638861161
 20
106.1639674697
 30
0.0
 10
104.6612720674
 20
106.16380489
 30
0.0
 10
104.6602010799
 20
106.164151989
 30
0.0
 10
104.6591664219
 20
106.1638383821
 30
0.0
 10
104.6591664219
 20
106.1640002361
 30
0.0
  0
SPLINE
  5
52B
100
AcDbEntity
  8
0
100
AcDbSpline
 62
7
  6
CONTINUOUS
 70
0
 71
3
 72
43
 73
39
 74
0
 42
0.0000001
 43
0.0000001
 44
0.0000000001
 40
0.0
 40
0.0
 40
0.0
 40
0.0
 40
0.0003273065
 40
0.0008545717
 40
0.0016411647
 40
0.0027033911
 40
0.0056746224
 40
0.0097862044
 40
0.015034894
 40
0.0214109753
 40
0.0289029332
 40
0.0374942115
 40
0.0578915609
 40
0.0824184024
 40
0.1108463616
 40
0.1429112062
 40
0.1783159612
 40
0.2167282861
 40
0.2577905809
 40
0.3011182207
 40
0.3929348937
 40
0.4887603179
 40
0.5850205218
 40
0.6781234482
 40
0.764600807
 40
0.8043354932
 40
0.8412314983
 40
0.8749443878
 40
0.905161104
 40
0.9315985077
 40
0.954012913
 40
0.9721970664
 40
0.9796491771
 40
0.9859849889
 40
0.9911929914
 40
0.9952634097
 40
0.9981934998
 40
1.0
 40
1.0
 40
1.0
 40
1.0
 10
98.2520241101
 20
97.0640002361
 30
0.0
 10
98.2546228484
 20
97.0640002361
 30
0.0
 10
98.2609194855
 20
97.0597827481
 30
0.0
 10
98.2671555199
 20
97.0483736805
 30
0.0
 10
98.2740222087
 20
97.0307180439
 30
0.0
 10
98.2841185306
 20
96.9937847014
 30
0.0
 10
98.2960448593
 20
96.9301425016
 30
0.0
 10
98.3095360725
 20
96.8331669263
 30
0.0
 10
98.323170823
 20
96.7089516249
 30
0.0
 10
98.3369152132
 20
96.5577897343
 30
0.0
 10
98.3507143951
 20
96.3799979162
 30
0.0
 10
98.3703039881
 20
96.091010741
 30
0.0
 10
98.3941648752
 20
95.6667686754
 30
0.0
 10
98.4216174367
 20
95.0850131344
 30
0.0
 10
98.449173189
 20
94.4105357769
 30
0.0
 10
98.4768125904
 20
93.6496314019
 30
0.0
 10
98.5044994017
 20
92.80940815
 30
0.0
 10
98.5322240666
 20
91.89771315
 30
0.0
 10
98.5599732043
 20
90.9230860186
 30
0.0
 10
98.5977269559
 20
89.524555312
 30
0.0
 10
98.6441770872
 20
87.6912962893
 30
0.0
 10
98.6989915454
 20
85.4378441308
 30
0.0
 10
98.7538075385
 20
83.1741762977
 30
0.0
 10
98.8085655831
 20
80.9847508004
 30
0.0
 10
98.8552694416
 20
79.244064633
 30
0.0
 10
98.8933313759
 20
77.949582963
 30
0.0
 10
98.9210388853
 20
77.0739177384
 30
0.0
 10
98.9487021826
 20
76.2738620872
 30
0.0
 10
98.9763047777
 20
75.5568981267
 30
0.0
 10
99.0038025232
 20
74.9297091089
 30
0.0
 10
99.0311775663
 20
74.398160743
 30
0.0
 10
99.0550390731
 20
74.017374252
 30
0.0
 10
99.0747749365
 20
73.764293429
 30
0.0
 10
99.0885024759
 20
73.6140742663
 30
0.0
 10
99.1021835954
 20
73.4908907588
 30
0.0
 10
99.1155340672
 20
73.394751958
 30
0.0
 10
99.1288923221
 20
73.3263031927
 30
0.0
 10
99.1390949264
 20
73.2896574182
 30
0.0
 10
99.1457167363
 20
73.2769342551
 30
0.0
  0
SPLINE
  5
52C
100
AcDbEntity
  8
0
100
AcDbSpline
 62
7
  6
CONTINUOUS
 70
0
 71
3
 72
21
 73
17
 74
0
 42
0.0000001
 43
0.0000001
 44
0.0000000001
 40
0.0
 40
0.0
 40
0.0
 40
0.0
 40
0.1949195876
 40
0.3827121673
 40
0.5555694749
 40
0.707065966
 40
0.7729932287
 40
0.8314623396
 40
0.8818993248
 40
0.9238669043
 40
0.9569368625
 40
0.9807606648
 40
0.9891496444
 40
0.9951650103
 40
0.9987880197
 40
1.0
 40
1.0
 40
1.0
 40
1.0
 10
105.0591664219
 20
103.7949403438
 30
0.0
 10
105.0331771606
 20
103.7948937208
 30
0.0
 10
104.9821488729
 20
103.7948153005
 30
0.0
 10
104.908072769
 20
103.7948621971
 30
0.0
 10
104.8397869021
 20
103.7950491736
 30
0.0
 10
104.7877488193
 20
103.7950084286
 30
0.0
 10
104.7509639957
 20
103.7949285854
 30
0.0
 10
104.7276508277
 20
103.7949012652
 30
0.0
 10
104.7075404468
 20
103.7949063091
 30
0.0
 10
104.6907931498
 20
103.7949502842
 30
0.0
 10
104.6776569841
 20
103.7949307543
 30
0.0
 10
104.6688575782
 20
103.7950273692
 30
0.0
 10
104.6638891334
 20
103.7948981799
 30
0.0
 10
104.6612725173
 20
103.7950991337
 30
0.0
 10
104.6602035885
 20
103.7947274908
 30
0.0
 10
104.6591664219
 20
103.7951019413
 30
0.0
 10
104.6591664219
 20
103.7949403438
 30
0.0
  0
SPLINE
  5
52D
100
AcDbEntity
  8
0
100
AcDbSpline
 62
7
  6
CONTINUOUS
 70
0
 71
3
 72
39
 73
35
 74
0
 42
0.0000001
 43
0.0000001
 44
0.0000000001
 40
0.0
 40
0.0
 40
0.0
 40
0.0
 40
0.0008501472
 40
0.0016209327
 40
0.0026533301
 40
0.0055282549
 40
0.0094961316
 40
0.0145553748
 40
0.0206995471
 40
0.0279187462
 40
0.0361964794
 40
0.0558540367
 40
0.0795035567
 40
0.1069335514
 40
0.1379002329
 40
0.1721273718
 40
0.2093073728
 40
0.2491092515
 40
0.2911743697
 40
0.3805736961
 40
0.4743072011
 40
0.5690212834
 40
0.6613272478
 40
0.7479228357
 40
0.8257107587
 40
0.8604170571
 40
0.891910352
 40
0.9199063852
 40
0.9441587048
 40
0.9644489947
 40
0.9806018498
 40
0.9924792983
 40
0.996787031
 40
1.0
 40
1.0
 40
1.0
 40
1.0
 10
96.5410233053
 20
74.4240175321
 30
0.0
 10
96.534945508
 20
74.4240245601
 30
0.0
 10
96.526632629
 20
74.4360075157
 30
0.0
 10
96.5196752437
 20
74.4525152066
 30
0.0
 10
96.5094228206
 20
74.4849462273
 30
0.0
 10
96.497999915
 20
74.5397766953
 30
0.0
 10
96.4846542815
 20
74.62399117
 30
0.0
 10
96.4713372051
 20
74.7315852023
 30
0.0
 10
96.4578516402
 20
74.8626254896
 30
0.0
 10
96.4443378071
 20
75.0167462551
 30
0.0
 10
96.4251395458
 20
75.2673420751
 30
0.0
 10
96.4017620452
 20
75.635397656
 30
0.0
 10
96.3748634523
 20
76.1403943577
 30
0.0
 10
96.3478644169
 20
76.7263343011
 30
0.0
 10
96.3207849344
 20
77.387960838
 30
0.0
 10
96.2936582954
 20
78.1193417191
 30
0.0
 10
96.2664946867
 20
78.9139246318
 30
0.0
 10
96.2393077118
 20
79.7645717102
 30
0.0
 10
96.202279496
 20
80.9884150629
 30
0.0
 10
96.1567112798
 20
82.5977376569
 30
0.0
 10
96.1029782081
 20
84.5833708002
 30
0.0
 10
96.0492293636
 20
86.5897908716
 30
0.0
 10
95.9955329676
 20
88.5451643986
 30
0.0
 10
95.9419517542
 20
90.3794860951
 30
0.0
 10
95.8959577002
 20
91.8020641933
 30
0.0
 10
95.8583335494
 20
92.8307618081
 30
0.0
 10
95.8312450338
 20
93.5036338524
 30
0.0
 10
95.8042309981
 20
94.1017073906
 30
0.0
 10
95.7773104719
 20
94.6195970067
 30
0.0
 10
95.750624959
 20
95.0527149616
 30
0.0
 10
95.7241140284
 20
95.3971387905
 30
0.0
 10
95.7009733149
 20
95.6272553407
 30
0.0
 10
95.6810779468
 20
95.7645074905
 30
0.0
 10
95.6709834401
 20
95.8173735874
 30
0.0
 10
95.6654938016
 20
95.8396778409
 30
0.0
  0
SPLINE
  5
52E
100
AcDbEntity
  8
0
100
AcDbSpline
 62
7
  6
CONTINUOUS
 70
0
 71
3
 72
9
 73
5
 74
0
 42
0.0000001
 43
0.0000001
 44
0.0000000001
 40
0.0
 40
0.0
 40
0.0
 40
0.0
 40
0.3107460465
 40
1.0
 40
1.0
 40
1.0
 40
1.0
 10
95.6654938016
 20
95.8396778409
 30
0.0
 10
95.6641872421
 20
95.8449863572
 30
0.0
 10
95.6596931813
 20
95.8619650251
 30
0.0
 10
95.6543824031
 20
95.878933299
 30
0.0
 10
95.6487800115
 20
95.8896875262
 30
0.0
  0
SPLINE
  5
52F
100
AcDbEntity
  8
0
100
AcDbSpline
 62
7
  6
CONTINUOUS
 70
0
 71
3
 72
21
 73
17
 74
0
 42
0.0000001
 43
0.0000001
 44
0.0000000001
 40
0.0
 40
0.0
 40
0.0
 40
0.0
 40
0.1949288649
 40
0.3827395674
 40
0.5555980741
 40
0.7070929186
 40
0.7730199331
 40
0.8314905545
 40
0.8819225211
 40
0.9238821894
 40
0.9569478267
 40
0.9807664984
 40
0.9891521903
 40
0.9951646917
 40
0.9987861023
 40
1.0
 40
1.0
 40
1.0
 40
1.0
 10
105.0591664219
 20
106.1640002361
 30
0.0
 10
105.0591286301
 20
106.1899908781
 30
0.0
 10
105.0590581178
 20
106.2410230838
 30
0.0
 10
105.0591112192
 20
106.315103347
 30
0.0
 10
105.0593089779
 20
106.3833919475
 30
0.0
 10
105.0592007968
 20
106.4354301625
 30
0.0
 10
105.0590750178
 20
106.4722149862
 30
0.0
 10
105.0590481326
 20
106.4955277978
 30
0.0
 10
105.0590993155
 20
106.5156367534
 30
0.0
 10
105.0592003122
 20
106.5323815203
 30
0.0
 10
105.0592324343
 20
106.5455155669
 30
0.0
 10
105.0593272493
 20
106.5543127197
 30
0.0
 10
105.0591991883
 20
106.5592805419
 30
0.0
 10
105.059361768
 20
106.5618945906
 30
0.0
 10
105.059014669
 20
106.5629655781
 30
0.0
 10
105.0593282759
 20
106.5640002361
 30
0.0
 10
105.0591664219
 20
106.5640002361
 30
0.0
  0
SPLINE
  5
530
100
AcDbEntity
  8
0
100
AcDbSpline
 62
7
  6
CONTINUOUS
 70
0
 71
3
 72
9
 73
5
 74
0
 42
0.0000001
 43
0.0000001
 44
0.0000000001
 40
0.0
 40
0.0
 40
0.0
 40
0.0
 40
0.2455529338
 40
1.0
 40
1.0
 40
1.0
 40
1.0
 10
122.4026880271
 20
98.0982049203
 30
0.0
 10
122.4162846225
 20
98.1028933724
 30
0.0
 10
122.4691341408
 20
98.1293298357
 30
0.0
 10
122.5094487353
 20
98.1758502965
 30
0.0
 10
122.5322625681
 20
98.2136942176
 30
0.0
  0
SPLINE
  5
531
100
AcDbEntity
  8
0
100
AcDbSpline
 62
7
  6
CONTINUOUS
 70
0
 71
3
 72
11
 73
7
 74
0
 42
0.0000001
 43
0.0000001
 44
0.0000000001
 40
0.0
 40
0.0
 40
0.0
 40
0.0
 40
0.21079431
 40
0.456280833
 40
0.7243673073
 40
1.0
 40
1.0
 40
1.0
 40
1.0
 10
122.7449528595
 20
97.4327796022
 30
0.0
 10
122.7069350899
 20
97.4698645612
 30
0.0
 10
122.6342250385
 20
97.5599255766
 30
0.0
 10
122.5413974538
 20
97.7175376141
 30
0.0
 10
122.4615160032
 20
97.9000909459
 30
0.0
 10
122.4200413393
 20
98.0309622008
 30
0.0
 10
122.402688027
 20
98.0982049203
 30
0.0
  0
SPLINE
  5
532
100
AcDbEntity
  8
0
100
AcDbSpline
 62
7
  6
CONTINUOUS
 70
0
 71
3
 72
9
 73
5
 74
0
 42
0.0000001
 43
0.0000001
 44
0.0000000001
 40
0.0
 40
0.0
 40
0.0
 40
0.0
 40
0.5036005116
 40
1.0
 40
1.0
 40
1.0
 40
1.0
 10
122.7449528595
 20
97.432779599
 30
0.0
 10
122.8762116058
 20
97.4407627248
 30
0.0
 10
123.1359646897
 20
97.5028898207
 30
0.0
 10
123.3589909048
 20
97.6505269457
 30
0.0
 10
123.4520596407
 20
97.7407477787
 30
0.0
  0
SPLINE
  5
533
100
AcDbEntity
  8
0
100
AcDbSpline
 62
7
  6
CONTINUOUS
 70
0
 71
3
 72
12
 73
8
 74
0
 42
0.0000001
 43
0.0000001
 44
0.0000000001
 40
0.0
 40
0.0
 40
0.0
 40
0.0
 40
0.0789989437
 40
0.1781965155
 40
0.425884132
 40
0.7126344447
 40
1.0
 40
1.0
 40
1.0
 40
1.0
 10
123.4520596407
 20
97.7407477787
 30
0.0
 10
123.4245600203
 20
97.7419611808
 30
0.0
 10
123.3629390035
 20
97.7522790456
 30
0.0
 10
123.2206636586
 20
97.7949965222
 30
0.0
 10
123.0189451522
 20
97.8869816935
 30
0.0
 10
122.7719975093
 20
98.03246699
 30
0.0
 10
122.6097580966
 20
98.1502877484
 30
0.0
 10
122.5322625681
 20
98.2136942176
 30
0.0
  0
SPLINE
  5
534
100
AcDbEntity
  8
0
100
AcDbSpline
 62
7
  6
CONTINUOUS
 70
0
 71
3
 72
9
 73
5
 74
0
 42
0.0000001
 43
0.0000001
 44
0.0000000001
 40
0.0
 40
0.0
 40
0.0
 40
0.0
 40
0.5214778178
 40
1.0
 40
1.0
 40
1.0
 40
1.0
 10
122.9117776122
 20
98.841359714
 30
0.0
 10
123.0564755147
 20
99.0799450394
 30
0.0
 10
123.3940519195
 20
99.5041546305
 30
0.0
 10
123.8433673815
 20
99.8152805868
 30
0.0
 10
124.0779484817
 20
99.9179123295
 30
0.0
  0
SPLINE
  5
535
100
AcDbEntity
  8
0
100
AcDbSpline
 62
7
  6
CONTINUOUS
 70
0
 71
3
 72
13
 73
9
 74
0
 42
0.0000001
 43
0.0000001
 44
0.0000000001
 40
0.0
 40
0.0
 40
0.0
 40
0.0
 40
0.0791779541
 40
0.1786252352
 40
0.2958962074
 40
0.4274588006
 40
0.714695752
 40
1.0
 40
1.0
 40
1.0
 40
1.0
 10
123.8662732511
 20
98.3584798597
 30
0.0
 10
123.8376443082
 20
98.3576808826
 30
0.0
 10
123.7729090064
 20
98.3649878395
 30
0.0
 10
123.6692459006
 20
98.3922087945
 30
0.0
 10
123.5511096846
 20
98.4365354453
 30
0.0
 10
123.3753218134
 20
98.5187016333
 30
0.0
 10
123.1557484666
 20
98.6489697478
 30
0.0
 10
122.989767832
 20
98.7737749687
 30
0.0
 10
122.9117776055
 20
98.841359714
 30
0.0
  0
SPLINE
  5
536
100
AcDbEntity
  8
0
100
AcDbSpline
 62
7
  6
CONTINUOUS
 70
0
 71
3
 72
9
 73
5
 74
0
 42
0.0000001
 43
0.0000001
 44
0.0000000001
 40
0.0
 40
0.0
 40
0.0
 40
0.0
 40
0.5308155672
 40
1.0
 40
1.0
 40
1.0
 40
1.0
 10
123.8662732031
 20
98.3584799007
 30
0.0
 10
123.9544294895
 20
98.5342353487
 30
0.0
 10
124.1572949116
 20
98.8483570162
 30
0.0
 10
124.4300744472
 20
99.1064036973
 30
0.0
 10
124.5733799843
 20
99.2047322888
 30
0.0
  0
SPLINE
  5
537
100
AcDbEntity
  8
0
100
AcDbSpline
 62
7
  6
CONTINUOUS
 70
0
 71
3
 72
27
 73
23
 74
0
 42
0.0000001
 43
0.0000001
 44
0.0000000001
 40
0.0
 40
0.0
 40
0.0
 40
0.0
 40
0.2096616698
 40
0.4014263011
 40
0.5723062241
 40
0.6489630368
 40
0.7191944663
 40
0.7825536965
 40
0.8386024028
 40
0.8869138911
 40
0.9270720784
 40
0.9439841783
 40
0.9587318513
 40
0.9712752332
 40
0.9815764813
 40
0.9896138104
 40
0.9927790519
 40
0.9953729774
 40
0.9973938113
 40
0.9988397773
 40
0.999709099
 40
1.0
 40
1.0
 40
1.0
 40
1.0
 10
124.0779484817
 20
99.9179123295
 30
0.0
 10
124.320482736
 20
100.0240245139
 30
0.0
 10
124.780694629
 20
100.2368044673
 30
0.0
 10
125.4256693472
 20
100.5629249067
 30
0.0
 10
125.9134272784
 20
100.8272029111
 30
0.0
 10
126.2628347304
 20
101.0244503647
 30
0.0
 10
126.4926996613
 20
101.1572630341
 30
0.0
 10
126.6989895173
 20
101.2788440022
 30
0.0
 10
126.880636353
 20
101.3877144157
 30
0.0
 10
127.0365426271
 20
101.4825386731
 30
0.0
 10
127.1498805808
 20
101.5522519273
 30
0.0
 10
127.2269616552
 20
101.6000189229
 30
0.0
 10
127.2743476784
 20
101.6295096575
 30
0.0
 10
127.3146080701
 20
101.654653006
 30
0.0
 10
127.3476559944
 20
101.6753468018
 30
0.0
 10
127.3706661463
 20
101.689765651
 30
0.0
 10
127.3854047594
 20
101.6990448638
 30
0.0
 10
127.3937464047
 20
101.704248715
 30
0.0
 10
127.4001556242
 20
101.7083924163
 30
0.0
 10
127.4049392184
 20
101.7111605536
 30
0.0
 10
127.4074553431
 20
101.7131824745
 30
0.0
 10
127.4089705041
 20
101.7136895401
 30
0.0
 10
127.4091664219
 20
101.7140002361
 30
0.0
  0
SPLINE
  5
538
100
AcDbEntity
  8
0
100
AcDbSpline
 62
7
  6
CONTINUOUS
 70
0
 71
3
 72
11
 73
7
 74
0
 42
0.0000001
 43
0.0000001
 44
0.0000000001
 40
0.0
 40
0.0
 40
0.0
 40
0.0
 40
0.2176103583
 40
0.4648039409
 40
0.7305822194
 40
1.0
 40
1.0
 40
1.0
 40
1.0
 10
124.5733799843
 20
99.2047322583
 30
0.0
 10
124.5158698545
 20
99.2341822075
 30
0.0
 10
124.403635459
 20
99.3180380379
 30
0.0
 10
124.2634053617
 20
99.4852760856
 30
0.0
 10
124.1495897788
 20
99.6892116898
 30
0.0
 10
124.0971394014
 20
99.8402539482
 30
0.0
 10
124.0779484012
 20
99.9179123295
 30
0.0
  0
SPLINE
  5
539
100
AcDbEntity
  8
0
100
AcDbSpline
 62
7
  6
CONTINUOUS
 70
0
 71
3
 72
24
 73
20
 74
0
 42
0.0000001
 43
0.0000001
 44
0.0000000001
 40
0.0
 40
0.0
 40
0.0
 40
0.0
 40
0.2087990803
 40
0.4001812209
 40
0.5710366497
 40
0.6477782736
 40
0.7181406643
 40
0.781662289
 40
0.8378901238
 40
0.8863839115
 40
0.9267135953
 40
0.9585212617
 40
0.9711266306
 40
0.9814800782
 40
0.9895586914
 40
0.9953478939
 40
0.9973794302
 40
0.9988331703
 40
1.0
 40
1.0
 40
1.0
 40
1.0
 10
124.5733799843
 20
99.2047322888
 30
0.0
 10
124.8348327755
 20
99.3044765123
 30
0.0
 10
125.3324302557
 20
99.5049349234
 30
0.0
 10
126.0329288438
 20
99.8133815431
 30
0.0
 10
126.5650429753
 20
100.0644690829
 30
0.0
 10
126.9474439793
 20
100.2525123718
 30
0.0
 10
127.1995881177
 20
100.3794298846
 30
0.0
 10
127.4262393405
 20
100.4958233544
 30
0.0
 10
127.6261005958
 20
100.6002141115
 30
0.0
 10
127.7978592546
 20
100.69126292
 30
0.0
 10
127.9403410142
 20
100.7676594685
 30
0.0
 10
128.0402230117
 20
100.8217162853
 30
0.0
 10
128.1046792241
 20
100.8568286533
 30
0.0
 10
128.1411989923
 20
100.8767369147
 30
0.0
 10
128.1696556208
 20
100.8923713962
 30
0.0
 10
128.1883894562
 20
100.9024935021
 30
0.0
 10
128.1992209222
 20
100.9086350648
 30
0.0
 10
128.2047988066
 20
100.9113549976
 30
0.0
 10
128.2076561861
 20
100.9135945034
 30
0.0
 10
128.2091664219
 20
100.9140002361
 30
0.0
  0
SPLINE
  5
53A
100
AcDbEntity
  8
0
100
AcDbSpline
 62
7
  6
CONTINUOUS
 70
0
 71
3
 72
18
 73
14
 74
0
 42
0.0000001
 43
0.0000001
 44
0.0000000001
 40
0.0
 40
0.0
 40
0.0
 40
0.0
 40
0.0039611421
 40
0.0157931938
 40
0.0354513828
 40
0.0628954253
 40
0.098089614
 40
0.1410028658
 40
0.2498149399
 40
0.3890502905
 40
0.559063237
 40
0.7612695536
 40
1.0
 40
1.0
 40
1.0
 40
1.0
 10
109.9091664219
 20
98.6126096991
 30
0.0
 10
109.9091851959
 20
98.6122792874
 30
0.0
 10
109.9112201109
 20
98.6126576559
 30
0.0
 10
109.9134225077
 20
98.6115228514
 30
0.0
 10
109.9186843516
 20
98.6110596958
 30
0.0
 10
109.9253038436
 20
98.6098736761
 30
0.0
 10
109.9341091428
 20
98.6087293456
 30
0.0
 10
109.9495750878
 20
98.6067839987
 30
0.0
 10
109.9737982551
 20
98.6044223527
 30
0.0
 10
110.0087207321
 20
98.6031540568
 30
0.0
 10
110.0514743764
 20
98.6046322282
 30
0.0
 10
110.1021875908
 20
98.6113391005
 30
0.0
 10
110.1378396256
 20
98.62124679
 30
0.0
 10
110.1566411718
 20
98.6279041733
 30
0.0
  0
SPLINE
  5
53B
100
AcDbEntity
  8
0
100
AcDbSpline
 62
7
  6
CONTINUOUS
 70
0
 71
3
 72
21
 73
17
 74
0
 42
0.0000001
 43
0.0000001
 44
0.0000000001
 40
0.0
 40
0.0
 40
0.0
 40
0.0
 40
0.001002423
 40
0.0040052511
 40
0.0090008047
 40
0.0159816141
 40
0.0358700983
 40
0.0636152939
 40
0.0991652263
 40
0.142471451
 40
0.1934877536
 40
0.2521784161
 40
0.3925697206
 40
0.5639621455
 40
0.7663812016
 40
1.0
 40
1.0
 40
1.0
 40
1.0
 10
109.4947845051
 20
97.9116826744
 30
0.0
 10
109.4947886619
 20
97.911522236
 30
0.0
 10
109.4958025665
 20
97.9120383534
 30
0.0
 10
109.4968669346
 20
97.9118078438
 30
0.0
 10
109.4994482176
 20
97.9123748259
 30
0.0
 10
109.5043724108
 20
97.9129626251
 30
0.0
 10
109.5131059769
 20
97.9144090608
 30
0.0
 10
109.5261977438
 20
97.9165527507
 30
0.0
 10
109.5430140871
 20
97.9195891524
 30
0.0
 10
109.5634293219
 20
97.9234983181
 30
0.0
 10
109.5874274454
 20
97.9284413653
 30
0.0
 10
109.6264681413
 20
97.937348891
 30
0.0
 10
109.6837344454
 20
97.9529329015
 30
0.0
 10
109.7617633966
 20
97.9793746301
 30
0.0
 10
109.8513735489
 20
98.0174420301
 30
0.0
 10
109.9129278919
 20
98.0506672193
 30
0.0
 10
109.9449528595
 20
98.0699911294
 30
0.0
  0
SPLINE
  5
53C
100
AcDbEntity
  8
0
100
AcDbSpline
 62
7
  6
CONTINUOUS
 70
0
 71
3
 72
9
 73
5
 74
0
 42
0.0000001
 43
0.0000001
 44
0.0000000001
 40
0.0
 40
0.0
 40
0.0
 40
0.0
 40
0.1783162429
 40
1.0
 40
1.0
 40
1.0
 40
1.0
 10
110.1566411718
 20
98.6279041733
 30
0.0
 10
110.2170270506
 20
98.6493034238
 30
0.0
 10
110.5540414569
 20
98.7738565067
 30
0.0
 10
110.8820435351
 20
98.922865595
 30
0.0
 10
111.1447288515
 20
99.0575802243
 30
0.0
  0
SPLINE
  5
53D
100
AcDbEntity
  8
0
100
AcDbSpline
 62
7
  6
CONTINUOUS
 70
0
 71
3
 72
9
 73
5
 74
0
 42
0.0000001
 43
0.0000001
 44
0.0000000001
 40
0.0
 40
0.0
 40
0.0
 40
0.0
 40
0.4970823711
 40
1.0
 40
1.0
 40
1.0
 40
1.0
 10
109.9449528629
 20
98.0699911261
 30
0.0
 10
110.0137769658
 20
98.1435477726
 30
0.0
 10
110.1237617371
 20
98.3207137604
 30
0.0
 10
110.1584862373
 20
98.5260043644
 30
0.0
 10
110.1566411914
 20
98.6279041733
 30
0.0
  0
SPLINE
  5
53E
100
AcDbEntity
  8
0
100
AcDbSpline
 62
7
  6
CONTINUOUS
 70
0
 71
3
 72
9
 73
5
 74
0
 42
0.0000001
 43
0.0000001
 44
0.0000000001
 40
0.0
 40
0.0
 40
0.0
 40
0.0
 40
0.1800415802
 40
1.0
 40
1.0
 40
1.0
 40
1.0
 10
109.9449528595
 20
98.0699911294
 30
0.0
 10
110.0112063883
 20
98.0933192869
 30
0.0
 10
110.3776868775
 20
98.2271275972
 30
0.0
 10
110.7358987046
 20
98.3837022099
 30
0.0
 10
111.0233799843
 20
98.5240127025
 30
0.0
  0
SPLINE
  5
53F
100
AcDbEntity
  8
0
100
AcDbSpline
 62
7
  6
CONTINUOUS
 70
0
 71
3
 72
11
 73
7
 74
0
 42
0.0000001
 43
0.0000001
 44
0.0000000001
 40
0.0
 40
0.0
 40
0.0
 40
0.0
 40
0.2165505689
 40
0.4508996508
 40
0.7112076325
 40
1.0
 40
1.0
 40
1.0
 40
1.0
 10
111.1447288515
 20
99.0575802243
 30
0.0
 10
111.2655082457
 20
99.1195030292
 30
0.0
 10
111.5392851667
 20
99.2075226197
 30
0.0
 10
111.9890255282
 20
99.2236447786
 30
0.0
 10
112.4747266287
 20
99.1310635274
 30
0.0
 10
112.7964516884
 20
99.0030208788
 30
0.0
 10
112.9587724263
 20
98.9229234876
 30
0.0
  0
SPLINE
  5
540
100
AcDbEntity
  8
0
100
AcDbSpline
 62
7
  6
CONTINUOUS
 70
0
 71
3
 72
9
 73
5
 74
0
 42
0.0000001
 43
0.0000001
 44
0.0000000001
 40
0.0
 40
0.0
 40
0.0
 40
0.0
 40
0.4837323167
 40
1.0
 40
1.0
 40
1.0
 40
1.0
 10
111.0233800777
 20
98.5240126144
 30
0.0
 10
111.0753129965
 20
98.597207181
 30
0.0
 10
111.1500674089
 20
98.773075244
 30
0.0
 10
111.1564533565
 20
98.9625175168
 30
0.0
 10
111.1447288964
 20
99.0575802243
 30
0.0
  0
SPLINE
  5
541
100
AcDbEntity
  8
0
100
AcDbSpline
 62
7
  6
CONTINUOUS
 70
0
 71
3
 72
10
 73
6
 74
0
 42
0.0000001
 43
0.0000001
 44
0.0000000001
 40
0.0
 40
0.0
 40
0.0
 40
0.0
 40
0.4329101754
 40
0.6985538276
 40
1.0
 40
1.0
 40
1.0
 40
1.0
 10
111.0233799843
 20
98.5240127025
 30
0.0
 10
111.2275412287
 20
98.5864609932
 30
0.0
 10
111.5906268019
 20
98.57013907
 30
0.0
 10
112.0591747101
 20
98.4193472846
 30
0.0
 10
112.3101350555
 20
98.2915896042
 30
0.0
 10
112.4375935467
 20
98.2150689152
 30
0.0
  0
SPLINE
  5
542
100
AcDbEntity
  8
0
100
AcDbSpline
 62
7
  6
CONTINUOUS
 70
0
 71
3
 72
14
 73
10
 74
0
 42
0.0000001
 43
0.0000001
 44
0.0000000001
 40
0.0
 40
0.0
 40
0.0
 40
0.0
 40
0.2277425968
 40
0.3524899936
 40
0.4821406093
 40
0.6144156909
 40
0.7465510011
 40
0.8758142923
 40
1.0
 40
1.0
 40
1.0
 40
1.0
 10
112.9587724263
 20
98.9229234876
 30
0.0
 10
113.623077616
 20
98.5950690265
 30
0.0
 10
114.6816550746
 20
98.142838395
 30
0.0
 10
116.1900925264
 20
97.7062337635
 30
0.0
 10
117.4307229267
 20
97.4831857876
 30
0.0
 10
118.7137315741
 20
97.4089106586
 30
0.0
 10
119.9946399391
 20
97.4966296992
 30
0.0
 10
121.2294078207
 20
97.7307560488
 30
0.0
 10
122.0207951839
 20
97.9665403249
 30
0.0
 10
122.4026880271
 20
98.0982049203
 30
0.0
  0
SPLINE
  5
543
100
AcDbEntity
  8
0
100
AcDbSpline
 62
7
  6
CONTINUOUS
 70
0
 71
3
 72
11
 73
7
 74
0
 42
0.0000001
 43
0.0000001
 44
0.0000000001
 40
0.0
 40
0.0
 40
0.0
 40
0.0
 40
0.2216188114
 40
0.4699950885
 40
0.7342374574
 40
1.0
 40
1.0
 40
1.0
 40
1.0
 10
112.4375935467
 20
98.2150688755
 30
0.0
 10
112.4977069488
 20
98.2439297028
 30
0.0
 10
112.6152779627
 20
98.3261933259
 30
0.0
 10
112.7632647615
 20
98.4921429267
 30
0.0
 10
112.8832589998
 20
98.6948218978
 30
0.0
 10
112.9386310518
 20
98.8455366933
 30
0.0
 10
112.9587724629
 20
98.9229234876
 30
0.0
  0
SPLINE
  5
544
100
AcDbEntity
  8
0
100
AcDbSpline
 62
7
  6
CONTINUOUS
 70
0
 71
3
 72
14
 73
10
 74
0
 42
0.0000001
 43
0.0000001
 44
0.0000000001
 40
0.0
 40
0.0
 40
0.0
 40
0.0
 40
0.2289479873
 40
0.3539155971
 40
0.4833673809
 40
0.6151244545
 40
0.7467221274
 40
0.8757210369
 40
1.0
 40
1.0
 40
1.0
 40
1.0
 10
112.4375935467
 20
98.2150689152
 30
0.0
 10
113.1788271817
 20
97.8971369215
 30
0.0
 10
114.3522249986
 20
97.4635491637
 30
0.0
 10
116.006473856
 20
97.0524600226
 30
0.0
 10
117.353480288
 20
96.8462489563
 30
0.0
 10
118.7383330778
 20
96.7796902223
 30
0.0
 10
120.1206869382
 20
96.8630535769
 30
0.0
 10
121.4605967921
 20
97.0834927065
 30
0.0
 10
122.3255635475
 20
97.3071154286
 30
0.0
 10
122.7449528595
 20
97.432779599
 30
0.0
  0
SPLINE
  5
545
100
AcDbEntity
  8
0
100
AcDbSpline
 62
7
  6
CONTINUOUS
 70
0
 71
3
 72
10
 73
6
 74
0
 42
0.0000001
 43
0.0000001
 44
0.0000000001
 40
0.0
 40
0.0
 40
0.0
 40
0.0
 40
0.5539844525
 40
0.794168701
 40
1.0
 40
1.0
 40
1.0
 40
1.0
 10
103.9488034508
 20
76.0503490381
 30
0.0
 10
104.0324138486
 20
76.0441357042
 30
0.0
 10
104.155096503
 20
76.0504605245
 30
0.0
 10
104.2995403458
 20
76.0977896266
 30
0.0
 10
104.3582573348
 20
76.133137289
 30
0.0
 10
104.3818161527
 20
76.1535176231
 30
0.0
  0
SPLINE
  5
546
100
AcDbEntity
  8
0
100
AcDbSpline
 62
7
  6
CONTINUOUS
 70
0
 71
3
 72
9
 73
5
 74
0
 42
0.0000001
 43
0.0000001
 44
0.0000000001
 40
0.0
 40
0.0
 40
0.0
 40
0.0
 40
0.5001121102
 40
1.0
 40
1.0
 40
1.0
 40
1.0
 10
104.3818161527
 20
76.1535176231
 30
0.0
 10
104.5206109956
 20
76.8328063835
 30
0.0
 10
104.7389912388
 20
78.2041838161
 30
0.0
 10
104.8146997368
 20
79.5915250544
 30
0.0
 10
104.8147051565
 20
80.2845375314
 30
0.0
  0
SPLINE
  5
547
100
AcDbEntity
  8
0
100
AcDbSpline
 62
7
  6
CONTINUOUS
 70
0
 71
3
 72
9
 73
5
 74
0
 42
0.0000001
 43
0.0000001
 44
0.0000000001
 40
0.0
 40
0.0
 40
0.0
 40
0.0
 40
0.4993226166
 40
1.0
 40
1.0
 40
1.0
 40
1.0
 10
104.8147051565
 20
80.2845375314
 30
0.0
 10
104.8147105847
 20
80.9786352635
 30
0.0
 10
104.7387435678
 20
82.3697036918
 30
0.0
 10
104.5205009295
 20
83.7448621494
 30
0.0
 10
104.3818161527
 20
84.4268856356
 30
0.0
  0
SPLINE
  5
548
100
AcDbEntity
  8
0
100
AcDbSpline
 62
7
  6
CONTINUOUS
 70
0
 71
3
 72
10
 73
6
 74
0
 42
0.0000001
 43
0.0000001
 44
0.0000000001
 40
0.0
 40
0.0
 40
0.0
 40
0.0
 40
0.5700184905
 40
0.8098322585
 40
1.0
 40
1.0
 40
1.0
 40
1.0
 10
103.9488034508
 20
84.3280822947
 30
0.0
 10
104.0330779554
 20
84.3364306005
 30
0.0
 10
104.1525101155
 20
84.354453156
 30
0.0
 10
104.2962145524
 20
84.3923890904
 30
0.0
 10
104.3563924773
 20
84.414562127
 30
0.0
 10
104.3818161527
 20
84.4268856356
 30
0.0
  0
SPLINE
  5
549
100
AcDbEntity
  8
0
100
AcDbSpline
 62
7
  6
CONTINUOUS
 70
0
 71
3
 72
11
 73
7
 74
0
 42
0.0000001
 43
0.0000001
 44
0.0000000001
 40
0.0
 40
0.0
 40
0.0
 40
0.0
 40
0.2502135198
 40
0.5000003261
 40
0.7497871472
 40
1.0
 40
1.0
 40
1.0
 40
1.0
 10
103.9324807629
 20
76.0509499711
 30
0.0
 10
104.0758924938
 20
76.731292377
 30
0.0
 10
104.3024587032
 20
78.1047002018
 30
0.0
 10
104.4214037168
 20
80.1891183805
 30
0.0
 10
104.3024570111
 20
82.2735344864
 30
0.0
 10
104.0758922685
 20
83.6469407002
 30
0.0
 10
103.9324807629
 20
84.3272812595
 30
0.0
  0
SPLINE
  5
54A
100
AcDbEntity
  8
0
100
AcDbSpline
 62
7
  6
CONTINUOUS
 70
0
 71
3
 72
9
 73
5
 74
0
 42
0.0000001
 43
0.0000001
 44
0.0000000001
 40
0.0
 40
0.0
 40
0.0
 40
0.0
 40
0.5034214164
 40
1.0
 40
1.0
 40
1.0
 40
1.0
 10
103.9488034508
 20
71.4394331684
 30
0.0
 10
104.0352112868
 20
71.4389118292
 30
0.0
 10
104.2103296369
 20
71.4833756564
 30
0.0
 10
104.3387535894
 20
71.6105821068
 30
0.0
 10
104.3818161527
 20
71.6841388852
 30
0.0
  0
SPLINE
  5
54B
100
AcDbEntity
  8
0
100
AcDbSpline
 62
7
  6
CONTINUOUS
 70
0
 71
3
 72
10
 73
6
 74
0
 42
0.0000001
 43
0.0000001
 44
0.0000000001
 40
0.0
 40
0.0
 40
0.0
 40
0.0
 40
0.5103035078
 40
0.756389404
 40
1.0
 40
1.0
 40
1.0
 40
1.0
 10
104.3818161527
 20
71.6841388852
 30
0.0
 10
104.5161647552
 20
71.9533237575
 30
0.0
 10
104.6815302893
 20
72.3722536386
 30
0.0
 10
104.7957682537
 20
72.9518871381
 30
0.0
 10
104.8148308671
 20
73.2409683616
 30
0.0
 10
104.8148288546
 20
73.3845887197
 30
0.0
  0
SPLINE
  5
54C
100
AcDbEntity
  8
0
100
AcDbSpline
 62
7
  6
CONTINUOUS
 70
0
 71
3
 72
10
 73
6
 74
0
 42
0.0000001
 43
0.0000001
 44
0.0000000001
 40
0.0
 40
0.0
 40
0.0
 40
0.0
 40
0.2412289029
 40
0.4867775853
 40
1.0
 40
1.0
 40
1.0
 40
1.0
 10
104.8148288546
 20
73.3845887197
 30
0.0
 10
104.814826834
 20
73.5287920752
 30
0.0
 10
104.7955353736
 20
73.8201426677
 30
0.0
 10
104.6807964522
 20
74.4080313577
 30
0.0
 10
104.5157620834
 20
74.8350672311
 30
0.0
 10
104.3818161527
 20
75.1110801245
 30
0.0
  0
SPLINE
  5
54D
100
AcDbEntity
  8
0
100
AcDbSpline
 62
7
  6
CONTINUOUS
 70
0
 71
3
 72
9
 73
5
 74
0
 42
0.0000001
 43
0.0000001
 44
0.0000000001
 40
0.0
 40
0.0
 40
0.0
 40
0.0
 40
0.5133226952
 40
1.0
 40
1.0
 40
1.0
 40
1.0
 10
103.9488034508
 20
74.8681825486
 30
0.0
 10
104.0358458792
 20
74.8739082259
 30
0.0
 10
104.2049576944
 20
74.9229441029
 30
0.0
 10
104.3369928595
 20
75.0415776511
 30
0.0
 10
104.3818161527
 20
75.1110801245
 30
0.0
  0
SPLINE
  5
54E
100
AcDbEntity
  8
0
100
AcDbSpline
 62
7
  6
CONTINUOUS
 70
0
 71
3
 72
13
 73
9
 74
0
 42
0.0000001
 43
0.0000001
 44
0.0000000001
 40
0.0
 40
0.0
 40
0.0
 40
0.0
 40
0.2562775445
 40
0.3790537466
 40
0.4999997175
 40
0.6209455733
 40
0.743721769
 40
1.0
 40
1.0
 40
1.0
 40
1.0
 10
103.9324807629
 20
71.4394819803
 30
0.0
 10
104.0709196676
 20
71.7115175535
 30
0.0
 10
104.2423588418
 20
72.1340335044
 30
0.0
 10
104.3618364449
 20
72.7188818653
 30
0.0
 10
104.3916735889
 20
73.153565204
 30
0.0
 10
104.3618357306
 20
73.5882483557
 30
0.0
 10
104.2423609954
 20
74.1730979828
 30
0.0
 10
104.0709203738
 20
74.5956145154
 30
0.0
 10
103.9324807629
 20
74.8676506466
 30
0.0
  0
SPLINE
  5
54F
100
AcDbEntity
  8
0
100
AcDbSpline
 62
7
  6
CONTINUOUS
 70
0
 71
3
 72
9
 73
5
 74
0
 42
0.0000001
 43
0.0000001
 44
0.0000000001
 40
0.0
 40
0.0
 40
0.0
 40
0.0
 40
0.513322717
 40
1.0
 40
1.0
 40
1.0
 40
1.0
 10
103.9488034508
 20
95.4598179229
 30
0.0
 10
104.0358458788
 20
95.4540922444
 30
0.0
 10
104.2049576612
 20
95.4050563173
 30
0.0
 10
104.3369928635
 20
95.28642283
 30
0.0
 10
104.3818161527
 20
95.2169203629
 30
0.0
  0
SPLINE
  5
550
100
AcDbEntity
  8
0
100
AcDbSpline
 62
7
  6
CONTINUOUS
 70
0
 71
3
 72
10
 73
6
 74
0
 42
0.0000001
 43
0.0000001
 44
0.0000000001
 40
0.0
 40
0.0
 40
0.0
 40
0.0
 40
0.5132224134
 40
0.7587710962
 40
1.0
 40
1.0
 40
1.0
 40
1.0
 10
104.3818161527
 20
95.2169203629
 30
0.0
 10
104.5157620175
 20
95.492933285
 30
0.0
 10
104.6807964811
 20
95.9199691111
 30
0.0
 10
104.7955353673
 20
96.5078578087
 30
0.0
 10
104.8148268338
 20
96.7992083979
 30
0.0
 10
104.8148288546
 20
96.9434117528
 30
0.0
  0
SPLINE
  5
551
100
AcDbEntity
  8
0
100
AcDbSpline
 62
7
  6
CONTINUOUS
 70
0
 71
3
 72
10
 73
6
 74
0
 42
0.0000001
 43
0.0000001
 44
0.0000000001
 40
0.0
 40
0.0
 40
0.0
 40
0.0
 40
0.2436105971
 40
0.4896964945
 40
1.0
 40
1.0
 40
1.0
 40
1.0
 10
104.8148288546
 20
96.9434117528
 30
0.0
 10
104.8148308673
 20
97.0870321115
 30
0.0
 10
104.7957682575
 20
97.3761133375
 30
0.0
 10
104.6815302726
 20
97.9557468301
 30
0.0
 10
104.5161647899
 20
98.3746767344
 30
0.0
 10
104.3818161527
 20
98.6438615879
 30
0.0
  0
SPLINE
  5
552
100
AcDbEntity
  8
0
100
AcDbSpline
 62
7
  6
CONTINUOUS
 70
0
 71
3
 72
9
 73
5
 74
0
 42
0.0000001
 43
0.0000001
 44
0.0000000001
 40
0.0
 40
0.0
 40
0.0
 40
0.0
 40
0.5034214338
 40
1.0
 40
1.0
 40
1.0
 40
1.0
 10
103.9488034508
 20
98.8885673038
 30
0.0
 10
104.0352112894
 20
98.8890886428
 30
0.0
 10
104.2103296375
 20
98.8446248096
 30
0.0
 10
104.3387535903
 20
98.7174183629
 30
0.0
 10
104.3818161527
 20
98.6438615879
 30
0.0
  0
SPLINE
  5
553
100
AcDbEntity
  8
0
100
AcDbSpline
 62
7
  6
CONTINUOUS
 70
0
 71
3
 72
13
 73
9
 74
0
 42
0.0000001
 43
0.0000001
 44
0.0000000001
 40
0.0
 40
0.0
 40
0.0
 40
0.0
 40
0.2562782321
 40
0.3790544274
 40
0.5000002832
 40
0.6209462539
 40
0.7437224561
 40
1.0
 40
1.0
 40
1.0
 40
1.0
 10
103.9324807629
 20
95.4603498256
 30
0.0
 10
104.0709202703
 20
95.732386011
 30
0.0
 10
104.2423610384
 20
96.1549024733
 30
0.0
 10
104.3618357284
 20
96.7397521198
 30
0.0
 10
104.3916735871
 20
97.1744352671
 30
0.0
 10
104.3618364482
 20
97.6091186092
 30
0.0
 10
104.2423588093
 20
98.1939669552
 30
0.0
 10
104.0709197453
 20
98.6164829591
 30
0.0
 10
103.9324807629
 20
98.8885184919
 30
0.0
  0
SPLINE
  5
554
100
AcDbEntity
  8
0
100
AcDbSpline
 62
7
  6
CONTINUOUS
 70
0
 71
3
 72
10
 73
6
 74
0
 42
0.0000001
 43
0.0000001
 44
0.0000000001
 40
0.0
 40
0.0
 40
0.0
 40
0.0
 40
0.570018505
 40
0.809832279
 40
1.0
 40
1.0
 40
1.0
 40
1.0
 10
103.9488034508
 20
85.9999181768
 30
0.0
 10
104.0330779549
 20
85.9915698698
 30
0.0
 10
104.1525101148
 20
85.9735472916
 30
0.0
 10
104.2962145336
 20
85.9356113286
 30
0.0
 10
104.3563924804
 20
85.9134383587
 30
0.0
 10
104.3818161527
 20
85.9011148528
 30
0.0
  0
SPLINE
  5
555
100
AcDbEntity
  8
0
100
AcDbSpline
 62
7
  6
CONTINUOUS
 70
0
 71
3
 72
9
 73
5
 74
0
 42
0.0000001
 43
0.0000001
 44
0.0000000001
 40
0.0
 40
0.0
 40
0.0
 40
0.0
 40
0.5006889993
 40
1.0
 40
1.0
 40
1.0
 40
1.0
 10
104.3818161527
 20
85.9011148528
 30
0.0
 10
104.5205015383
 20
86.5831415931
 30
0.0
 10
104.738643931
 20
87.9582823538
 30
0.0
 10
104.814834283
 20
89.349312185
 30
0.0
 10
104.8148288546
 20
90.0433809684
 30
0.0
  0
SPLINE
  5
556
100
AcDbEntity
  8
0
100
AcDbSpline
 62
7
  6
CONTINUOUS
 70
0
 71
3
 72
9
 73
5
 74
0
 42
0.0000001
 43
0.0000001
 44
0.0000000001
 40
0.0
 40
0.0
 40
0.0
 40
0.0
 40
0.4999008323
 40
1.0
 40
1.0
 40
1.0
 40
1.0
 10
104.8148288546
 20
90.0433809684
 30
0.0
 10
104.8148234342
 20
90.7364258933
 30
0.0
 10
104.7389068381
 20
92.1237844338
 30
0.0
 10
104.5206103778
 20
93.4951974823
 30
0.0
 10
104.3818161527
 20
94.1744828662
 30
0.0
  0
SPLINE
  5
557
100
AcDbEntity
  8
0
100
AcDbSpline
 62
7
  6
CONTINUOUS
 70
0
 71
3
 72
10
 73
6
 74
0
 42
0.0000001
 43
0.0000001
 44
0.0000000001
 40
0.0
 40
0.0
 40
0.0
 40
0.0
 40
0.5539845112
 40
0.7941687709
 40
1.0
 40
1.0
 40
1.0
 40
1.0
 10
103.9488034508
 20
94.2776514334
 30
0.0
 10
104.0324138527
 20
94.2838647662
 30
0.0
 10
104.1550965149
 20
94.2775399111
 30
0.0
 10
104.2995403319
 20
94.2302107944
 30
0.0
 10
104.3582573432
 20
94.1948631911
 30
0.0
 10
104.3818161527
 20
94.1744828662
 30
0.0
  0
SPLINE
  5
558
100
AcDbEntity
  8
0
100
AcDbSpline
 62
7
  6
CONTINUOUS
 70
0
 71
3
 72
11
 73
7
 74
0
 42
0.0000001
 43
0.0000001
 44
0.0000000001
 40
0.0
 40
0.0
 40
0.0
 40
0.0
 40
0.2502128528
 40
0.4999996742
 40
0.7497864801
 40
1.0
 40
1.0
 40
1.0
 40
1.0
 10
103.9324807629
 20
86.0007192126
 30
0.0
 10
104.0758921747
 20
86.6810597917
 30
0.0
 10
104.3024570636
 20
88.0544659739
 30
0.0
 10
104.4214037257
 20
90.138882098
 30
0.0
 10
104.3024586215
 20
92.2233002538
 30
0.0
 10
104.0758926285
 20
93.5967081234
 30
0.0
 10
103.9324807629
 20
94.277050501
 30
0.0
  0
SPLINE
  5
559
100
AcDbEntity
  8
0
100
AcDbSpline
 62
7
  6
CONTINUOUS
 70
0
 71
3
 72
9
 73
5
 74
0
 42
0.0000001
 43
0.0000001
 44
0.0000000001
 40
0.0
 40
0.0
 40
0.0
 40
0.0
 40
0.4170596057
 40
1.0
 40
1.0
 40
1.0
 40
1.0
 10
98.5404087461
 20
74.4383299822
 30
0.0
 10
98.5368031318
 20
74.4452570334
 30
0.0
 10
98.5302792749
 20
74.4629169273
 30
0.0
 10
98.525450339
 20
74.4810017499
 30
0.0
 10
98.5229013283
 20
74.4916152483
 30
0.0
  0
SPLINE
  5
55A
100
AcDbEntity
  8
0
100
AcDbSpline
 62
7
  6
CONTINUOUS
 70
0
 71
3
 72
39
 73
35
 74
0
 42
0.0000001
 43
0.0000001
 44
0.0000000001
 40
0.0
 40
0.0
 40
0.0
 40
0.0
 40
0.0032739109
 40
0.0076408057
 40
0.0196297739
 40
0.0358838849
 40
0.0562643518
 40
0.0805951808
 40
0.108657735
 40
0.1402054064
 40
0.1749539353
 40
0.2527908363
 40
0.3393910612
 40
0.4316627827
 40
0.5263109729
 40
0.6199554621
 40
0.709251945
 40
0.7512634343
 40
0.7910117856
 40
0.82813944
 40
0.8623166048
 40
0.8932365142
 40
0.9206240929
 40
0.9442361299
 40
0.9638621054
 40
0.9721263298
 40
0.979333772
 40
0.9854679254
 40
0.9905188086
 40
0.9944801534
 40
0.997350507
 40
0.9983812818
 40
0.9991508812
 40
1.0
 40
1.0
 40
1.0
 40
1.0
 10
98.5229013283
 20
74.4916152483
 30
0.0
 10
98.5174363726
 20
74.5143700751
 30
0.0
 10
98.5073541841
 20
74.5680999862
 30
0.0
 10
98.4874925366
 20
74.7070083849
 30
0.0
 10
98.4643607308
 20
74.9390385962
 30
0.0
 10
98.4378669679
 20
75.285582156
 30
0.0
 10
98.4111952548
 20
75.7205646725
 30
0.0
 10
98.3842958399
 20
76.2400571412
 30
0.0
 10
98.3573039112
 20
76.8394637845
 30
0.0
 10
98.3302384585
 20
77.5133973938
 30
0.0
 10
98.2926546446
 20
78.5429752488
 30
0.0
 10
98.2467048895
 20
79.9660154767
 30
0.0
 10
98.1931690137
 20
81.8001873295
 30
0.0
 10
98.1395191371
 20
83.7545704775
 30
0.0
 10
98.0858176239
 20
85.759322464
 30
0.0
 10
98.0321322838
 20
87.7428002806
 30
0.0
 10
97.9866030695
 20
89.3501143965
 30
0.0
 10
97.9496069512
 20
90.5722636722
 30
0.0
 10
97.9224447712
 20
91.4216364769
 30
0.0
 10
97.8953058221
 20
92.2149800589
 30
0.0
 10
97.8682040301
 20
92.9451798536
 30
0.0
 10
97.8411490367
 20
93.6057072572
 30
0.0
 10
97.8141748383
 20
94.1906492927
 30
0.0
 10
97.7873004759
 20
94.6947693794
 30
0.0
 10
97.7639444861
 20
95.0621766058
 30
0.0
 10
97.7447634041
 20
95.3123264202
 30
0.0
 10
97.7312619572
 20
95.4661706138
 30
0.0
 10
97.7177888863
 20
95.5969746556
 30
0.0
 10
97.7044838708
 20
95.7043737768
 30
0.0
 10
97.6911499591
 20
95.7884349902
 30
0.0
 10
97.6797378715
 20
95.8431670769
 30
0.0
 10
97.6694947795
 20
95.8755382909
 30
0.0
 10
97.6625430993
 20
95.8920191087
 30
0.0
 10
97.6542358413
 20
95.9039755337
 30
0.0
 10
97.6481663536
 20
95.903982068
 30
0.0
  0
SPLINE
  5
55B
100
AcDbEntity
  8
0
100
AcDbSpline
 62
7
  6
CONTINUOUS
 70
0
 71
3
 72
10
 73
6
 74
0
 42
0.0000001
 43
0.0000001
 44
0.0000000001
 40
0.0
 40
0.0
 40
0.0
 40
0.0
 40
0.2424187365
 40
0.4882443795
 40
1.0
 40
1.0
 40
1.0
 40
1.0
 10
99.6591664219
 20
97.1744341601
 30
0.0
 10
99.6591664219
 20
97.0304721617
 30
0.0
 10
99.6783599274
 20
96.7401529269
 30
0.0
 10
99.7929502848
 20
96.1562174649
 30
0.0
 10
99.9581329395
 20
95.7330999249
 30
0.0
 10
100.0921791238
 20
95.4603498256
 30
0.0
  0
SPLINE
  5
55C
100
AcDbEntity
  8
0
100
AcDbSpline
 62
7
  6
CONTINUOUS
 70
0
 71
3
 72
10
 73
6
 74
0
 42
0.0000001
 43
0.0000001
 44
0.0000000001
 40
0.0
 40
0.0
 40
0.0
 40
0.0
 40
0.5117556247
 40
0.7575812662
 40
1.0
 40
1.0
 40
1.0
 40
1.0
 10
100.0921791238
 20
98.8885184919
 30
0.0
 10
99.9581329386
 20
98.6157683907
 30
0.0
 10
99.7929502924
 20
98.1926508478
 30
0.0
 10
99.6783599194
 20
97.6087153893
 30
0.0
 10
99.659166422
 20
97.3183961566
 30
0.0
 10
99.6591664219
 20
97.1744341601
 30
0.0
  0
SPLINE
  5
55D
100
AcDbEntity
  8
0
100
AcDbSpline
 62
7
  6
CONTINUOUS
 70
0
 71
3
 72
9
 73
5
 74
0
 42
0.0000001
 43
0.0000001
 44
0.0000000001
 40
0.0
 40
0.0
 40
0.0
 40
0.0
 40
0.4996039805
 40
1.0
 40
1.0
 40
1.0
 40
1.0
 10
99.6591664219
 20
90.13888486
 30
0.0
 10
99.6591664218
 20
89.4450865121
 30
0.0
 10
99.7353273386
 20
88.0554059286
 30
0.0
 10
99.953561712
 20
86.6816515079
 30
0.0
 10
100.0921791238
 20
86.0007192126
 30
0.0
  0
SPLINE
  5
55E
100
AcDbEntity
  8
0
100
AcDbSpline
 62
7
  6
CONTINUOUS
 70
0
 71
3
 72
9
 73
5
 74
0
 42
0.0000001
 43
0.0000001
 44
0.0000000001
 40
0.0
 40
0.0
 40
0.0
 40
0.0
 40
0.5003960241
 40
1.0
 40
1.0
 40
1.0
 40
1.0
 10
100.0921791238
 20
94.277050501
 30
0.0
 10
99.9535617109
 20
93.5961182006
 30
0.0
 10
99.7353273427
 20
92.2223637813
 30
0.0
 10
99.659166422
 20
90.8326832005
 30
0.0
 10
99.6591664219
 20
90.13888486
 30
0.0
  0
SPLINE
  5
55F
100
AcDbEntity
  8
0
100
AcDbSpline
 62
7
  6
CONTINUOUS
 70
0
 71
3
 72
9
 73
5
 74
0
 42
0.0000001
 43
0.0000001
 44
0.0000000001
 40
0.0
 40
0.0
 40
0.0
 40
0.0
 40
0.4996039805
 40
1.0
 40
1.0
 40
1.0
 40
1.0
 10
99.6591664219
 20
80.1891156186
 30
0.0
 10
99.6591664218
 20
79.4953172706
 30
0.0
 10
99.7353273386
 20
78.1056366871
 30
0.0
 10
99.953561712
 20
76.7318822664
 30
0.0
 10
100.0921791238
 20
76.0509499711
 30
0.0
  0
SPLINE
  5
560
100
AcDbEntity
  8
0
100
AcDbSpline
 62
7
  6
CONTINUOUS
 70
0
 71
3
 72
9
 73
5
 74
0
 42
0.0000001
 43
0.0000001
 44
0.0000000001
 40
0.0
 40
0.0
 40
0.0
 40
0.0
 40
0.5003960241
 40
1.0
 40
1.0
 40
1.0
 40
1.0
 10
100.0921791238
 20
84.3272812595
 30
0.0
 10
99.9535617109
 20
83.6463489591
 30
0.0
 10
99.7353273427
 20
82.2725945398
 30
0.0
 10
99.659166422
 20
80.882913959
 30
0.0
 10
99.6591664219
 20
80.1891156186
 30
0.0
  0
SPLINE
  5
561
100
AcDbEntity
  8
0
100
AcDbSpline
 62
7
  6
CONTINUOUS
 70
0
 71
3
 72
10
 73
6
 74
0
 42
0.0000001
 43
0.0000001
 44
0.0000000001
 40
0.0
 40
0.0
 40
0.0
 40
0.0
 40
0.2424187365
 40
0.4882443795
 40
1.0
 40
1.0
 40
1.0
 40
1.0
 10
99.6591664219
 20
73.1535663148
 30
0.0
 10
99.6591664219
 20
73.0096043164
 30
0.0
 10
99.6783599274
 20
72.7192850816
 30
0.0
 10
99.7929502848
 20
72.1353496196
 30
0.0
 10
99.9581329395
 20
71.7122320796
 30
0.0
 10
100.0921791238
 20
71.4394819803
 30
0.0
  0
SPLINE
  5
562
100
AcDbEntity
  8
0
100
AcDbSpline
 62
7
  6
CONTINUOUS
 70
0
 71
3
 72
10
 73
6
 74
0
 42
0.0000001
 43
0.0000001
 44
0.0000000001
 40
0.0
 40
0.0
 40
0.0
 40
0.0
 40
0.5117556247
 40
0.7575812662
 40
1.0
 40
1.0
 40
1.0
 40
1.0
 10
100.0921791238
 20
74.8676506466
 30
0.0
 10
99.9581329386
 20
74.5949005454
 30
0.0
 10
99.7929502924
 20
74.1717830025
 30
0.0
 10
99.6783599194
 20
73.587847544
 30
0.0
 10
99.659166422
 20
73.2975283113
 30
0.0
 10
99.6591664219
 20
73.1535663148
 30
0.0
  0
SPLINE
  5
563
100
AcDbEntity
  8
0
100
AcDbSpline
 62
7
  6
CONTINUOUS
 70
0
 71
3
 72
9
 73
5
 74
0
 42
0.0000001
 43
0.0000001
 44
0.0000000001
 40
0.0
 40
0.0
 40
0.0
 40
0.0
 40
0.2373325247
 40
1.0
 40
1.0
 40
1.0
 40
1.0
 10
131.7429069012
 20
116.1258893906
 30
0.0
 10
131.735631514
 20
116.0894950367
 30
0.0
 10
131.7080538527
 20
115.9355564782
 30
0.0
 10
131.6854970032
 20
115.7806673478
 30
0.0
 10
131.6607295629
 20
115.6640002361
 30
0.0
  0
ELLIPSE
  5
564
100
AcDbEntity
  8
0
100
AcDbEllipse
 62
7
  6
CONTINUOUS
 10
132.0833703694
 20
115.6640002361
 30
0.0
 11
-0.0
 21
1.0
 31
0.0
 40
0.383864035
 41
0.0
 42
1.0906723322
  0
ELLIPSE
  5
565
100
AcDbEntity
  8
0
100
AcDbEllipse
 62
7
  6
CONTINUOUS
 10
130.6283613407
 20
115.7012680173
 30
0.0
 11
0.5486916773
 21
1.2874646535
 31
0.0
 40
0.7145358838
 41
-1.5707963268
 42
-1.3028918007
  0
ELLIPSE
  5
566
100
AcDbEntity
  8
0
100
AcDbEllipse
 62
7
  6
CONTINUOUS
 10
129.4767692356
 20
112.9991418657
 30
0.0
 11
-0.5486916773
 21
-1.2874646535
 31
0.0
 40
0.7145358838
 41
1.5707963268
 42
2.1085963504
  0
ELLIPSE
  5
567
100
AcDbEntity
  8
0
100
AcDbEllipse
 62
7
  6
CONTINUOUS
 10
117.5927667295
 20
114.9547748593
 30
0.0
 11
-1.2104221425
 21
1.2980188316
 31
0.0
 40
0.563438437
 41
0.5435120867
 42
1.5707963268
  0
ELLIPSE
  5
568
100
AcDbEntity
  8
0
100
AcDbEllipse
 62
7
  6
CONTINUOUS
 10
113.1785531671
 20
116.6640002361
 30
0.0
 11
3.0
 21
0.0
 31
0.0
 40
1.0
 41
-0.0
 42
1.5707963268
  0
ELLIPSE
  5
569
100
AcDbEntity
  8
0
100
AcDbEllipse
 62
7
  6
CONTINUOUS
 10
131.6995063343
 20
116.6640002361
 30
0.0
 11
-0.0
 21
3.0
 31
0.0
 40
0.383864035
 41
0.0
 42
1.5707963268
  0
ENDSEC
  0
SECTION
  2
OBJECTS
  0
DICTIONARY
  5
56A
100
AcDbDictionary
  3
ACAD_GROUP
350
56B
  3
ACAD_MLINESTYLE
350
56C
  0
DICTIONARY
  5
56B
102
{ACAD_REACTORS
330
56A
102
}
100
AcDbDictionary
  0
DICTIONARY
  5
56C
102
{ACAD_REACTORS
330
56A
102
}
100
AcDbDictionary
  3
STANDARD
350
56D
  0
MLINESTYLE
  5
56D
102
{ACAD_REACTORS
330
56C
102
}
100
AcDbMlineStyle
  2
STANDARD
 70
0
  3

 62
256
 51
90.0
 52
90.0
 71
2
 49
0.5
 62
256
  6
BYLAYER
 49
-0.5
 62
256
  6
BYLAYER
  0
ENDSEC
  0
EOF
