999
DXF file: C:\Users\64ciro\Desktop\FILE 3D-2D\ARMATEC\SINGOLI\h36fll015_3082.dxf
999
Pro/ENGINEER 2017260 by Parametric Technology Corporation
  0
SECTION
  2
HEADER
  9
$ACADVER
  1
AC1014
  9
$DWGCODEPAGE
  3
ANSI_1252
  9
$EXTMAX
 10
297.0
 20
210.0
 30
0.0
  9
$EXTMIN
 10
0.0
 20
0.0
 30
0.0
  9
$LIMMIN
 10
0.0
 20
0.0
  9
$LIMMAX
 10
297.0
 20
210.0
  9
$VIEWCTR
 10
148.5
 20
105.0
  9
$VIEWSIZE
 40
210.0
  9
$CLAYER
  8
0
  9
$LTSCALE
 40
16.335
  9
$CELTYPE
  6
BYLAYER
  9
$DIMSCALE
 40
1.0
  9
$DIMASZ
 40
2.5
  9
$DIMEXO
 40
0.0625
  9
$DIMDLI
 40
11.286
  9
$DIMEXE
 40
0.125
  9
$DIMCEN
 40
2.673
  9
$DIMLFAC
 40
1.0
  9
$DIMBLK
  1
_CLOSED
  9
$DIMALT
 70
0
  9
$DIMALTF
 40
25.4
  9
$DIMTXT
 40
2.5
  9
$DIMTOL
 70
1
  9
$DIMLIM
 70
0
  9
$DIMTFAC
 40
1.0
  9
$DIMTP
 40
0.01
  9
$DIMTM
 40
0.01
  9
$DIMGAP
 40
0.625
  9
$AUNITS
 70
0
  9
$PDMODE
 70
3
  9
$PDSIZE
 40
0.3125
  9
$HANDSEED
  5
55B
  9
$TILEMODE
 70
1
  9
$MEASUREMENT
 70
1
  0
ENDSEC
  0
SECTION
  2
CLASSES
  0
ENDSEC
  0
SECTION
  2
TABLES
  0
TABLE
  2
VPORT
  5
8
100
AcDbSymbolTable
 70
2
  0
VPORT
  5
1F4
100
AcDbSymbolTableRecord
100
AcDbViewportTableRecord
  2
*ACTIVE
 70
0
 10
0.0
 20
0.0
 11
1.0
 21
1.0
 12
148.5
 22
105.0
 13
0.0
 23
0.0
 14
1.0
 24
1.0
 15
0.0
 25
0.0
 16
0.0
 26
0.0
 36
1.0
 17
0.0
 27
0.0
 37
0.0
 40
210.0
 41
1.4142857143
 42
50.0
 43
0.0
 44
0.0
 50
0.0
 51
0.0
 71
0
 72
100
 73
1
 74
1
 75
0
 76
0
 77
0
 78
0
  0
ENDTAB
  0
TABLE
  2
LTYPE
  5
5
100
AcDbSymbolTable
 70
6
  0
LTYPE
  5
14
100
AcDbSymbolTableRecord
100
AcDbLinetypeTableRecord
  2
BYBLOCK
 70
0
  3

 72
65
 73
0
 40
0.0
  0
LTYPE
  5
15
100
AcDbSymbolTableRecord
100
AcDbLinetypeTableRecord
  2
BYLAYER
 70
0
  3

 72
65
 73
0
 40
0.0
  0
LTYPE
  5
16
100
AcDbSymbolTableRecord
100
AcDbLinetypeTableRecord
  2
CONTINUOUS
 70
64
  3
Solid line
 72
65
 73
0
 40
0.0
  0
LTYPE
  5
1F5
100
AcDbSymbolTableRecord
100
AcDbLinetypeTableRecord
  2
CENTER
 70
64
  3
____ _ ____ _ ____ _ ____ _ ____ _ ____ _ ____
 72
65
 73
4
 40
0.6
 49
0.375
 74
0
 49
-0.075
 74
0
 49
0.075
 74
0
 49
-0.075
 74
0
  0
LTYPE
  5
1F6
100
AcDbSymbolTableRecord
100
AcDbLinetypeTableRecord
  2
HIDDEN
 70
64
  3
- - - - - - - - - - - - - - - - - - - -
 72
65
 73
2
 40
0.2
 49
0.1
 74
0
 49
-0.1
 74
0
  0
LTYPE
  5
1F7
100
AcDbSymbolTableRecord
100
AcDbLinetypeTableRecord
  2
PHANTOM
 70
64
  3
_____ _ _ _____ _ _ _____ _ _ _____
 72
65
 73
6
 40
0.8
 49
0.45
 74
0
 49
-0.05
 74
0
 49
0.1
 74
0
 49
-0.05
 74
0
 49
0.1
 74
0
 49
-0.05
 74
0
  0
LTYPE
  5
1F8
100
AcDbSymbolTableRecord
100
AcDbLinetypeTableRecord
  2
DOT
 70
64
  3
. . . . . . . . . . . . . . . . . . . .
 72
65
 73
2
 40
0.2
 49
0.1
 74
0
 49
-0.1
 74
0
  0
LTYPE
  5
1F9
100
AcDbSymbolTableRecord
100
AcDbLinetypeTableRecord
  2
DASHED
 70
64
  3
- - - - - - - - - - - - - - - - - - - -
 72
65
 73
2
 40
0.2
 49
0.1
 74
0
 49
-0.1
 74
0
  0
ENDTAB
  0
TABLE
  2
LAYER
  5
2
100
AcDbSymbolTable
 70
36
  0
LAYER
  5
10
100
AcDbSymbolTableRecord
100
AcDbLayerTableRecord
  2
0
 70
0
 62
7
  6
CONTINUOUS
  0
LAYER
  5
1FA
100
AcDbSymbolTableRecord
100
AcDbLayerTableRecord
  2
DEFAULT_1
 70
0
 62
7
  6
CENTER
  0
LAYER
  5
1FB
100
AcDbSymbolTableRecord
100
AcDbLayerTableRecord
  2
DEFAULT_2
 70
0
 62
8
  6
HIDDEN
  0
LAYER
  5
1FC
100
AcDbSymbolTableRecord
100
AcDbLayerTableRecord
  2
DEFAULT_3
 70
0
 62
7
  6
PHANTOM
  0
LAYER
  5
1FD
100
AcDbSymbolTableRecord
100
AcDbLayerTableRecord
  2
ASSI
 70
0
 62
7
  6
CONTINUOUS
  0
LAYER
  5
1FE
100
AcDbSymbolTableRecord
100
AcDbLayerTableRecord
  2
COSMETICA
 70
0
 62
7
  6
CONTINUOUS
  0
LAYER
  5
1FF
100
AcDbSymbolTableRecord
100
AcDbLayerTableRecord
  2
CSYS
 70
0
 62
7
  6
CONTINUOUS
  0
LAYER
  5
200
100
AcDbSymbolTableRecord
100
AcDbLayerTableRecord
  2
CURVE
 70
0
 62
7
  6
CONTINUOUS
  0
LAYER
  5
201
100
AcDbSymbolTableRecord
100
AcDbLayerTableRecord
  2
DETTAGLI
 70
0
 62
7
  6
CONTINUOUS
  0
LAYER
  5
202
100
AcDbSymbolTableRecord
100
AcDbLayerTableRecord
  2
FILETTI
 70
0
 62
7
  6
CONTINUOUS
  0
LAYER
  5
203
100
AcDbSymbolTableRecord
100
AcDbLayerTableRecord
  2
GEOM
 70
0
 62
7
  6
CONTINUOUS
  0
LAYER
  5
204
100
AcDbSymbolTableRecord
100
AcDbLayerTableRecord
  2
GEOMETRIA_SOLIDA
 70
0
 62
7
  6
CONTINUOUS
  0
LAYER
  5
205
100
AcDbSymbolTableRecord
100
AcDbLayerTableRecord
  2
LAY0001
 70
0
 62
7
  6
CONTINUOUS
  0
LAYER
  5
206
100
AcDbSymbolTableRecord
100
AcDbLayerTableRecord
  2
LAY0002
 70
0
 62
7
  6
CONTINUOUS
  0
LAYER
  5
207
100
AcDbSymbolTableRecord
100
AcDbLayerTableRecord
  2
LAY0003
 70
0
 62
7
  6
CONTINUOUS
  0
LAYER
  5
208
100
AcDbSymbolTableRecord
100
AcDbLayerTableRecord
  2
NOGEOM
 70
0
 62
7
  6
CONTINUOUS
  0
LAYER
  5
209
100
AcDbSymbolTableRecord
100
AcDbLayerTableRecord
  2
PIANI
 70
0
 62
7
  6
CONTINUOUS
  0
LAYER
  5
20A
100
AcDbSymbolTableRecord
100
AcDbLayerTableRecord
  2
QUOTE
 70
0
 62
7
  6
CONTINUOUS
  0
LAYER
  5
20B
100
AcDbSymbolTableRecord
100
AcDbLayerTableRecord
  2
RACCORDI
 70
0
 62
7
  6
CONTINUOUS
  0
LAYER
  5
20C
100
AcDbSymbolTableRecord
100
AcDbLayerTableRecord
  2
RIF
 70
0
 62
7
  6
CONTINUOUS
  0
LAYER
  5
20D
100
AcDbSymbolTableRecord
100
AcDbLayerTableRecord
  2
SMUSSI
 70
0
 62
7
  6
CONTINUOUS
  0
LAYER
  5
20E
100
AcDbSymbolTableRecord
100
AcDbLayerTableRecord
  2
TABELLE
 70
0
 62
7
  6
CONTINUOUS
  0
ENDTAB
  0
TABLE
  2
STYLE
  5
3
100
AcDbSymbolTable
 70
1
  0
STYLE
  5
11
100
AcDbSymbolTableRecord
100
AcDbTextStyleTableRecord
  2
STANDARD
 70
0
 40
0.0
 41
1.0
 50
0.0
 71
0
 42
0.2
  3
trium.ttf
  4

  0
STYLE
  5
20F
100
AcDbSymbolTableRecord
100
AcDbTextStyleTableRecord
  2
TEXTSTYLE_1
 70
0
 40
0.0
 41
0.8
 50
0.0
 71
0
 42
0.2
  3
gdt
  4

  0
ENDTAB
  0
TABLE
  2
VIEW
  5
6
100
AcDbSymbolTable
 70
0
  0
ENDTAB
  0
TABLE
  2
UCS
  5
7
100
AcDbSymbolTable
 70
0
  0
ENDTAB
  0
TABLE
  2
APPID
  5
9
100
AcDbSymbolTable
 70
1
  0
APPID
  5
210
100
AcDbSymbolTableRecord
100
AcDbRegAppTableRecord
  2
ACAD
 70
0
  0
ENDTAB
  0
TABLE
  2
BLOCK_RECORD
  5
1
100
AcDbSymbolTable
 70
0
  0
BLOCK_RECORD
  5
1F
100
AcDbSymbolTableRecord
100
AcDbBlockTableRecord
  2
*MODEL_SPACE
  0
BLOCK_RECORD
  5
1B
100
AcDbSymbolTableRecord
100
AcDbBlockTableRecord
  2
*PAPER_SPACE
  0
ENDTAB
  0
TABLE
  2
DIMSTYLE
  5
A
100
AcDbSymbolTable
 70
1
  0
DIMSTYLE
105
211
100
AcDbSymbolTableRecord
100
AcDbDimStyleTableRecord
  2
STANDARD
 70
0
  3

  4

  5
_CLOSED
  6
_CLOSED
  7
_CLOSED
 40
1.0
 41
2.5
 42
0.0625
 43
0.38
 44
0.125
 45
0.0
 46
0.0
 47
0.01
 48
0.01
140
2.5
141
0.09
142
0.0
143
25.4
144
1.0
145
0.0
146
1.0
147
0.625
 71
1.0
 72
0.0
 73
0
 74
0
 75
0
 76
0
 77
1
 78
8
 79
2
170
0
171
1
172
0
173
0
174
0
175
0
176
0
177
0
178
0
270
2
179
2
271
2
272
2
273
2
274
2
275
0
280
0
281
0
282
0
283
1
284
8
285
0
286
0
287
3
288
0
340
11
  0
ENDTAB
  0
ENDSEC
  0
SECTION
  2
BLOCKS
  0
BLOCK
  5
20
100
AcDbEntity
  8
0
100
AcDbBlockBegin
  2
*MODEL_SPACE
 70
0
 10
0.0
 20
0.0
 30
0.0
  3
*MODEL_SPACE
  1

  0
ENDBLK
  5
21
100
AcDbEntity
  8
0
100
AcDbBlockEnd
  0
BLOCK
  5
1C
100
AcDbEntity
  8
0
100
AcDbBlockBegin
  2
*PAPER_SPACE
 70
0
 10
0.0
 20
0.0
 30
0.0
  3
*PAPER_SPACE
  1

  0
ENDBLK
  5
1D
100
AcDbEntity
  8
0
100
AcDbBlockEnd
  0
ENDSEC
  0
SECTION
  2
ENTITIES
  0
LINE
  5
212
100
AcDbEntity
  8
0
100
AcDbLine
 62
7
  6
CONTINUOUS
 10
0.0
 20
0.0
 11
0.0
 21
210.0
  0
LINE
  5
213
100
AcDbEntity
  8
0
100
AcDbLine
 62
7
  6
CONTINUOUS
 10
0.0
 20
0.0
 11
297.0
 21
0.0
  0
LINE
  5
214
100
AcDbEntity
  8
0
100
AcDbLine
 62
7
  6
CONTINUOUS
 10
0.0
 20
210.0
 11
297.0
 21
210.0
  0
LINE
  5
215
100
AcDbEntity
  8
0
100
AcDbLine
 62
7
  6
CONTINUOUS
 10
297.0
 20
0.0
 11
297.0
 21
210.0
  0
LINE
  5
216
100
AcDbEntity
  8
0
100
AcDbLine
 62
7
  6
CONTINUOUS
 10
89.5552313991
 20
76.5423060442
 11
88.5160009145
 21
78.3423060442
  0
LINE
  5
217
100
AcDbEntity
  8
GEOM
100
AcDbLine
 62
7
  6
CONTINUOUS
 10
85.4293983742
 20
79.1923060442
 11
85.4293983742
 21
100.5923060442
  0
LINE
  5
218
100
AcDbEntity
  8
GEOM
100
AcDbLine
 62
7
  6
CONTINUOUS
 10
86.1293983742
 20
78.4923060442
 11
86.1293983742
 21
101.2923060442
  0
LINE
  5
219
100
AcDbEntity
  8
0
100
AcDbLine
 62
7
  6
CONTINUOUS
 10
88.2561932934
 20
101.2923060442
 11
88.2561932934
 21
78.4923060442
  0
LINE
  5
21A
100
AcDbEntity
  8
0
100
AcDbLine
 62
7
  6
CONTINUOUS
 10
88.5160009145
 20
101.4423060442
 11
88.5160009145
 21
78.3423060442
  0
LINE
  5
21B
100
AcDbEntity
  8
0
100
AcDbLine
 62
7
  6
CONTINUOUS
 10
89.5552313991
 20
76.5423060442
 11
89.5552313991
 21
76.5542102639
  0
LINE
  5
21C
100
AcDbEntity
  8
0
100
AcDbLine
 62
7
  6
CONTINUOUS
 10
89.5552313991
 20
82.7351231985
 11
89.5552313991
 21
83.7113929462
  0
LINE
  5
21D
100
AcDbEntity
  8
0
100
AcDbLine
 62
7
  6
CONTINUOUS
 10
89.5552313991
 20
96.0732191423
 11
89.5552313991
 21
97.0494888802
  0
LINE
  5
21E
100
AcDbEntity
  8
0
100
AcDbLine
 62
7
  6
CONTINUOUS
 10
89.5552313991
 20
103.2304018242
 11
89.5552313991
 21
103.2423060442
  0
LINE
  5
21F
100
AcDbEntity
  8
0
100
AcDbLine
 62
7
  6
CONTINUOUS
 10
89.8150390202
 20
103.3923060442
 11
89.8150390202
 21
103.3770046892
  0
LINE
  5
220
100
AcDbEntity
  8
0
100
AcDbLine
 62
7
  6
CONTINUOUS
 10
89.8150390202
 20
76.4076073993
 11
89.8150390202
 21
76.3923060442
  0
LINE
  5
221
100
AcDbEntity
  8
0
100
AcDbLine
 62
7
  6
CONTINUOUS
 10
89.8150390202
 20
82.5934705679
 11
89.8150390202
 21
83.7064428886
  0
LINE
  5
222
100
AcDbEntity
  8
0
100
AcDbLine
 62
7
  6
CONTINUOUS
 10
89.8150390202
 20
96.0781691998
 11
89.8150390202
 21
97.1911415212
  0
LINE
  5
223
100
AcDbEntity
  8
0
100
AcDbLine
 62
7
  6
CONTINUOUS
 10
99.7855575716
 20
79.4269546083
 11
99.8008264955
 21
79.4123060442
  0
LINE
  5
224
100
AcDbEntity
  8
0
100
AcDbLine
 62
7
  6
CONTINUOUS
 10
101.5998441491
 20
79.4269546109
 11
101.6151130756
 21
79.4123060442
  0
LINE
  5
225
100
AcDbEntity
  8
0
100
AcDbLine
 62
7
  6
CONTINUOUS
 10
103.4141294927
 20
79.4269545679
 11
103.4293983742
 21
79.4123060442
  0
LINE
  5
226
100
AcDbEntity
  8
0
100
AcDbLine
 62
7
  6
CONTINUOUS
 10
99.1771915423
 20
80.5937775345
 11
99.7855575716
 21
79.4269546083
  0
LINE
  5
227
100
AcDbEntity
  8
0
100
AcDbLine
 62
7
  6
CONTINUOUS
 10
100.9914781296
 20
80.5937775201
 11
101.5998441491
 21
79.4269546109
  0
LINE
  5
228
100
AcDbEntity
  8
0
100
AcDbLine
 62
7
  6
CONTINUOUS
 10
102.8057634906
 20
80.5937774516
 11
103.4141294927
 21
79.4269545679
  0
LINE
  5
229
100
AcDbEntity
  8
0
100
AcDbLine
 62
7
  6
CONTINUOUS
 10
97.5633729704
 20
97.1922816704
 11
97.5633729704
 21
96.0769644827
  0
LINE
  5
22A
100
AcDbEntity
  8
0
100
AcDbLine
 62
7
  6
CONTINUOUS
 10
97.5633729704
 20
83.7076476058
 11
97.5633729704
 21
82.592330418
  0
LINE
  5
22B
100
AcDbEntity
  8
0
100
AcDbLine
 62
7
  6
CONTINUOUS
 10
97.5633729704
 20
76.3923060442
 11
97.5633729704
 21
76.4076719796
  0
LINE
  5
22C
100
AcDbEntity
  8
0
100
AcDbLine
 62
7
  6
CONTINUOUS
 10
97.5633729704
 20
103.3769401089
 11
97.5633729704
 21
103.3923060442
  0
LINE
  5
22D
100
AcDbEntity
  8
0
100
AcDbLine
 62
7
  6
CONTINUOUS
 10
98.4293983742
 20
101.8923060442
 11
98.4293983742
 21
77.8923060442
  0
LINE
  5
22E
100
AcDbEntity
  8
0
100
AcDbLine
 62
7
  6
CONTINUOUS
 10
89.5552313991
 20
103.2423060442
 11
88.5160009145
 21
101.4423060442
  0
LINE
  5
22F
100
AcDbEntity
  8
0
100
AcDbLine
 62
7
  6
CONTINUOUS
 10
99.918683461
 20
99.1908345516
 11
99.3103174349
 21
100.3576574714
  0
LINE
  5
230
100
AcDbEntity
  8
0
100
AcDbLine
 62
7
  6
CONTINUOUS
 10
104.9293983742
 20
76.8923060442
 11
104.9293983742
 21
102.8923060442
  0
LINE
  5
231
100
AcDbEntity
  8
0
100
AcDbLine
 62
7
  6
CONTINUOUS
 10
105.3624110761
 20
76.9841427789
 11
105.3624110761
 21
77.4150935052
  0
LINE
  5
232
100
AcDbEntity
  8
0
100
AcDbLine
 62
7
  6
CONTINUOUS
 10
105.3624110761
 20
84.1146190282
 11
105.3624110761
 21
85.1550261163
  0
LINE
  5
233
100
AcDbEntity
  8
0
100
AcDbLine
 62
7
  6
CONTINUOUS
 10
105.3624110761
 20
94.6295859722
 11
105.3624110761
 21
95.6699930603
  0
LINE
  5
234
100
AcDbEntity
  8
0
100
AcDbLine
 62
7
  6
CONTINUOUS
 10
105.3624110761
 20
102.3695185833
 11
105.3624110761
 21
102.8004693096
  0
LINE
  5
235
100
AcDbEntity
  8
0
100
AcDbLine
 62
7
  6
CONTINUOUS
 10
115.2936119365
 20
75.7280924819
 11
114.2151848118
 21
76.8065196066
  0
LINE
  5
236
100
AcDbEntity
  8
0
100
AcDbLine
 62
7
  6
CONTINUOUS
 10
98.4293983742
 20
101.8923060442
 11
97.5633729704
 21
103.3923060442
  0
LINE
  5
237
100
AcDbEntity
  8
0
100
AcDbLine
 62
7
  6
CONTINUOUS
 10
101.7329697449
 20
99.1908346019
 11
101.1246037372
 21
100.3576574923
  0
LINE
  5
238
100
AcDbEntity
  8
GEOM
100
AcDbLine
 62
7
  6
CONTINUOUS
 10
107.9303602685
 20
76.9841427789
 11
107.9303602685
 21
77.4150935052
  0
LINE
  5
239
100
AcDbEntity
  8
GEOM
100
AcDbLine
 62
7
  6
CONTINUOUS
 10
107.9303602685
 20
84.1146190282
 11
107.9303602685
 21
85.1550261163
  0
LINE
  5
23A
100
AcDbEntity
  8
GEOM
100
AcDbLine
 62
7
  6
CONTINUOUS
 10
107.9303602685
 20
94.6295859722
 11
107.9303602685
 21
95.6699930603
  0
LINE
  5
23B
100
AcDbEntity
  8
GEOM
100
AcDbLine
 62
7
  6
CONTINUOUS
 10
107.9303602685
 20
102.3695185833
 11
107.9303602685
 21
102.8004693096
  0
LINE
  5
23C
100
AcDbEntity
  8
GEOM
100
AcDbLine
 62
7
  6
CONTINUOUS
 10
108.7963856723
 20
77.453530534
 11
108.7963856723
 21
77.8688103248
  0
LINE
  5
23D
100
AcDbEntity
  8
GEOM
100
AcDbLine
 62
7
  6
CONTINUOUS
 10
108.7963856723
 20
84.3247167378
 11
108.7963856723
 21
85.3272908409
  0
LINE
  5
23E
100
AcDbEntity
  8
GEOM
100
AcDbLine
 62
7
  6
CONTINUOUS
 10
108.7963856723
 20
94.4573212476
 11
108.7963856723
 21
95.4598953507
  0
LINE
  5
23F
100
AcDbEntity
  8
GEOM
100
AcDbLine
 62
7
  6
CONTINUOUS
 10
108.7963856723
 20
101.9158017637
 11
108.7963856723
 21
102.3310815545
  0
LINE
  5
240
100
AcDbEntity
  8
0
100
AcDbLine
 62
7
  6
CONTINUOUS
 10
108.9293983742
 20
110.8923060442
 11
108.9293983742
 21
108.5232461519
  0
LINE
  5
241
100
AcDbEntity
  8
GEOM
100
AcDbLine
 62
7
  6
CONTINUOUS
 10
109.0561932934
 20
102.3801109223
 11
109.0561932934
 21
100.7093151457
  0
LINE
  5
242
100
AcDbEntity
  8
GEOM
100
AcDbLine
 62
7
  6
CONTINUOUS
 10
109.0561932934
 20
96.7357199656
 11
109.0561932934
 21
92.7020621418
  0
LINE
  5
243
100
AcDbEntity
  8
GEOM
100
AcDbLine
 62
7
  6
CONTINUOUS
 10
109.0561932934
 20
87.0825499467
 11
109.0561932934
 21
83.0488921229
  0
LINE
  5
244
100
AcDbEntity
  8
GEOM
100
AcDbLine
 62
7
  6
CONTINUOUS
 10
109.0561932934
 20
79.0752969428
 11
109.0561932934
 21
77.4045011662
  0
LINE
  5
245
100
AcDbEntity
  8
0
100
AcDbLine
 62
7
  6
CONTINUOUS
 10
109.3293983742
 20
110.8923060442
 11
109.3293983742
 21
108.5232461519
  0
LINE
  5
246
100
AcDbEntity
  8
0
100
AcDbLine
 62
7
  6
CONTINUOUS
 10
109.4293983742
 20
107.3923060442
 11
109.4293983742
 21
108.0036309097
  0
LINE
  5
247
100
AcDbEntity
  8
0
100
AcDbLine
 62
7
  6
CONTINUOUS
 10
109.4293983742
 20
111.2923060442
 11
109.4293983742
 21
121.3923060442
  0
LINE
  5
248
100
AcDbEntity
  8
GEOM
100
AcDbLine
 62
7
  6
CONTINUOUS
 10
109.5758085357
 20
102.3923060442
 11
109.5758085357
 21
77.3923060442
  0
LINE
  5
249
100
AcDbEntity
  8
0
100
AcDbLine
 62
7
  6
CONTINUOUS
 10
98.8784147038
 20
100.3576574985
 11
98.4293983742
 21
99.496419007
  0
LINE
  5
24A
100
AcDbEntity
  8
0
100
AcDbLine
 62
7
  6
CONTINUOUS
 10
100.6927008379
 20
100.3576574732
 11
100.1103734199
 21
99.2407662751
  0
LINE
  5
24B
100
AcDbEntity
  8
0
100
AcDbLine
 62
7
  6
CONTINUOUS
 10
100.1103734199
 20
99.2407662751
 11
100.0929244181
 21
99.2073060113
  0
LINE
  5
24C
100
AcDbEntity
  8
0
100
AcDbLine
 62
7
  6
CONTINUOUS
 10
99.3103174349
 20
100.3576574714
 11
99.2950485026
 21
100.3723060442
  0
LINE
  5
24D
100
AcDbEntity
  8
0
100
AcDbLine
 62
7
  6
CONTINUOUS
 10
101.1246037372
 20
100.3576574923
 11
101.1093348267
 21
100.3723060442
  0
LINE
  5
24E
100
AcDbEntity
  8
0
100
AcDbLine
 62
7
  6
CONTINUOUS
 10
128.1365051553
 20
74.4351992631
 11
127.722291593
 21
74.8494128254
  0
LINE
  5
24F
100
AcDbEntity
  8
0
100
AcDbLine
 62
7
  6
CONTINUOUS
 10
112.4293983742
 20
111.2923060442
 11
112.4293983742
 21
120.8923060442
  0
LINE
  5
250
100
AcDbEntity
  8
0
100
AcDbLine
 62
7
  6
CONTINUOUS
 10
112.8009712494
 20
77.3923060442
 11
112.8009712494
 21
102.3923060442
  0
LINE
  5
251
100
AcDbEntity
  8
0
100
AcDbLine
 62
7
  6
CONTINUOUS
 10
113.1793983742
 20
112.5423060442
 11
113.1793983742
 21
115.0423060442
  0
LINE
  5
252
100
AcDbEntity
  8
0
100
AcDbLine
 62
7
  6
CONTINUOUS
 10
113.4293983742
 20
111.6923060442
 11
113.4293983742
 21
112.0851992631
  0
LINE
  5
253
100
AcDbEntity
  8
0
100
AcDbLine
 62
7
  6
CONTINUOUS
 10
113.4636707212
 20
110.8923060442
 11
113.4636707212
 21
108.7908341817
  0
LINE
  5
254
100
AcDbEntity
  8
0
100
AcDbLine
 62
7
  6
CONTINUOUS
 10
113.8461243637
 20
110.8923060442
 11
113.8461243637
 21
108.7908341817
  0
LINE
  5
255
100
AcDbEntity
  8
0
100
AcDbLine
 62
7
  6
CONTINUOUS
 10
114.1793983742
 20
103.3409155072
 11
114.1793983742
 21
105.0302770233
  0
LINE
  5
256
100
AcDbEntity
  8
0
100
AcDbLine
 62
7
  6
CONTINUOUS
 10
114.2151848118
 20
76.8065196066
 11
114.2151848118
 21
102.7982969376
  0
LINE
  5
257
100
AcDbEntity
  8
0
100
AcDbLine
 62
7
  6
CONTINUOUS
 10
114.2511208953
 20
107.5437779068
 11
114.2511208953
 21
105.6816883295
  0
LINE
  5
258
100
AcDbEntity
  8
0
100
AcDbLine
 62
7
  6
CONTINUOUS
 10
114.6304991457
 20
107.5437779068
 11
114.6304991457
 21
105.6816883295
  0
LINE
  5
259
100
AcDbEntity
  8
0
100
AcDbLine
 62
7
  6
CONTINUOUS
 10
115.2936119365
 20
75.7280924819
 11
115.2936119365
 21
103.2523185106
  0
LINE
  5
25A
100
AcDbEntity
  8
0
100
AcDbLine
 62
7
  6
CONTINUOUS
 10
115.6793983742
 20
118.3592933424
 11
115.6793983742
 21
115.7923060442
  0
LINE
  5
25B
100
AcDbEntity
  8
0
100
AcDbLine
 62
7
  6
CONTINUOUS
 10
115.6945791772
 20
118.3592933424
 11
115.6945791772
 21
115.7923060442
  0
LINE
  5
25C
100
AcDbEntity
  8
0
100
AcDbLine
 62
7
  6
CONTINUOUS
 10
102.5069871519
 20
100.3576574934
 11
101.9246597519
 21
99.2407663241
  0
LINE
  5
25D
100
AcDbEntity
  8
0
100
AcDbLine
 62
7
  6
CONTINUOUS
 10
101.9246597519
 20
99.2407663241
 11
101.9072107386
 21
99.207306038
  0
LINE
  5
25E
100
AcDbEntity
  8
0
100
AcDbLine
 62
7
  6
CONTINUOUS
 10
109.3293983742
 20
108.5232461519
 11
109.1293983742
 21
108.1768359904
  0
LINE
  5
25F
100
AcDbEntity
  8
0
100
AcDbLine
 62
7
  6
CONTINUOUS
 10
110.6462803824
 20
121.3923060442
 11
109.4293983742
 21
120.0873598549
  0
LINE
  5
260
100
AcDbEntity
  8
0
100
AcDbLine
 62
7
  6
CONTINUOUS
 10
111.3178206527
 20
121.3923060442
 11
109.4293983742
 21
119.3672210814
  0
LINE
  5
261
100
AcDbEntity
  8
0
100
AcDbLine
 62
7
  6
CONTINUOUS
 10
134.2293983742
 20
73.6423060442
 11
133.2180735088
 21
73.6423060442
  0
LINE
  5
262
100
AcDbEntity
  8
0
100
AcDbLine
 62
7
  6
CONTINUOUS
 10
134.4293983742
 20
73.6423060442
 11
135.8108521923
 21
73.6423060442
  0
LINE
  5
263
100
AcDbEntity
  8
0
100
AcDbLine
 62
7
  6
CONTINUOUS
 10
128.8436119365
 20
74.1423060442
 11
132.5829882126
 21
74.1423060442
  0
LINE
  5
264
100
AcDbEntity
  8
0
100
AcDbLine
 62
7
  6
CONTINUOUS
 10
127.0151848118
 20
75.1423060442
 11
116.7078254989
 21
75.1423060442
  0
LINE
  5
265
100
AcDbEntity
  8
0
100
AcDbLine
 62
7
  6
CONTINUOUS
 10
119.7342914237
 20
85.6722405945
 11
118.9393983742
 21
87.2323060442
  0
LINE
  5
266
100
AcDbEntity
  8
0
100
AcDbLine
 62
7
  6
CONTINUOUS
 10
119.9475334088
 20
86.0907515548
 11
119.3658823445
 21
87.2323060442
  0
LINE
  5
267
100
AcDbEntity
  8
0
100
AcDbLine
 62
7
  6
CONTINUOUS
 10
116.7078254989
 20
102.9433747234
 11
116.7078254989
 21
75.1423060442
  0
LINE
  5
268
100
AcDbEntity
  8
0
100
AcDbLine
 62
7
  6
CONTINUOUS
 10
116.9293983742
 20
125.0458958827
 11
116.9293983742
 21
124.3923060442
  0
LINE
  5
269
100
AcDbEntity
  8
0
100
AcDbLine
 62
7
  6
CONTINUOUS
 10
117.8293983742
 20
89.8923060442
 11
117.8293983742
 21
90.6423060442
  0
LINE
  5
26A
100
AcDbEntity
  8
0
100
AcDbLine
 62
7
  6
CONTINUOUS
 10
117.8293983742
 20
92.2723060442
 11
117.8293983742
 21
95.3923060442
  0
LINE
  5
26B
100
AcDbEntity
  8
0
100
AcDbLine
 62
7
  6
CONTINUOUS
 10
118.0293983742
 20
84.3923060442
 11
118.0293983742
 21
88.8923060442
  0
LINE
  5
26C
100
AcDbEntity
  8
0
100
AcDbLine
 62
7
  6
CONTINUOUS
 10
118.3105962206
 20
126.1897409927
 11
118.3105962206
 21
129.0350404543
  0
LINE
  5
26D
100
AcDbEntity
  8
0
100
AcDbLine
 62
7
  6
CONTINUOUS
 10
118.4093983742
 20
84.7723060442
 11
118.4093983742
 21
88.5123060442
  0
LINE
  5
26E
100
AcDbEntity
  8
0
100
AcDbLine
 62
7
  6
CONTINUOUS
 10
118.4293983742
 20
120.8923060442
 11
118.4293983742
 21
118.7923060442
  0
LINE
  5
26F
100
AcDbEntity
  8
0
100
AcDbLine
 62
7
  6
CONTINUOUS
 10
118.5793983742
 20
93.0223060442
 11
118.5793983742
 21
94.6423060442
  0
LINE
  5
270
100
AcDbEntity
  8
0
100
AcDbLine
 62
7
  6
CONTINUOUS
 10
118.9058873219
 20
118.3592933424
 11
118.9058873219
 21
115.7923060442
  0
LINE
  5
271
100
AcDbEntity
  8
0
100
AcDbLine
 62
7
  6
CONTINUOUS
 10
119.0793983742
 20
96.3923060442
 11
119.0793983742
 21
97.3923060442
  0
LINE
  5
272
100
AcDbEntity
  8
0
100
AcDbLine
 62
7
  6
CONTINUOUS
 10
119.5793983742
 20
90.6423060442
 11
119.5793983742
 21
92.2723060442
  0
LINE
  5
273
100
AcDbEntity
  8
0
100
AcDbLine
 62
7
  6
CONTINUOUS
 10
119.7180902295
 20
118.3592933424
 11
119.7180902295
 21
115.7923060442
  0
LINE
  5
274
100
AcDbEntity
  8
0
100
AcDbLine
 62
7
  6
CONTINUOUS
 10
120.3293983742
 20
89.8923060442
 11
120.3293983742
 21
93.0223060442
  0
LINE
  5
275
100
AcDbEntity
  8
0
100
AcDbLine
 62
7
  6
CONTINUOUS
 10
120.3293983742
 20
94.6423060442
 11
120.3293983742
 21
95.3923060442
  0
LINE
  5
276
100
AcDbEntity
  8
0
100
AcDbLine
 62
7
  6
CONTINUOUS
 10
120.4487851193
 20
121.3923060442
 11
120.4487851193
 21
120.4413598543
  0
LINE
  5
277
100
AcDbEntity
  8
0
100
AcDbLine
 62
7
  6
CONTINUOUS
 10
120.5093983742
 20
105.9237779068
 11
120.5093983742
 21
104.9637779068
  0
LINE
  5
278
100
AcDbEntity
  8
0
100
AcDbLine
 62
7
  6
CONTINUOUS
 10
120.6199972974
 20
126.1897409927
 11
120.6199972974
 21
129.0350404543
  0
LINE
  5
279
100
AcDbEntity
  8
0
100
AcDbLine
 62
7
  6
CONTINUOUS
 10
120.9293983742
 20
105.9237779068
 11
120.9293983742
 21
104.9637779068
  0
LINE
  5
27A
100
AcDbEntity
  8
0
100
AcDbLine
 62
7
  6
CONTINUOUS
 10
102.6229377603
 20
80.5773060442
 11
102.0164771464
 21
79.4123060442
  0
LINE
  5
27B
100
AcDbEntity
  8
0
100
AcDbLine
 62
7
  6
CONTINUOUS
 10
98.4293983742
 20
79.4772600049
 11
98.438720079
 21
79.4951416396
  0
LINE
  5
27C
100
AcDbEntity
  8
0
100
AcDbLine
 62
7
  6
CONTINUOUS
 10
98.438720079
 20
79.4951416396
 11
98.9898304437
 21
80.5521469425
  0
LINE
  5
27D
100
AcDbEntity
  8
0
100
AcDbLine
 62
7
  6
CONTINUOUS
 10
98.9898304437
 20
80.5521469425
 11
99.0029505599
 21
80.5773060818
  0
LINE
  5
27E
100
AcDbEntity
  8
0
100
AcDbLine
 62
7
  6
CONTINUOUS
 10
100.217460752
 20
79.4269546125
 11
100.8041170367
 21
80.5521469268
  0
LINE
  5
27F
100
AcDbEntity
  8
0
100
AcDbLine
 62
7
  6
CONTINUOUS
 10
100.8041170367
 20
80.5521469268
 11
100.8172371518
 21
80.5773060641
  0
LINE
  5
280
100
AcDbEntity
  8
0
100
AcDbLine
 62
7
  6
CONTINUOUS
 10
98.4293983742
 20
77.8923060442
 11
97.5633729704
 21
76.3923060442
  0
LINE
  5
281
100
AcDbEntity
  8
0
100
AcDbLine
 62
7
  6
CONTINUOUS
 10
118.9155955727
 20
121.3785032428
 11
118.4293983742
 21
120.8923060442
  0
LINE
  5
282
100
AcDbEntity
  8
0
100
AcDbLine
 62
7
  6
CONTINUOUS
 10
113.1793983742
 20
115.0423060442
 11
113.4293983742
 21
115.2923060442
  0
LINE
  5
283
100
AcDbEntity
  8
0
100
AcDbLine
 62
7
  6
CONTINUOUS
 10
115.6293983742
 20
115.7923060442
 11
115.1293983742
 21
115.2923060442
  0
LINE
  5
284
100
AcDbEntity
  8
0
100
AcDbLine
 62
7
  6
CONTINUOUS
 10
98.8784147038
 20
100.3576574985
 11
98.8936836086
 21
100.3723060442
  0
LINE
  5
285
100
AcDbEntity
  8
0
100
AcDbLine
 62
7
  6
CONTINUOUS
 10
118.3105962206
 20
129.0350404543
 11
118.9293983742
 21
129.3923060442
  0
LINE
  5
286
100
AcDbEntity
  8
0
100
AcDbLine
 62
7
  6
CONTINUOUS
 10
118.3105962206
 20
126.1897409927
 11
117.2293983742
 21
125.565511125
  0
LWPOLYLINE
  5
287
100
AcDbEntity
  8
GEOM
100
AcDbPolyline
 62
7
  6
CONTINUOUS
 90
10
 70
0
 10
136.7443535417
 20
76.6903705121
 10
136.8071914783
 20
76.6932374092
 10
136.8323873893
 20
76.6936112409
 10
136.8545313252
 20
76.6934925776
 10
136.8740573546
 20
76.6942326039
 10
136.8905314088
 20
76.6950129919
 10
136.9036383382
 20
76.6945150828
 10
136.9132730929
 20
76.6932914994
 10
136.9195407228
 20
76.6930378462
 10
136.9224412279
 20
76.6949120872
  0
LINE
  5
288
100
AcDbEntity
  8
GEOM
100
AcDbLine
 62
7
  6
CONTINUOUS
 10
136.6650304587
 20
76.6897314699
 11
136.9224412279
 21
76.6949120872
  0
LINE
  5
289
100
AcDbEntity
  8
0
100
AcDbLine
 62
7
  6
CONTINUOUS
 10
157.5437577281
 20
76.3923060442
 11
149.7954237779
 21
76.3923060442
  0
LINE
  5
28A
100
AcDbEntity
  8
0
100
AcDbLine
 62
7
  6
CONTINUOUS
 10
89.8150390202
 20
76.3923060442
 11
97.5633729704
 21
76.3923060442
  0
LINE
  5
28B
100
AcDbEntity
  8
0
100
AcDbLine
 62
7
  6
CONTINUOUS
 10
157.5241006835
 20
76.4076719796
 11
149.7954237779
 21
76.4076719796
  0
LINE
  5
28C
100
AcDbEntity
  8
0
100
AcDbLine
 62
7
  6
CONTINUOUS
 10
89.8346960649
 20
76.4076719796
 11
97.5633729704
 21
76.4076719796
  0
LINE
  5
28D
100
AcDbEntity
  8
GEOM
100
AcDbLine
 62
7
  6
CONTINUOUS
 10
108.4139135318
 20
76.8923060442
 11
107.9473607899
 21
76.8923060442
  0
LINE
  5
28E
100
AcDbEntity
  8
0
100
AcDbLine
 62
7
  6
CONTINUOUS
 10
107.9473607899
 20
76.8923060442
 11
104.9293983742
 21
76.8923060442
  0
LINE
  5
28F
100
AcDbEntity
  8
0
100
AcDbLine
 62
7
  6
CONTINUOUS
 10
136.946938245
 20
76.8923060442
 11
142.1407232396
 21
76.8923060442
  0
LINE
  5
290
100
AcDbEntity
  8
0
100
AcDbLine
 62
7
  6
CONTINUOUS
 10
141.7077105377
 20
76.920607931
 11
136.9313713384
 21
76.920607931
  0
LINE
  5
291
100
AcDbEntity
  8
0
100
AcDbLine
 62
7
  6
CONTINUOUS
 10
107.9303602685
 20
76.9841427789
 11
105.3624110761
 21
76.9841427789
  0
LINE
  5
292
100
AcDbEntity
  8
GEOM
100
AcDbLine
 62
7
  6
CONTINUOUS
 10
109.5758085357
 20
77.3923060442
 11
112.8009712494
 21
77.3923060442
  0
LINE
  5
293
100
AcDbEntity
  8
0
100
AcDbLine
 62
7
  6
CONTINUOUS
 10
105.3624110761
 20
77.4150935052
 11
107.9303602685
 21
77.4150935052
  0
LINE
  5
294
100
AcDbEntity
  8
0
100
AcDbLine
 62
7
  6
CONTINUOUS
 10
136.9313713384
 20
77.4952173298
 11
141.7077105377
 21
77.4952173298
  0
LINE
  5
295
100
AcDbEntity
  8
0
100
AcDbLine
 62
7
  6
CONTINUOUS
 10
136.9469384222
 20
77.5924684282
 11
141.7234721009
 21
77.5924671652
  0
LINE
  5
296
100
AcDbEntity
  8
0
100
AcDbLine
 62
7
  6
CONTINUOUS
 10
105.3150319421
 20
77.7155837922
 11
107.9473665004
 21
77.7156060839
  0
LINE
  5
297
100
AcDbEntity
  8
0
100
AcDbLine
 62
7
  6
CONTINUOUS
 10
88.2561932934
 20
78.4923060442
 11
86.1293983742
 21
78.4923060442
  0
LINE
  5
298
100
AcDbEntity
  8
0
100
AcDbLine
 62
7
  6
CONTINUOUS
 10
159.1026034549
 20
78.4923060442
 11
161.2293983742
 21
78.4923060442
  0
LINE
  5
299
100
AcDbEntity
  8
0
100
AcDbLine
 62
7
  6
CONTINUOUS
 10
100.2021918245
 20
79.4123060442
 11
99.8008264955
 21
79.4123060442
  0
LINE
  5
29A
100
AcDbEntity
  8
0
100
AcDbLine
 62
7
  6
CONTINUOUS
 10
101.6151130756
 20
79.4123060442
 11
104.9293983742
 21
79.4123060442
  0
LINE
  5
29B
100
AcDbEntity
  8
0
100
AcDbLine
 62
7
  6
CONTINUOUS
 10
142.4293983742
 20
79.4123060442
 11
144.7901116956
 21
79.4123060442
  0
LINE
  5
29C
100
AcDbEntity
  8
0
100
AcDbLine
 62
7
  6
CONTINUOUS
 10
146.2082386164
 20
79.4123060442
 11
146.6043983625
 21
79.4123060442
  0
LINE
  5
29D
100
AcDbEntity
  8
0
100
AcDbLine
 62
7
  6
CONTINUOUS
 10
148.022525338
 20
79.4123060442
 11
148.4186850018
 21
79.4123060442
  0
LWPOLYLINE
  5
29E
100
AcDbEntity
  8
GEOM
100
AcDbPolyline
 62
7
  6
CONTINUOUS
 90
3
 70
0
 10
136.6650304587
 20
76.6897314699
 10
136.7067115161
 20
76.6893880684
 10
136.7443535417
 20
76.6903705121
  0
LINE
  5
29F
100
AcDbEntity
  8
GEOM
100
AcDbLine
 62
7
  6
CONTINUOUS
 10
107.9473607899
 20
85.6718202902
 11
108.8133861598
 21
85.5059279277
  0
LINE
  5
2A0
100
AcDbEntity
  8
0
100
AcDbLine
 62
7
  6
CONTINUOUS
 10
133.1026034549
 20
73.8423060442
 11
133.2180735088
 21
73.6423060442
  0
LINE
  5
2A1
100
AcDbEntity
  8
0
100
AcDbLine
 62
7
  6
CONTINUOUS
 10
121.3293983742
 20
89.8923060442
 11
121.3293983742
 21
96.3923060442
  0
LINE
  5
2A2
100
AcDbEntity
  8
0
100
AcDbLine
 62
7
  6
CONTINUOUS
 10
121.8223663148
 20
85.3323060442
 11
121.8223663148
 21
87.2323060442
  0
LINE
  5
2A3
100
AcDbEntity
  8
0
100
AcDbLine
 62
7
  6
CONTINUOUS
 10
121.8223663148
 20
87.6123060442
 11
121.8223663148
 21
87.9923060442
  0
LINE
  5
2A4
100
AcDbEntity
  8
0
100
AcDbLine
 62
7
  6
CONTINUOUS
 10
122.2023663148
 20
85.3323060442
 11
122.2023663148
 21
87.2323060442
  0
LINE
  5
2A5
100
AcDbEntity
  8
0
100
AcDbLine
 62
7
  6
CONTINUOUS
 10
122.2023663148
 20
87.6123060442
 11
122.2023663148
 21
87.9923060442
  0
LINE
  5
2A6
100
AcDbEntity
  8
0
100
AcDbLine
 62
7
  6
CONTINUOUS
 10
122.3293983742
 20
89.8923060442
 11
122.3293983742
 21
96.3923060442
  0
LINE
  5
2A7
100
AcDbEntity
  8
0
100
AcDbLine
 62
7
  6
CONTINUOUS
 10
122.5093983742
 20
106.8237779068
 11
122.5093983742
 21
104.0637779068
  0
LINE
  5
2A8
100
AcDbEntity
  8
0
100
AcDbLine
 62
7
  6
CONTINUOUS
 10
122.7323663148
 20
85.3323060442
 11
122.7323663148
 21
85.4323060442
  0
LINE
  5
2A9
100
AcDbEntity
  8
0
100
AcDbLine
 62
7
  6
CONTINUOUS
 10
122.7323663148
 20
86.4117102307
 11
122.7323663148
 21
87.2323060442
  0
LINE
  5
2AA
100
AcDbEntity
  8
0
100
AcDbLine
 62
7
  6
CONTINUOUS
 10
122.9293983742
 20
106.8237779068
 11
122.9293983742
 21
105.6237779068
  0
LINE
  5
2AB
100
AcDbEntity
  8
0
100
AcDbLine
 62
7
  6
CONTINUOUS
 10
122.9293983742
 20
105.1236793738
 11
122.9293983742
 21
103.6437779068
  0
LINE
  5
2AC
100
AcDbEntity
  8
0
100
AcDbLine
 62
7
  6
CONTINUOUS
 10
123.1123663148
 20
86.8523060442
 11
123.1123663148
 21
87.2323060442
  0
LINE
  5
2AD
100
AcDbEntity
  8
0
100
AcDbLine
 62
7
  6
CONTINUOUS
 10
123.3293983742
 20
89.8923060442
 11
123.3293983742
 21
95.3923060442
  0
LINE
  5
2AE
100
AcDbEntity
  8
0
100
AcDbLine
 62
7
  6
CONTINUOUS
 10
124.0793983742
 20
89.8923060442
 11
124.0793983742
 21
92.2723060442
  0
LINE
  5
2AF
100
AcDbEntity
  8
0
100
AcDbLine
 62
7
  6
CONTINUOUS
 10
124.0793983742
 20
93.0223060442
 11
124.0793983742
 21
94.6423060442
  0
LINE
  5
2B0
100
AcDbEntity
  8
0
100
AcDbLine
 62
7
  6
CONTINUOUS
 10
124.1523663148
 20
86.6323060442
 11
124.1523663148
 21
87.0023060442
  0
LINE
  5
2B1
100
AcDbEntity
  8
0
100
AcDbLine
 62
7
  6
CONTINUOUS
 10
124.5323663148
 20
86.5221379652
 11
124.5323663148
 21
87.0023060442
  0
LINE
  5
2B2
100
AcDbEntity
  8
0
100
AcDbLine
 62
7
  6
CONTINUOUS
 10
124.5793983742
 20
96.3923060442
 11
124.5793983742
 21
97.3923060442
  0
LINE
  5
2B3
100
AcDbEntity
  8
0
100
AcDbLine
 62
7
  6
CONTINUOUS
 10
125.1493983742
 20
84.7723060442
 11
125.1493983742
 21
88.5123060442
  0
LINE
  5
2B4
100
AcDbEntity
  8
0
100
AcDbLine
 62
7
  6
CONTINUOUS
 10
125.2387994509
 20
126.1897409927
 11
125.2387994509
 21
129.0350404543
  0
LINE
  5
2B5
100
AcDbEntity
  8
0
100
AcDbLine
 62
7
  6
CONTINUOUS
 10
125.4293983742
 20
107.3923060442
 11
125.4293983742
 21
114.3923060442
  0
LINE
  5
2B6
100
AcDbEntity
  8
0
100
AcDbLine
 62
7
  6
CONTINUOUS
 10
125.5293983742
 20
84.3923060442
 11
125.5293983742
 21
88.8923060442
  0
LINE
  5
2B7
100
AcDbEntity
  8
0
100
AcDbLine
 62
7
  6
CONTINUOUS
 10
125.8293983742
 20
92.2723060442
 11
125.8293983742
 21
93.0223060442
  0
LINE
  5
2B8
100
AcDbEntity
  8
0
100
AcDbLine
 62
7
  6
CONTINUOUS
 10
125.8293983742
 20
94.6423060442
 11
125.8293983742
 21
95.3923060442
  0
LINE
  5
2B9
100
AcDbEntity
  8
0
100
AcDbLine
 62
7
  6
CONTINUOUS
 10
114.189380031
 20
107.6851992631
 11
114.4578308467
 21
107.9680419702
  0
LINE
  5
2BA
100
AcDbEntity
  8
0
100
AcDbLine
 62
7
  6
CONTINUOUS
 10
113.7704409714
 20
108.0837274005
 11
114.0400897236
 21
108.366570113
  0
LINE
  5
2BB
100
AcDbEntity
  8
0
100
AcDbLine
 62
7
  6
CONTINUOUS
 10
100.6927008379
 20
100.3576574732
 11
100.707969769
 21
100.3723060442
  0
LINE
  5
2BC
100
AcDbEntity
  8
0
100
AcDbLine
 62
7
  6
CONTINUOUS
 10
102.5069871519
 20
100.3576574934
 11
102.5222560618
 21
100.3723060442
  0
LINE
  5
2BD
100
AcDbEntity
  8
0
100
AcDbLine
 62
7
  6
CONTINUOUS
 10
116.4293983742
 20
118.7923060442
 11
115.6793983742
 21
118.3592933424
  0
LINE
  5
2BE
100
AcDbEntity
  8
0
100
AcDbLine
 62
7
  6
CONTINUOUS
 10
102.8143530706
 20
80.5773060442
 11
102.6229377603
 21
80.5773060442
  0
LINE
  5
2BF
100
AcDbEntity
  8
0
100
AcDbLine
 62
7
  6
CONTINUOUS
 10
98.9943658596
 20
80.5773060818
 11
99.185781146
 21
80.5773060818
  0
LINE
  5
2C0
100
AcDbEntity
  8
0
100
AcDbLine
 62
7
  6
CONTINUOUS
 10
100.8086524502
 20
80.5773060641
 11
101.000067735
 21
80.5773060641
  0
LINE
  5
2C1
100
AcDbEntity
  8
0
100
AcDbLine
 62
7
  6
CONTINUOUS
 10
145.3991751558
 20
80.5823060634
 11
145.5905858341
 21
80.5823060634
  0
LINE
  5
2C2
100
AcDbEntity
  8
0
100
AcDbLine
 62
7
  6
CONTINUOUS
 10
147.2134618501
 20
80.5823061101
 11
147.4048725153
 21
80.5823061101
  0
LINE
  5
2C3
100
AcDbEntity
  8
0
100
AcDbLine
 62
7
  6
CONTINUOUS
 10
157.5241006835
 20
82.592330418
 11
149.7954237779
 21
82.592330418
  0
LINE
  5
2C4
100
AcDbEntity
  8
0
100
AcDbLine
 62
7
  6
CONTINUOUS
 10
89.8346960649
 20
82.592330418
 11
97.5633729704
 21
82.592330418
  0
LINE
  5
2C5
100
AcDbEntity
  8
0
100
AcDbLine
 62
7
  6
CONTINUOUS
 10
107.9473607899
 20
83.6842519854
 11
105.3150319421
 21
83.6842519854
  0
LINE
  5
2C6
100
AcDbEntity
  8
0
100
AcDbLine
 62
7
  6
CONTINUOUS
 10
157.5241006835
 20
83.7076476058
 11
149.7954237779
 21
83.7076476058
  0
LINE
  5
2C7
100
AcDbEntity
  8
0
100
AcDbLine
 62
7
  6
CONTINUOUS
 10
89.8346960649
 20
83.7076476058
 11
97.5633729704
 21
83.7076476058
  0
LINE
  5
2C8
100
AcDbEntity
  8
0
100
AcDbLine
 62
7
  6
CONTINUOUS
 10
141.7234721009
 20
83.8073686125
 11
136.946938245
 21
83.8073686125
  0
LINE
  5
2C9
100
AcDbEntity
  8
0
100
AcDbLine
 62
7
  6
CONTINUOUS
 10
141.7077105377
 20
83.94464336
 11
136.9313713384
 21
83.94464336
  0
LINE
  5
2CA
100
AcDbEntity
  8
0
100
AcDbLine
 62
7
  6
CONTINUOUS
 10
107.9303602685
 20
84.1146190282
 11
105.3624110761
 21
84.1146190282
  0
LINE
  5
2CB
100
AcDbEntity
  8
0
100
AcDbLine
 62
7
  6
CONTINUOUS
 10
125.5293983742
 20
84.3923060442
 11
118.0293983742
 21
84.3923060442
  0
LINE
  5
2CC
100
AcDbEntity
  8
0
100
AcDbLine
 62
7
  6
CONTINUOUS
 10
125.1493983742
 20
84.7723060442
 11
118.4093983742
 21
84.7723060442
  0
LINE
  5
2CD
100
AcDbEntity
  8
GEOM
100
AcDbLine
 62
7
  6
CONTINUOUS
 10
136.6650304584
 20
85.5298984881
 11
136.9469382445
 21
85.4977070837
  0
LINE
  5
2CE
100
AcDbEntity
  8
GEOM
100
AcDbLine
 62
7
  6
CONTINUOUS
 10
108.1901678896
 20
87.1923060442
 11
109.0561939031
 21
87.0825498694
  0
LINE
  5
2CF
100
AcDbEntity
  8
0
100
AcDbLine
 62
7
  6
CONTINUOUS
 10
124.5341434447
 20
103.6437779068
 11
123.6093983742
 21
105.1236793738
  0
LINE
  5
2D0
100
AcDbEntity
  8
0
100
AcDbLine
 62
7
  6
CONTINUOUS
 10
125.0293983742
 20
103.6437779068
 11
124.0469526758
 21
105.2160196808
  0
LINE
  5
2D1
100
AcDbEntity
  8
0
100
AcDbLine
 62
7
  6
CONTINUOUS
 10
127.0151848118
 20
75.1423060442
 11
127.0151848118
 21
102.1610854071
  0
LINE
  5
2D2
100
AcDbEntity
  8
0
100
AcDbLine
 62
7
  6
CONTINUOUS
 10
127.5482005277
 20
126.1897409927
 11
127.5482005277
 21
129.0350404543
  0
LINE
  5
2D3
100
AcDbEntity
  8
0
100
AcDbLine
 62
7
  6
CONTINUOUS
 10
127.722291593
 20
102.4690535869
 11
127.722291593
 21
74.8494128254
  0
LINE
  5
2D4
100
AcDbEntity
  8
0
100
AcDbLine
 62
7
  6
CONTINUOUS
 10
128.1365051553
 20
74.4351992631
 11
128.1365051553
 21
103.0867857089
  0
LINE
  5
2D5
100
AcDbEntity
  8
0
100
AcDbLine
 62
7
  6
CONTINUOUS
 10
128.8436119365
 20
103.9330380969
 11
128.8436119365
 21
74.1423060442
  0
LINE
  5
2D6
100
AcDbEntity
  8
0
100
AcDbLine
 62
7
  6
CONTINUOUS
 10
128.9293983742
 20
125.0458958827
 11
128.9293983742
 21
124.3923060442
  0
LINE
  5
2D7
100
AcDbEntity
  8
0
100
AcDbLine
 62
7
  6
CONTINUOUS
 10
105.3624110761
 20
85.1550261163
 11
107.9303602685
 21
85.1550261163
  0
LINE
  5
2D8
100
AcDbEntity
  8
0
100
AcDbLine
 62
7
  6
CONTINUOUS
 10
136.9313713384
 20
85.3318731635
 11
141.7077105377
 21
85.3318731635
  0
LINE
  5
2D9
100
AcDbEntity
  8
0
100
AcDbLine
 62
7
  6
CONTINUOUS
 10
123.1023663148
 20
85.3323060442
 11
122.7323663148
 21
85.3323060442
  0
LINE
  5
2DA
100
AcDbEntity
  8
0
100
AcDbLine
 62
7
  6
CONTINUOUS
 10
122.2023663148
 20
85.3323060442
 11
121.8223663148
 21
85.3323060442
  0
LINE
  5
2DB
100
AcDbEntity
  8
0
100
AcDbLine
 62
7
  6
CONTINUOUS
 10
120.3242679607
 20
85.3323060442
 11
119.8977839904
 21
85.3323060442
  0
LINE
  5
2DC
100
AcDbEntity
  8
0
100
AcDbLine
 62
7
  6
CONTINUOUS
 10
136.946938245
 20
85.4977070864
 11
141.7234721009
 21
85.4977070864
  0
LINE
  5
2DD
100
AcDbEntity
  8
0
100
AcDbLine
 62
7
  6
CONTINUOUS
 10
105.3150319421
 20
85.6718202902
 11
107.9473607899
 21
85.6718202902
  0
LINE
  5
2DE
100
AcDbEntity
  8
0
100
AcDbLine
 62
7
  6
CONTINUOUS
 10
124.1523663148
 20
86.6323060442
 11
123.9323663148
 21
86.6323060442
  0
LINE
  5
2DF
100
AcDbEntity
  8
0
100
AcDbLine
 62
7
  6
CONTINUOUS
 10
124.5323663148
 20
87.0023060442
 11
124.1523663148
 21
87.0023060442
  0
LINE
  5
2E0
100
AcDbEntity
  8
0
100
AcDbLine
 62
7
  6
CONTINUOUS
 10
123.1123663148
 20
87.2323060442
 11
122.7323663148
 21
87.2323060442
  0
LINE
  5
2E1
100
AcDbEntity
  8
0
100
AcDbLine
 62
7
  6
CONTINUOUS
 10
122.2023663148
 20
87.2323060442
 11
121.8223663148
 21
87.2323060442
  0
LINE
  5
2E2
100
AcDbEntity
  8
0
100
AcDbLine
 62
7
  6
CONTINUOUS
 10
121.2923663148
 20
87.2323060442
 11
120.8658823445
 21
87.2323060442
  0
LINE
  5
2E3
100
AcDbEntity
  8
0
100
AcDbLine
 62
7
  6
CONTINUOUS
 10
119.3658823445
 20
87.2323060442
 11
118.9393983742
 21
87.2323060442
  0
LINE
  5
2E4
100
AcDbEntity
  8
0
100
AcDbLine
 62
7
  6
CONTINUOUS
 10
122.2023663148
 20
87.6123060442
 11
121.8223663148
 21
87.6123060442
  0
LINE
  5
2E5
100
AcDbEntity
  8
0
100
AcDbLine
 62
7
  6
CONTINUOUS
 10
122.2023663148
 20
87.9923060442
 11
121.8223663148
 21
87.9923060442
  0
LINE
  5
2E6
100
AcDbEntity
  8
0
100
AcDbLine
 62
7
  6
CONTINUOUS
 10
125.1493983742
 20
88.5123060442
 11
118.4093983742
 21
88.5123060442
  0
LINE
  5
2E7
100
AcDbEntity
  8
0
100
AcDbLine
 62
7
  6
CONTINUOUS
 10
125.5293983742
 20
88.8923060442
 11
118.0293983742
 21
88.8923060442
  0
LINE
  5
2E8
100
AcDbEntity
  8
0
100
AcDbLine
 62
7
  6
CONTINUOUS
 10
109.1293983742
 20
108.1768359904
 11
114.2236418089
 21
105.2356731721
  0
LINE
  5
2E9
100
AcDbEntity
  8
0
100
AcDbLine
 62
7
  6
CONTINUOUS
 10
109.3293983742
 20
108.5232461519
 11
114.2511208953
 21
105.6816883295
  0
LINE
  5
2EA
100
AcDbEntity
  8
0
100
AcDbLine
 62
7
  6
CONTINUOUS
 10
114.1822504375
 20
105.0285921285
 11
114.1793983742
 21
105.0302770233
  0
LINE
  5
2EB
100
AcDbEntity
  8
0
100
AcDbLine
 62
7
  6
CONTINUOUS
 10
114.4129645003
 20
104.8892630105
 11
114.1793983741
 21
105.0302770234
  0
LINE
  5
2EC
100
AcDbEntity
  8
0
100
AcDbLine
 62
7
  6
CONTINUOUS
 10
114.3640438595
 20
104.9188297695
 11
114.3207974465
 21
104.9449324938
  0
LINE
  5
2ED
100
AcDbEntity
  8
0
100
AcDbLine
 62
7
  6
CONTINUOUS
 10
146.1929696967
 20
79.4269546081
 11
146.2082386164
 21
79.4123060442
  0
LINE
  5
2EE
100
AcDbEntity
  8
0
100
AcDbLine
 62
7
  6
CONTINUOUS
 10
148.0072563951
 20
79.4269546305
 11
148.022525338
 21
79.4123060442
  0
LINE
  5
2EF
100
AcDbEntity
  8
0
100
AcDbLine
 62
7
  6
CONTINUOUS
 10
113.2829517648
 20
112.4387526537
 11
113.1793983742
 21
112.5423060442
  0
LINE
  5
2F0
100
AcDbEntity
  8
0
100
AcDbLine
 62
7
  6
CONTINUOUS
 10
131.6793983742
 20
106.4423060442
 11
131.6793983742
 21
107.5437779068
  0
LINE
  5
2F1
100
AcDbEntity
  8
0
100
AcDbLine
 62
7
  6
CONTINUOUS
 10
132.4293983742
 20
108.7908341817
 11
132.4293983742
 21
112.0851992631
  0
LINE
  5
2F2
100
AcDbEntity
  8
0
100
AcDbLine
 62
7
  6
CONTINUOUS
 10
132.5829882126
 20
74.1423060442
 11
132.5829882126
 21
105.6423060442
  0
LINE
  5
2F3
100
AcDbEntity
  8
0
100
AcDbLine
 62
7
  6
CONTINUOUS
 10
132.6793983742
 20
112.5423060442
 11
132.6793983742
 21
112.6717655111
  0
LINE
  5
2F4
100
AcDbEntity
  8
0
100
AcDbLine
 62
7
  6
CONTINUOUS
 10
133.1026034549
 20
73.8423060442
 11
133.1026034549
 21
105.9423060442
  0
LINE
  5
2F5
100
AcDbEntity
  8
0
100
AcDbLine
 62
7
  6
CONTINUOUS
 10
133.2180735088
 20
106.1423060442
 11
133.2180735088
 21
73.6423060442
  0
LINE
  5
2F6
100
AcDbEntity
  8
0
100
AcDbLine
 62
7
  6
CONTINUOUS
 10
134.2293983742
 20
73.6423060442
 11
134.2293983742
 21
106.1423060442
  0
LINE
  5
2F7
100
AcDbEntity
  8
0
100
AcDbLine
 62
7
  6
CONTINUOUS
 10
134.4293983742
 20
73.6423060442
 11
134.4293983742
 21
106.1423060442
  0
LINE
  5
2F8
100
AcDbEntity
  8
0
100
AcDbLine
 62
7
  6
CONTINUOUS
 10
134.8181461815
 20
121.3923060442
 11
134.8181461815
 21
118.05023281
  0
LINE
  5
2F9
100
AcDbEntity
  8
0
100
AcDbLine
 62
7
  6
CONTINUOUS
 10
135.8108521923
 20
106.1423060442
 11
135.8108521923
 21
73.6423060442
  0
LINE
  5
2FA
100
AcDbEntity
  8
0
100
AcDbLine
 62
7
  6
CONTINUOUS
 10
135.8209864402
 20
73.6686899296
 11
135.8209864402
 21
106.1159221589
  0
LINE
  5
2FB
100
AcDbEntity
  8
0
100
AcDbLine
 62
7
  6
CONTINUOUS
 10
136.0131388534
 20
120.8541951988
 11
134.8181461815
 21
118.05023281
  0
LINE
  5
2FC
100
AcDbEntity
  8
0
100
AcDbLine
 62
7
  6
CONTINUOUS
 10
135.8185329869
 20
120.0375139329
 11
130.4293983742
 21
107.3923060442
  0
LINE
  5
2FD
100
AcDbEntity
  8
0
100
AcDbLine
 62
7
  6
CONTINUOUS
 10
119.7342914237
 20
85.6722405945
 11
119.9475334088
 21
86.0907515548
  0
LINE
  5
2FE
100
AcDbEntity
  8
0
100
AcDbLine
 62
7
  6
CONTINUOUS
 10
119.8977839904
 20
85.3323060442
 11
120.8658823445
 21
87.2323060442
  0
LINE
  5
2FF
100
AcDbEntity
  8
0
100
AcDbLine
 62
7
  6
CONTINUOUS
 10
120.3242679607
 20
85.3323060442
 11
121.2923663148
 21
87.2323060442
  0
LINE
  5
300
100
AcDbEntity
  8
0
100
AcDbLine
 62
7
  6
CONTINUOUS
 10
155.8005522537
 20
140.963456483
 11
142.1954428173
 21
124.7495184346
  0
LINE
  5
301
100
AcDbEntity
  8
0
100
AcDbLine
 62
7
  6
CONTINUOUS
 10
132.5832479541
 20
112.4461556242
 11
132.6793983742
 21
112.5423060442
  0
LINE
  5
302
100
AcDbEntity
  8
0
100
AcDbLine
 62
7
  6
CONTINUOUS
 10
124.0793983742
 20
89.8923060442
 11
123.3293983742
 21
89.8923060442
  0
LINE
  5
303
100
AcDbEntity
  8
0
100
AcDbLine
 62
7
  6
CONTINUOUS
 10
122.3293983742
 20
89.8923060442
 11
121.3293983742
 21
89.8923060442
  0
LINE
  5
304
100
AcDbEntity
  8
0
100
AcDbLine
 62
7
  6
CONTINUOUS
 10
120.3293983742
 20
89.8923060442
 11
117.8293983742
 21
89.8923060442
  0
LINE
  5
305
100
AcDbEntity
  8
0
100
AcDbLine
 62
7
  6
CONTINUOUS
 10
119.5793983742
 20
90.6423060442
 11
117.8293983742
 21
90.6423060442
  0
LINE
  5
306
100
AcDbEntity
  8
0
100
AcDbLine
 62
7
  6
CONTINUOUS
 10
125.8293983742
 20
92.2723060442
 11
124.0793983742
 21
92.2723060442
  0
LINE
  5
307
100
AcDbEntity
  8
0
100
AcDbLine
 62
7
  6
CONTINUOUS
 10
119.5793983742
 20
92.2723060442
 11
117.8293983742
 21
92.2723060442
  0
LINE
  5
308
100
AcDbEntity
  8
0
100
AcDbLine
 62
7
  6
CONTINUOUS
 10
125.8293983742
 20
93.0223060442
 11
124.0793983742
 21
93.0223060442
  0
LINE
  5
309
100
AcDbEntity
  8
0
100
AcDbLine
 62
7
  6
CONTINUOUS
 10
120.3293983742
 20
93.0223060442
 11
118.5793983742
 21
93.0223060442
  0
LINE
  5
30A
100
AcDbEntity
  8
0
100
AcDbLine
 62
7
  6
CONTINUOUS
 10
107.9473607899
 20
94.1127917983
 11
105.3150319421
 21
94.1127917983
  0
LINE
  5
30B
100
AcDbEntity
  8
0
100
AcDbLine
 62
7
  6
CONTINUOUS
 10
141.7234721009
 20
94.2869050021
 11
136.946938245
 21
94.2869050021
  0
LINE
  5
30C
100
AcDbEntity
  8
0
100
AcDbLine
 62
7
  6
CONTINUOUS
 10
141.7077105377
 20
94.452738925
 11
136.9313713384
 21
94.452738925
  0
LINE
  5
30D
100
AcDbEntity
  8
0
100
AcDbLine
 62
7
  6
CONTINUOUS
 10
107.9303602685
 20
94.6295859722
 11
105.3624110761
 21
94.6295859722
  0
LINE
  5
30E
100
AcDbEntity
  8
0
100
AcDbLine
 62
7
  6
CONTINUOUS
 10
125.8293983742
 20
94.6423060442
 11
124.0793983742
 21
94.6423060442
  0
LINE
  5
30F
100
AcDbEntity
  8
0
100
AcDbLine
 62
7
  6
CONTINUOUS
 10
120.3293983742
 20
94.6423060442
 11
118.5793983742
 21
94.6423060442
  0
LINE
  5
310
100
AcDbEntity
  8
0
100
AcDbLine
 62
7
  6
CONTINUOUS
 10
125.4293983742
 20
114.3923060442
 11
118.9017927712
 21
121.3923060442
  0
LINE
  5
311
100
AcDbEntity
  8
0
100
AcDbLine
 62
7
  6
CONTINUOUS
 10
148.9293983742
 20
77.8923060442
 11
149.7954237779
 21
76.3923060442
  0
LINE
  5
312
100
AcDbEntity
  8
0
100
AcDbLine
 62
7
  6
CONTINUOUS
 10
145.5819916443
 20
80.5987863099
 11
146.1929696967
 21
79.4269546081
  0
LINE
  5
313
100
AcDbEntity
  8
0
100
AcDbLine
 62
7
  6
CONTINUOUS
 10
147.3962783122
 20
80.598786382
 11
148.0072563951
 21
79.4269546305
  0
LINE
  5
314
100
AcDbEntity
  8
GEOM
100
AcDbLine
 62
7
  6
CONTINUOUS
 10
136.9224412279
 20
103.0897000013
 11
135.8209864402
 21
106.1159221589
  0
LINE
  5
315
100
AcDbEntity
  8
GEOM
100
AcDbLine
 62
7
  6
CONTINUOUS
 10
136.6494635522
 20
103.0502248716
 11
136.6494635522
 21
102.4673664239
  0
LINE
  5
316
100
AcDbEntity
  8
GEOM
100
AcDbLine
 62
7
  6
CONTINUOUS
 10
136.6494635522
 20
95.9253529228
 11
136.6494635522
 21
94.5182081535
  0
LINE
  5
317
100
AcDbEntity
  8
GEOM
100
AcDbLine
 62
7
  6
CONTINUOUS
 10
136.6494635522
 20
85.266403935
 11
136.6494635522
 21
83.8592591657
  0
LINE
  5
318
100
AcDbEntity
  8
GEOM
100
AcDbLine
 62
7
  6
CONTINUOUS
 10
136.6494635522
 20
77.3172456646
 11
136.6494635522
 21
76.7343872169
  0
LINE
  5
319
100
AcDbEntity
  8
0
100
AcDbLine
 62
7
  6
CONTINUOUS
 10
136.8062486402
 20
124.3923060442
 11
136.8062486402
 21
121.3923060442
  0
LINE
  5
31A
100
AcDbEntity
  8
GEOM
100
AcDbLine
 62
7
  6
CONTINUOUS
 10
136.9313713384
 20
102.8640041575
 11
136.9313713384
 21
102.2893947587
  0
LINE
  5
31B
100
AcDbEntity
  8
GEOM
100
AcDbLine
 62
7
  6
CONTINUOUS
 10
136.9313713384
 20
95.8399687285
 11
136.9313713384
 21
94.452738925
  0
LINE
  5
31C
100
AcDbEntity
  8
GEOM
100
AcDbLine
 62
7
  6
CONTINUOUS
 10
136.9313713384
 20
85.3318731635
 11
136.9313713384
 21
83.94464336
  0
LINE
  5
31D
100
AcDbEntity
  8
GEOM
100
AcDbLine
 62
7
  6
CONTINUOUS
 10
136.9313713384
 20
77.4952173298
 11
136.9313713384
 21
76.920607931
  0
LINE
  5
31E
100
AcDbEntity
  8
0
100
AcDbLine
 62
7
  6
CONTINUOUS
 10
137.2730388535
 20
124.3923060442
 11
137.2730388535
 21
121.3923060442
  0
LINE
  5
31F
100
AcDbEntity
  8
0
100
AcDbLine
 62
7
  6
CONTINUOUS
 10
133.1026034549
 20
105.9423060442
 11
133.2180735088
 21
106.1423060442
  0
LINE
  5
320
100
AcDbEntity
  8
0
100
AcDbLine
 62
7
  6
CONTINUOUS
 10
144.4935761466
 20
122.8211556055
 11
157.798948798
 21
138.6778812636
  0
LINE
  5
321
100
AcDbEntity
  8
0
100
AcDbLine
 62
7
  6
CONTINUOUS
 10
132.2536624429
 20
108.366570113
 11
131.8551343054
 21
107.9680419755
  0
LINE
  5
322
100
AcDbEntity
  8
0
100
AcDbLine
 62
7
  6
CONTINUOUS
 10
100.217460752
 20
79.4269546125
 11
100.2021918245
 21
79.4123060442
  0
LINE
  5
323
100
AcDbEntity
  8
GEOM
100
AcDbLine
 62
7
  6
CONTINUOUS
 10
108.1901678896
 20
92.5923060442
 11
109.0561932688
 21
92.7020621387
  0
LINE
  5
324
100
AcDbEntity
  8
GEOM
100
AcDbLine
 62
7
  6
CONTINUOUS
 10
136.6650304587
 20
94.2547135981
 11
136.946938245
 21
94.2869050021
  0
LINE
  5
325
100
AcDbEntity
  8
0
100
AcDbLine
 62
7
  6
CONTINUOUS
 10
125.8293983742
 20
95.3923060442
 11
123.3293983742
 21
95.3923060442
  0
LINE
  5
326
100
AcDbEntity
  8
0
100
AcDbLine
 62
7
  6
CONTINUOUS
 10
120.3293983742
 20
95.3923060442
 11
117.8293983742
 21
95.3923060442
  0
LINE
  5
327
100
AcDbEntity
  8
0
100
AcDbLine
 62
7
  6
CONTINUOUS
 10
105.3624110761
 20
95.6699930603
 11
107.9303602685
 21
95.6699930603
  0
LINE
  5
328
100
AcDbEntity
  8
0
100
AcDbLine
 62
7
  6
CONTINUOUS
 10
136.9313713384
 20
95.8399687285
 11
141.7077105377
 21
95.8399687285
  0
LINE
  5
329
100
AcDbEntity
  8
0
100
AcDbLine
 62
7
  6
CONTINUOUS
 10
136.946938245
 20
95.977243476
 11
141.7234721009
 21
95.977243476
  0
LINE
  5
32A
100
AcDbEntity
  8
0
100
AcDbLine
 62
7
  6
CONTINUOUS
 10
157.5241006835
 20
96.0769644827
 11
149.7954237779
 21
96.0769644827
  0
LINE
  5
32B
100
AcDbEntity
  8
0
100
AcDbLine
 62
7
  6
CONTINUOUS
 10
89.8346960649
 20
96.0769644827
 11
97.5633729704
 21
96.0769644827
  0
LINE
  5
32C
100
AcDbEntity
  8
0
100
AcDbLine
 62
7
  6
CONTINUOUS
 10
105.3150319421
 20
96.1003601031
 11
107.9473665004
 21
96.1003823948
  0
LINE
  5
32D
100
AcDbEntity
  8
0
100
AcDbLine
 62
7
  6
CONTINUOUS
 10
124.5793983742
 20
96.3923060442
 11
122.3293983742
 21
96.3923060442
  0
LINE
  5
32E
100
AcDbEntity
  8
0
100
AcDbLine
 62
7
  6
CONTINUOUS
 10
121.3293983742
 20
96.3923060442
 11
119.0793983742
 21
96.3923060442
  0
LINE
  5
32F
100
AcDbEntity
  8
0
100
AcDbLine
 62
7
  6
CONTINUOUS
 10
157.5241006835
 20
97.1922816704
 11
149.7954237779
 21
97.1922816704
  0
LINE
  5
330
100
AcDbEntity
  8
0
100
AcDbLine
 62
7
  6
CONTINUOUS
 10
89.8346960649
 20
97.1922816704
 11
97.5633729704
 21
97.1922816704
  0
LINE
  5
331
100
AcDbEntity
  8
0
100
AcDbLine
 62
7
  6
CONTINUOUS
 10
124.5793983742
 20
97.3923060442
 11
119.0793983742
 21
97.3923060442
  0
LINE
  5
332
100
AcDbEntity
  8
0
100
AcDbLine
 62
7
  6
CONTINUOUS
 10
148.3206053562
 20
99.2023059672
 11
148.1291946978
 21
99.2023059672
  0
LINE
  5
333
100
AcDbEntity
  8
0
100
AcDbLine
 62
7
  6
CONTINUOUS
 10
146.5063183306
 20
99.2023060008
 11
146.3149076728
 21
99.2023060008
  0
LINE
  5
334
100
AcDbEntity
  8
0
100
AcDbLine
 62
7
  6
CONTINUOUS
 10
144.6920326838
 20
99.2023060417
 11
144.5006219996
 21
99.2023060417
  0
LINE
  5
335
100
AcDbEntity
  8
0
100
AcDbLine
 62
7
  6
CONTINUOUS
 10
101.9157954444
 20
99.207306038
 11
101.7243801365
 21
99.207306038
  0
LINE
  5
336
100
AcDbEntity
  8
0
100
AcDbLine
 62
7
  6
CONTINUOUS
 10
100.1015091359
 20
99.2073060113
 11
99.9100938403
 21
99.2073060113
  0
LWPOLYLINE
  5
337
100
AcDbEntity
  8
GEOM
100
AcDbPolyline
 62
7
  6
CONTINUOUS
 90
12
 70
0
 10
136.9224412279
 20
103.0897000013
 10
136.9210848789
 20
103.0906571479
 10
136.9182576095
 20
103.0905218742
 10
136.9139594198
 20
103.0898794676
 10
136.9080205237
 20
103.0897740224
 10
136.9006107073
 20
103.090255394
 10
136.892239328
 20
103.0903361937
 10
136.8829514787
 20
103.0903424373
 10
136.8727020665
 20
103.090813145
 10
136.8618651702
 20
103.0909681072
 10
136.8504794867
 20
103.0910524349
 10
136.8385063191
 20
103.0914983898
  0
LINE
  5
338
100
AcDbEntity
  8
0
100
AcDbLine
 62
7
  6
CONTINUOUS
 10
143.8982381227
 20
100.3576575097
 11
143.8829692333
 21
100.3723060442
  0
LINE
  5
339
100
AcDbEntity
  8
0
100
AcDbLine
 62
7
  6
CONTINUOUS
 10
134.2293983742
 20
106.1423060442
 11
134.4293983742
 21
105.9423060442
  0
LINE
  5
33A
100
AcDbEntity
  8
0
100
AcDbLine
 62
7
  6
CONTINUOUS
 10
120.4487851193
 20
120.4413598543
 11
119.5620134511
 21
121.3923060442
  0
LINE
  5
33B
100
AcDbEntity
  8
0
100
AcDbLine
 62
7
  6
CONTINUOUS
 10
142.1407232396
 20
102.8923060442
 11
142.4293983742
 21
102.3923060442
  0
LINE
  5
33C
100
AcDbEntity
  8
0
100
AcDbLine
 62
7
  6
CONTINUOUS
 10
144.5092161634
 20
99.1858258248
 11
143.8982381227
 21
100.3576575097
  0
LINE
  5
33D
100
AcDbEntity
  8
0
100
AcDbLine
 62
7
  6
CONTINUOUS
 10
141.7077105377
 20
102.8640041575
 11
141.7077105377
 21
102.2893947587
  0
LINE
  5
33E
100
AcDbEntity
  8
0
100
AcDbLine
 62
7
  6
CONTINUOUS
 10
141.7077105377
 20
95.8399687285
 11
141.7077105377
 21
94.452738925
  0
LINE
  5
33F
100
AcDbEntity
  8
0
100
AcDbLine
 62
7
  6
CONTINUOUS
 10
141.7077105377
 20
85.3318731635
 11
141.7077105377
 21
83.94464336
  0
LINE
  5
340
100
AcDbEntity
  8
0
100
AcDbLine
 62
7
  6
CONTINUOUS
 10
141.7077105377
 20
77.4952173298
 11
141.7077105377
 21
76.920607931
  0
LINE
  5
341
100
AcDbEntity
  8
0
100
AcDbLine
 62
7
  6
CONTINUOUS
 10
142.4293983742
 20
102.3923060442
 11
142.4293983742
 21
77.3923060442
  0
LINE
  5
342
100
AcDbEntity
  8
GEOM
100
AcDbLine
 62
7
  6
CONTINUOUS
 10
107.94736079
 20
94.112791798
 11
108.8133861306
 21
94.2786841552
  0
LINE
  5
343
100
AcDbEntity
  8
0
100
AcDbLine
 62
7
  6
CONTINUOUS
 10
104.9293983742
 20
100.3723060442
 11
102.5222560618
 21
100.3723060442
  0
LINE
  5
344
100
AcDbEntity
  8
0
100
AcDbLine
 62
7
  6
CONTINUOUS
 10
101.1093348267
 20
100.3723060442
 11
100.707969769
 21
100.3723060442
  0
LINE
  5
345
100
AcDbEntity
  8
0
100
AcDbLine
 62
7
  6
CONTINUOUS
 10
99.2950485026
 20
100.3723060442
 11
98.8936836086
 21
100.3723060442
  0
LINE
  5
346
100
AcDbEntity
  8
0
100
AcDbLine
 62
7
  6
CONTINUOUS
 10
142.4293983742
 20
100.3723060442
 11
143.8829692333
 21
100.3723060442
  0
LINE
  5
347
100
AcDbEntity
  8
0
100
AcDbLine
 62
7
  6
CONTINUOUS
 10
145.3010961345
 20
100.3723060442
 11
145.6972548562
 21
100.3723060442
  0
LINE
  5
348
100
AcDbEntity
  8
0
100
AcDbLine
 62
7
  6
CONTINUOUS
 10
147.1153818054
 20
100.3723060442
 11
147.5115418619
 21
100.3723060442
  0
LINE
  5
349
100
AcDbEntity
  8
0
100
AcDbLine
 62
7
  6
CONTINUOUS
 10
88.2561932934
 20
101.2923060442
 11
86.1293983742
 21
101.2923060442
  0
LINE
  5
34A
100
AcDbEntity
  8
0
100
AcDbLine
 62
7
  6
CONTINUOUS
 10
159.1026034549
 20
101.2923060442
 11
161.2293983742
 21
101.2923060442
  0
LINE
  5
34B
100
AcDbEntity
  8
0
100
AcDbLine
 62
7
  6
CONTINUOUS
 10
107.9473607899
 20
102.0690282963
 11
105.3150319421
 21
102.0690282963
  0
LINE
  5
34C
100
AcDbEntity
  8
0
100
AcDbLine
 62
7
  6
CONTINUOUS
 10
141.7234721009
 20
102.1921449233
 11
136.946938245
 21
102.1921449233
  0
LINE
  5
34D
100
AcDbEntity
  8
0
100
AcDbLine
 62
7
  6
CONTINUOUS
 10
141.7077105377
 20
102.2893947587
 11
136.9313713384
 21
102.2893947587
  0
LINE
  5
34E
100
AcDbEntity
  8
0
100
AcDbLine
 62
7
  6
CONTINUOUS
 10
107.9303602685
 20
102.3695185833
 11
105.3624110761
 21
102.3695185833
  0
LINE
  5
34F
100
AcDbEntity
  8
GEOM
100
AcDbLine
 62
7
  6
CONTINUOUS
 10
109.5758085357
 20
102.3923060442
 11
112.8009712494
 21
102.3923060442
  0
LINE
  5
350
100
AcDbEntity
  8
0
100
AcDbLine
 62
7
  6
CONTINUOUS
 10
105.3624110761
 20
102.8004693096
 11
107.9303602685
 21
102.8004693096
  0
LINE
  5
351
100
AcDbEntity
  8
0
100
AcDbLine
 62
7
  6
CONTINUOUS
 10
136.9313713384
 20
102.8640041575
 11
141.7077105377
 21
102.8640041575
  0
LINE
  5
352
100
AcDbEntity
  8
GEOM
100
AcDbLine
 62
7
  6
CONTINUOUS
 10
108.4139135318
 20
102.8923060442
 11
107.9473607899
 21
102.8923060442
  0
LINE
  5
353
100
AcDbEntity
  8
0
100
AcDbLine
 62
7
  6
CONTINUOUS
 10
104.9293983742
 20
102.8923060442
 11
107.9473607899
 21
102.8923060442
  0
LINE
  5
354
100
AcDbEntity
  8
0
100
AcDbLine
 62
7
  6
CONTINUOUS
 10
136.946938245
 20
102.8923060442
 11
142.1407232396
 21
102.8923060442
  0
LINE
  5
355
100
AcDbEntity
  8
0
100
AcDbLine
 62
7
  6
CONTINUOUS
 10
157.5241006835
 20
103.3769401089
 11
149.7954237779
 21
103.3769401089
  0
LINE
  5
356
100
AcDbEntity
  8
0
100
AcDbLine
 62
7
  6
CONTINUOUS
 10
89.8346960649
 20
103.3769401089
 11
97.5633729704
 21
103.3769401089
  0
LINE
  5
357
100
AcDbEntity
  8
0
100
AcDbLine
 62
7
  6
CONTINUOUS
 10
157.5437577281
 20
103.3923060442
 11
149.7954237779
 21
103.3923060442
  0
LINE
  5
358
100
AcDbEntity
  8
0
100
AcDbLine
 62
7
  6
CONTINUOUS
 10
89.8150390202
 20
103.3923060442
 11
97.5633729704
 21
103.3923060442
  0
LINE
  5
359
100
AcDbEntity
  8
0
100
AcDbLine
 62
7
  6
CONTINUOUS
 10
125.0293983742
 20
103.6437779068
 11
124.5341434447
 21
103.6437779068
  0
LINE
  5
35A
100
AcDbEntity
  8
0
100
AcDbLine
 62
7
  6
CONTINUOUS
 10
122.9293983742
 20
103.6437779068
 11
121.8293983742
 21
103.6437779068
  0
LINE
  5
35B
100
AcDbEntity
  8
0
100
AcDbLine
 62
7
  6
CONTINUOUS
 10
122.5093983742
 20
104.0637779068
 11
121.8293983742
 21
104.0637779068
  0
LINE
  5
35C
100
AcDbEntity
  8
GEOM
100
AcDbLine
 62
7
  6
CONTINUOUS
 10
136.7065301801
 20
103.0940810624
 11
136.6927628027
 21
103.0942143615
  0
LWPOLYLINE
  5
35D
100
AcDbEntity
  8
GEOM
100
AcDbPolyline
 62
7
  6
CONTINUOUS
 90
3
 70
0
 10
136.8262036551
 20
103.0917000971
 10
136.813603679
 20
103.0918374778
 10
136.8006742066
 20
103.0922515198
  0
LWPOLYLINE
  5
35E
100
AcDbEntity
  8
GEOM
100
AcDbPolyline
 62
7
  6
CONTINUOUS
 90
4
 70
0
 10
136.7875766724
 20
103.0924811186
 10
136.7743372901
 20
103.0926539221
 10
136.7609298461
 20
103.093034272
 10
136.7338802824
 20
103.0934766832
  0
LINE
  5
35F
100
AcDbEntity
  8
GEOM
100
AcDbLine
 62
7
  6
CONTINUOUS
 10
136.9224412279
 20
103.0897000013
 11
136.6650304587
 21
103.0948806186
  0
LINE
  5
360
100
AcDbEntity
  8
GEOM
100
AcDbLine
 62
7
  6
CONTINUOUS
 10
136.7338802824
 20
103.0934766832
 11
136.7202381628
 21
103.0938253927
  0
LINE
  5
361
100
AcDbEntity
  8
GEOM
100
AcDbLine
 62
7
  6
CONTINUOUS
 10
136.6789295622
 20
103.0944485222
 11
136.6650304587
 21
103.0948806186
  0
LINE
  5
362
100
AcDbEntity
  8
0
100
AcDbLine
 62
7
  6
CONTINUOUS
 10
145.7125237923
 20
100.3576574652
 11
145.6972548562
 21
100.3723060442
  0
LINE
  5
363
100
AcDbEntity
  8
0
100
AcDbLine
 62
7
  6
CONTINUOUS
 10
147.5268107972
 20
100.3576574661
 11
147.5115418619
 21
100.3723060442
  0
LINE
  5
364
100
AcDbEntity
  8
0
100
AcDbLine
 62
7
  6
CONTINUOUS
 10
146.323501863
 20
99.1858257336
 11
145.7125237923
 21
100.3576574652
  0
LINE
  5
365
100
AcDbEntity
  8
0
100
AcDbLine
 62
7
  6
CONTINUOUS
 10
148.1377888872
 20
99.1858257014
 11
147.5268107972
 21
100.3576574661
  0
LINE
  5
366
100
AcDbEntity
  8
0
100
AcDbLine
 62
7
  6
CONTINUOUS
 10
148.9293983742
 20
77.8923060442
 11
148.9293983742
 21
101.8923060442
  0
LINE
  5
367
100
AcDbEntity
  8
0
100
AcDbLine
 62
7
  6
CONTINUOUS
 10
149.7954237779
 20
103.3923060442
 11
149.7954237779
 21
103.3769401089
  0
LINE
  5
368
100
AcDbEntity
  8
0
100
AcDbLine
 62
7
  6
CONTINUOUS
 10
149.7954237779
 20
76.4076719796
 11
149.7954237779
 21
76.3923060442
  0
LINE
  5
369
100
AcDbEntity
  8
0
100
AcDbLine
 62
7
  6
CONTINUOUS
 10
149.7954237779
 20
82.592330418
 11
149.7954237779
 21
83.7076476058
  0
LINE
  5
36A
100
AcDbEntity
  8
0
100
AcDbLine
 62
7
  6
CONTINUOUS
 10
149.7954237779
 20
96.0769644827
 11
149.7954237779
 21
97.1922816704
  0
LINE
  5
36B
100
AcDbEntity
  8
GEOM
100
AcDbLine
 62
7
  6
CONTINUOUS
 10
136.9224412279
 20
76.6949120872
 11
135.8209864402
 21
73.6686899296
  0
LINE
  5
36C
100
AcDbEntity
  8
0
100
AcDbLine
 62
7
  6
CONTINUOUS
 10
145.2858272449
 20
100.3576575092
 11
144.6834433789
 21
99.2023060417
  0
LINE
  5
36D
100
AcDbEntity
  8
0
100
AcDbLine
 62
7
  6
CONTINUOUS
 10
123.6093983742
 20
105.1236793738
 11
122.9293983742
 21
105.1236793738
  0
LINE
  5
36E
100
AcDbEntity
  8
0
100
AcDbLine
 62
7
  6
CONTINUOUS
 10
123.8893983742
 20
105.6237779068
 11
122.9293983742
 21
105.6237779068
  0
LINE
  5
36F
100
AcDbEntity
  8
0
100
AcDbLine
 62
7
  6
CONTINUOUS
 10
132.4793983742
 20
105.6423060442
 11
132.5829882126
 21
105.6423060442
  0
LINE
  5
370
100
AcDbEntity
  8
0
100
AcDbLine
 62
7
  6
CONTINUOUS
 10
114.2511208953
 20
105.6816883295
 11
114.6304991457
 21
105.6816883295
  0
LINE
  5
371
100
AcDbEntity
  8
0
100
AcDbLine
 62
7
  6
CONTINUOUS
 10
134.2293983742
 20
106.1423060442
 11
133.2180735088
 21
106.1423060442
  0
LINE
  5
372
100
AcDbEntity
  8
0
100
AcDbLine
 62
7
  6
CONTINUOUS
 10
134.4293983742
 20
106.1423060442
 11
135.8108521923
 21
106.1423060442
  0
LINE
  5
373
100
AcDbEntity
  8
0
100
AcDbLine
 62
7
  6
CONTINUOUS
 10
123.8893983742
 20
106.8237779068
 11
122.9293983742
 21
106.8237779068
  0
LINE
  5
374
100
AcDbEntity
  8
0
100
AcDbLine
 62
7
  6
CONTINUOUS
 10
122.5093983742
 20
106.8237779068
 11
121.8293983742
 21
106.8237779068
  0
LINE
  5
375
100
AcDbEntity
  8
0
100
AcDbLine
 62
7
  6
CONTINUOUS
 10
123.8893983742
 20
107.2437779068
 11
121.8293983742
 21
107.2437779068
  0
LINE
  5
376
100
AcDbEntity
  8
0
100
AcDbLine
 62
7
  6
CONTINUOUS
 10
109.4293983742
 20
107.3923060442
 11
110.488244101
 21
107.3923060442
  0
LINE
  5
377
100
AcDbEntity
  8
0
100
AcDbLine
 62
7
  6
CONTINUOUS
 10
125.4293983742
 20
107.3923060442
 11
130.4293983742
 21
107.3923060442
  0
LINE
  5
378
100
AcDbEntity
  8
0
100
AcDbLine
 62
7
  6
CONTINUOUS
 10
131.6793983742
 20
107.5437779068
 11
130.4939526515
 21
107.5437779068
  0
LINE
  5
379
100
AcDbEntity
  8
0
100
AcDbLine
 62
7
  6
CONTINUOUS
 10
114.2511208953
 20
107.5437779068
 11
125.4293983742
 21
107.5437779068
  0
LINE
  5
37A
100
AcDbEntity
  8
0
100
AcDbLine
 62
7
  6
CONTINUOUS
 10
114.4578308518
 20
107.9680419755
 11
125.4293983742
 21
107.9680419755
  0
LINE
  5
37B
100
AcDbEntity
  8
0
100
AcDbLine
 62
7
  6
CONTINUOUS
 10
130.6747655095
 20
107.9680419755
 11
131.8551343054
 21
107.9680419755
  0
LINE
  5
37C
100
AcDbEntity
  8
0
100
AcDbLine
 62
7
  6
CONTINUOUS
 10
132.2536624429
 20
108.366570113
 11
130.8446102284
 21
108.366570113
  0
LINE
  5
37D
100
AcDbEntity
  8
0
100
AcDbLine
 62
7
  6
CONTINUOUS
 10
125.4293983742
 20
108.366570113
 11
114.0400897236
 21
108.366570113
  0
LINE
  5
37E
100
AcDbEntity
  8
0
100
AcDbLine
 62
7
  6
CONTINUOUS
 10
113.4636707212
 20
108.7908341817
 11
125.4293983742
 21
108.7908341817
  0
LINE
  5
37F
100
AcDbEntity
  8
0
100
AcDbLine
 62
7
  6
CONTINUOUS
 10
131.0254230863
 20
108.7908341817
 11
132.4293983742
 21
108.7908341817
  0
LINE
  5
380
100
AcDbEntity
  8
0
100
AcDbLine
 62
7
  6
CONTINUOUS
 10
147.100112868
 20
100.3576574633
 11
146.4977289989
 21
99.2023060008
  0
LINE
  5
381
100
AcDbEntity
  8
0
100
AcDbLine
 62
7
  6
CONTINUOUS
 10
148.9143999143
 20
100.3576574643
 11
148.312016025
 21
99.2023059672
  0
LINE
  5
382
100
AcDbEntity
  8
0
100
AcDbLine
 62
7
  6
CONTINUOUS
 10
148.9293983742
 20
101.8923060442
 11
149.7954237779
 21
103.3923060442
  0
LINE
  5
383
100
AcDbEntity
  8
0
100
AcDbLine
 62
7
  6
CONTINUOUS
 10
145.2858272449
 20
100.3576575092
 11
145.3010961345
 21
100.3723060442
  0
LINE
  5
384
100
AcDbEntity
  8
0
100
AcDbLine
 62
7
  6
CONTINUOUS
 10
147.100112868
 20
100.3576574633
 11
147.1153818054
 21
100.3723060442
  0
LINE
  5
385
100
AcDbEntity
  8
0
100
AcDbLine
 62
7
  6
CONTINUOUS
 10
109.3293983742
 20
110.8923060442
 11
113.8461243637
 21
110.8923060442
  0
LINE
  5
386
100
AcDbEntity
  8
0
100
AcDbLine
 62
7
  6
CONTINUOUS
 10
113.2546890762
 20
111.2923060442
 11
109.3293983742
 21
111.2923060442
  0
LINE
  5
387
100
AcDbEntity
  8
0
100
AcDbLine
 62
7
  6
CONTINUOUS
 10
113.4293983742
 20
111.6923060442
 11
113.6455864216
 21
111.6923060442
  0
LINE
  5
388
100
AcDbEntity
  8
0
100
AcDbLine
 62
7
  6
CONTINUOUS
 10
125.4293983742
 20
112.0851992631
 11
113.4293983742
 21
112.0851992631
  0
LINE
  5
389
100
AcDbEntity
  8
0
100
AcDbLine
 62
7
  6
CONTINUOUS
 10
125.4293983742
 20
112.4387526522
 11
113.2829517648
 21
112.4387526537
  0
LINE
  5
38A
100
AcDbEntity
  8
0
100
AcDbLine
 62
7
  6
CONTINUOUS
 10
113.1793983742
 20
112.5423060442
 11
125.4293983742
 21
112.5423060442
  0
LINE
  5
38B
100
AcDbEntity
  8
0
100
AcDbLine
 62
7
  6
CONTINUOUS
 10
132.6242253395
 20
112.5423060442
 11
132.6793983742
 21
112.5423060442
  0
LINE
  5
38C
100
AcDbEntity
  8
0
100
AcDbLine
 62
7
  6
CONTINUOUS
 10
127.5482005277
 20
126.1897409927
 11
128.6293983742
 21
125.565511125
  0
LINE
  5
38D
100
AcDbEntity
  8
0
100
AcDbLine
 62
7
  6
CONTINUOUS
 10
157.8035653492
 20
103.2423060442
 11
158.8427958338
 21
101.4423060442
  0
LINE
  5
38E
100
AcDbEntity
  8
0
100
AcDbLine
 62
7
  6
CONTINUOUS
 10
157.4293983742
 20
139.7289810862
 11
157.4293983742
 21
142.0556310023
  0
LINE
  5
38F
100
AcDbEntity
  8
0
100
AcDbLine
 62
7
  6
CONTINUOUS
 10
157.4293983742
 20
142.3923060442
 11
157.4293983742
 21
142.5923060442
  0
LINE
  5
390
100
AcDbEntity
  8
0
100
AcDbLine
 62
7
  6
CONTINUOUS
 10
157.5437577281
 20
97.1911415206
 11
157.5437577281
 21
96.0781691999
  0
LINE
  5
391
100
AcDbEntity
  8
0
100
AcDbLine
 62
7
  6
CONTINUOUS
 10
157.5437577281
 20
83.7064428887
 11
157.5437577281
 21
82.5934705673
  0
LINE
  5
392
100
AcDbEntity
  8
0
100
AcDbLine
 62
7
  6
CONTINUOUS
 10
157.5437577281
 20
76.3923060442
 11
157.5437577281
 21
76.4076073993
  0
LINE
  5
393
100
AcDbEntity
  8
0
100
AcDbLine
 62
7
  6
CONTINUOUS
 10
157.5437577281
 20
103.3770046892
 11
157.5437577281
 21
103.3923060442
  0
LINE
  5
394
100
AcDbEntity
  8
0
100
AcDbLine
 62
7
  6
CONTINUOUS
 10
157.8035653492
 20
103.2423060442
 11
157.8035653492
 21
103.2304018246
  0
LINE
  5
395
100
AcDbEntity
  8
0
100
AcDbLine
 62
7
  6
CONTINUOUS
 10
157.8035653492
 20
97.04948889
 11
157.8035653492
 21
96.0732191423
  0
LINE
  5
396
100
AcDbEntity
  8
0
100
AcDbLine
 62
7
  6
CONTINUOUS
 10
157.8035653492
 20
83.7113929462
 11
157.8035653492
 21
82.7351232083
  0
LINE
  5
397
100
AcDbEntity
  8
0
100
AcDbLine
 62
7
  6
CONTINUOUS
 10
157.8035653492
 20
76.5542102643
 11
157.8035653492
 21
76.5423060442
  0
LINE
  5
398
100
AcDbEntity
  8
0
100
AcDbLine
 62
7
  6
CONTINUOUS
 10
158.7293983742
 20
137.8923060442
 11
158.7293983742
 21
143.8923060442
  0
LINE
  5
399
100
AcDbEntity
  8
0
100
AcDbLine
 62
7
  6
CONTINUOUS
 10
158.8427958338
 20
78.3423060442
 11
158.8427958338
 21
101.4423060442
  0
LINE
  5
39A
100
AcDbEntity
  8
0
100
AcDbLine
 62
7
  6
CONTINUOUS
 10
159.1026034549
 20
78.4923060442
 11
159.1026034549
 21
101.2923060442
  0
LINE
  5
39B
100
AcDbEntity
  8
GEOM
100
AcDbLine
 62
7
  6
CONTINUOUS
 10
159.8771595442
 20
143.8923060442
 11
159.8771595442
 21
143.9087239547
  0
LINE
  5
39C
100
AcDbEntity
  8
0
100
AcDbLine
 62
7
  6
CONTINUOUS
 10
144.8053806143
 20
79.4269546068
 11
145.3817711091
 21
80.532461014
  0
LINE
  5
39D
100
AcDbEntity
  8
0
100
AcDbLine
 62
7
  6
CONTINUOUS
 10
145.3817711091
 20
80.532461014
 11
145.4077644881
 21
80.5823060634
  0
LINE
  5
39E
100
AcDbEntity
  8
0
100
AcDbLine
 62
7
  6
CONTINUOUS
 10
142.1407232396
 20
76.8923060442
 11
142.4293983742
 21
77.3923060442
  0
LINE
  5
39F
100
AcDbEntity
  8
0
100
AcDbLine
 62
7
  6
CONTINUOUS
 10
121.081117259
 20
115.3349760356
 11
124.4588235399
 21
115.4335555005
  0
LINE
  5
3A0
100
AcDbEntity
  8
0
100
AcDbLine
 62
7
  6
CONTINUOUS
 10
123.9096336681
 20
115.4174354761
 11
124.2522979278
 21
115.4274681475
  0
LINE
  5
3A1
100
AcDbEntity
  8
0
100
AcDbLine
 62
7
  6
CONTINUOUS
 10
109.4293983742
 20
114.3923060442
 11
112.4293983742
 21
114.3923060442
  0
LINE
  5
3A2
100
AcDbEntity
  8
0
100
AcDbLine
 62
7
  6
CONTINUOUS
 10
113.1793983742
 20
115.0423060442
 11
124.8232635682
 21
115.0423060442
  0
LINE
  5
3A3
100
AcDbEntity
  8
0
100
AcDbLine
 62
7
  6
CONTINUOUS
 10
113.4293983742
 20
115.2923060442
 11
124.5901347966
 21
115.2923060442
  0
LINE
  5
3A4
100
AcDbEntity
  8
0
100
AcDbLine
 62
7
  6
CONTINUOUS
 10
115.6294309329
 20
115.7923060442
 11
124.1238772536
 21
115.7923060442
  0
LINE
  5
3A5
100
AcDbEntity
  8
0
100
AcDbLine
 62
7
  6
CONTINUOUS
 10
115.6793983742
 20
118.3592933424
 11
115.6945791772
 21
118.3592933424
  0
LINE
  5
3A6
100
AcDbEntity
  8
0
100
AcDbLine
 62
7
  6
CONTINUOUS
 10
118.9058873219
 20
118.3592933424
 11
119.7180902295
 21
118.3592933424
  0
LINE
  5
3A7
100
AcDbEntity
  8
0
100
AcDbLine
 62
7
  6
CONTINUOUS
 10
121.3263319952
 20
118.7923060442
 11
116.4293983742
 21
118.7923060442
  0
LINE
  5
3A8
100
AcDbEntity
  8
0
100
AcDbLine
 62
7
  6
CONTINUOUS
 10
127.5482005277
 20
129.0350404543
 11
126.9293983742
 21
129.3923060442
  0
LINE
  5
3A9
100
AcDbEntity
  8
GEOM
100
AcDbLine
 62
7
  6
CONTINUOUS
 10
160.7417571031
 20
143.8923060442
 11
160.7417571031
 21
143.9087239547
  0
LINE
  5
3AA
100
AcDbEntity
  8
GEOM
100
AcDbLine
 62
7
  6
CONTINUOUS
 10
161.2293983742
 20
101.2923060442
 11
161.2293983742
 21
78.4923060442
  0
LINE
  5
3AB
100
AcDbEntity
  8
GEOM
100
AcDbLine
 62
7
  6
CONTINUOUS
 10
161.3771595442
 20
143.8923060442
 11
161.3771595442
 21
143.9087239547
  0
LINE
  5
3AC
100
AcDbEntity
  8
GEOM
100
AcDbLine
 62
7
  6
CONTINUOUS
 10
161.9293983742
 20
100.5923060442
 11
161.9293983742
 21
79.1923060442
  0
LINE
  5
3AD
100
AcDbEntity
  8
GEOM
100
AcDbLine
 62
7
  6
CONTINUOUS
 10
161.9739116206
 20
143.8923060442
 11
161.9739116206
 21
143.9087239547
  0
LINE
  5
3AE
100
AcDbEntity
  8
GEOM
100
AcDbLine
 62
7
  6
CONTINUOUS
 10
163.1761504247
 20
143.8923060442
 11
163.1761504247
 21
143.9087239547
  0
LINE
  5
3AF
100
AcDbEntity
  8
GEOM
100
AcDbLine
 62
7
  6
CONTINUOUS
 10
163.8972681646
 20
143.8923060442
 11
163.8972681646
 21
143.9087239547
  0
LINE
  5
3B0
100
AcDbEntity
  8
0
100
AcDbLine
 62
7
  6
CONTINUOUS
 10
146.6196673041
 20
79.4269546285
 11
147.1960578288
 21
80.532461085
  0
LINE
  5
3B1
100
AcDbEntity
  8
0
100
AcDbLine
 62
7
  6
CONTINUOUS
 10
147.1960578288
 20
80.532461085
 11
147.2220511954
 21
80.5823061101
  0
LINE
  5
3B2
100
AcDbEntity
  8
0
100
AcDbLine
 62
7
  6
CONTINUOUS
 10
148.4339539188
 20
79.4269546049
 11
148.9293983742
 21
80.3772317721
  0
LINE
  5
3B3
100
AcDbEntity
  8
0
100
AcDbLine
 62
7
  6
CONTINUOUS
 10
134.2293983742
 20
73.6423060442
 11
134.4293983742
 21
73.8423060442
  0
LINE
  5
3B4
100
AcDbEntity
  8
0
100
AcDbLine
 62
7
  6
CONTINUOUS
 10
119.3680503143
 20
120.8923060442
 11
118.4293983742
 21
120.8923060442
  0
LINE
  5
3B5
100
AcDbEntity
  8
0
100
AcDbLine
 62
7
  6
CONTINUOUS
 10
110.6462803824
 20
121.3923060442
 11
119.5620134511
 21
121.3923060442
  0
LINE
  5
3B6
100
AcDbEntity
  8
0
100
AcDbLine
 62
7
  6
CONTINUOUS
 10
120.4487851193
 20
121.3923060442
 11
134.8181461815
 21
121.3923060442
  0
LINE
  5
3B7
100
AcDbEntity
  8
0
100
AcDbLine
 62
7
  6
CONTINUOUS
 10
136.3536023216
 20
121.3923060442
 11
141.4293983742
 21
121.3923060442
  0
LINE
  5
3B8
100
AcDbEntity
  8
GEOM
100
AcDbLine
 62
7
  6
CONTINUOUS
 10
166.7718950258
 20
143.8923060442
 11
166.7718950258
 21
143.9087239547
  0
LINE
  5
3B9
100
AcDbEntity
  8
GEOM
100
AcDbLine
 62
7
  6
CONTINUOUS
 10
167.5051218093
 20
143.8923060442
 11
167.5051218093
 21
143.9087239547
  0
LINE
  5
3BA
100
AcDbEntity
  8
GEOM
100
AcDbLine
 62
7
  6
CONTINUOUS
 10
168.801390464
 20
143.8923060442
 11
168.801390464
 21
143.9087239547
  0
LINE
  5
3BB
100
AcDbEntity
  8
GEOM
100
AcDbLine
 62
7
  6
CONTINUOUS
 10
169.3655695676
 20
143.8923060442
 11
169.3655695676
 21
143.9087239547
  0
LINE
  5
3BC
100
AcDbEntity
  8
GEOM
100
AcDbLine
 62
7
  6
CONTINUOUS
 10
169.4663158361
 20
143.8923060442
 11
169.4663158361
 21
143.9087239547
  0
LINE
  5
3BD
100
AcDbEntity
  8
GEOM
100
AcDbLine
 62
7
  6
CONTINUOUS
 10
169.6409427015
 20
143.8923060442
 11
169.6409427015
 21
143.9087239547
  0
LINE
  5
3BE
100
AcDbEntity
  8
0
100
AcDbLine
 62
7
  6
CONTINUOUS
 10
144.8053806143
 20
79.4269546068
 11
144.7901116956
 21
79.4123060442
  0
LINE
  5
3BF
100
AcDbEntity
  8
0
100
AcDbLine
 62
7
  6
CONTINUOUS
 10
146.6196673041
 20
79.4269546285
 11
146.6043983625
 21
79.4123060442
  0
LINE
  5
3C0
100
AcDbEntity
  8
0
100
AcDbLine
 62
7
  6
CONTINUOUS
 10
148.4339539189
 20
79.4269546049
 11
148.4186850018
 21
79.4123060442
  0
LINE
  5
3C1
100
AcDbEntity
  8
0
100
AcDbLine
 62
7
  6
CONTINUOUS
 10
112.4293983742
 20
124.3923060442
 11
141.4293983742
 21
124.3923060442
  0
LINE
  5
3C2
100
AcDbEntity
  8
0
100
AcDbLine
 62
7
  6
CONTINUOUS
 10
116.9293983742
 20
125.0458958827
 11
128.9293983742
 21
125.0458958827
  0
LINE
  5
3C3
100
AcDbEntity
  8
0
100
AcDbLine
 62
7
  6
CONTINUOUS
 10
117.2293983742
 20
125.565511125
 11
128.6293983742
 21
125.565511125
  0
LINE
  5
3C4
100
AcDbEntity
  8
GEOM
100
AcDbLine
 62
7
  6
CONTINUOUS
 10
170.3381068795
 20
143.8923060442
 11
170.3381068795
 21
143.9087239547
  0
LINE
  5
3C5
100
AcDbEntity
  8
GEOM
100
AcDbLine
 62
7
  6
CONTINUOUS
 10
170.854935237
 20
143.8923060442
 11
170.854935237
 21
143.9087239547
  0
LINE
  5
3C6
100
AcDbEntity
  8
GEOM
100
AcDbLine
 62
7
  6
CONTINUOUS
 10
171.4006441913
 20
143.8923060442
 11
171.4006441913
 21
143.9087239547
  0
LINE
  5
3C7
100
AcDbEntity
  8
GEOM
100
AcDbLine
 62
7
  6
CONTINUOUS
 10
171.9446740412
 20
143.8923060442
 11
171.9446740412
 21
143.9087239547
  0
LINE
  5
3C8
100
AcDbEntity
  8
GEOM
100
AcDbLine
 62
7
  6
CONTINUOUS
 10
172.2737785183
 20
143.8923060442
 11
172.2737785183
 21
143.9087239547
  0
LINE
  5
3C9
100
AcDbEntity
  8
GEOM
100
AcDbLine
 62
7
  6
CONTINUOUS
 10
173.0461665768
 20
143.8923060442
 11
173.0461665768
 21
143.9087239547
  0
LINE
  5
3CA
100
AcDbEntity
  8
GEOM
100
AcDbLine
 62
7
  6
CONTINUOUS
 10
173.8655695606
 20
143.8923060442
 11
173.8655695606
 21
143.9087239547
  0
LINE
  5
3CB
100
AcDbEntity
  8
GEOM
100
AcDbLine
 62
7
  6
CONTINUOUS
 10
173.8754150029
 20
143.8923060442
 11
173.8754150029
 21
143.9087239547
  0
LINE
  5
3CC
100
AcDbEntity
  8
GEOM
100
AcDbLine
 62
7
  6
CONTINUOUS
 10
174.3424352315
 20
143.8923060442
 11
174.3424352315
 21
143.9087239547
  0
LINE
  5
3CD
100
AcDbEntity
  8
GEOM
100
AcDbLine
 62
7
  6
CONTINUOUS
 10
174.6379576191
 20
143.8923060442
 11
174.6379576191
 21
143.9087239547
  0
LINE
  5
3CE
100
AcDbEntity
  8
0
100
AcDbLine
 62
7
  6
CONTINUOUS
 10
157.8035653492
 20
76.5423060442
 11
158.8427958338
 21
78.3423060442
  0
LINE
  5
3CF
100
AcDbEntity
  8
0
100
AcDbLine
 62
7
  6
CONTINUOUS
 10
118.92944545
 20
129.3923060442
 11
126.9293512983
 21
129.3923060442
  0
LINE
  5
3D0
100
AcDbEntity
  8
GEOM
100
AcDbLine
 62
7
  6
CONTINUOUS
 10
176.659599407
 20
143.8923060442
 11
176.659599407
 21
143.9087239547
  0
LINE
  5
3D1
100
AcDbEntity
  8
GEOM
100
AcDbLine
 62
7
  6
CONTINUOUS
 10
178.220083517
 20
143.8923060442
 11
178.220083517
 21
143.9087239547
  0
LINE
  5
3D2
100
AcDbEntity
  8
GEOM
100
AcDbLine
 62
7
  6
CONTINUOUS
 10
178.3185546283
 20
143.8923060442
 11
178.3185546283
 21
143.9087239547
  0
LINE
  5
3D3
100
AcDbEntity
  8
GEOM
100
AcDbLine
 62
7
  6
CONTINUOUS
 10
179.1581068658
 20
143.8923060442
 11
179.1581068658
 21
143.9087239547
  0
LINE
  5
3D4
100
AcDbEntity
  8
GEOM
100
AcDbLine
 62
7
  6
CONTINUOUS
 10
179.3058661471
 20
143.9087239547
 11
179.3058661471
 21
143.8923060442
  0
LINE
  5
3D5
100
AcDbEntity
  8
GEOM
100
AcDbLine
 62
7
  6
CONTINUOUS
 10
179.7424352231
 20
143.8923060442
 11
179.7424352231
 21
143.9087239547
  0
LINE
  5
3D6
100
AcDbEntity
  8
0
100
AcDbLine
 62
7
  6
CONTINUOUS
 10
158.7293983742
 20
137.8923060442
 11
211.9293983742
 21
137.8923060442
  0
LINE
  5
3D7
100
AcDbEntity
  8
GEOM
100
AcDbLine
 62
7
  6
CONTINUOUS
 10
181.1931814895
 20
143.8923060442
 11
181.1931814895
 21
143.9087239547
  0
LINE
  5
3D8
100
AcDbEntity
  8
GEOM
100
AcDbLine
 62
7
  6
CONTINUOUS
 10
182.3771595404
 20
143.8923060442
 11
182.3771595404
 21
143.9087239547
  0
LINE
  5
3D9
100
AcDbEntity
  8
GEOM
100
AcDbLine
 62
7
  6
CONTINUOUS
 10
183.0253860229
 20
143.8923060442
 11
183.0253860229
 21
143.9087239547
  0
LINE
  5
3DA
100
AcDbEntity
  8
GEOM
100
AcDbLine
 62
7
  6
CONTINUOUS
 10
183.2990558497
 20
143.8923060442
 11
183.2990558497
 21
143.9087239547
  0
LINE
  5
3DB
100
AcDbEntity
  8
GEOM
100
AcDbLine
 62
7
  6
CONTINUOUS
 10
183.4855437531
 20
143.8923060442
 11
183.4855437531
 21
143.9087239547
  0
LINE
  5
3DC
100
AcDbEntity
  8
GEOM
100
AcDbLine
 62
7
  6
CONTINUOUS
 10
183.6098334673
 20
143.8923060442
 11
183.6098334673
 21
143.9087239547
  0
LINE
  5
3DD
100
AcDbEntity
  8
GEOM
100
AcDbLine
 62
7
  6
CONTINUOUS
 10
183.6608567291
 20
143.8923060442
 11
183.6608567291
 21
143.9087239547
  0
LINE
  5
3DE
100
AcDbEntity
  8
GEOM
100
AcDbLine
 62
7
  6
CONTINUOUS
 10
183.7521367094
 20
143.8923060442
 11
183.7521367094
 21
143.9087239547
  0
LINE
  5
3DF
100
AcDbEntity
  8
GEOM
100
AcDbLine
 62
7
  6
CONTINUOUS
 10
183.9391649418
 20
143.8923060442
 11
183.9391649418
 21
143.9087239547
  0
LINE
  5
3E0
100
AcDbEntity
  8
GEOM
100
AcDbLine
 62
7
  6
CONTINUOUS
 10
184.1478961521
 20
143.8923060442
 11
184.1478961521
 21
143.9087239547
  0
LINE
  5
3E1
100
AcDbEntity
  8
GEOM
100
AcDbLine
 62
7
  6
CONTINUOUS
 10
184.353148573
 20
143.8923060442
 11
184.353148573
 21
143.9087239547
  0
LINE
  5
3E2
100
AcDbEntity
  8
GEOM
100
AcDbLine
 62
7
  6
CONTINUOUS
 10
184.438960331
 20
143.8923060442
 11
184.438960331
 21
143.9087239547
  0
LINE
  5
3E3
100
AcDbEntity
  8
GEOM
100
AcDbLine
 62
7
  6
CONTINUOUS
 10
184.4621526652
 20
143.8923060442
 11
184.4621526652
 21
143.9087239547
  0
LINE
  5
3E4
100
AcDbEntity
  8
GEOM
100
AcDbLine
 62
7
  6
CONTINUOUS
 10
184.5966684871
 20
143.8923060442
 11
184.5966684871
 21
143.9087239547
  0
LINE
  5
3E5
100
AcDbEntity
  8
GEOM
100
AcDbLine
 62
7
  6
CONTINUOUS
 10
184.7681096865
 20
143.8923060442
 11
184.7681096865
 21
143.9087239547
  0
LINE
  5
3E6
100
AcDbEntity
  8
0
100
AcDbLine
 62
7
  6
CONTINUOUS
 10
157.4293983742
 20
140.3923060442
 11
214.4293983742
 21
140.3923060442
  0
LINE
  5
3E7
100
AcDbEntity
  8
0
100
AcDbLine
 62
7
  6
CONTINUOUS
 10
157.4293983742
 20
141.3923060442
 11
214.4293983742
 21
141.3923060442
  0
LINE
  5
3E8
100
AcDbEntity
  8
0
100
AcDbLine
 62
7
  6
CONTINUOUS
 10
157.4293983742
 20
142.3923060442
 11
157.4471688511
 21
142.3923060442
  0
LINE
  5
3E9
100
AcDbEntity
  8
GEOM
100
AcDbLine
 62
7
  6
CONTINUOUS
 10
184.8959194067
 20
143.8923060442
 11
184.8959194067
 21
143.9087239547
  0
LINE
  5
3EA
100
AcDbEntity
  8
GEOM
100
AcDbLine
 62
7
  6
CONTINUOUS
 10
185.0129713111
 20
143.8923060442
 11
185.0129713111
 21
143.9087239547
  0
LINE
  5
3EB
100
AcDbEntity
  8
GEOM
100
AcDbLine
 62
7
  6
CONTINUOUS
 10
185.4814569884
 20
143.8923060442
 11
185.4814569884
 21
143.9087239547
  0
LINE
  5
3EC
100
AcDbEntity
  8
GEOM
100
AcDbLine
 62
7
  6
CONTINUOUS
 10
185.5243628674
 20
143.8923060442
 11
185.5243628674
 21
143.9087239547
  0
LINE
  5
3ED
100
AcDbEntity
  8
GEOM
100
AcDbLine
 62
7
  6
CONTINUOUS
 10
185.708742147
 20
143.8923060442
 11
185.708742147
 21
143.9087239547
  0
LINE
  5
3EE
100
AcDbEntity
  8
GEOM
100
AcDbLine
 62
7
  6
CONTINUOUS
 10
185.9163135582
 20
143.8923060442
 11
185.9163135582
 21
143.9087239547
  0
LINE
  5
3EF
100
AcDbEntity
  8
GEOM
100
AcDbLine
 62
7
  6
CONTINUOUS
 10
186.1563544803
 20
143.8923060442
 11
186.1563544803
 21
143.9087239547
  0
LINE
  5
3F0
100
AcDbEntity
  8
GEOM
100
AcDbLine
 62
7
  6
CONTINUOUS
 10
186.213175922
 20
143.8923060442
 11
186.213175922
 21
143.9087239547
  0
LINE
  5
3F1
100
AcDbEntity
  8
GEOM
100
AcDbLine
 62
7
  6
CONTINUOUS
 10
186.2444854312
 20
143.8923060442
 11
186.2444854312
 21
143.9087239547
  0
LINE
  5
3F2
100
AcDbEntity
  8
GEOM
100
AcDbLine
 62
7
  6
CONTINUOUS
 10
186.2855695413
 20
143.8923060442
 11
186.2855695413
 21
143.9087239547
  0
LINE
  5
3F3
100
AcDbEntity
  8
GEOM
100
AcDbLine
 62
7
  6
CONTINUOUS
 10
186.316382032
 20
143.8923060442
 11
186.316382032
 21
143.9087239547
  0
LINE
  5
3F4
100
AcDbEntity
  8
GEOM
100
AcDbLine
 62
7
  6
CONTINUOUS
 10
186.5251130395
 20
143.8923060442
 11
186.5251130395
 21
143.9087239547
  0
LINE
  5
3F5
100
AcDbEntity
  8
GEOM
100
AcDbLine
 62
7
  6
CONTINUOUS
 10
186.5598220134
 20
143.8923060442
 11
186.5598220134
 21
143.9087239547
  0
LINE
  5
3F6
100
AcDbEntity
  8
GEOM
100
AcDbLine
 62
7
  6
CONTINUOUS
 10
186.6373819625
 20
143.8923060442
 11
186.6373819625
 21
143.9087239547
  0
LINE
  5
3F7
100
AcDbEntity
  8
GEOM
100
AcDbLine
 62
7
  6
CONTINUOUS
 10
186.7605155759
 20
143.8923060442
 11
186.7605155759
 21
143.9087239547
  0
LINE
  5
3F8
100
AcDbEntity
  8
GEOM
100
AcDbLine
 62
7
  6
CONTINUOUS
 10
186.9135851436
 20
143.8923060442
 11
186.9135851436
 21
143.9087239547
  0
LINE
  5
3F9
100
AcDbEntity
  8
GEOM
100
AcDbLine
 62
7
  6
CONTINUOUS
 10
186.985481339
 20
143.8923060442
 11
186.985481339
 21
143.9087239547
  0
LINE
  5
3FA
100
AcDbEntity
  8
GEOM
100
AcDbLine
 62
7
  6
CONTINUOUS
 10
187.1107201868
 20
143.8923060442
 11
187.1107201868
 21
143.9087239547
  0
LINE
  5
3FB
100
AcDbEntity
  8
GEOM
100
AcDbLine
 62
7
  6
CONTINUOUS
 10
187.3194515996
 20
143.8923060442
 11
187.3194515996
 21
143.9087239547
  0
LINE
  5
3FC
100
AcDbEntity
  8
0
100
AcDbLine
 62
7
  6
CONTINUOUS
 10
158.7293983742
 20
143.8923060442
 11
211.9293983742
 21
143.8923060442
  0
LINE
  5
3FD
100
AcDbEntity
  8
GEOM
100
AcDbLine
 62
7
  6
CONTINUOUS
 10
159.8771595442
 20
143.9087239547
 11
161.3771595442
 21
143.9087239547
  0
LINE
  5
3FE
100
AcDbEntity
  8
GEOM
100
AcDbLine
 62
7
  6
CONTINUOUS
 10
161.9739116206
 20
143.9087239547
 11
168.801390464
 21
143.9087239547
  0
LINE
  5
3FF
100
AcDbEntity
  8
GEOM
100
AcDbLine
 62
7
  6
CONTINUOUS
 10
168.8132430613
 20
143.9087239547
 11
174.3424352315
 21
143.9087239547
  0
LINE
  5
400
100
AcDbEntity
  8
GEOM
100
AcDbLine
 62
7
  6
CONTINUOUS
 10
174.6379576191
 20
143.9087239547
 11
178.3185546283
 21
143.9087239547
  0
LINE
  5
401
100
AcDbEntity
  8
GEOM
100
AcDbLine
 62
7
  6
CONTINUOUS
 10
178.3290386523
 20
143.9087239547
 11
179.1581068658
 21
143.9087239547
  0
LINE
  5
402
100
AcDbEntity
  8
GEOM
100
AcDbLine
 62
7
  6
CONTINUOUS
 10
179.3059143918
 20
143.9087239547
 11
185.5205484111
 21
143.9087239547
  0
LINE
  5
403
100
AcDbEntity
  8
GEOM
100
AcDbLine
 62
7
  6
CONTINUOUS
 10
185.5243628674
 20
143.9087239547
 11
187.3194515996
 21
143.9087239547
  0
LINE
  5
404
100
AcDbEntity
  8
GEOM
100
AcDbLine
 62
7
  6
CONTINUOUS
 10
196.9587430466
 20
143.9087239547
 11
198.0935695086
 21
143.9087239547
  0
LINE
  5
405
100
AcDbEntity
  8
GEOM
100
AcDbLine
 62
7
  6
CONTINUOUS
 10
198.2885541674
 20
143.9087239547
 11
199.2561345486
 21
143.9087239547
  0
LINE
  5
406
100
AcDbEntity
  8
GEOM
100
AcDbLine
 62
7
  6
CONTINUOUS
 10
199.3148745572
 20
143.9087239547
 11
200.1592638463
 21
143.9087239547
  0
LINE
  5
407
100
AcDbEntity
  8
GEOM
100
AcDbLine
 62
7
  6
CONTINUOUS
 10
201.2489270372
 20
143.9087239547
 11
204.4117011206
 21
143.9087239547
  0
LINE
  5
408
100
AcDbEntity
  8
GEOM
100
AcDbLine
 62
7
  6
CONTINUOUS
 10
196.9587430466
 20
143.8923060442
 11
196.9587430466
 21
143.9087239547
  0
LINE
  5
409
100
AcDbEntity
  8
GEOM
100
AcDbLine
 62
7
  6
CONTINUOUS
 10
197.115180003
 20
143.8923060442
 11
197.115180003
 21
143.9087239547
  0
LINE
  5
40A
100
AcDbEntity
  8
GEOM
100
AcDbLine
 62
7
  6
CONTINUOUS
 10
197.5290117166
 20
143.8923060442
 11
197.5290117166
 21
143.9087239547
  0
LINE
  5
40B
100
AcDbEntity
  8
GEOM
100
AcDbLine
 62
7
  6
CONTINUOUS
 10
197.9401925861
 20
143.8923060442
 11
197.9401925861
 21
143.9087239547
  0
LINE
  5
40C
100
AcDbEntity
  8
GEOM
100
AcDbLine
 62
7
  6
CONTINUOUS
 10
198.0935695086
 20
143.8923060442
 11
198.0935695086
 21
143.9087239547
  0
LINE
  5
40D
100
AcDbEntity
  8
GEOM
100
AcDbLine
 62
7
  6
CONTINUOUS
 10
198.2885541674
 20
143.8923060442
 11
198.2885541674
 21
143.9087239547
  0
LINE
  5
40E
100
AcDbEntity
  8
GEOM
100
AcDbLine
 62
7
  6
CONTINUOUS
 10
198.2983441927
 20
143.8923060442
 11
198.2983441927
 21
143.9087239547
  0
LINE
  5
40F
100
AcDbEntity
  8
GEOM
100
AcDbLine
 62
7
  6
CONTINUOUS
 10
198.5430946822
 20
143.8923060442
 11
198.5430946822
 21
143.9087239547
  0
LINE
  5
410
100
AcDbEntity
  8
GEOM
100
AcDbLine
 62
7
  6
CONTINUOUS
 10
199.0676766688
 20
143.8923060442
 11
199.0676766688
 21
143.9087239547
  0
LINE
  5
411
100
AcDbEntity
  8
GEOM
100
AcDbLine
 62
7
  6
CONTINUOUS
 10
199.1427334818
 20
143.8923060442
 11
199.1427334818
 21
143.9087239547
  0
LINE
  5
412
100
AcDbEntity
  8
GEOM
100
AcDbLine
 62
7
  6
CONTINUOUS
 10
199.2561345486
 20
143.8923060442
 11
199.2561345486
 21
143.9087239547
  0
LINE
  5
413
100
AcDbEntity
  8
GEOM
100
AcDbLine
 62
7
  6
CONTINUOUS
 10
199.3148745572
 20
143.8923060442
 11
199.3148745572
 21
143.9087239547
  0
LINE
  5
414
100
AcDbEntity
  8
GEOM
100
AcDbLine
 62
7
  6
CONTINUOUS
 10
199.5596250468
 20
143.8923060442
 11
199.5596250468
 21
143.9087239547
  0
LINE
  5
415
100
AcDbEntity
  8
GEOM
100
AcDbLine
 62
7
  6
CONTINUOUS
 10
200.0842070334
 20
143.8923060442
 11
200.0842070334
 21
143.9087239547
  0
LINE
  5
416
100
AcDbEntity
  8
GEOM
100
AcDbLine
 62
7
  6
CONTINUOUS
 10
200.1592638463
 20
143.8923060442
 11
200.1592638463
 21
143.9087239547
  0
LINE
  5
417
100
AcDbEntity
  8
GEOM
100
AcDbLine
 62
7
  6
CONTINUOUS
 10
201.2489270372
 20
143.8923060442
 11
201.2489270372
 21
143.9087239547
  0
LINE
  5
418
100
AcDbEntity
  8
GEOM
100
AcDbLine
 62
7
  6
CONTINUOUS
 10
202.593714535
 20
143.8923060442
 11
202.593714535
 21
143.9087239547
  0
LINE
  5
419
100
AcDbEntity
  8
GEOM
100
AcDbLine
 62
7
  6
CONTINUOUS
 10
204.411784532
 20
143.8923060442
 11
204.411784532
 21
143.9087239547
  0
LINE
  5
41A
100
AcDbEntity
  8
0
100
AcDbLine
 62
7
  6
CONTINUOUS
 10
204.9293983742
 20
137.8923060442
 11
204.9293983742
 21
143.8923060442
  0
LINE
  5
41B
100
AcDbEntity
  8
0
100
AcDbLine
 62
7
  6
CONTINUOUS
 10
214.4293983742
 20
140.3923060442
 11
214.4293983742
 21
141.3923060442
  0
ARC
  5
41C
100
AcDbEntity
  8
0
100
AcDbCircle
 62
7
  6
CONTINUOUS
 10
137.8485253025
 20
-450.0077558973
 40
565.5913389237
100
AcDbArc
 50
91.698863655
 51
91.8388992349
  0
ARC
  5
41D
100
AcDbEntity
  8
GEOM
100
AcDbCircle
 62
7
  6
CONTINUOUS
 10
105.3384667923
 20
23.2676154218
 40
54.2643887687
100
AcDbArc
 50
86.0715114714
 51
86.3284476934
  0
ARC
  5
41E
100
AcDbEntity
  8
GEOM
100
AcDbCircle
 62
7
  6
CONTINUOUS
 10
83.3409318949
 20
89.5488004154
 40
25.9078700071
100
AcDbArc
 50
6.9908349504
 51
10.5192298692
  0
ARC
  5
41F
100
AcDbEntity
  8
GEOM
100
AcDbCircle
 62
7
  6
CONTINUOUS
 10
83.3409361199
 20
90.2358110224
 40
25.9078657344
100
AcDbArc
 50
349.4807698398
 51
353.0091653407
  0
ARC
  5
420
100
AcDbEntity
  8
GEOM
100
AcDbCircle
 62
7
  6
CONTINUOUS
 10
84.0124390745
 20
89.5109827949
 40
24.3732870911
100
AcDbArc
 50
7.2628903112
 51
10.8830787978
  0
ARC
  5
421
100
AcDbEntity
  8
GEOM
100
AcDbCircle
 62
7
  6
CONTINUOUS
 10
84.0124429937
 20
90.2736286678
 40
24.3732831243
100
AcDbArc
 50
349.1169209075
 51
352.7371099835
  0
ARC
  5
422
100
AcDbEntity
  8
GEOM
100
AcDbCircle
 62
7
  6
CONTINUOUS
 10
115.9651210573
 20
85.1493904014
 40
8.0347627653
100
AcDbArc
 50
176.2719298112
 51
179.9598117937
  0
ARC
  5
423
100
AcDbEntity
  8
0
100
AcDbCircle
 62
7
  6
CONTINUOUS
 10
89.8345345484
 20
73.4651844678
 40
2.9424875162
100
AcDbArc
 50
89.9968538826
 51
90.3796174673
  0
ARC
  5
424
100
AcDbEntity
  8
0
100
AcDbCircle
 62
7
  6
CONTINUOUS
 10
116.7078254989
 20
77.1423060442
 40
2.0
100
AcDbArc
 50
225.0
 51
270.0
  0
ARC
  5
425
100
AcDbEntity
  8
0
100
AcDbCircle
 62
7
  6
CONTINUOUS
 10
112.8009712494
 20
75.3923060442
 40
2.0
100
AcDbArc
 50
45.0
 51
90.0
  0
ARC
  5
426
100
AcDbEntity
  8
0
100
AcDbCircle
 62
7
  6
CONTINUOUS
 10
124.3123663148
 20
85.3323060442
 40
1.21
100
AcDbArc
 50
79.5243183036
 51
180.0
  0
ARC
  5
427
100
AcDbEntity
  8
0
100
AcDbCircle
 62
7
  6
CONTINUOUS
 10
123.9323663148
 20
85.4323060442
 40
1.2
100
AcDbArc
 50
90.0
 51
180.0
  0
ARC
  5
428
100
AcDbEntity
  8
0
100
AcDbCircle
 62
7
  6
CONTINUOUS
 10
128.8436119365
 20
75.1423060442
 40
1.0
100
AcDbArc
 50
225.0
 51
270.0
  0
ARC
  5
429
100
AcDbEntity
  8
0
100
AcDbCircle
 62
7
  6
CONTINUOUS
 10
127.0151848118
 20
74.1423060442
 40
1.0
100
AcDbArc
 50
45.0
 51
90.0
  0
ARC
  5
42A
100
AcDbEntity
  8
GEOM
100
AcDbCircle
 62
7
  6
CONTINUOUS
 10
108.4139088125
 20
77.8923060442
 40
1.0
100
AcDbArc
 50
270.0002703953
 51
316.567649338
  0
ARC
  5
42B
100
AcDbEntity
  8
0
100
AcDbCircle
 62
7
  6
CONTINUOUS
 10
123.4785629832
 20
86.1523060442
 40
0.79
100
AcDbArc
 50
117.6157798177
 51
160.830752033
  0
ARC
  5
42C
100
AcDbEntity
  8
GEOM
100
AcDbCircle
 62
7
  6
CONTINUOUS
 10
86.1293983742
 20
79.1923060442
 40
0.7
100
AcDbArc
 50
180.0
 51
270.0
  0
ARC
  5
42D
100
AcDbEntity
  8
GEOM
100
AcDbCircle
 62
7
  6
CONTINUOUS
 10
109.5758085357
 20
76.7923060442
 40
0.6
100
AcDbArc
 50
90.0
 51
136.5674634422
  0
ARC
  5
42E
100
AcDbEntity
  8
0
100
AcDbCircle
 62
7
  6
CONTINUOUS
 10
132.5829882126
 20
73.5423060442
 40
0.6
100
AcDbArc
 50
29.9999999999
 51
90.0
  0
ARC
  5
42F
100
AcDbEntity
  8
0
100
AcDbCircle
 62
7
  6
CONTINUOUS
 10
89.8150390202
 20
76.6923060442
 40
0.3
100
AcDbArc
 50
210.0
 51
270.0
  0
ARC
  5
430
100
AcDbEntity
  8
0
100
AcDbCircle
 62
7
  6
CONTINUOUS
 10
88.2561932934
 20
78.1923060442
 40
0.3
100
AcDbArc
 50
29.9999999998
 51
90.0
  0
ARC
  5
431
100
AcDbEntity
  8
GEOM
100
AcDbCircle
 62
7
  6
CONTINUOUS
 10
137.2043490141
 20
76.5923060442
 40
0.3
100
AcDbArc
 50
90.0
 51
160.0
  0
ARC
  5
432
100
AcDbEntity
  8
0
100
AcDbCircle
 62
7
  6
CONTINUOUS
 10
89.8345658691
 20
82.7601069549
 40
0.1677765875
100
AcDbArc
 50
263.3164251332
 51
270.0444830187
  0
ARC
  5
433
100
AcDbEntity
  8
0
100
AcDbCircle
 62
7
  6
CONTINUOUS
 10
89.8345711696
 20
83.5487137985
 40
0.1589338564
100
AcDbArc
 50
89.9549736135
 51
97.0592011121
  0
ARC
  5
434
100
AcDbEntity
  8
0
100
AcDbCircle
 62
7
  6
CONTINUOUS
 10
101.0826483096
 20
80.6412626843
 40
0.1027863041
100
AcDbArc
 50
205.1475511004
 51
207.5029104331
  0
ARC
  5
435
100
AcDbEntity
  8
GEOM
100
AcDbCircle
 62
7
  6
CONTINUOUS
 10
105.2812589999
 20
157.3782966861
 40
55.1275844404
100
AcDbArc
 50
273.6735638821
 51
273.926476953
  0
ARC
  5
436
100
AcDbEntity
  8
0
100
AcDbCircle
 62
7
  6
CONTINUOUS
 10
141.4293983742
 20
125.3923060442
 40
4.0
100
AcDbArc
 50
270.0
 51
320.0
  0
ARC
  5
437
100
AcDbEntity
  8
0
100
AcDbCircle
 62
7
  6
CONTINUOUS
 10
112.4293983742
 20
121.3923060442
 40
3.0
100
AcDbArc
 50
90.0
 51
180.0
  0
ARC
  5
438
100
AcDbEntity
  8
0
100
AcDbCircle
 62
7
  6
CONTINUOUS
 10
89.8345345535
 20
106.3194278424
 40
2.942487738
100
AcDbArc
 50
269.6203824625
 51
270.0031460651
  0
ARC
  5
439
100
AcDbEntity
  8
0
100
AcDbCircle
 62
7
  6
CONTINUOUS
 10
112.8009712494
 20
104.3923060442
 40
2.0
100
AcDbArc
 50
270.0
 51
298.8175849919
  0
ARC
  5
43A
100
AcDbEntity
  8
0
100
AcDbCircle
 62
7
  6
CONTINUOUS
 10
121.8293983742
 20
105.9237779068
 40
1.32
100
AcDbArc
 50
90.0
 51
180.0
  0
ARC
  5
43B
100
AcDbEntity
  8
0
100
AcDbCircle
 62
7
  6
CONTINUOUS
 10
121.8293983742
 20
104.9637779068
 40
1.32
100
AcDbArc
 50
180.0
 51
270.0
  0
ARC
  5
43C
100
AcDbEntity
  8
0
100
AcDbCircle
 62
7
  6
CONTINUOUS
 10
123.8893983742
 20
106.2237779068
 40
1.02
100
AcDbArc
 50
278.8857694273
 51
90.0
  0
ARC
  5
43D
100
AcDbEntity
  8
GEOM
100
AcDbCircle
 62
7
  6
CONTINUOUS
 10
108.4139088125
 20
101.8923060442
 40
1.0
100
AcDbArc
 50
43.432350662
 51
89.9997296047
  0
ARC
  5
43E
100
AcDbEntity
  8
0
100
AcDbCircle
 62
7
  6
CONTINUOUS
 10
141.4293983742
 20
125.3923060442
 40
1.0
100
AcDbArc
 50
270.0
 51
320.0
  0
ARC
  5
43F
100
AcDbEntity
  8
0
100
AcDbCircle
 62
7
  6
CONTINUOUS
 10
121.8293983742
 20
104.9637779068
 40
0.9
100
AcDbArc
 50
180.0
 51
270.0
  0
ARC
  5
440
100
AcDbEntity
  8
0
100
AcDbCircle
 62
7
  6
CONTINUOUS
 10
121.8293983742
 20
105.9237779068
 40
0.9
100
AcDbArc
 50
90.0
 51
180.0
  0
ARC
  5
441
100
AcDbEntity
  8
0
100
AcDbCircle
 62
7
  6
CONTINUOUS
 10
113.3793983976
 20
103.3409147038
 40
0.799999998
100
AcDbArc
 50
298.8176112585
 51
0.0000575383
  0
ARC
  5
442
100
AcDbEntity
  8
0
100
AcDbCircle
 62
7
  6
CONTINUOUS
 10
132.4793974953
 20
106.4423054717
 40
0.7999999264
100
AcDbArc
 50
179.9999589924
 51
270.0000629424
  0
ARC
  5
443
100
AcDbEntity
  8
GEOM
100
AcDbCircle
 62
7
  6
CONTINUOUS
 10
86.1293983742
 20
100.5923060442
 40
0.7
100
AcDbArc
 50
90.0
 51
180.0
  0
ARC
  5
444
100
AcDbEntity
  8
0
100
AcDbCircle
 62
7
  6
CONTINUOUS
 10
117.5293983742
 20
125.0458958827
 40
0.6
100
AcDbArc
 50
120.0
 51
180.0
  0
ARC
  5
445
100
AcDbEntity
  8
0
100
AcDbCircle
 62
7
  6
CONTINUOUS
 10
128.3293983742
 20
125.0458958827
 40
0.6
100
AcDbArc
 50
0.0
 51
60.0
  0
ARC
  5
446
100
AcDbEntity
  8
0
100
AcDbCircle
 62
7
  6
CONTINUOUS
 10
123.8893983742
 20
106.2237779068
 40
0.6
100
AcDbArc
 50
270.0
 51
90.0
  0
ARC
  5
447
100
AcDbEntity
  8
0
100
AcDbCircle
 62
7
  6
CONTINUOUS
 10
131.8293983742
 20
108.7908341817
 40
0.6
100
AcDbArc
 50
315.0
 51
360.0
  0
ARC
  5
448
100
AcDbEntity
  8
0
100
AcDbCircle
 62
7
  6
CONTINUOUS
 10
132.2793983742
 20
107.5437779068
 40
0.6
100
AcDbArc
 50
135.0
 51
180.0
  0
ARC
  5
449
100
AcDbEntity
  8
GEOM
100
AcDbCircle
 62
7
  6
CONTINUOUS
 10
109.5758085357
 20
102.9923060442
 40
0.6
100
AcDbArc
 50
223.4325365578
 51
270.0
  0
ARC
  5
44A
100
AcDbEntity
  8
0
100
AcDbCircle
 62
7
  6
CONTINUOUS
 10
132.5829882126
 20
106.2423060442
 40
0.6
100
AcDbArc
 50
270.0
 51
330.0000000001
  0
ARC
  5
44B
100
AcDbEntity
  8
0
100
AcDbCircle
 62
7
  6
CONTINUOUS
 10
112.9293983742
 20
112.0851992631
 40
0.5
100
AcDbArc
 50
0.0
 51
45.0000000001
  0
ARC
  5
44C
100
AcDbEntity
  8
0
100
AcDbCircle
 62
7
  6
CONTINUOUS
 10
112.9293983742
 20
120.8923060442
 40
0.5
100
AcDbArc
 50
90.0
 51
180.0
  0
ARC
  5
44D
100
AcDbEntity
  8
0
100
AcDbCircle
 62
7
  6
CONTINUOUS
 10
113.0293983742
 20
111.6923060442
 40
0.4
100
AcDbArc
 50
282.0
 51
360.0
  0
ARC
  5
44E
100
AcDbEntity
  8
0
100
AcDbCircle
 62
7
  6
CONTINUOUS
 10
109.3293983742
 20
110.8923060442
 40
0.4
100
AcDbArc
 50
90.0
 51
180.0
  0
ARC
  5
44F
100
AcDbEntity
  8
0
100
AcDbCircle
 62
7
  6
CONTINUOUS
 10
109.3293983742
 20
108.5232461519
 40
0.4
100
AcDbArc
 50
180.0
 51
240.0
  0
ARC
  5
450
100
AcDbEntity
  8
0
100
AcDbCircle
 62
7
  6
CONTINUOUS
 10
113.7793984758
 20
105.0302769647
 40
0.3999999956
100
AcDbArc
 50
0.0000084025
 51
40.0000138935
  0
ARC
  5
451
100
AcDbEntity
  8
0
100
AcDbCircle
 62
7
  6
CONTINUOUS
 10
89.8150390202
 20
103.0923060442
 40
0.3
100
AcDbArc
 50
90.0
 51
150.0
  0
ARC
  5
452
100
AcDbEntity
  8
0
100
AcDbCircle
 62
7
  6
CONTINUOUS
 10
88.2561932934
 20
101.5923060442
 40
0.3
100
AcDbArc
 50
270.0
 51
330.0000000002
  0
ARC
  5
453
100
AcDbEntity
  8
GEOM
100
AcDbCircle
 62
7
  6
CONTINUOUS
 10
137.2043490141
 20
103.1923060442
 40
0.3
100
AcDbArc
 50
200.0
 51
270.0
  0
ARC
  5
454
100
AcDbEntity
  8
0
100
AcDbCircle
 62
7
  6
CONTINUOUS
 10
89.8345658629
 20
97.0245051493
 40
0.1677765717
100
AcDbArc
 50
89.9555158572
 51
96.683573385
  0
ARC
  5
455
100
AcDbEntity
  8
0
100
AcDbCircle
 62
7
  6
CONTINUOUS
 10
89.8345711685
 20
96.2358982875
 40
0.1589338539
100
AcDbArc
 50
262.9407991603
 51
270.045026566
  0
ARC
  5
456
100
AcDbEntity
  8
0
100
AcDbCircle
 62
7
  6
CONTINUOUS
 10
157.5242621948
 20
73.4651842461
 40
2.942487738
100
AcDbArc
 50
89.6203824625
 51
90.0031460651
  0
ARC
  5
457
100
AcDbEntity
  8
GEOM
100
AcDbCircle
 62
7
  6
CONTINUOUS
 10
161.2293983742
 20
79.1923060442
 40
0.7
100
AcDbArc
 50
270.0
 51
360.0
  0
ARC
  5
458
100
AcDbEntity
  8
0
100
AcDbCircle
 62
7
  6
CONTINUOUS
 10
157.5437577281
 20
76.6923060442
 40
0.3
100
AcDbArc
 50
270.0
 51
330.0
  0
ARC
  5
459
100
AcDbEntity
  8
0
100
AcDbCircle
 62
7
  6
CONTINUOUS
 10
159.1026034549
 20
78.1923060442
 40
0.3
100
AcDbArc
 50
90.0
 51
150.0000000002
  0
ARC
  5
45A
100
AcDbEntity
  8
0
100
AcDbCircle
 62
7
  6
CONTINUOUS
 10
157.5242308854
 20
82.7601069392
 40
0.1677765717
100
AcDbArc
 50
269.9555158572
 51
276.683573385
  0
ARC
  5
45B
100
AcDbEntity
  8
0
100
AcDbCircle
 62
7
  6
CONTINUOUS
 10
157.5242255798
 20
83.548713801
 40
0.1589338539
100
AcDbArc
 50
82.9407991603
 51
90.045026566
  0
ARC
  5
45C
100
AcDbEntity
  8
0
100
AcDbCircle
 62
7
  6
CONTINUOUS
 10
158.8647300261
 20
138.3923060442
 40
4.0
100
AcDbArc
 50
111.0331393818
 51
140.0
  0
ARC
  5
45D
100
AcDbEntity
  8
0
100
AcDbCircle
 62
7
  6
CONTINUOUS
 10
161.2847498189
 20
142.0566196208
 40
3.8553515715
100
AcDbArc
 50
179.0238597861
 51
180.0146922186
  0
ARC
  5
45E
100
AcDbEntity
  8
0
100
AcDbCircle
 62
7
  6
CONTINUOUS
 10
157.5242621999
 20
106.3194276207
 40
2.9424875163
100
AcDbArc
 50
269.9968538826
 51
270.3796174673
  0
ARC
  5
45F
100
AcDbEntity
  8
0
100
AcDbCircle
 62
7
  6
CONTINUOUS
 10
211.9293983742
 20
141.3923060442
 40
2.5
100
AcDbArc
 50
0.0
 51
90.0
  0
ARC
  5
460
100
AcDbEntity
  8
0
100
AcDbCircle
 62
7
  6
CONTINUOUS
 10
211.9293983742
 20
140.3923060442
 40
2.5
100
AcDbArc
 50
270.0
 51
360.0
  0
ARC
  5
461
100
AcDbEntity
  8
0
100
AcDbCircle
 62
7
  6
CONTINUOUS
 10
158.7293983742
 20
139.1923060442
 40
1.3
100
AcDbArc
 50
212.8904173777
 51
270.0
  0
ARC
  5
462
100
AcDbEntity
  8
0
100
AcDbCircle
 62
7
  6
CONTINUOUS
 10
158.7293983742
 20
142.5923060442
 40
1.3
100
AcDbArc
 50
90.0
 51
180.0
  0
ARC
  5
463
100
AcDbEntity
  8
GEOM
100
AcDbCircle
 62
7
  6
CONTINUOUS
 10
161.2293983742
 20
100.5923060442
 40
0.7
100
AcDbArc
 50
0.0
 51
90.0
  0
ARC
  5
464
100
AcDbEntity
  8
0
100
AcDbCircle
 62
7
  6
CONTINUOUS
 10
157.5437577281
 20
103.0923060442
 40
0.3
100
AcDbArc
 50
30.0
 51
90.0
  0
ARC
  5
465
100
AcDbEntity
  8
0
100
AcDbCircle
 62
7
  6
CONTINUOUS
 10
159.1026034549
 20
101.5923060442
 40
0.3
100
AcDbArc
 50
209.9999999998
 51
270.0
  0
ARC
  5
466
100
AcDbEntity
  8
0
100
AcDbCircle
 62
7
  6
CONTINUOUS
 10
157.5242308793
 20
97.0245051336
 40
0.1677765875
100
AcDbArc
 50
83.3164251333
 51
90.0444830187
  0
ARC
  5
467
100
AcDbEntity
  8
0
100
AcDbCircle
 62
7
  6
CONTINUOUS
 10
157.5242255787
 20
96.23589829
 40
0.1589338564
100
AcDbArc
 50
269.9549736135
 51
277.0592011121
  0
ARC
  5
468
100
AcDbEntity
  8
0
100
AcDbCircle
 62
7
  6
CONTINUOUS
 10
387.1279971572
 20
-71.0248844221
 40
312.0760590067
100
AcDbArc
 50
146.0883256619
 51
146.2248751143
  0
ARC
  5
469
100
AcDbEntity
  8
0
100
AcDbCircle
 62
7
  6
CONTINUOUS
 10
309.4485389351
 20
312.777431556
 40
282.7866020503
100
AcDbArc
 50
226.2898653776
 51
226.4068429475
  0
ARC
  5
46A
100
AcDbEntity
  8
0
100
AcDbCircle
 62
7
  6
CONTINUOUS
 10
358.4888024455
 20
-36.717487464
 40
270.524153683
100
AcDbArc
 50
148.7632639403
 51
148.9186120947
  0
ARC
  5
46B
100
AcDbEntity
  8
0
100
AcDbCircle
 62
7
  6
CONTINUOUS
 10
293.2186489694
 20
296.3030503428
 40
260.0541729766
100
AcDbArc
 50
226.3665948787
 51
226.4939890519
  0
SPLINE
  5
46C
100
AcDbEntity
  8
0
100
AcDbSpline
 62
7
  6
CONTINUOUS
 70
0
 71
3
 72
9
 73
5
 74
0
 42
0.0000001
 43
0.0000001
 44
0.0000000001
 40
0.0
 40
0.0
 40
0.0
 40
0.0
 40
0.2500511544
 40
1.0
 40
1.0
 40
1.0
 40
1.0
 10
121.4199610313
 20
118.6924458294
 30
0.0
 10
121.2765822389
 20
118.6737242005
 30
0.0
 10
120.7044936697
 20
118.5888748825
 30
0.0
 10
120.1382386954
 20
118.4667383223
 30
0.0
 10
119.7180902295
 20
118.3592933424
 30
0.0
  0
SPLINE
  5
46D
100
AcDbEntity
  8
0
100
AcDbSpline
 62
7
  6
CONTINUOUS
 70
0
 71
3
 72
11
 73
7
 74
0
 42
0.0000001
 43
0.0000001
 44
0.0000000001
 40
0.0
 40
0.0
 40
0.0
 40
0.0
 40
0.2424504748
 40
0.4884289769
 40
0.7405228275
 40
1.0
 40
1.0
 40
1.0
 40
1.0
 10
117.3002332495
 20
118.7923060442
 30
0.0
 10
117.1646206375
 20
118.7923060382
 30
0.0
 10
116.8910409115
 20
118.7723056033
 30
0.0
 10
116.4850161609
 20
118.6848496271
 30
0.0
 10
116.0838435477
 20
118.5457986794
 30
0.0
 10
115.8237952402
 20
118.4253824438
 30
0.0
 10
115.6945791772
 20
118.3592933424
 30
0.0
  0
SPLINE
  5
46E
100
AcDbEntity
  8
0
100
AcDbSpline
 62
7
  6
CONTINUOUS
 70
0
 71
3
 72
11
 73
7
 74
0
 42
0.0000001
 43
0.0000001
 44
0.0000000001
 40
0.0
 40
0.0
 40
0.0
 40
0.0
 40
0.2594721663
 40
0.511565791
 40
0.7575467579
 40
1.0
 40
1.0
 40
1.0
 40
1.0
 10
118.9058873219
 20
118.3592933424
 30
0.0
 10
118.7766737053
 20
118.4253811926
 30
0.0
 10
118.5166283402
 20
118.5457968783
 30
0.0
 10
118.1154581153
 20
118.6848504607
 30
0.0
 10
117.7094303221
 20
118.7723074108
 30
0.0
 10
117.4358474583
 20
118.7923060503
 30
0.0
 10
117.3002332495
 20
118.7923060442
 30
0.0
  0
SPLINE
  5
46F
100
AcDbEntity
  8
0
100
AcDbSpline
 62
7
  6
CONTINUOUS
 70
0
 71
3
 72
27
 73
23
 74
0
 42
0.0000001
 43
0.0000001
 44
0.0000000001
 40
0.0
 40
0.0
 40
0.0
 40
0.0
 40
0.1794082436
 40
0.3583926013
 40
0.4450329417
 40
0.5283873058
 40
0.6074702818
 40
0.681353815
 40
0.74917703
 40
0.8101550878
 40
0.8635874771
 40
0.9088671849
 40
0.9282882001
 40
0.9454875495
 40
0.9604208934
 40
0.9730469746
 40
0.9833333655
 40
0.9912582942
 40
0.9943300297
 40
0.9968077776
 40
0.9986947979
 40
1.0
 40
1.0
 40
1.0
 40
1.0
 10
124.3636468065
 20
115.5353521311
 30
0.0
 10
123.8113376196
 20
115.5249054682
 30
0.0
 10
122.7080143401
 20
115.5045611938
 30
0.0
 10
121.3379651913
 20
115.4793412904
 30
0.0
 10
120.2636344157
 20
115.4588576952
 30
0.0
 10
119.4968601174
 20
115.4436980678
 30
0.0
 10
118.7693719022
 20
115.4285794039
 30
0.0
 10
118.089714855
 20
115.4135064521
 30
0.0
 10
117.4658173861
 20
115.3984855344
 30
0.0
 10
116.9049081434
 20
115.3835309056
 30
0.0
 10
116.4134373433
 20
115.3686518238
 30
0.0
 10
116.0499234403
 20
115.3557838826
 30
0.0
 10
115.7979668916
 20
115.3452731208
 30
0.0
 10
115.639404092
 20
115.3378205249
 30
0.0
 10
115.5017884219
 20
115.3303975015
 30
0.0
 10
115.3854887889
 20
115.3230243064
 30
0.0
 10
115.2908209684
 20
115.3156981573
 30
0.0
 10
115.2255881267
 20
115.3092930955
 30
0.0
 10
115.1844485735
 20
115.3039203969
 30
0.0
 10
115.161830073
 20
115.3002806691
 30
0.0
 10
115.1447546339
 20
115.2966785764
 30
0.0
 10
115.1352800594
 20
115.2938959555
 30
0.0
 10
115.131589199
 20
115.2923059166
 30
0.0
  0
SPLINE
  5
470
100
AcDbEntity
  8
0
100
AcDbSpline
 62
7
  6
CONTINUOUS
 70
0
 71
3
 72
11
 73
7
 74
0
 42
0.0000001
 43
0.0000001
 44
0.0000000001
 40
0.0
 40
0.0
 40
0.0
 40
0.0
 40
0.2616427032
 40
0.5144968934
 40
0.7595946658
 40
1.0
 40
1.0
 40
1.0
 40
1.0
 10
118.3105962206
 20
129.0350404543
 30
0.0
 10
118.4029012518
 20
129.088332789
 30
0.0
 10
118.5886004375
 20
129.186201967
 30
0.0
 10
118.876537943
 20
129.3014774502
 30
0.0
 10
119.1692185422
 20
129.375231851
 30
0.0
 10
119.367363498
 20
129.3923060442
 30
0.0
 10
119.4652967586
 20
129.3923060442
 30
0.0
  0
SPLINE
  5
471
100
AcDbEntity
  8
0
100
AcDbSpline
 62
7
  6
CONTINUOUS
 70
0
 71
3
 72
11
 73
7
 74
0
 42
0.0000001
 43
0.0000001
 44
0.0000000001
 40
0.0
 40
0.0
 40
0.0
 40
0.0
 40
0.2404053342
 40
0.4855030662
 40
0.7383571529
 40
1.0
 40
1.0
 40
1.0
 40
1.0
 10
119.4652967586
 20
129.3923060442
 30
0.0
 10
119.5632300194
 20
129.3923060443
 30
0.0
 10
119.7613749578
 20
129.3752318489
 30
0.0
 10
120.054055509
 20
129.3014774932
 30
0.0
 10
120.3419930096
 20
129.1862019942
 30
0.0
 10
120.5276922152
 20
129.0883328184
 30
0.0
 10
120.6199972974
 20
129.0350404543
 30
0.0
  0
SPLINE
  5
472
100
AcDbEntity
  8
0
100
AcDbSpline
 62
7
  6
CONTINUOUS
 70
0
 71
3
 72
15
 73
11
 74
0
 42
0.0000001
 43
0.0000001
 44
0.0000000001
 40
0.0
 40
0.0
 40
0.0
 40
0.0
 40
0.1308200724
 40
0.2572467341
 40
0.3797970183
 40
0.5000000228
 40
0.620203024
 40
0.7427533002
 40
0.8691799394
 40
1.0
 40
1.0
 40
1.0
 40
1.0
 10
120.6199972974
 20
126.1897409927
 30
0.0
 10
120.5276932504
 20
126.2430327591
 30
0.0
 10
120.3419912442
 20
126.3409010322
 30
0.0
 10
120.0540730322
 20
126.4561780358
 30
0.0
 10
119.7613267937
 20
126.5299294996
 30
0.0
 10
119.4652967068
 20
126.5554518293
 30
0.0
 10
119.1692666303
 20
126.5299294669
 30
0.0
 10
118.8765204217
 20
126.4561780022
 30
0.0
 10
118.5886022398
 20
126.3409010163
 30
0.0
 10
118.4029002593
 20
126.2430327543
 30
0.0
 10
118.3105962206
 20
126.1897409927
 30
0.0
  0
SPLINE
  5
473
100
AcDbEntity
  8
0
100
AcDbSpline
 62
7
  6
CONTINUOUS
 70
0
 71
3
 72
10
 73
6
 74
0
 42
0.0000001
 43
0.0000001
 44
0.0000000001
 40
0.0
 40
0.0
 40
0.0
 40
0.0
 40
0.4999011814
 40
0.7499517172
 40
1.0
 40
1.0
 40
1.0
 40
1.0
 10
120.6199972974
 20
129.0350404543
 30
0.0
 10
120.995223576
 20
129.1433589508
 30
0.0
 10
121.567266531
 20
129.2787717381
 30
0.0
 10
122.3431387936
 20
129.3756345611
 30
0.0
 10
122.7340481055
 20
129.3923060442
 30
0.0
 10
122.929398374
 20
129.3923060442
 30
0.0
  0
SPLINE
  5
474
100
AcDbEntity
  8
0
100
AcDbSpline
 62
7
  6
CONTINUOUS
 70
0
 71
3
 72
10
 73
6
 74
0
 42
0.0000001
 43
0.0000001
 44
0.0000000001
 40
0.0
 40
0.0
 40
0.0
 40
0.0
 40
0.2500483041
 40
0.5000988454
 40
1.0
 40
1.0
 40
1.0
 40
1.0
 10
122.929398374
 20
129.3923060442
 30
0.0
 10
123.1247486592
 20
129.3923060443
 30
0.0
 10
123.5156579926
 20
129.3756345641
 30
0.0
 10
124.2915302537
 20
129.2787717269
 30
0.0
 10
124.8635731924
 20
129.143358945
 30
0.0
 10
125.2387994509
 20
129.0350404543
 30
0.0
  0
SPLINE
  5
475
100
AcDbEntity
  8
0
100
AcDbSpline
 62
7
  6
CONTINUOUS
 70
0
 71
3
 72
10
 73
6
 74
0
 42
0.0000001
 43
0.0000001
 44
0.0000000001
 40
0.0
 40
0.0
 40
0.0
 40
0.0
 40
0.4999007856
 40
0.7499513904
 40
1.0
 40
1.0
 40
1.0
 40
1.0
 10
125.2387994509
 20
126.1897409927
 30
0.0
 10
124.8635734686
 20
126.2980594037
 30
0.0
 10
124.2915307645
 20
126.4334720971
 30
0.0
 10
123.5156585262
 20
126.5303351513
 30
0.0
 10
123.1247488984
 20
126.5470065826
 30
0.0
 10
122.9293983742
 20
126.5470065826
 30
0.0
  0
SPLINE
  5
476
100
AcDbEntity
  8
0
100
AcDbSpline
 62
7
  6
CONTINUOUS
 70
0
 71
3
 72
10
 73
6
 74
0
 42
0.0000001
 43
0.0000001
 44
0.0000000001
 40
0.0
 40
0.0
 40
0.0
 40
0.0
 40
0.2500490219
 40
0.5000997455
 40
1.0
 40
1.0
 40
1.0
 40
1.0
 10
122.9293983742
 20
126.5470065826
 30
0.0
 10
122.7340475272
 20
126.5470065826
 30
0.0
 10
122.3431374776
 20
126.5303351947
 30
0.0
 10
121.5672652635
 20
126.4334718989
 30
0.0
 10
120.9952228821
 20
126.2980592889
 30
0.0
 10
120.6199972974
 20
126.1897409927
 30
0.0
  0
SPLINE
  5
477
100
AcDbEntity
  8
0
100
AcDbSpline
 62
7
  6
CONTINUOUS
 70
0
 71
3
 72
11
 73
7
 74
0
 42
0.0000001
 43
0.0000001
 44
0.0000000001
 40
0.0
 40
0.0
 40
0.0
 40
0.0
 40
0.2616429466
 40
0.5144970929
 40
0.7595947853
 40
1.0
 40
1.0
 40
1.0
 40
1.0
 10
125.2387994509
 20
129.0350404543
 30
0.0
 10
125.331104568
 20
129.0883328385
 30
0.0
 10
125.5168038357
 20
129.1862020333
 30
0.0
 10
125.8047413824
 20
129.3014775533
 30
0.0
 10
126.0974219089
 20
129.3752318326
 30
0.0
 10
126.2955667778
 20
129.3923060443
 30
0.0
 10
126.3934999897
 20
129.3923060442
 30
0.0
  0
SPLINE
  5
478
100
AcDbEntity
  8
0
100
AcDbSpline
 62
7
  6
CONTINUOUS
 70
0
 71
3
 72
11
 73
7
 74
0
 42
0.0000001
 43
0.0000001
 44
0.0000000001
 40
0.0
 40
0.0
 40
0.0
 40
0.0
 40
0.2404052601
 40
0.485503008
 40
0.7383572234
 40
1.0
 40
1.0
 40
1.0
 40
1.0
 10
126.3934999897
 20
129.3923060442
 30
0.0
 10
126.49143322
 20
129.3923060442
 30
0.0
 10
126.689578133
 20
129.3752318431
 30
0.0
 10
126.9822587112
 20
129.3014774866
 30
0.0
 10
127.2701962469
 20
129.1862019947
 30
0.0
 10
127.4558954707
 20
129.0883328038
 30
0.0
 10
127.5482005277
 20
129.0350404543
 30
0.0
  0
SPLINE
  5
479
100
AcDbEntity
  8
0
100
AcDbSpline
 62
7
  6
CONTINUOUS
 70
0
 71
3
 72
15
 73
11
 74
0
 42
0.0000001
 43
0.0000001
 44
0.0000000001
 40
0.0
 40
0.0
 40
0.0
 40
0.0
 40
0.1308200724
 40
0.2572467341
 40
0.3797970183
 40
0.5000000228
 40
0.620203024
 40
0.7427533002
 40
0.8691799394
 40
1.0
 40
1.0
 40
1.0
 40
1.0
 10
127.5482005277
 20
126.1897409927
 30
0.0
 10
127.4558964807
 20
126.2430327591
 30
0.0
 10
127.2701944745
 20
126.3409010322
 30
0.0
 10
126.9822762625
 20
126.4561780358
 30
0.0
 10
126.689530024
 20
126.5299294996
 30
0.0
 10
126.3934999371
 20
126.5554518293
 30
0.0
 10
126.0974698606
 20
126.5299294669
 30
0.0
 10
125.804723652
 20
126.4561780022
 30
0.0
 10
125.5168054701
 20
126.3409010163
 30
0.0
 10
125.3311034896
 20
126.2430327543
 30
0.0
 10
125.2387994509
 20
126.1897409927
 30
0.0
  0
SPLINE
  5
47A
100
AcDbEntity
  8
0
100
AcDbSpline
 62
7
  6
CONTINUOUS
 70
0
 71
3
 72
8
 73
4
 74
0
 42
0.0000001
 43
0.0000001
 44
0.0000000001
 40
0.0
 40
0.0
 40
0.0
 40
0.0
 40
1.0
 40
1.0
 40
1.0
 40
1.0
 10
157.4293983742
 20
139.7289810862
 30
0.0
 10
157.4293983742
 20
139.6165998532
 30
0.0
 10
157.4339847469
 20
139.5039112454
 30
0.0
 10
157.4471688511
 20
139.3923060442
 30
0.0
  0
SPLINE
  5
47B
100
AcDbEntity
  8
0
100
AcDbSpline
 62
7
  6
CONTINUOUS
 70
0
 71
3
 72
8
 73
4
 74
0
 42
0.0000001
 43
0.0000001
 44
0.0000000001
 40
0.0
 40
0.0
 40
0.0
 40
0.0
 40
1.0
 40
1.0
 40
1.0
 40
1.0
 10
157.4471688511
 20
142.3923060442
 30
0.0
 10
157.4365887371
 20
142.3027439678
 30
0.0
 10
157.4315172945
 20
142.21247088
 30
0.0
 10
157.4299577507
 20
142.122299531
 30
0.0
  0
SPLINE
  5
47C
100
AcDbEntity
  8
0
100
AcDbSpline
 62
7
  6
CONTINUOUS
 70
0
 71
3
 72
11
 73
7
 74
0
 42
0.0000001
 43
0.0000001
 44
0.0000000001
 40
0.0
 40
0.0
 40
0.0
 40
0.0
 40
0.2600399494
 40
0.5123196221
 40
0.7580668898
 40
1.0
 40
1.0
 40
1.0
 40
1.0
 10
149.7954237779
 20
82.592330418
 30
0.0
 10
149.6640195143
 20
82.343926674
 30
0.0
 10
149.4240907539
 20
81.8440267356
 30
0.0
 10
149.145612991
 20
81.0717442577
 30
0.0
 10
148.9697321533
 20
80.2892719252
 30
0.0
 10
148.929398371
 20
79.7614522097
 30
0.0
 10
148.9293983742
 20
79.5000011354
 30
0.0
  0
SPLINE
  5
47D
100
AcDbEntity
  8
0
100
AcDbSpline
 62
7
  6
CONTINUOUS
 70
0
 71
3
 72
11
 73
7
 74
0
 42
0.0000001
 43
0.0000001
 44
0.0000000001
 40
0.0
 40
0.0
 40
0.0
 40
0.0
 40
0.241929863
 40
0.4876744327
 40
0.7399544333
 40
1.0
 40
1.0
 40
1.0
 40
1.0
 10
148.9293983742
 20
79.5000011354
 30
0.0
 10
148.9293983774
 20
79.2385536872
 30
0.0
 10
148.9697361505
 20
78.7107409162
 30
0.0
 10
149.1456142287
 20
77.9282750805
 30
0.0
 10
149.42408666
 20
77.1559873139
 30
0.0
 10
149.6640167346
 20
76.6560809784
 30
0.0
 10
149.7954237779
 20
76.4076719796
 30
0.0
  0
SPLINE
  5
47E
100
AcDbEntity
  8
0
100
AcDbSpline
 62
7
  6
CONTINUOUS
 70
0
 71
3
 72
10
 73
6
 74
0
 42
0.0000001
 43
0.0000001
 44
0.0000000001
 40
0.0
 40
0.0
 40
0.0
 40
0.0
 40
0.4999016865
 40
0.7499508996
 40
1.0
 40
1.0
 40
1.0
 40
1.0
 10
149.7954237779
 20
96.0769644827
 30
0.0
 10
149.5286728428
 20
95.0684442237
 30
0.0
 10
149.2004085333
 20
93.5335014973
 30
0.0
 10
148.9689786526
 20
91.458174141
 30
0.0
 10
148.9293983708
 20
90.4141116567
 30
0.0
 10
148.9293983742
 20
89.8923059092
 30
0.0
  0
SPLINE
  5
47F
100
AcDbEntity
  8
0
100
AcDbSpline
 62
7
  6
CONTINUOUS
 70
0
 71
3
 72
10
 73
6
 74
0
 42
0.0000001
 43
0.0000001
 44
0.0000000001
 40
0.0
 40
0.0
 40
0.0
 40
0.0
 40
0.250045619
 40
0.5000920648
 40
1.0
 40
1.0
 40
1.0
 40
1.0
 10
148.9293983742
 20
89.8923059092
 30
0.0
 10
148.9293983776
 20
89.3705075171
 30
0.0
 10
148.9689826736
 20
88.3264583909
 30
0.0
 10
149.2004106816
 20
86.2511315618
 30
0.0
 10
149.5286695547
 20
84.7161802965
 30
0.0
 10
149.7954237779
 20
83.7076476058
 30
0.0
  0
SPLINE
  5
480
100
AcDbEntity
  8
0
100
AcDbSpline
 62
7
  6
CONTINUOUS
 70
0
 71
3
 72
11
 73
7
 74
0
 42
0.0000001
 43
0.0000001
 44
0.0000000001
 40
0.0
 40
0.0
 40
0.0
 40
0.0
 40
0.2600399493
 40
0.5123196221
 40
0.7580668898
 40
1.0
 40
1.0
 40
1.0
 40
1.0
 10
149.7954237779
 20
103.3769401089
 30
0.0
 10
149.6640195169
 20
103.1285363698
 30
0.0
 10
149.4240907609
 20
102.6286364414
 30
0.0
 10
149.1456130009
 20
101.8563539794
 30
0.0
 10
148.9697321613
 20
101.0738816634
 30
0.0
 10
148.9293983742
 20
100.5460619587
 30
0.0
 10
148.9293983742
 20
100.2846108895
 30
0.0
  0
SPLINE
  5
481
100
AcDbEntity
  8
0
100
AcDbSpline
 62
7
  6
CONTINUOUS
 70
0
 71
3
 72
11
 73
7
 74
0
 42
0.0000001
 43
0.0000001
 44
0.0000000001
 40
0.0
 40
0.0
 40
0.0
 40
0.0
 40
0.241929863
 40
0.4876744326
 40
0.7399544332
 40
1.0
 40
1.0
 40
1.0
 40
1.0
 10
148.9293983742
 20
100.2846108895
 30
0.0
 10
148.9293983742
 20
100.0231634362
 30
0.0
 10
148.9697361425
 20
99.4953506544
 30
0.0
 10
149.1456142188
 20
98.7128848023
 30
0.0
 10
149.424086653
 20
97.9405970196
 30
0.0
 10
149.6640167319
 20
97.4406906742
 30
0.0
 10
149.7954237779
 20
97.1922816704
 30
0.0
  0
SPLINE
  5
482
100
AcDbEntity
  8
0
100
AcDbSpline
 62
7
  6
CONTINUOUS
 70
0
 71
3
 72
15
 73
11
 74
0
 42
0.0000001
 43
0.0000001
 44
0.0000000001
 40
0.0
 40
0.0
 40
0.0
 40
0.0
 40
0.1301937742
 40
0.2563929906
 40
0.3791957593
 40
0.4999997705
 40
0.6208040193
 40
0.7436066792
 40
0.8698059971
 40
1.0
 40
1.0
 40
1.0
 40
1.0
 10
157.5241006835
 20
76.4076719796
 30
0.0
 10
157.6579984643
 20
76.6558062029
 30
0.0
 10
157.90279592
 20
77.1551500447
 30
0.0
 10
158.1878196484
 20
77.9271676683
 30
0.0
 10
158.3683136955
 20
78.7100865018
 30
0.0
 10
158.4303476091
 20
79.5000002173
 30
0.0
 10
158.3683141107
 20
80.2899137583
 30
0.0
 10
158.1878200611
 20
81.0728330882
 30
0.0
 10
157.902796654
 20
81.8448513513
 30
0.0
 10
157.6579987162
 20
82.3441957679
 30
0.0
 10
157.5241006835
 20
82.592330418
 30
0.0
  0
SPLINE
  5
483
100
AcDbEntity
  8
0
100
AcDbSpline
 62
7
  6
CONTINUOUS
 70
0
 71
3
 72
9
 73
5
 74
0
 42
0.0000001
 43
0.0000001
 44
0.0000000001
 40
0.0
 40
0.0
 40
0.0
 40
0.0
 40
0.5248634575
 40
1.0
 40
1.0
 40
1.0
 40
1.0
 10
157.5437577281
 20
82.5934705673
 30
0.0
 10
157.596230681
 20
82.5996661881
 30
0.0
 10
157.6947402274
 20
82.630224307
 30
0.0
 10
157.7757467489
 20
82.6962133432
 30
0.0
 10
157.8035653492
 20
82.7351232083
 30
0.0
  0
SPLINE
  5
484
100
AcDbEntity
  8
0
100
AcDbSpline
 62
7
  6
CONTINUOUS
 70
0
 71
3
 72
15
 73
11
 74
0
 42
0.0000001
 43
0.0000001
 44
0.0000000001
 40
0.0
 40
0.0
 40
0.0
 40
0.0
 40
0.1292352354
 40
0.2546843846
 40
0.3770742072
 40
0.4978620524
 40
0.618993623
 40
0.7423369025
 40
0.8691647118
 40
1.0
 40
1.0
 40
1.0
 40
1.0
 10
157.8035653492
 20
76.5542102643
 30
0.0
 10
157.9350997153
 20
76.8004558287
 30
0.0
 10
158.1752713532
 20
77.2964028042
 30
0.0
 10
158.4537915203
 20
78.0637044945
 30
0.0
 10
158.6294740464
 20
78.8429623103
 30
0.0
 10
158.6895704522
 20
79.6306550588
 30
0.0
 10
158.6291582206
 20
80.4203592901
 30
0.0
 10
158.4534082804
 20
81.2054610348
 30
0.0
 10
158.1750415798
 20
81.9817922804
 30
0.0
 10
157.9350738321
 20
82.4849522112
 30
0.0
 10
157.8035653492
 20
82.7351232083
 30
0.0
  0
SPLINE
  5
485
100
AcDbEntity
  8
0
100
AcDbSpline
 62
7
  6
CONTINUOUS
 70
0
 71
3
 72
9
 73
5
 74
0
 42
0.0000001
 43
0.0000001
 44
0.0000000001
 40
0.0
 40
0.0
 40
0.0
 40
0.0
 40
0.5053821252
 40
1.0
 40
1.0
 40
1.0
 40
1.0
 10
157.5437577281
 20
76.4076073993
 30
0.0
 10
157.5957868479
 20
76.4072598124
 30
0.0
 10
157.7008700105
 20
76.4339609068
 30
0.0
 10
157.7778255391
 20
76.5102725814
 30
0.0
 10
157.8035653492
 20
76.5542102643
 30
0.0
  0
SPLINE
  5
486
100
AcDbEntity
  8
0
100
AcDbSpline
 62
7
  6
CONTINUOUS
 70
0
 71
3
 72
13
 73
9
 74
0
 42
0.0000001
 43
0.0000001
 44
0.0000000001
 40
0.0
 40
0.0
 40
0.0
 40
0.0
 40
0.249943978
 40
0.3749709074
 40
0.5
 40
0.6250290926
 40
0.750056022
 40
1.0
 40
1.0
 40
1.0
 40
1.0
 10
157.5241006835
 20
83.7076476058
 30
0.0
 10
157.7959912363
 20
84.7153496488
 30
0.0
 10
158.1317216239
 20
86.2496219405
 30
0.0
 10
158.3691280353
 20
88.3255834648
 30
0.0
 10
158.4301108564
 20
89.8923060444
 30
0.0
 10
158.369128034
 20
91.4590286233
 30
0.0
 10
158.1317216312
 20
93.53499015
 30
0.0
 10
157.7959912013
 20
95.0692624303
 30
0.0
 10
157.5241006835
 20
96.0769644827
 30
0.0
  0
SPLINE
  5
487
100
AcDbEntity
  8
0
100
AcDbSpline
 62
7
  6
CONTINUOUS
 70
0
 71
3
 72
10
 73
6
 74
0
 42
0.0000001
 43
0.0000001
 44
0.0000000001
 40
0.0
 40
0.0
 40
0.0
 40
0.0
 40
0.5794088509
 40
0.8160028538
 40
1.0
 40
1.0
 40
1.0
 40
1.0
 10
157.5437577281
 20
96.0781691999
 30
0.0
 10
157.5938067652
 20
96.084412958
 30
0.0
 10
157.6650348987
 20
96.0894011593
 30
0.0
 10
157.7519794879
 20
96.0843181196
 30
0.0
 10
157.7882594379
 20
96.0779378675
 30
0.0
 10
157.8035653492
 20
96.0732191513
 30
0.0
  0
SPLINE
  5
488
100
AcDbEntity
  8
0
100
AcDbSpline
 62
7
  6
CONTINUOUS
 70
0
 71
3
 72
13
 73
9
 74
0
 42
0.0000001
 43
0.0000001
 44
0.0000000001
 40
0.0
 40
0.0
 40
0.0
 40
0.0
 40
0.2499442268
 40
0.3749709369
 40
0.5
 40
0.6250290631
 40
0.7500557732
 40
1.0
 40
1.0
 40
1.0
 40
1.0
 10
157.8035653492
 20
83.7113929462
 30
0.0
 10
158.0705717451
 20
84.7191836018
 30
0.0
 10
158.3988571799
 20
86.2531562916
 30
0.0
 10
158.6300645152
 20
88.3273696115
 30
0.0
 10
158.689354058
 20
89.8923060443
 30
0.0
 10
158.6300645148
 20
91.4572424768
 30
0.0
 10
158.3988571826
 20
93.5314557977
 30
0.0
 10
158.0705717321
 20
95.0654284833
 30
0.0
 10
157.8035653492
 20
96.0732191423
 30
0.0
  0
SPLINE
  5
489
100
AcDbEntity
  8
0
100
AcDbSpline
 62
7
  6
CONTINUOUS
 70
0
 71
3
 72
10
 73
6
 74
0
 42
0.0000001
 43
0.0000001
 44
0.0000000001
 40
0.0
 40
0.0
 40
0.0
 40
0.0
 40
0.5794088592
 40
0.8160028632
 40
1.0
 40
1.0
 40
1.0
 40
1.0
 10
157.5437577281
 20
83.7064428887
 30
0.0
 10
157.5938067656
 20
83.7001991308
 30
0.0
 10
157.6650349004
 20
83.695210933
 30
0.0
 10
157.7519794876
 20
83.7002939777
 30
0.0
 10
157.7882594387
 20
83.7066742194
 30
0.0
 10
157.8035653492
 20
83.7113929352
 30
0.0
  0
SPLINE
  5
48A
100
AcDbEntity
  8
0
100
AcDbSpline
 62
7
  6
CONTINUOUS
 70
0
 71
3
 72
15
 73
11
 74
0
 42
0.0000001
 43
0.0000001
 44
0.0000000001
 40
0.0
 40
0.0
 40
0.0
 40
0.0
 40
0.1301940027
 40
0.2563933208
 40
0.3791959806
 40
0.5000002295
 40
0.6208042407
 40
0.7436070094
 40
0.8698062257
 40
1.0
 40
1.0
 40
1.0
 40
1.0
 10
157.5241006835
 20
97.1922816704
 30
0.0
 10
157.6579986526
 20
97.4404163545
 30
0.0
 10
157.9027966764
 20
97.9397607241
 30
0.0
 10
158.187820057
 20
98.7117790029
 30
0.0
 10
158.3683141114
 20
99.4946983295
 30
0.0
 10
158.4303476091
 20
100.2846118716
 30
0.0
 10
158.3683136948
 20
101.074525586
 30
0.0
 10
158.1878196523
 20
101.8574444227
 30
0.0
 10
157.9027958996
 20
102.629462032
 30
0.0
 10
157.6579985197
 20
103.1288059152
 30
0.0
 10
157.5241006835
 20
103.3769401089
 30
0.0
  0
SPLINE
  5
48B
100
AcDbEntity
  8
0
100
AcDbSpline
 62
7
  6
CONTINUOUS
 70
0
 71
3
 72
9
 73
5
 74
0
 42
0.0000001
 43
0.0000001
 44
0.0000000001
 40
0.0
 40
0.0
 40
0.0
 40
0.0
 40
0.5053821506
 40
1.0
 40
1.0
 40
1.0
 40
1.0
 10
157.5437577281
 20
103.3770046892
 30
0.0
 10
157.5957868503
 20
103.3773522761
 30
0.0
 10
157.7008700118
 20
103.3506511772
 30
0.0
 10
157.7778255399
 20
103.2743395048
 30
0.0
 10
157.8035653492
 20
103.2304018246
 30
0.0
  0
SPLINE
  5
48C
100
AcDbEntity
  8
0
100
AcDbSpline
 62
7
  6
CONTINUOUS
 70
0
 71
3
 72
15
 73
11
 74
0
 42
0.0000001
 43
0.0000001
 44
0.0000000001
 40
0.0
 40
0.0
 40
0.0
 40
0.0
 40
0.1308352878
 40
0.2576630972
 40
0.3810063769
 40
0.5021379476
 40
0.6229257929
 40
0.7453156157
 40
0.8707647651
 40
1.0
 40
1.0
 40
1.0
 40
1.0
 10
157.8035653492
 20
97.04948889
 30
0.0
 10
157.9350737947
 20
97.2996599054
 30
0.0
 10
158.1750415976
 20
97.8028198055
 30
0.0
 10
158.4534082788
 20
98.5791510604
 30
0.0
 10
158.6291582219
 20
99.3642528026
 30
0.0
 10
158.6895704522
 20
100.1539570346
 30
0.0
 10
158.6294740454
 20
100.9416497825
 30
0.0
 10
158.4537915207
 20
101.7209075995
 30
0.0
 10
158.1752713429
 20
102.4882092822
 30
0.0
 10
157.9350997383
 20
102.984156274
 30
0.0
 10
157.8035653492
 20
103.2304018246
 30
0.0
  0
SPLINE
  5
48D
100
AcDbEntity
  8
0
100
AcDbSpline
 62
7
  6
CONTINUOUS
 70
0
 71
3
 72
9
 73
5
 74
0
 42
0.0000001
 43
0.0000001
 44
0.0000000001
 40
0.0
 40
0.0
 40
0.0
 40
0.0
 40
0.5248634817
 40
1.0
 40
1.0
 40
1.0
 40
1.0
 10
157.5437577281
 20
97.1911415206
 30
0.0
 10
157.5962306806
 20
97.1849458987
 30
0.0
 10
157.694740203
 20
97.1543877421
 30
0.0
 10
157.7757467517
 20
97.0883987512
 30
0.0
 10
157.8035653492
 20
97.04948889
 30
0.0
  0
SPLINE
  5
48E
100
AcDbEntity
  8
0
100
AcDbSpline
 62
7
  6
CONTINUOUS
 70
0
 71
3
 72
11
 73
7
 74
0
 42
0.0000001
 43
0.0000001
 44
0.0000000001
 40
0.0
 40
0.0
 40
0.0
 40
0.0
 40
0.2600399494
 40
0.5123196221
 40
0.7580668898
 40
1.0
 40
1.0
 40
1.0
 40
1.0
 10
97.5633729704
 20
97.1922816704
 30
0.0
 10
97.694777234
 20
97.4406854145
 30
0.0
 10
97.9347059944
 20
97.9405853529
 30
0.0
 10
98.2131837573
 20
98.7128678308
 30
0.0
 10
98.389064595
 20
99.4953401633
 30
0.0
 10
98.4293983774
 20
100.0231598788
 30
0.0
 10
98.4293983742
 20
100.2846109531
 30
0.0
  0
SPLINE
  5
48F
100
AcDbEntity
  8
0
100
AcDbSpline
 62
7
  6
CONTINUOUS
 70
0
 71
3
 72
11
 73
7
 74
0
 42
0.0000001
 43
0.0000001
 44
0.0000000001
 40
0.0
 40
0.0
 40
0.0
 40
0.0
 40
0.241929863
 40
0.4876744327
 40
0.7399544333
 40
1.0
 40
1.0
 40
1.0
 40
1.0
 10
98.4293983742
 20
100.2846109531
 30
0.0
 10
98.429398371
 20
100.5460584013
 30
0.0
 10
98.3890605978
 20
101.0738711723
 30
0.0
 10
98.2131825196
 20
101.856337008
 30
0.0
 10
97.9347100883
 20
102.6286247746
 30
0.0
 10
97.6947800138
 20
103.1285311101
 30
0.0
 10
97.5633729704
 20
103.3769401089
 30
0.0
  0
SPLINE
  5
490
100
AcDbEntity
  8
0
100
AcDbSpline
 62
7
  6
CONTINUOUS
 70
0
 71
3
 72
10
 73
6
 74
0
 42
0.0000001
 43
0.0000001
 44
0.0000000001
 40
0.0
 40
0.0
 40
0.0
 40
0.0
 40
0.4999016865
 40
0.7499508996
 40
1.0
 40
1.0
 40
1.0
 40
1.0
 10
97.5633729704
 20
83.7076476058
 30
0.0
 10
97.8301239055
 20
84.7161678648
 30
0.0
 10
98.1583882151
 20
86.2511105912
 30
0.0
 10
98.3898180957
 20
88.3264379475
 30
0.0
 10
98.4293983776
 20
89.3705004318
 30
0.0
 10
98.4293983742
 20
89.8923061793
 30
0.0
  0
SPLINE
  5
491
100
AcDbEntity
  8
0
100
AcDbSpline
 62
7
  6
CONTINUOUS
 70
0
 71
3
 72
10
 73
6
 74
0
 42
0.0000001
 43
0.0000001
 44
0.0000000001
 40
0.0
 40
0.0
 40
0.0
 40
0.0
 40
0.250045619
 40
0.5000920648
 40
1.0
 40
1.0
 40
1.0
 40
1.0
 10
98.4293983742
 20
89.8923061793
 30
0.0
 10
98.4293983708
 20
90.4141045714
 30
0.0
 10
98.3898140748
 20
91.4581536976
 30
0.0
 10
98.1583860667
 20
93.5334805267
 30
0.0
 10
97.8301271937
 20
95.068431792
 30
0.0
 10
97.5633729704
 20
96.0769644827
 30
0.0
  0
SPLINE
  5
492
100
AcDbEntity
  8
0
100
AcDbSpline
 62
7
  6
CONTINUOUS
 70
0
 71
3
 72
11
 73
7
 74
0
 42
0.0000001
 43
0.0000001
 44
0.0000000001
 40
0.0
 40
0.0
 40
0.0
 40
0.0
 40
0.2600399493
 40
0.5123196221
 40
0.7580668898
 40
1.0
 40
1.0
 40
1.0
 40
1.0
 10
97.5633729704
 20
76.4076719796
 30
0.0
 10
97.6947772314
 20
76.6560757187
 30
0.0
 10
97.9347059874
 20
77.1559756471
 30
0.0
 10
98.2131837474
 20
77.9282581091
 30
0.0
 10
98.389064587
 20
78.7107304251
 30
0.0
 10
98.4293983742
 20
79.2385501298
 30
0.0
 10
98.4293983742
 20
79.500001199
 30
0.0
  0
SPLINE
  5
493
100
AcDbEntity
  8
0
100
AcDbSpline
 62
7
  6
CONTINUOUS
 70
0
 71
3
 72
11
 73
7
 74
0
 42
0.0000001
 43
0.0000001
 44
0.0000000001
 40
0.0
 40
0.0
 40
0.0
 40
0.0
 40
0.241929863
 40
0.4876744326
 40
0.7399544332
 40
1.0
 40
1.0
 40
1.0
 40
1.0
 10
98.4293983742
 20
79.500001199
 30
0.0
 10
98.4293983742
 20
79.7614486523
 30
0.0
 10
98.3890606058
 20
80.2892614341
 30
0.0
 10
98.2131825295
 20
81.0717272862
 30
0.0
 10
97.9347100953
 20
81.8440150689
 30
0.0
 10
97.6947800164
 20
82.3439214143
 30
0.0
 10
97.5633729704
 20
82.592330418
 30
0.0
  0
SPLINE
  5
494
100
AcDbEntity
  8
0
100
AcDbSpline
 62
7
  6
CONTINUOUS
 70
0
 71
3
 72
15
 73
11
 74
0
 42
0.0000001
 43
0.0000001
 44
0.0000000001
 40
0.0
 40
0.0
 40
0.0
 40
0.0
 40
0.1301937742
 40
0.2563929906
 40
0.3791957593
 40
0.4999997705
 40
0.6208040193
 40
0.7436066792
 40
0.8698059971
 40
1.0
 40
1.0
 40
1.0
 40
1.0
 10
89.8346960649
 20
103.3769401089
 30
0.0
 10
89.700798284
 20
103.1288058856
 30
0.0
 10
89.4560008283
 20
102.6294620438
 30
0.0
 10
89.1709770999
 20
101.8574444202
 30
0.0
 10
88.9904830528
 20
101.0745255867
 30
0.0
 10
88.9284491392
 20
100.2846118712
 30
0.0
 10
88.9904826376
 20
99.4946983302
 30
0.0
 10
89.1709766872
 20
98.7117790003
 30
0.0
 10
89.4560000943
 20
97.9397607372
 30
0.0
 10
89.7007980321
 20
97.4404163206
 30
0.0
 10
89.8346960649
 20
97.1922816704
 30
0.0
  0
SPLINE
  5
495
100
AcDbEntity
  8
0
100
AcDbSpline
 62
7
  6
CONTINUOUS
 70
0
 71
3
 72
9
 73
5
 74
0
 42
0.0000001
 43
0.0000001
 44
0.0000000001
 40
0.0
 40
0.0
 40
0.0
 40
0.0
 40
0.5248634575
 40
1.0
 40
1.0
 40
1.0
 40
1.0
 10
89.8150390202
 20
97.1911415212
 30
0.0
 10
89.7625660673
 20
97.1849459004
 30
0.0
 10
89.6640565209
 20
97.1543877815
 30
0.0
 10
89.5830499994
 20
97.0883987453
 30
0.0
 10
89.5552313991
 20
97.0494888802
 30
0.0
  0
SPLINE
  5
496
100
AcDbEntity
  8
0
100
AcDbSpline
 62
7
  6
CONTINUOUS
 70
0
 71
3
 72
15
 73
11
 74
0
 42
0.0000001
 43
0.0000001
 44
0.0000000001
 40
0.0
 40
0.0
 40
0.0
 40
0.0
 40
0.1292352354
 40
0.2546843846
 40
0.3770742072
 40
0.4978620524
 40
0.618993623
 40
0.7423369025
 40
0.8691647118
 40
1.0
 40
1.0
 40
1.0
 40
1.0
 10
89.5552313991
 20
103.2304018242
 30
0.0
 10
89.423697033
 20
102.9841562598
 30
0.0
 10
89.1835253952
 20
102.4882092843
 30
0.0
 10
88.9050052281
 20
101.7209075939
 30
0.0
 10
88.7293227019
 20
100.9416497782
 30
0.0
 10
88.6692262961
 20
100.1539570297
 30
0.0
 10
88.7296385277
 20
99.3642527984
 30
0.0
 10
88.905388468
 20
98.5791510537
 30
0.0
 10
89.1837551686
 20
97.8028198081
 30
0.0
 10
89.4237229162
 20
97.2996598773
 30
0.0
 10
89.5552313991
 20
97.0494888802
 30
0.0
  0
SPLINE
  5
497
100
AcDbEntity
  8
0
100
AcDbSpline
 62
7
  6
CONTINUOUS
 70
0
 71
3
 72
9
 73
5
 74
0
 42
0.0000001
 43
0.0000001
 44
0.0000000001
 40
0.0
 40
0.0
 40
0.0
 40
0.0
 40
0.5053821252
 40
1.0
 40
1.0
 40
1.0
 40
1.0
 10
89.8150390202
 20
103.3770046892
 30
0.0
 10
89.7630099004
 20
103.3773522761
 30
0.0
 10
89.6579267378
 20
103.3506511817
 30
0.0
 10
89.5809712092
 20
103.2743395071
 30
0.0
 10
89.5552313991
 20
103.2304018242
 30
0.0
  0
SPLINE
  5
498
100
AcDbEntity
  8
0
100
AcDbSpline
 62
7
  6
CONTINUOUS
 70
0
 71
3
 72
13
 73
9
 74
0
 42
0.0000001
 43
0.0000001
 44
0.0000000001
 40
0.0
 40
0.0
 40
0.0
 40
0.0
 40
0.249943978
 40
0.3749709074
 40
0.5
 40
0.6250290926
 40
0.750056022
 40
1.0
 40
1.0
 40
1.0
 40
1.0
 10
89.8346960649
 20
96.0769644827
 30
0.0
 10
89.562805512
 20
95.0692624397
 30
0.0
 10
89.2270751244
 20
93.534990148
 30
0.0
 10
88.9896687131
 20
91.4590286237
 30
0.0
 10
88.928685892
 20
89.8923060441
 30
0.0
 10
88.9896687143
 20
88.3255834652
 30
0.0
 10
89.2270751171
 20
86.2496219385
 30
0.0
 10
89.5628055471
 20
84.7153496582
 30
0.0
 10
89.8346960649
 20
83.7076476058
 30
0.0
  0
SPLINE
  5
499
100
AcDbEntity
  8
0
100
AcDbSpline
 62
7
  6
CONTINUOUS
 70
0
 71
3
 72
10
 73
6
 74
0
 42
0.0000001
 43
0.0000001
 44
0.0000000001
 40
0.0
 40
0.0
 40
0.0
 40
0.0
 40
0.5794088509
 40
0.8160028538
 40
1.0
 40
1.0
 40
1.0
 40
1.0
 10
89.8150390202
 20
83.7064428886
 30
0.0
 10
89.7649899832
 20
83.7001991305
 30
0.0
 10
89.6937618496
 20
83.6952109292
 30
0.0
 10
89.6068172604
 20
83.7002939689
 30
0.0
 10
89.5705373104
 20
83.706674221
 30
0.0
 10
89.5552313991
 20
83.7113929372
 30
0.0
  0
SPLINE
  5
49A
100
AcDbEntity
  8
0
100
AcDbSpline
 62
7
  6
CONTINUOUS
 70
0
 71
3
 72
13
 73
9
 74
0
 42
0.0000001
 43
0.0000001
 44
0.0000000001
 40
0.0
 40
0.0
 40
0.0
 40
0.0
 40
0.2499442268
 40
0.3749709369
 40
0.5
 40
0.6250290631
 40
0.7500557732
 40
1.0
 40
1.0
 40
1.0
 40
1.0
 10
89.5552313991
 20
96.0732191423
 30
0.0
 10
89.2882250033
 20
95.0654284867
 30
0.0
 10
88.9599395684
 20
93.5314557969
 30
0.0
 10
88.7287322331
 20
91.457242477
 30
0.0
 10
88.6694426903
 20
89.8923060442
 30
0.0
 10
88.7287322336
 20
88.3273696117
 30
0.0
 10
88.9599395657
 20
86.2531562908
 30
0.0
 10
89.2882250162
 20
84.7191836052
 30
0.0
 10
89.5552313991
 20
83.7113929462
 30
0.0
  0
SPLINE
  5
49B
100
AcDbEntity
  8
0
100
AcDbSpline
 62
7
  6
CONTINUOUS
 70
0
 71
3
 72
10
 73
6
 74
0
 42
0.0000001
 43
0.0000001
 44
0.0000000001
 40
0.0
 40
0.0
 40
0.0
 40
0.0
 40
0.5794088592
 40
0.8160028632
 40
1.0
 40
1.0
 40
1.0
 40
1.0
 10
89.8150390202
 20
96.0781691998
 30
0.0
 10
89.7649899827
 20
96.0844129577
 30
0.0
 10
89.6937618479
 20
96.0894011555
 30
0.0
 10
89.6068172607
 20
96.0843181108
 30
0.0
 10
89.5705373096
 20
96.0779378691
 30
0.0
 10
89.5552313991
 20
96.0732191533
 30
0.0
  0
SPLINE
  5
49C
100
AcDbEntity
  8
0
100
AcDbSpline
 62
7
  6
CONTINUOUS
 70
0
 71
3
 72
15
 73
11
 74
0
 42
0.0000001
 43
0.0000001
 44
0.0000000001
 40
0.0
 40
0.0
 40
0.0
 40
0.0
 40
0.1301940027
 40
0.2563933208
 40
0.3791959806
 40
0.5000002295
 40
0.6208042407
 40
0.7436070094
 40
0.8698062257
 40
1.0
 40
1.0
 40
1.0
 40
1.0
 10
89.8346960649
 20
82.592330418
 30
0.0
 10
89.7007980958
 20
82.344195734
 30
0.0
 10
89.4560000719
 20
81.8448513644
 30
0.0
 10
89.1709766913
 20
81.0728330856
 30
0.0
 10
88.990482637
 20
80.289913759
 30
0.0
 10
88.9284491392
 20
79.5000002169
 30
0.0
 10
88.9904830536
 20
78.7100865025
 30
0.0
 10
89.170977096
 20
77.9271676658
 30
0.0
 10
89.4560008488
 20
77.1551500565
 30
0.0
 10
89.7007982286
 20
76.6558061733
 30
0.0
 10
89.8346960649
 20
76.4076719796
 30
0.0
  0
SPLINE
  5
49D
100
AcDbEntity
  8
0
100
AcDbSpline
 62
7
  6
CONTINUOUS
 70
0
 71
3
 72
9
 73
5
 74
0
 42
0.0000001
 43
0.0000001
 44
0.0000000001
 40
0.0
 40
0.0
 40
0.0
 40
0.0
 40
0.5053821506
 40
1.0
 40
1.0
 40
1.0
 40
1.0
 10
89.8150390202
 20
76.4076073993
 30
0.0
 10
89.763009898
 20
76.4072598124
 30
0.0
 10
89.6579267366
 20
76.4339609113
 30
0.0
 10
89.5809712084
 20
76.5102725837
 30
0.0
 10
89.5552313991
 20
76.5542102639
 30
0.0
  0
SPLINE
  5
49E
100
AcDbEntity
  8
0
100
AcDbSpline
 62
7
  6
CONTINUOUS
 70
0
 71
3
 72
15
 73
11
 74
0
 42
0.0000001
 43
0.0000001
 44
0.0000000001
 40
0.0
 40
0.0
 40
0.0
 40
0.0
 40
0.1308352878
 40
0.2576630972
 40
0.3810063769
 40
0.5021379476
 40
0.6229257929
 40
0.7453156157
 40
0.8707647651
 40
1.0
 40
1.0
 40
1.0
 40
1.0
 10
89.5552313991
 20
82.7351231985
 30
0.0
 10
89.4237229536
 20
82.4849521831
 30
0.0
 10
89.1837551508
 20
81.981792283
 30
0.0
 10
88.9053884695
 20
81.2054610281
 30
0.0
 10
88.7296385264
 20
80.4203592859
 30
0.0
 10
88.6692262962
 20
79.6306550539
 30
0.0
 10
88.7293227029
 20
78.842962306
 30
0.0
 10
88.9050052277
 20
78.063704489
 30
0.0
 10
89.1835254054
 20
77.2964028063
 30
0.0
 10
89.42369701
 20
76.8004558145
 30
0.0
 10
89.5552313991
 20
76.5542102639
 30
0.0
  0
SPLINE
  5
49F
100
AcDbEntity
  8
0
100
AcDbSpline
 62
7
  6
CONTINUOUS
 70
0
 71
3
 72
9
 73
5
 74
0
 42
0.0000001
 43
0.0000001
 44
0.0000000001
 40
0.0
 40
0.0
 40
0.0
 40
0.0
 40
0.5248634817
 40
1.0
 40
1.0
 40
1.0
 40
1.0
 10
89.8150390202
 20
82.5934705679
 30
0.0
 10
89.7625660677
 20
82.5996661898
 30
0.0
 10
89.6640565454
 20
82.6302243464
 30
0.0
 10
89.5830499966
 20
82.6962133373
 30
0.0
 10
89.5552313991
 20
82.7351231985
 30
0.0
  0
SPLINE
  5
4A0
100
AcDbEntity
  8
0
100
AcDbSpline
 62
7
  6
CONTINUOUS
 70
0
 71
3
 72
9
 73
5
 74
0
 42
0.0000001
 43
0.0000001
 44
0.0000000001
 40
0.0
 40
0.0
 40
0.0
 40
0.0
 40
0.3440994109
 40
1.0
 40
1.0
 40
1.0
 40
1.0
 10
148.914399933
 20
100.3576296769
 30
0.0
 10
148.9155314821
 20
100.359802533
 30
0.0
 10
148.9189210126
 20
100.3657538922
 30
0.0
 10
148.9247314819
 20
100.3721422047
 30
0.0
 10
148.9293984935
 20
100.3723014322
 30
0.0
  0
SPLINE
  5
4A1
100
AcDbEntity
  8
GEOM
100
AcDbSpline
 62
7
  6
CONTINUOUS
 70
0
 71
3
 72
11
 73
7
 74
0
 42
0.0000001
 43
0.0000001
 44
0.0000000001
 40
0.0
 40
0.0
 40
0.0
 40
0.0
 40
0.3852757002
 40
0.666755754
 40
0.8570459872
 40
1.0
 40
1.0
 40
1.0
 40
1.0
 10
136.6494635522
 20
76.7343872169
 30
0.0
 10
136.6494635785
 20
76.7278514419
 30
0.0
 10
136.6498490968
 20
76.7164779005
 30
0.0
 10
136.6524211789
 20
76.7022329431
 30
0.0
 10
136.6568235069
 20
76.6922659025
 30
0.0
 10
136.662605845
 20
76.6896851385
 30
0.0
 10
136.6650304587
 20
76.6897314699
 30
0.0
  0
SPLINE
  5
4A2
100
AcDbEntity
  8
0
100
AcDbSpline
 62
7
  6
CONTINUOUS
 70
0
 71
3
 72
30
 73
26
 74
0
 42
0.0000001
 43
0.0000001
 44
0.0000000001
 40
0.0
 40
0.0
 40
0.0
 40
0.0
 40
0.0007636314
 40
0.0020313859
 40
0.0039428931
 40
0.006534575
 40
0.0098170647
 40
0.0137930976
 40
0.0238224785
 40
0.0365999488
 40
0.052073558
 40
0.0701833153
 40
0.0908521578
 40
0.1139909115
 40
0.1395033495
 40
0.197192293
 40
0.2629245531
 40
0.3355643884
 40
0.413854369
 40
0.4964385884
 40
0.5818870171
 40
0.6687199565
 40
0.755433253
 40
0.8405244888
 40
1.0
 40
1.0
 40
1.0
 40
1.0
 10
148.3206053673
 20
99.202289156
 30
0.0
 10
148.324195243
 20
99.2022877176
 30
0.0
 10
148.3329019304
 20
99.1959770096
 30
0.0
 10
148.3412381455
 20
99.1795574504
 30
0.0
 10
148.3506203181
 20
99.1539537124
 30
0.0
 10
148.3597088511
 20
99.1184984515
 30
0.0
 10
148.3690753952
 20
99.0731291291
 30
0.0
 10
148.3826197079
 20
98.9929854397
 30
0.0
 10
148.398918412
 20
98.8681006748
 30
0.0
 10
148.4175138002
 20
98.6890984485
 30
0.0
 10
148.4362256239
 20
98.4719484482
 30
0.0
 10
148.4550214954
 20
98.2175954564
 30
0.0
 10
148.4738668446
 20
97.9271258876
 30
0.0
 10
148.4927518198
 20
97.6017941326
 30
0.0
 10
148.5190489661
 20
97.1025731966
 30
0.0
 10
148.5513356637
 20
96.4031657125
 30
0.0
 10
148.5888283642
 20
95.4822316876
 30
0.0
 10
148.6264098417
 20
94.464382275
 30
0.0
 10
148.6640573028
 20
93.3672640631
 30
0.0
 10
148.7017438649
 20
92.2098999592
 30
0.0
 10
148.7394536633
 20
91.0123553252
 30
0.0
 10
148.7771753
 20
89.7953907083
 30
0.0
 10
148.8148903328
 20
88.5801056811
 30
0.0
 10
148.8641297878
 20
87.0235178507
 30
0.0
 10
148.902345569
 20
85.8744265873
 30
0.0
 10
148.9293986558
 20
85.1252111047
 30
0.0
  0
SPLINE
  5
4A3
100
AcDbEntity
  8
0
100
AcDbSpline
 62
7
  6
CONTINUOUS
 70
0
 71
3
 72
42
 73
38
 74
0
 42
0.0000001
 43
0.0000001
 44
0.0000000001
 40
0.0
 40
0.0
 40
0.0
 40
0.0
 40
0.0009446757
 40
0.001758782
 40
0.0028374388
 40
0.0041899322
 40
0.0058205857
 40
0.0099233115
 40
0.0151480558
 40
0.0214868449
 40
0.0374601695
 40
0.0577075396
 40
0.0820498031
 40
0.1102618819
 40
0.1420867551
 40
0.1772296454
 40
0.2153659479
 40
0.2561440364
 40
0.2991851097
 40
0.3904487621
 40
0.4857847253
 40
0.5816699765
 40
0.6745612013
 40
0.7610259891
 40
0.8008371946
 40
0.837870344
 40
0.8717817088
 40
0.9022586825
 40
0.9290212765
 40
0.9518218762
 40
0.9704561338
 40
0.9781560817
 40
0.9847567999
 40
0.9902453237
 40
0.9946119001
 40
0.9978575029
 40
1.0
 40
1.0
 40
1.0
 40
1.0
 10
146.5063183338
 20
99.2023059208
 30
0.0
 10
146.512188618
 20
99.2023047869
 30
0.0
 10
146.5207725124
 20
99.1920202073
 30
0.0
 10
146.5279897402
 20
99.1767866607
 30
0.0
 10
146.5349461295
 20
99.15753061
 30
0.0
 10
146.5417044585
 20
99.1333059859
 30
0.0
 10
146.5516542676
 20
99.09035333
 30
0.0
 10
146.5635482103
 20
99.0233005169
 30
0.0
 10
146.577170591
 20
98.9268869082
 30
0.0
 10
146.5969687648
 20
98.7569118637
 30
0.0
 10
146.6207199491
 20
98.4934765641
 30
0.0
 10
146.647886089
 20
98.1181099179
 30
0.0
 10
146.6751993456
 20
97.6665306651
 30
0.0
 10
146.7026526417
 20
97.1429081055
 30
0.0
 10
146.7301728334
 20
96.5520914374
 30
0.0
 10
146.7577468491
 20
95.8995479398
 30
0.0
 10
146.7853554127
 20
95.1913245351
 30
0.0
 10
146.8129889129
 20
94.4339876809
 30
0.0
 10
146.8505943312
 20
93.3466597743
 30
0.0
 10
146.8968634245
 20
91.9204046716
 30
0.0
 10
146.951456428
 20
90.1658720819
 30
0.0
 10
147.0060532627
 20
88.4012207251
 30
0.0
 10
147.0605965674
 20
86.6917208015
 30
0.0
 10
147.1070948485
 20
85.3305907549
 30
0.0
 10
147.1449778163
 20
84.316482048
 30
0.0
 10
147.1725751323
 20
83.6287902744
 30
0.0
 10
147.2001303594
 20
82.9991503931
 30
0.0
 10
147.2276311648
 20
82.4333973297
 30
0.0
 10
147.2550301145
 20
81.9367708823
 30
0.0
 10
147.2823188613
 20
81.5138616318
 30
0.0
 10
147.3060812108
 20
81.2094380494
 30
0.0
 10
147.3256940784
 20
81.005717234
 30
0.0
 10
147.3393950038
 20
80.8834970672
 30
0.0
 10
147.3530289222
 20
80.7821619111
 30
0.0
 10
147.3664672281
 20
80.7017934319
 30
0.0
 10
147.3797833229
 20
80.6427364258
 30
0.0
 10
147.390124729
 20
80.6105966156
 30
0.0
 10
147.39627829
 20
80.5987904067
 30
0.0
  0
SPLINE
  5
4A4
100
AcDbEntity
  8
0
100
AcDbSpline
 62
7
  6
CONTINUOUS
 70
0
 71
3
 72
42
 73
38
 74
0
 42
0.0000001
 43
0.0000001
 44
0.0000000001
 40
0.0
 40
0.0
 40
0.0
 40
0.0
 40
0.0009438079
 40
0.0017576164
 40
0.0028366456
 40
0.0041898336
 40
0.0058210509
 40
0.0099230747
 40
0.0151469038
 40
0.0214868783
 40
0.0374591564
 40
0.0577080595
 40
0.0820489284
 40
0.1102620069
 40
0.1420865778
 40
0.1772291634
 40
0.2153662771
 40
0.2561435226
 40
0.2991853994
 40
0.3904488431
 40
0.4857848685
 40
0.5816702317
 40
0.6745613301
 40
0.7610259637
 40
0.8008380302
 40
0.8378707008
 40
0.8717820718
 40
0.9022597998
 40
0.9290211295
 40
0.951823225
 40
0.9704562179
 40
0.9781575158
 40
0.9847575302
 40
0.9902450881
 40
0.994612898
 40
0.997858767
 40
1.0
 40
1.0
 40
1.0
 40
1.0
 10
144.6920326679
 20
99.2022900382
 30
0.0
 10
144.6978975529
 20
99.2022934777
 30
0.0
 10
144.7064919885
 20
99.1920317246
 30
0.0
 10
144.7137055561
 20
99.176798913
 30
0.0
 10
144.7206610689
 20
99.1575382307
 30
0.0
 10
144.7274180084
 20
99.1333024639
 30
0.0
 10
144.7373652687
 20
99.0903459272
 30
0.0
 10
144.7492632905
 20
99.0233005854
 30
0.0
 10
144.762887644
 20
98.9268899585
 30
0.0
 10
144.7826782036
 20
98.756919063
 30
0.0
 10
144.8064385189
 20
98.4934745179
 30
0.0
 10
144.833596631
 20
98.1181131976
 30
0.0
 10
144.8609159356
 20
97.6665277269
 30
0.0
 10
144.8883653914
 20
97.1429097632
 30
0.0
 10
144.9158871011
 20
96.5520913062
 30
0.0
 10
144.943461355
 20
95.8995471598
 30
0.0
 10
144.9710685169
 20
95.1913264698
 30
0.0
 10
144.9987036506
 20
94.4339855967
 30
0.0
 10
145.0363073647
 20
93.3466602071
 30
0.0
 10
145.0825775865
 20
91.9204024149
 30
0.0
 10
145.1371701219
 20
90.1658716917
 30
0.0
 10
145.191766965
 20
88.401221717
 30
0.0
 10
145.2463099787
 20
86.6917244563
 30
0.0
 10
145.2928092557
 20
85.3305921311
 30
0.0
 10
145.3306907912
 20
84.3164829187
 30
0.0
 10
145.3582887683
 20
83.6287894054
 30
0.0
 10
145.3858446865
 20
82.9991484134
 30
0.0
 10
145.4133427187
 20
82.4333988629
 30
0.0
 10
145.4407466
 20
81.9367670686
 30
0.0
 10
145.4680283909
 20
81.513864142
 30
0.0
 10
145.4917988558
 20
81.2094316886
 30
0.0
 10
145.5114053256
 20
81.0057143253
 30
0.0
 10
145.5251072872
 20
80.8834963452
 30
0.0
 10
145.5387460212
 20
80.7821646622
 30
0.0
 10
145.5521803906
 20
80.7017924643
 30
0.0
 10
145.5654907401
 20
80.64273244
 30
0.0
 10
145.5758383813
 20
80.610600838
 30
0.0
 10
145.581991653
 20
80.5988033515
 30
0.0
  0
SPLINE
  5
4A5
100
AcDbEntity
  8
GEOM
100
AcDbSpline
 62
7
  6
CONTINUOUS
 70
0
 71
3
 72
11
 73
7
 74
0
 42
0.0000001
 43
0.0000001
 44
0.0000000001
 40
0.0
 40
0.0
 40
0.0
 40
0.0
 40
0.1429770447
 40
0.3332979936
 40
0.6147813755
 40
1.0
 40
1.0
 40
1.0
 40
1.0
 10
136.6650304587
 20
103.0948806186
 30
0.0
 10
136.6626054616
 20
103.0949268602
 30
0.0
 10
136.6568224727
 20
103.0923449465
 30
0.0
 10
136.6524204588
 20
103.0823768616
 30
0.0
 10
136.6498490692
 20
103.0681321926
 30
0.0
 10
136.649463615
 20
103.0567596539
 30
0.0
 10
136.6494635522
 20
103.0502248716
 30
0.0
  0
SPLINE
  5
4A6
100
AcDbEntity
  8
GEOM
100
AcDbSpline
 62
7
  6
CONTINUOUS
 70
0
 71
3
 72
9
 73
5
 74
0
 42
0.0000001
 43
0.0000001
 44
0.0000000001
 40
0.0
 40
0.0
 40
0.0
 40
0.0
 40
0.4390189253
 40
1.0
 40
1.0
 40
1.0
 40
1.0
 10
136.6494635522
 20
102.4673664239
 30
0.0
 10
136.6494636225
 20
102.444590925
 30
0.0
 10
136.653174289
 20
102.3927402467
 30
0.0
 10
136.6603706757
 20
102.3413512172
 30
0.0
 10
136.6650304587
 20
102.3126240184
 30
0.0
  0
SPLINE
  5
4A7
100
AcDbEntity
  8
GEOM
100
AcDbSpline
 62
7
  6
CONTINUOUS
 70
0
 71
3
 72
11
 73
7
 74
0
 42
0.0000001
 43
0.0000001
 44
0.0000000001
 40
0.0
 40
0.0
 40
0.0
 40
0.0
 40
0.2508595681
 40
0.5005940079
 40
0.7500110422
 40
1.0
 40
1.0
 40
1.0
 40
1.0
 10
136.6650304587
 20
102.3126240184
 30
0.0
 10
136.7479863082
 20
101.8012066372
 30
0.0
 10
136.8775235963
 20
100.7742869331
 30
0.0
 10
136.9448220134
 20
99.2248919619
 30
0.0
 10
136.8776779326
 20
97.6772824332
 30
0.0
 10
136.748053181
 20
96.6528329206
 30
0.0
 10
136.6650304587
 20
96.1432480913
 30
0.0
  0
SPLINE
  5
4A8
100
AcDbEntity
  8
GEOM
100
AcDbSpline
 62
7
  6
CONTINUOUS
 70
0
 71
3
 72
9
 73
5
 74
0
 42
0.0000001
 43
0.0000001
 44
0.0000000001
 40
0.0
 40
0.0
 40
0.0
 40
0.0
 40
0.22714301
 40
1.0
 40
1.0
 40
1.0
 40
1.0
 10
136.6650304587
 20
96.1432480913
 30
0.0
 10
136.6623692213
 20
96.1269132566
 30
0.0
 10
136.6525872651
 20
96.054684783
 30
0.0
 10
136.6494637512
 20
95.9816651781
 30
0.0
 10
136.6494635522
 20
95.9253529228
 30
0.0
  0
SPLINE
  5
4A9
100
AcDbEntity
  8
0
100
AcDbSpline
 62
7
  6
CONTINUOUS
 70
0
 71
3
 72
9
 73
5
 74
0
 42
0.0000001
 43
0.0000001
 44
0.0000000001
 40
0.0
 40
0.0
 40
0.0
 40
0.0
 40
0.2150002937
 40
1.0
 40
1.0
 40
1.0
 40
1.0
 10
148.1377888603
 20
99.1858182897
 30
0.0
 10
148.1386411785
 20
99.1841848719
 30
0.0
 10
148.142372876
 20
99.1764661525
 30
0.0
 10
148.1453468071
 20
99.1684033036
 30
0.0
 10
148.1474765502
 20
99.1620223882
 30
0.0
  0
SPLINE
  5
4AA
100
AcDbEntity
  8
0
100
AcDbSpline
 62
7
  6
CONTINUOUS
 70
0
 71
3
 72
28
 73
24
 74
0
 42
0.0000001
 43
0.0000001
 44
0.0000000001
 40
0.0
 40
0.0
 40
0.0
 40
0.0
 40
0.0025756806
 40
0.0060414378
 40
0.0156496571
 40
0.0287956773
 40
0.0453937227
 40
0.0653340086
 40
0.0884740116
 40
0.1146529295
 40
0.1436823795
 40
0.2094512532
 40
0.2839071524
 40
0.3649263519
 40
0.4501966823
 40
0.5372840595
 40
0.6237023174
 40
0.706984471
 40
0.7847534503
 40
0.8547903791
 40
0.9150986357
 40
0.9639624017
 40
1.0
 40
1.0
 40
1.0
 40
1.0
 10
148.1474765502
 20
99.1620223882
 30
0.0
 10
148.1523873196
 20
99.14730925
 30
0.0
 10
148.1614160254
 20
99.1119944108
 30
0.0
 10
148.1792208486
 20
99.0194397652
 30
0.0
 10
148.1998946329
 20
98.8627884204
 30
0.0
 10
148.2235662627
 20
98.6269996328
 30
0.0
 10
148.2473988871
 20
98.3287203497
 30
0.0
 10
148.2714441489
 20
97.97013437
 30
0.0
 10
148.2955752533
 20
97.5537408132
 30
0.0
 10
148.3197743719
 20
97.0825373302
 30
0.0
 10
148.3535163564
 20
96.3547784622
 30
0.0
 10
148.3947807964
 20
95.3363394215
 30
0.0
 10
148.4427276631
 20
94.0048449739
 30
0.0
 10
148.4907969949
 20
92.555845398
 30
0.0
 10
148.5389458661
 20
91.0307415318
 30
0.0
 10
148.5871221903
 20
89.4731091668
 30
0.0
 10
148.6352878116
 20
87.9274550414
 30
0.0
 10
148.6834040693
 20
86.4379439401
 30
0.0
 10
148.7314057218
 20
85.0471313253
 30
0.0
 10
148.779246034
 20
83.7947580481
 30
0.0
 10
148.8266616054
 20
82.7165636409
 30
0.0
 10
148.873663959
 20
81.8433670846
 30
0.0
 10
148.9093363444
 20
81.3332382731
 30
0.0
 10
148.9293989419
 20
81.1171452348
 30
0.0
  0
SPLINE
  5
4AB
100
AcDbEntity
  8
0
100
AcDbSpline
 62
7
  6
CONTINUOUS
 70
0
 71
3
 72
11
 73
7
 74
0
 42
0.0000001
 43
0.0000001
 44
0.0000000001
 40
0.0
 40
0.0
 40
0.0
 40
0.0
 40
0.1952500898
 40
0.3963619538
 40
0.6558338718
 40
1.0
 40
1.0
 40
1.0
 40
1.0
 10
141.7234721009
 20
76.8923060442
 30
0.0
 10
141.7211249627
 20
76.8923060442
 30
0.0
 10
141.7161612012
 20
76.8934254964
 30
0.0
 10
141.7108070751
 20
76.8997509673
 30
0.0
 10
141.708146081
 20
76.909195404
 30
0.0
 10
141.7077105377
 20
76.916470645
 30
0.0
 10
141.7077105377
 20
76.920607931
 30
0.0
  0
SPLINE
  5
4AC
100
AcDbEntity
  8
0
100
AcDbSpline
 62
7
  6
CONTINUOUS
 70
0
 71
3
 72
9
 73
5
 74
0
 42
0.0000001
 43
0.0000001
 44
0.0000000001
 40
0.0
 40
0.0
 40
0.0
 40
0.0
 40
0.5622525642
 40
1.0
 40
1.0
 40
1.0
 40
1.0
 10
141.7234721009
 20
77.5924671652
 30
0.0
 10
141.7187927695
 20
77.574571421
 30
0.0
 10
141.7115214273
 20
77.5424693549
 30
0.0
 10
141.7077105377
 20
77.509618668
 30
0.0
 10
141.7077105377
 20
77.4952173298
 30
0.0
  0
SPLINE
  5
4AD
100
AcDbEntity
  8
0
100
AcDbSpline
 62
7
  6
CONTINUOUS
 70
0
 71
3
 72
9
 73
5
 74
0
 42
0.0000001
 43
0.0000001
 44
0.0000000001
 40
0.0
 40
0.0
 40
0.0
 40
0.0
 40
0.2284227121
 40
1.0
 40
1.0
 40
1.0
 40
1.0
 10
141.7234721009
 20
83.8073686125
 30
0.0
 10
141.7208064192
 20
83.8175633078
 30
0.0
 10
141.7109644589
 20
83.862671129
 30
0.0
 10
141.7077105377
 20
83.9090494807
 30
0.0
 10
141.7077105377
 20
83.94464336
 30
0.0
  0
SPLINE
  5
4AE
100
AcDbEntity
  8
0
100
AcDbSpline
 62
7
  6
CONTINUOUS
 70
0
 71
3
 72
9
 73
5
 74
0
 42
0.0000001
 43
0.0000001
 44
0.0000000001
 40
0.0
 40
0.0
 40
0.0
 40
0.0
 40
0.2546175689
 40
1.0
 40
1.0
 40
1.0
 40
1.0
 10
141.7234721009
 20
85.4977070864
 30
0.0
 10
141.7208996815
 20
85.4837940241
 30
0.0
 10
141.7119667427
 20
85.4289468476
 30
0.0
 10
141.7077105377
 20
85.3732934095
 30
0.0
 10
141.7077105377
 20
85.3318731635
 30
0.0
  0
SPLINE
  5
4AF
100
AcDbEntity
  8
0
100
AcDbSpline
 62
7
  6
CONTINUOUS
 70
0
 71
3
 72
9
 73
5
 74
0
 42
0.0000001
 43
0.0000001
 44
0.0000000001
 40
0.0
 40
0.0
 40
0.0
 40
0.0
 40
0.2546175689
 40
1.0
 40
1.0
 40
1.0
 40
1.0
 10
141.7234721009
 20
94.2869050021
 30
0.0
 10
141.7208996815
 20
94.3008180644
 30
0.0
 10
141.7119667427
 20
94.3556652409
 30
0.0
 10
141.7077105377
 20
94.411318679
 30
0.0
 10
141.7077105377
 20
94.452738925
 30
0.0
  0
SPLINE
  5
4B0
100
AcDbEntity
  8
0
100
AcDbSpline
 62
7
  6
CONTINUOUS
 70
0
 71
3
 72
9
 73
5
 74
0
 42
0.0000001
 43
0.0000001
 44
0.0000000001
 40
0.0
 40
0.0
 40
0.0
 40
0.0
 40
0.2284227121
 40
1.0
 40
1.0
 40
1.0
 40
1.0
 10
141.7234721009
 20
95.977243476
 30
0.0
 10
141.7208064192
 20
95.9670487807
 30
0.0
 10
141.7109644589
 20
95.9219409595
 30
0.0
 10
141.7077105377
 20
95.8755626078
 30
0.0
 10
141.7077105377
 20
95.8399687285
 30
0.0
  0
SPLINE
  5
4B1
100
AcDbEntity
  8
0
100
AcDbSpline
 62
7
  6
CONTINUOUS
 70
0
 71
3
 72
9
 73
5
 74
0
 42
0.0000001
 43
0.0000001
 44
0.0000000001
 40
0.0
 40
0.0
 40
0.0
 40
0.0
 40
0.5622525641
 40
1.0
 40
1.0
 40
1.0
 40
1.0
 10
141.7234721009
 20
102.1921449233
 30
0.0
 10
141.7187927695
 20
102.2100406675
 30
0.0
 10
141.7115214273
 20
102.2421427336
 30
0.0
 10
141.7077105377
 20
102.2749934205
 30
0.0
 10
141.7077105377
 20
102.2893947587
 30
0.0
  0
SPLINE
  5
4B2
100
AcDbEntity
  8
0
100
AcDbSpline
 62
7
  6
CONTINUOUS
 70
0
 71
3
 72
11
 73
7
 74
0
 42
0.0000001
 43
0.0000001
 44
0.0000000001
 40
0.0
 40
0.0
 40
0.0
 40
0.0
 40
0.1952500898
 40
0.3963619538
 40
0.6558338718
 40
1.0
 40
1.0
 40
1.0
 40
1.0
 10
141.7234721009
 20
102.8923060442
 30
0.0
 10
141.7211249627
 20
102.8923060442
 30
0.0
 10
141.7161612012
 20
102.8911865921
 30
0.0
 10
141.7108070751
 20
102.8848611212
 30
0.0
 10
141.708146081
 20
102.8754166845
 30
0.0
 10
141.7077105377
 20
102.8681414435
 30
0.0
 10
141.7077105377
 20
102.8640041575
 30
0.0
  0
SPLINE
  5
4B3
100
AcDbEntity
  8
GEOM
100
AcDbSpline
 62
7
  6
CONTINUOUS
 70
0
 71
3
 72
9
 73
5
 74
0
 42
0.0000001
 43
0.0000001
 44
0.0000000001
 40
0.0
 40
0.0
 40
0.0
 40
0.0
 40
0.2437389093
 40
1.0
 40
1.0
 40
1.0
 40
1.0
 10
136.6494635522
 20
94.5182081535
 30
0.0
 10
136.6494635826
 20
94.4967562663
 30
0.0
 10
136.6508515534
 20
94.4087480053
 30
0.0
 10
136.6574294327
 20
94.3208380211
 30
0.0
 10
136.6650304587
 20
94.254713598
 30
0.0
  0
SPLINE
  5
4B4
100
AcDbEntity
  8
0
100
AcDbSpline
 62
7
  6
CONTINUOUS
 70
0
 71
3
 72
43
 73
39
 74
0
 42
0.0000001
 43
0.0000001
 44
0.0000000001
 40
0.0
 40
0.0
 40
0.0
 40
0.0
 40
0.0008829128
 40
0.0016820175
 40
0.0027515284
 40
0.004098992
 40
0.0057278078
 40
0.0098343142
 40
0.0150705738
 40
0.021427927
 40
0.0288955045
 40
0.0374572368
 40
0.0577810675
 40
0.0822173428
 40
0.1105398905
 40
0.1424871763
 40
0.1777647436
 40
0.2160430153
 40
0.2569673683
 40
0.3001560877
 40
0.3917033276
 40
0.4872912926
 40
0.5833709892
 40
0.6763722438
 40
0.7628463123
 40
0.8026207774
 40
0.8395849976
 40
0.873395736
 40
0.9037403934
 40
0.9303367838
 40
0.9529412933
 40
0.9713457483
 40
0.9789197062
 40
0.9853847518
 40
0.9907296985
 40
0.9949454355
 40
0.9980295569
 40
1.0
 40
1.0
 40
1.0
 40
1.0
 10
144.7901116956
 20
79.4123060442
 30
0.0
 10
144.783937057
 20
79.4123060442
 30
0.0
 10
144.77546503
 20
79.4244393925
 30
0.0
 10
144.7683812909
 20
79.441171308
 30
0.0
 10
144.7614102034
 20
79.4629984107
 30
0.0
 10
144.7546468761
 20
79.4903316161
 30
0.0
 10
144.7446667623
 20
79.5389289273
 30
0.0
 10
144.732751142
 20
79.6147150742
 30
0.0
 10
144.7191047869
 20
79.7236876104
 30
0.0
 10
144.7053989373
 20
79.8562875047
 30
0.0
 10
144.6916221387
 20
80.0122467321
 30
0.0
 10
144.6720746568
 20
80.2657325427
 30
0.0
 10
144.648260346
 20
80.6378906827
 30
0.0
 10
144.6208632262
 20
81.1482626555
 30
0.0
 10
144.5933626234
 20
81.7400191439
 30
0.0
 10
144.5657792982
 20
82.4076609702
 30
0.0
 10
144.5381484803
 20
83.1449794898
 30
0.0
 10
144.5104798901
 20
83.9451177243
 30
0.0
 10
144.4827869449
 20
84.8006123481
 30
0.0
 10
144.4451059377
 20
86.0285127482
 30
0.0
 10
144.3987441404
 20
87.6386137255
 30
0.0
 10
144.3440380131
 20
89.6185175763
 30
0.0
 10
144.2893291174
 20
91.6085940022
 30
0.0
 10
144.2346760112
 20
93.5349094337
 30
0.0
 10
144.1880717991
 20
95.0675239775
 30
0.0
 10
144.1500977624
 20
96.2083191971
 30
0.0
 10
144.1224433357
 20
96.9809513255
 30
0.0
 10
144.0948327156
 20
97.6875925714
 30
0.0
 10
144.0672811983
 20
98.3216678499
 30
0.0
 10
144.0398298984
 20
98.8772967841
 30
0.0
 10
144.0124995614
 20
99.3493072167
 30
0.0
 10
143.9886823485
 20
99.6882574684
 30
0.0
 10
143.9690102409
 20
99.9142968182
 30
0.0
 10
143.9552938623
 20
100.0491798441
 30
0.0
 10
143.9416369977
 20
100.1604014802
 30
0.0
 10
143.9282350007
 20
100.2479094084
 30
0.0
 10
143.9149077594
 20
100.311233069
 30
0.0
 10
143.9046030332
 20
100.3454075034
 30
0.0
 10
143.8982381037
 20
100.3576297552
 30
0.0
  0
SPLINE
  5
4B5
100
AcDbEntity
  8
0
100
AcDbSpline
 62
7
  6
CONTINUOUS
 70
0
 71
3
 72
11
 73
7
 74
0
 42
0.0000001
 43
0.0000001
 44
0.0000000001
 40
0.0
 40
0.0
 40
0.0
 40
0.0
 40
0.2510768456
 40
0.5000000057
 40
0.748923164
 40
1.0
 40
1.0
 40
1.0
 40
1.0
 10
141.7234721009
 20
83.8073686125
 30
0.0
 10
141.8565103923
 20
83.298573871
 30
0.0
 10
142.0668296789
 20
82.2696252938
 30
0.0
 10
142.1775108749
 20
80.6999178565
 30
0.0
 10
142.0668296861
 20
79.1302104374
 30
0.0
 10
141.8565103872
 20
78.1012618873
 30
0.0
 10
141.7234721009
 20
77.5924671652
 30
0.0
  0
SPLINE
  5
4B6
100
AcDbEntity
  8
0
100
AcDbSpline
 62
7
  6
CONTINUOUS
 70
0
 71
3
 72
43
 73
39
 74
0
 42
0.0000001
 43
0.0000001
 44
0.0000000001
 40
0.0
 40
0.0
 40
0.0
 40
0.0
 40
0.0008829347
 40
0.001682072
 40
0.0027516266
 40
0.0040991425
 40
0.0057280173
 40
0.0098347227
 40
0.0150713333
 40
0.0214290235
 40
0.0288968341
 40
0.0374589916
 40
0.0577835303
 40
0.0822205702
 40
0.11054327
 40
0.1424905507
 40
0.1777678558
 40
0.216045916
 40
0.2569701823
 40
0.3001587676
 40
0.391706407
 40
0.4872945953
 40
0.583373627
 40
0.6763739764
 40
0.7628485222
 40
0.8026234052
 40
0.839588008
 40
0.873399216
 40
0.9037438985
 40
0.9303397806
 40
0.9529436306
 40
0.9713471412
 40
0.9789208373
 40
0.9853855351
 40
0.9907301026
 40
0.9949456072
 40
0.9980296193
 40
1.0
 40
1.0
 40
1.0
 40
1.0
 10
146.6043983625
 20
79.4123060442
 30
0.0
 10
146.5982235705
 20
79.4123060442
 30
0.0
 10
146.5897515986
 20
79.4244401954
 30
0.0
 10
146.5826677938
 20
79.4411726834
 30
0.0
 10
146.5756965834
 20
79.4630007436
 30
0.0
 10
146.5689330806
 20
79.4903350016
 30
0.0
 10
146.5589525247
 20
79.5389344474
 30
0.0
 10
146.5470363136
 20
79.6147248124
 30
0.0
 10
146.5333896985
 20
79.723703574
 30
0.0
 10
146.5196834547
 20
79.8563099012
 30
0.0
 10
146.5059060492
 20
80.0122760663
 30
0.0
 10
146.4863587208
 20
80.2657714758
 30
0.0
 10
146.462543675
 20
80.6379428688
 30
0.0
 10
146.4351467825
 20
81.1483262415
 30
0.0
 10
146.4076458853
 20
81.7400891036
 30
0.0
 10
146.3800631733
 20
82.4077301582
 30
0.0
 10
146.3524325442
 20
83.1450453429
 30
0.0
 10
146.3247642171
 20
83.9451796762
 30
0.0
 10
146.2970715203
 20
84.8006712943
 30
0.0
 10
146.2593904724
 20
86.0285729593
 30
0.0
 10
146.2130286804
 20
87.638677376
 30
0.0
 10
146.1583225165
 20
89.6185809561
 30
0.0
 10
146.1036137961
 20
91.6086479896
 30
0.0
 10
146.0489607859
 20
93.5349558034
 30
0.0
 10
146.0023563545
 20
95.0675702908
 30
0.0
 10
145.9643819284
 20
96.2083744533
 30
0.0
 10
145.9367268462
 20
96.9810154561
 30
0.0
 10
145.9091158011
 20
97.6876628337
 30
0.0
 10
145.8815638734
 20
98.321738009
 30
0.0
 10
145.854112267
 20
98.8773589306
 30
0.0
 10
145.8267827617
 20
99.349354627
 30
0.0
 10
145.802965123
 20
99.6882917711
 30
0.0
 10
145.7832938084
 20
99.9143202819
 30
0.0
 10
145.7695779021
 20
100.0491964084
 30
0.0
 10
145.7559213412
 20
100.1604113247
 30
0.0
 10
145.7425198974
 20
100.2479142297
 30
0.0
 10
145.7291932266
 20
100.3112351246
 30
0.0
 10
145.7188886315
 20
100.3454083543
 30
0.0
 10
145.7125237748
 20
100.3576301519
 30
0.0
  0
SPLINE
  5
4B7
100
AcDbEntity
  8
0
100
AcDbSpline
 62
7
  6
CONTINUOUS
 70
0
 71
3
 72
43
 73
39
 74
0
 42
0.0000001
 43
0.0000001
 44
0.0000000001
 40
0.0
 40
0.0
 40
0.0
 40
0.0
 40
0.0008829332
 40
0.0016820694
 40
0.0027516228
 40
0.0040991375
 40
0.0057280112
 40
0.0098347138
 40
0.0150713188
 40
0.0214290023
 40
0.0288968057
 40
0.0374589507
 40
0.0577834716
 40
0.0822204909
 40
0.110543119
 40
0.1424902397
 40
0.1777673026
 40
0.2160451196
 40
0.2569691564
 40
0.3001576007
 40
0.3917051063
 40
0.4872934648
 40
0.5833729405
 40
0.6763736677
 40
0.7628481674
 40
0.8026230574
 40
0.8395876734
 40
0.8733988796
 40
0.9037435892
 40
0.9303395151
 40
0.9529434217
 40
0.9713470258
 40
0.9789207544
 40
0.9853854846
 40
0.9907300848
 40
0.9949456135
 40
0.998029629
 40
1.0
 40
1.0
 40
1.0
 40
1.0
 10
145.3010961345
 20
100.3723060442
 30
0.0
 10
145.3072709161
 20
100.3723060442
 30
0.0
 10
145.3157428736
 20
100.3601719095
 30
0.0
 10
145.3228266631
 20
100.3434394428
 30
0.0
 10
145.3297978592
 20
100.3216114041
 30
0.0
 10
145.3365613471
 20
100.2942771672
 30
0.0
 10
145.3465418789
 20
100.2456777524
 30
0.0
 10
145.3584580586
 20
100.1698874494
 30
0.0
 10
145.3721046476
 20
100.0609087911
 30
0.0
 10
145.3858108622
 20
99.9283025978
 30
0.0
 10
145.3995882333
 20
99.772336614
 30
0.0
 10
145.4191355316
 20
99.5188414643
 30
0.0
 10
145.4429505165
 20
99.1466704227
 30
0.0
 10
145.4703473427
 20
98.6362878154
 30
0.0
 10
145.4978481357
 20
98.0445267117
 30
0.0
 10
145.5254306928
 20
97.3768889649
 30
0.0
 10
145.5530611552
 20
96.6395782882
 30
0.0
 10
145.5807292817
 20
95.8394489479
 30
0.0
 10
145.60842187
 20
94.9839616171
 30
0.0
 10
145.6461027746
 20
93.7560634719
 30
0.0
 10
145.6924645485
 20
92.14595978
 30
0.0
 10
145.7471707487
 20
90.1660528315
 30
0.0
 10
145.8018795941
 20
88.1759788526
 30
0.0
 10
145.8565326831
 20
86.2496656063
 30
0.0
 10
145.9031371224
 20
84.7170487436
 30
0.0
 10
145.9411114974
 20
83.5762447562
 30
0.0
 10
145.9687665244
 20
82.8036036202
 30
0.0
 10
145.9963775474
 20
82.0969559696
 30
0.0
 10
146.0239294326
 20
81.4628803064
 30
0.0
 10
146.0513810097
 20
80.9072584877
 30
0.0
 10
146.0787105715
 20
80.4352614349
 30
0.0
 10
146.1025281727
 20
80.0963230063
 30
0.0
 10
146.1221995682
 20
79.8702933893
 30
0.0
 10
146.135915546
 20
79.7354165833
 30
0.0
 10
146.1495721681
 20
79.624201047
 30
0.0
 10
146.1629736156
 20
79.5366977144
 30
0.0
 10
146.1763002636
 20
79.4733766912
 30
0.0
 10
146.1866048564
 20
79.4392034981
 30
0.0
 10
146.1929697145
 20
79.426981778
 30
0.0
  0
SPLINE
  5
4B8
100
AcDbEntity
  8
0
100
AcDbSpline
 62
7
  6
CONTINUOUS
 70
0
 71
3
 72
43
 73
39
 74
0
 42
0.0000001
 43
0.0000001
 44
0.0000000001
 40
0.0
 40
0.0
 40
0.0
 40
0.0
 40
0.0008829099
 40
0.0016820124
 40
0.0027515231
 40
0.0040989904
 40
0.0057278156
 40
0.0098343663
 40
0.0150706961
 40
0.0214281182
 40
0.0288957523
 40
0.0374575788
 40
0.0577815523
 40
0.0822179721
 40
0.1105405833
 40
0.1424879331
 40
0.1777654893
 40
0.2160437246
 40
0.2569680143
 40
0.3001565177
 40
0.3917039137
 40
0.4872924759
 40
0.5833724464
 40
0.6763736464
 40
0.7628473338
 40
0.8026214852
 40
0.8395853255
 40
0.873395844
 40
0.9037404409
 40
0.9303368127
 40
0.9529413128
 40
0.9713457558
 40
0.9789197114
 40
0.9853847542
 40
0.9907296981
 40
0.9949454345
 40
0.9980295563
 40
1.0
 40
1.0
 40
1.0
 40
1.0
 10
148.4186850018
 20
79.4123060442
 30
0.0
 10
148.4125103835
 20
79.4123060442
 30
0.0
 10
148.404038335
 20
79.424439297
 30
0.0
 10
148.3969546028
 20
79.4411711918
 30
0.0
 10
148.389983509
 20
79.4629982984
 30
0.0
 10
148.3832201714
 20
79.4903315958
 30
0.0
 10
148.3732400003
 20
79.5389293049
 30
0.0
 10
148.3613243046
 20
79.6147163176
 30
0.0
 10
148.3476778521
 20
79.7236901338
 30
0.0
 10
148.3339718807
 20
79.856291391
 30
0.0
 10
148.3201949383
 20
80.0122521484
 30
0.0
 10
148.3006474738
 20
80.2657400199
 30
0.0
 10
148.2768330108
 20
80.6379008238
 30
0.0
 10
148.2494359208
 20
81.1482752568
 30
0.0
 10
148.2219352379
 20
81.7400336467
 30
0.0
 10
148.1943519888
 20
82.4076762915
 30
0.0
 10
148.1667211809
 20
83.1449949281
 30
0.0
 10
148.1390526419
 20
83.9451323907
 30
0.0
 10
148.1113598007
 20
84.8006248106
 30
0.0
 10
148.0736787925
 20
86.0285243499
 30
0.0
 10
148.0273169086
 20
87.6386290858
 30
0.0
 10
147.9726105426
 20
89.6185401193
 30
0.0
 10
147.917901443
 20
91.6086222548
 30
0.0
 10
147.8632482892
 20
93.5349365562
 30
0.0
 10
147.8166441064
 20
95.0675458602
 30
0.0
 10
147.7786702516
 20
96.2083335671
 30
0.0
 10
147.7510159798
 20
96.9809593091
 30
0.0
 10
147.7234054854
 20
97.687595939
 30
0.0
 10
147.6958540192
 20
98.3216691284
 30
0.0
 10
147.6684027073
 20
98.877297443
 30
0.0
 10
147.6410723547
 20
99.3493075959
 30
0.0
 10
147.6172551085
 20
99.6882576794
 30
0.0
 10
147.597582986
 20
99.9142969079
 30
0.0
 10
147.5838665934
 20
100.0491798766
 30
0.0
 10
147.5702097121
 20
100.1604014669
 30
0.0
 10
147.5568077043
 20
100.2479093725
 30
0.0
 10
147.5434804536
 20
100.3112330344
 30
0.0
 10
147.5331757133
 20
100.345407472
 30
0.0
 10
147.5268107782
 20
100.3576297256
 30
0.0
  0
SPLINE
  5
4B9
100
AcDbEntity
  8
0
100
AcDbSpline
 62
7
  6
CONTINUOUS
 70
0
 71
3
 72
43
 73
39
 74
0
 42
0.0000001
 43
0.0000001
 44
0.0000000001
 40
0.0
 40
0.0
 40
0.0
 40
0.0
 40
0.0008829183
 40
0.0016820287
 40
0.0027515444
 40
0.0040990099
 40
0.0057278227
 40
0.0098343068
 40
0.0150705345
 40
0.021427855
 40
0.0288954013
 40
0.0374570857
 40
0.0577808453
 40
0.0822170538
 40
0.1105395784
 40
0.1424868411
 40
0.1777644061
 40
0.216042671
 40
0.2569670104
 40
0.3001557699
 40
0.3917027834
 40
0.4872902507
 40
0.5833696859
 40
0.6763709906
 40
0.7628453691
 40
0.8026200597
 40
0.8395845525
 40
0.8733954885
 40
0.903740271
 40
0.9303367047
 40
0.952941228
 40
0.9713457104
 40
0.9789196773
 40
0.9853847312
 40
0.9907296855
 40
0.9949454272
 40
0.9980295526
 40
1.0
 40
1.0
 40
1.0
 40
1.0
 10
147.1153818054
 20
100.3723060442
 30
0.0
 10
147.1215564822
 20
100.3723060442
 30
0.0
 10
147.1300284867
 20
100.3601725179
 30
0.0
 10
147.137112244
 20
100.3434405194
 30
0.0
 10
147.1440833424
 20
100.3216133191
 30
0.0
 10
147.1508466823
 20
100.2942800931
 30
0.0
 10
147.1608267934
 20
100.2456829475
 30
0.0
 10
147.1727424091
 20
100.1698972059
 30
0.0
 10
147.1863887046
 20
100.0609252742
 30
0.0
 10
147.2000944862
 20
99.9283260477
 30
0.0
 10
147.2138712169
 20
99.7723675995
 30
0.0
 10
147.23341871
 20
99.5188828445
 30
0.0
 10
147.2572329696
 20
99.1467260032
 30
0.0
 10
147.284630127
 20
98.6363551614
 30
0.0
 10
147.3121307221
 20
98.0445994648
 30
0.0
 10
147.3397141106
 20
97.3769579825
 30
0.0
 10
147.3673449578
 20
96.6396396908
 30
0.0
 10
147.3950135843
 20
95.8395016176
 30
0.0
 10
147.4227065847
 20
94.9840068603
 30
0.0
 10
147.4603875863
 20
93.756107862
 30
0.0
 10
147.5067493255
 20
92.1460116734
 30
0.0
 10
147.5614553298
 20
90.1661147182
 30
0.0
 10
147.6161641492
 20
88.1760432552
 30
0.0
 10
147.6708173152
 20
86.2497271392
 30
0.0
 10
147.7174216388
 20
84.7171085049
 30
0.0
 10
147.7553958892
 20
83.5763076407
 30
0.0
 10
147.7830504704
 20
82.8036706515
 30
0.0
 10
147.8106612844
 20
82.0970252485
 30
0.0
 10
147.8382129223
 20
81.4629474148
 30
0.0
 10
147.8656643025
 20
80.9073172094
 30
0.0
 10
147.8929947204
 20
80.4353061908
 30
0.0
 10
147.9168119667
 20
80.0963555904
 30
0.0
 10
147.9364841215
 20
79.8703159316
 30
0.0
 10
147.9502005302
 20
79.7354327347
 30
0.0
 10
147.9638574211
 20
79.6242109566
 30
0.0
 10
147.9772594531
 20
79.5367029184
 30
0.0
 10
147.9905867287
 20
79.4733791708
 30
0.0
 10
148.0008914759
 20
79.4392046836
 30
0.0
 10
148.0072564141
 20
79.4269824031
 30
0.0
  0
SPLINE
  5
4BA
100
AcDbEntity
  8
0
100
AcDbSpline
 62
7
  6
CONTINUOUS
 70
0
 71
3
 72
9
 73
5
 74
0
 42
0.0000001
 43
0.0000001
 44
0.0000000001
 40
0.0
 40
0.0
 40
0.0
 40
0.0
 40
0.2043406032
 40
1.0
 40
1.0
 40
1.0
 40
1.0
 10
146.323501881
 20
99.1858102144
 30
0.0
 10
146.3247133166
 20
99.1834863831
 30
0.0
 10
146.3301500427
 20
99.1718583199
 30
0.0
 10
146.3341254882
 20
99.1596092317
 30
0.0
 10
146.3369911109
 20
99.1498156337
 30
0.0
  0
SPLINE
  5
4BB
100
AcDbEntity
  8
0
100
AcDbSpline
 62
7
  6
CONTINUOUS
 70
0
 71
3
 72
39
 73
35
 74
0
 42
0.0000001
 43
0.0000001
 44
0.0000000001
 40
0.0
 40
0.0
 40
0.0
 40
0.0
 40
0.0031612621
 40
0.0074132137
 40
0.0191765183
 40
0.0352194258
 40
0.0554072019
 40
0.0795667477
 40
0.1074811359
 40
0.1389037299
 40
0.1735521901
 40
0.2512596131
 40
0.3378213776
 40
0.4301359983
 40
0.5248947439
 40
0.6187006845
 40
0.708191118
 40
0.7503068569
 40
0.7901590206
 40
0.827391618
 40
0.8616686159
 40
0.8926850978
 40
0.9201621396
 40
0.9438553708
 40
0.9635560135
 40
0.9790908014
 40
0.9852560106
 40
0.9903366744
 40
0.994325864
 40
0.9959123755
 40
0.997228967
 40
0.9982797187
 40
0.99907366
 40
1.0
 40
1.0
 40
1.0
 40
1.0
 10
146.3369911109
 20
99.1498156337
 30
0.0
 10
146.3424963862
 20
99.1310007164
 30
0.0
 10
146.3526125957
 20
99.0860876721
 30
0.0
 10
146.3725470055
 20
98.9688439986
 30
0.0
 10
146.3957063229
 20
98.7712889509
 30
0.0
 10
146.4222367743
 20
98.4748599043
 30
0.0
 10
146.4489436954
 20
98.1012935198
 30
0.0
 10
146.475889619
 20
97.6539891313
 30
0.0
 10
146.5029292976
 20
97.1369066926
 30
0.0
 10
146.5300461205
 20
96.5547079792
 30
0.0
 10
146.5677163707
 20
95.6638943387
 30
0.0
 10
146.613763241
 20
94.4312082087
 30
0.0
 10
146.6673979501
 20
92.8409685223
 30
0.0
 10
146.7211493002
 20
91.1449370908
 30
0.0
 10
146.7749539927
 20
89.4039630295
 30
0.0
 10
146.8287430137
 20
87.6805103595
 30
0.0
 10
146.8743582998
 20
86.2834145969
 30
0.0
 10
146.9114223472
 20
85.2208027295
 30
0.0
 10
146.9386406412
 20
84.4821102322
 30
0.0
 10
146.9658308405
 20
83.7920616079
 30
0.0
 10
146.9929896719
 20
83.1568497359
 30
0.0
 10
147.0200946383
 20
82.5821918608
 30
0.0
 10
147.0471312269
 20
82.0732449747
 30
0.0
 10
147.0740364426
 20
81.6345711352
 30
0.0
 10
147.1007860953
 20
81.2701136647
 30
0.0
 10
147.124186915
 20
81.0144102723
 30
0.0
 10
147.143682415
 20
80.8494762356
 30
0.0
 10
147.1570974633
 20
80.7559375066
 30
0.0
 10
147.1688168674
 20
80.6908952276
 30
0.0
 10
147.1786137548
 20
80.6492359678
 30
0.0
 10
147.1852704788
 20
80.6257257101
 30
0.0
 10
147.1921216948
 20
80.6070475264
 30
0.0
 10
147.1992444748
 20
80.5922169009
 30
0.0
 10
147.2077174068
 20
80.5823080335
 30
0.0
 10
147.2134618776
 20
80.5823145578
 30
0.0
  0
SPLINE
  5
4BC
100
AcDbEntity
  8
GEOM
100
AcDbSpline
 62
7
  6
CONTINUOUS
 70
0
 71
3
 72
11
 73
7
 74
0
 42
0.0000001
 43
0.0000001
 44
0.0000000001
 40
0.0
 40
0.0
 40
0.0
 40
0.0
 40
0.2504220781
 40
0.5000047767
 40
0.7495838932
 40
1.0
 40
1.0
 40
1.0
 40
1.0
 10
136.946938245
 20
83.8073686125
 30
0.0
 10
137.02999525
 20
83.2930492092
 30
0.0
 10
137.1595551778
 20
82.2597396726
 30
0.0
 10
137.2267067787
 20
80.6998960465
 30
0.0
 10
137.1595596216
 20
79.1400642645
 30
0.0
 10
137.0299940835
 20
78.1067754648
 30
0.0
 10
136.9469384222
 20
77.5924684282
 30
0.0
  0
SPLINE
  5
4BD
100
AcDbEntity
  8
0
100
AcDbSpline
 62
7
  6
CONTINUOUS
 70
0
 71
3
 72
42
 73
38
 74
0
 42
0.0000001
 43
0.0000001
 44
0.0000000001
 40
0.0
 40
0.0
 40
0.0
 40
0.0
 40
0.0021423533
 40
0.005388599
 40
0.0097550929
 40
0.0152429222
 40
0.0218441385
 40
0.0295444759
 40
0.0481780701
 40
0.0709789155
 40
0.0977416151
 40
0.1282181129
 40
0.1621301231
 40
0.1991627259
 40
0.2389743112
 40
0.3254388471
 40
0.4183300936
 40
0.5142153939
 40
0.6095513089
 40
0.7008149158
 40
0.7438562197
 40
0.7846343165
 40
0.8227703838
 40
0.8579138099
 40
0.8897379759
 40
0.9179506759
 40
0.9422925622
 40
0.9625399635
 40
0.9785138007
 40
0.9848523671
 40
0.9900765154
 40
0.994179729
 40
0.9958107611
 40
0.9971632159
 40
0.9982415954
 40
0.9990553864
 40
1.0
 40
1.0
 40
1.0
 40
1.0
 10
144.5092161573
 20
99.1858255457
 30
0.0
 10
144.5153727711
 20
99.1740219373
 30
0.0
 10
144.5257113295
 20
99.1418767834
 30
0.0
 10
144.5390256272
 20
99.0828175809
 30
0.0
 10
144.5524647418
 20
99.0024498175
 30
0.0
 10
144.5661011779
 20
98.9011168465
 30
0.0
 10
144.5797997304
 20
98.7788951521
 30
0.0
 10
144.5994122037
 20
98.5751729573
 30
0.0
 10
144.6231764497
 20
98.2707496995
 30
0.0
 10
144.6504637926
 20
97.8478423242
 30
0.0
 10
144.6778627119
 20
97.3512166888
 30
0.0
 10
144.7053644747
 20
96.7854619932
 30
0.0
 10
144.7329182407
 20
96.1558244341
 30
0.0
 10
144.7605167989
 20
95.4681297791
 30
0.0
 10
144.7983986176
 20
94.4540236959
 30
0.0
 10
144.8448976627
 20
93.0928928341
 30
0.0
 10
144.8994405765
 20
91.3833941316
 30
0.0
 10
144.9540373918
 20
89.618742747
 30
0.0
 10
145.0086303086
 20
87.8642105432
 30
0.0
 10
145.0548995477
 20
86.437954685
 30
0.0
 10
145.0925047249
 20
85.3506256369
 30
0.0
 10
145.1201380504
 20
84.5932888002
 30
0.0
 10
145.1477473203
 20
83.8850635496
 30
0.0
 10
145.1753199336
 20
83.2325225598
 30
0.0
 10
145.2028419016
 20
82.6417032167
 30
0.0
 10
145.2302934901
 20
82.1180834833
 30
0.0
 10
145.2576076799
 20
81.6665025998
 30
0.0
 10
145.284774179
 20
81.2911349676
 30
0.0
 10
145.3085242902
 20
81.0276976085
 30
0.0
 10
145.3283220036
 20
80.8577243939
 30
0.0
 10
145.3419468924
 20
80.7613132433
 30
0.0
 10
145.3538403568
 20
80.6942586574
 30
0.0
 10
145.3637880223
 20
80.6513003668
 30
0.0
 10
145.3705466794
 20
80.6270750338
 30
0.0
 10
145.3775028911
 20
80.6078241163
 30
0.0
 10
145.3847227861
 20
80.5925929803
 30
0.0
 10
145.3933052348
 20
80.5823192874
 30
0.0
 10
145.3991751295
 20
80.5823126608
 30
0.0
  0
SPLINE
  5
4BE
100
AcDbEntity
  8
0
100
AcDbSpline
 62
7
  6
CONTINUOUS
 70
0
 71
3
 72
11
 73
7
 74
0
 42
0.0000001
 43
0.0000001
 44
0.0000000001
 40
0.0
 40
0.0
 40
0.0
 40
0.0
 40
0.2500071277
 40
0.5000000058
 40
0.7499928821
 40
1.0
 40
1.0
 40
1.0
 40
1.0
 10
141.7234721009
 20
94.2869050021
 30
0.0
 10
141.8573810021
 20
93.5626518403
 30
0.0
 10
142.0676092437
 20
92.1025467588
 30
0.0
 10
142.1772791941
 20
89.8923059984
 30
0.0
 10
142.067609251
 20
87.6820652651
 30
0.0
 10
141.8573809969
 20
86.2219602201
 30
0.0
 10
141.7234721009
 20
85.4977070864
 30
0.0
  0
SPLINE
  5
4BF
100
AcDbEntity
  8
GEOM
100
AcDbSpline
 62
7
  6
CONTINUOUS
 70
0
 71
3
 72
11
 73
7
 74
0
 42
0.0000001
 43
0.0000001
 44
0.0000000001
 40
0.0
 40
0.0
 40
0.0
 40
0.0
 40
0.249999047
 40
0.4999950312
 40
0.7499950182
 40
1.0
 40
1.0
 40
1.0
 40
1.0
 10
136.946938245
 20
94.2869050021
 30
0.0
 10
137.0302118251
 20
93.5576581622
 30
0.0
 10
137.1597404052
 20
92.0945712103
 30
0.0
 10
137.2266515987
 20
89.8923381093
 30
0.0
 10
137.1597445994
 20
87.6900873359
 30
0.0
 10
137.0302132809
 20
86.2269712975
 30
0.0
 10
136.946938245
 20
85.4977070864
 30
0.0
  0
SPLINE
  5
4C0
100
AcDbEntity
  8
0
100
AcDbSpline
 62
7
  6
CONTINUOUS
 70
0
 71
3
 72
11
 73
7
 74
0
 42
0.0000001
 43
0.0000001
 44
0.0000000001
 40
0.0
 40
0.0
 40
0.0
 40
0.0
 40
0.2510768456
 40
0.5000000057
 40
0.748923164
 40
1.0
 40
1.0
 40
1.0
 40
1.0
 10
141.7234721009
 20
102.1921449233
 30
0.0
 10
141.8565103923
 20
101.6833501818
 30
0.0
 10
142.0668296789
 20
100.6544016046
 30
0.0
 10
142.1775108749
 20
99.0846941674
 30
0.0
 10
142.0668296861
 20
97.5149867482
 30
0.0
 10
141.8565103872
 20
96.4860381982
 30
0.0
 10
141.7234721009
 20
95.977243476
 30
0.0
  0
SPLINE
  5
4C1
100
AcDbEntity
  8
GEOM
100
AcDbSpline
 62
7
  6
CONTINUOUS
 70
0
 71
3
 72
11
 73
7
 74
0
 42
0.0000001
 43
0.0000001
 44
0.0000000001
 40
0.0
 40
0.0
 40
0.0
 40
0.0
 40
0.3454475308
 40
0.6055072456
 40
0.806203011
 40
1.0
 40
1.0
 40
1.0
 40
1.0
 10
136.9313713384
 20
76.920607931
 30
0.0
 10
136.9313713678
 20
76.9164706792
 30
0.0
 10
136.9318005608
 20
76.9091995334
 30
0.0
 10
136.9344216736
 20
76.8997704272
 30
0.0
 10
136.9396934053
 20
76.8934360561
 30
0.0
 10
136.9446172356
 20
76.8923060479
 30
0.0
 10
136.946938245
 20
76.8923060442
 30
0.0
  0
SPLINE
  5
4C2
100
AcDbEntity
  8
GEOM
100
AcDbSpline
 62
7
  6
CONTINUOUS
 70
0
 71
3
 72
9
 73
5
 74
0
 42
0.0000001
 43
0.0000001
 44
0.0000000001
 40
0.0
 40
0.0
 40
0.0
 40
0.0
 40
0.5622338875
 40
1.0
 40
1.0
 40
1.0
 40
1.0
 10
136.9469385256
 20
77.5924684282
 30
0.0
 10
136.9423144392
 20
77.5745654804
 30
0.0
 10
136.9351297027
 20
77.542455465
 30
0.0
 10
136.9313714695
 20
77.5096143701
 30
0.0
 10
136.9313713384
 20
77.4952173298
 30
0.0
  0
SPLINE
  5
4C3
100
AcDbEntity
  8
GEOM
100
AcDbSpline
 62
7
  6
CONTINUOUS
 70
0
 71
3
 72
9
 73
5
 74
0
 42
0.0000001
 43
0.0000001
 44
0.0000000001
 40
0.0
 40
0.0
 40
0.0
 40
0.0
 40
0.2709955071
 40
1.0
 40
1.0
 40
1.0
 40
1.0
 10
136.9313713384
 20
83.94464336
 30
0.0
 10
136.931371371
 20
83.9321462482
 30
0.0
 10
136.9325485937
 20
83.8860632302
 30
0.0
 10
136.9385287708
 20
83.8399182879
 30
0.0
 10
136.946938245
 20
83.8073686125
 30
0.0
  0
SPLINE
  5
4C4
100
AcDbEntity
  8
GEOM
100
AcDbSpline
 62
7
  6
CONTINUOUS
 70
0
 71
3
 72
9
 73
5
 74
0
 42
0.0000001
 43
0.0000001
 44
0.0000000001
 40
0.0
 40
0.0
 40
0.0
 40
0.0
 40
0.2546531625
 40
1.0
 40
1.0
 40
1.0
 40
1.0
 10
136.946938245
 20
85.4977070864
 30
0.0
 10
136.9443961752
 20
85.4837882585
 30
0.0
 10
136.9355675059
 20
85.4289312496
 30
0.0
 10
136.9313715114
 20
85.3732861849
 30
0.0
 10
136.9313713384
 20
85.3318731635
 30
0.0
  0
SPLINE
  5
4C5
100
AcDbEntity
  8
GEOM
100
AcDbSpline
 62
7
  6
CONTINUOUS
 70
0
 71
3
 72
9
 73
5
 74
0
 42
0.0000001
 43
0.0000001
 44
0.0000000001
 40
0.0
 40
0.0
 40
0.0
 40
0.0
 40
0.2438165237
 40
1.0
 40
1.0
 40
1.0
 40
1.0
 10
136.9313713384
 20
94.452738925
 30
0.0
 10
136.9313713722
 20
94.439191535
 30
0.0
 10
136.9327659669
 20
94.3836324294
 30
0.0
 10
136.9393873554
 20
94.3282374201
 30
0.0
 10
136.946938245
 20
94.2869050021
 30
0.0
  0
SPLINE
  5
4C6
100
AcDbEntity
  8
GEOM
100
AcDbSpline
 62
7
  6
CONTINUOUS
 70
0
 71
3
 72
9
 73
5
 74
0
 42
0.0000001
 43
0.0000001
 44
0.0000000001
 40
0.0
 40
0.0
 40
0.0
 40
0.0
 40
0.228413924
 40
1.0
 40
1.0
 40
1.0
 40
1.0
 10
136.946938245
 20
95.977243476
 30
0.0
 10
136.9443036799
 20
95.9670432293
 30
0.0
 10
136.9345758893
 20
95.9219205593
 30
0.0
 10
136.9313714939
 20
95.8755560941
 30
0.0
 10
136.9313713384
 20
95.8399687285
 30
0.0
  0
SPLINE
  5
4C7
100
AcDbEntity
  8
GEOM
100
AcDbSpline
 62
7
  6
CONTINUOUS
 70
0
 71
3
 72
9
 73
5
 74
0
 42
0.0000001
 43
0.0000001
 44
0.0000000001
 40
0.0
 40
0.0
 40
0.0
 40
0.0
 40
0.4378359994
 40
1.0
 40
1.0
 40
1.0
 40
1.0
 10
136.9313713384
 20
102.2893947587
 30
0.0
 10
136.9313714168
 20
102.2749956107
 30
0.0
 10
136.9351307387
 20
102.2421550992
 30
0.0
 10
136.9423135865
 20
102.2100450966
 30
0.0
 10
136.946938245
 20
102.1921449233
 30
0.0
  0
SPLINE
  5
4C8
100
AcDbEntity
  8
GEOM
100
AcDbSpline
 62
7
  6
CONTINUOUS
 70
0
 71
3
 72
11
 73
7
 74
0
 42
0.0000001
 43
0.0000001
 44
0.0000000001
 40
0.0
 40
0.0
 40
0.0
 40
0.0
 40
0.1938275161
 40
0.3945529148
 40
0.6546117075
 40
1.0
 40
1.0
 40
1.0
 40
1.0
 10
136.946938245
 20
102.8923060442
 30
0.0
 10
136.9446168759
 20
102.8923059987
 30
0.0
 10
136.9396923575
 20
102.8911753607
 30
0.0
 10
136.9344207035
 20
102.8848399783
 30
0.0
 10
136.9318005525
 20
102.8754110481
 30
0.0
 10
136.9313713876
 20
102.8681406893
 30
0.0
 10
136.9313713384
 20
102.8640041575
 30
0.0
  0
SPLINE
  5
4C9
100
AcDbEntity
  8
GEOM
100
AcDbSpline
 62
7
  6
CONTINUOUS
 70
0
 71
3
 72
11
 73
7
 74
0
 42
0.0000001
 43
0.0000001
 44
0.0000000001
 40
0.0
 40
0.0
 40
0.0
 40
0.0
 40
0.2504230389
 40
0.5000061625
 40
0.7495860772
 40
1.0
 40
1.0
 40
1.0
 40
1.0
 10
136.946938245
 20
102.1921449233
 30
0.0
 10
137.02999606
 20
101.6778235
 30
0.0
 10
137.1595616637
 20
100.6445113369
 30
0.0
 10
137.2267043639
 20
99.0846623109
 30
0.0
 10
137.1595596783
 20
97.5248322622
 30
0.0
 10
137.0299933721
 20
96.4915461226
 30
0.0
 10
136.946938245
 20
95.977243476
 30
0.0
  0
SPLINE
  5
4CA
100
AcDbEntity
  8
GEOM
100
AcDbSpline
 62
7
  6
CONTINUOUS
 70
0
 71
3
 72
11
 73
7
 74
0
 42
0.0000001
 43
0.0000001
 44
0.0000000001
 40
0.0
 40
0.0
 40
0.0
 40
0.0
 40
0.2499989493
 40
0.4999949655
 40
0.7499950462
 40
1.0
 40
1.0
 40
1.0
 40
1.0
 10
136.6650304587
 20
94.254713598
 30
0.0
 10
136.7482390009
 20
93.5308487547
 30
0.0
 10
136.8777834911
 20
92.0785112431
 30
0.0
 10
136.9447683792
 20
89.892338268
 30
0.0
 10
136.8777876369
 20
87.7061475599
 30
0.0
 10
136.748240718
 20
86.253780752
 30
0.0
 10
136.6650304587
 20
85.5298984905
 30
0.0
  0
SPLINE
  5
4CB
100
AcDbEntity
  8
GEOM
100
AcDbSpline
 62
7
  6
CONTINUOUS
 70
0
 71
3
 72
9
 73
5
 74
0
 42
0.0000001
 43
0.0000001
 44
0.0000000001
 40
0.0
 40
0.0
 40
0.0
 40
0.0
 40
0.2545711647
 40
1.0
 40
1.0
 40
1.0
 40
1.0
 10
136.6650304587
 20
85.5298984905
 30
0.0
 10
136.6624718964
 20
85.5076400316
 30
0.0
 10
136.6536189976
 20
85.4200745006
 30
0.0
 10
136.6494637738
 20
85.3320097674
 30
0.0
 10
136.6494635522
 20
85.266403935
 30
0.0
  0
SPLINE
  5
4CC
100
AcDbEntity
  8
GEOM
100
AcDbSpline
 62
7
  6
CONTINUOUS
 70
0
 71
3
 72
9
 73
5
 74
0
 42
0.0000001
 43
0.0000001
 44
0.0000000001
 40
0.0
 40
0.0
 40
0.0
 40
0.0
 40
0.5008918466
 40
1.0
 40
1.0
 40
1.0
 40
1.0
 10
136.6650304584
 20
103.0948806186
 30
0.0
 10
136.6846855059
 20
103.0372656195
 30
0.0
 10
136.7616320365
 20
102.9317367536
 30
0.0
 10
136.8862796673
 20
102.8923060443
 30
0.0
 10
136.9469382445
 20
102.8923060442
 30
0.0
  0
SPLINE
  5
4CD
100
AcDbEntity
  8
GEOM
100
AcDbSpline
 62
7
  6
CONTINUOUS
 70
0
 71
3
 72
11
 73
7
 74
0
 42
0.0000001
 43
0.0000001
 44
0.0000000001
 40
0.0
 40
0.0
 40
0.0
 40
0.0
 40
0.2440457391
 40
0.4926227794
 40
0.7452631625
 40
1.0
 40
1.0
 40
1.0
 40
1.0
 10
136.6494635522
 20
103.0502248716
 30
0.0
 10
136.6599344732
 20
103.0230846649
 30
0.0
 10
136.6901948351
 20
102.9714339325
 30
0.0
 10
136.7572067471
 20
102.9111073535
 30
0.0
 10
136.8401866925
 20
102.8728376273
 30
0.0
 10
136.9010069183
 20
102.8640041575
 30
0.0
 10
136.9313713384
 20
102.8640041575
 30
0.0
  0
SPLINE
  5
4CE
100
AcDbEntity
  8
GEOM
100
AcDbSpline
 62
7
  6
CONTINUOUS
 70
0
 71
3
 72
10
 73
6
 74
0
 42
0.0000001
 43
0.0000001
 44
0.0000000001
 40
0.0
 40
0.0
 40
0.0
 40
0.0
 40
0.2408399832
 40
0.4895038233
 40
1.0
 40
1.0
 40
1.0
 40
1.0
 10
136.6494635522
 20
102.4673664239
 30
0.0
 10
136.6599948584
 20
102.4412788665
 30
0.0
 10
136.6906656803
 20
102.3915858294
 30
0.0
 10
136.7802055047
 20
102.3145539559
 30
0.0
 10
136.8717391321
 20
102.2893947545
 30
0.0
 10
136.9313713384
 20
102.2893947587
 30
0.0
  0
SPLINE
  5
4CF
100
AcDbEntity
  8
GEOM
100
AcDbSpline
 62
7
  6
CONTINUOUS
 70
0
 71
3
 72
11
 73
7
 74
0
 42
0.0000001
 43
0.0000001
 44
0.0000000001
 40
0.0
 40
0.0
 40
0.0
 40
0.0
 40
0.2146870279
 40
0.4539606207
 40
0.7184807367
 40
1.0
 40
1.0
 40
1.0
 40
1.0
 10
136.6650304587
 20
102.3126240184
 30
0.0
 10
136.6753975552
 20
102.2919727585
 30
0.0
 10
136.7073256752
 20
102.2530703808
 30
0.0
 10
136.7748364085
 20
102.2130473802
 30
0.0
 10
136.8574234471
 20
102.1912836534
 30
0.0
 10
136.9167358102
 20
102.1897062267
 30
0.0
 10
136.946938245
 20
102.1921449233
 30
0.0
  0
SPLINE
  5
4D0
100
AcDbEntity
  8
GEOM
100
AcDbSpline
 62
7
  6
CONTINUOUS
 70
0
 71
3
 72
10
 73
6
 74
0
 42
0.0000001
 43
0.0000001
 44
0.0000000001
 40
0.0
 40
0.0
 40
0.0
 40
0.0
 40
0.4617590788
 40
0.7269599282
 40
1.0
 40
1.0
 40
1.0
 40
1.0
 10
136.6650304584
 20
96.1432480897
 30
0.0
 10
136.6869974017
 20
96.0959423434
 30
0.0
 10
136.7518937567
 20
96.035654729
 30
0.0
 10
136.8558130359
 20
95.9914190368
 30
0.0
 10
136.916197483
 20
95.979725618
 30
0.0
 10
136.9469382444
 20
95.9772434741
 30
0.0
  0
SPLINE
  5
4D1
100
AcDbEntity
  8
GEOM
100
AcDbSpline
 62
7
  6
CONTINUOUS
 70
0
 71
3
 72
11
 73
7
 74
0
 42
0.0000001
 43
0.0000001
 44
0.0000000001
 40
0.0
 40
0.0
 40
0.0
 40
0.0
 40
0.1854297507
 40
0.4222483003
 40
0.7002267883
 40
1.0
 40
1.0
 40
1.0
 40
1.0
 10
136.6494635521
 20
95.9253529229
 30
0.0
 10
136.6614569344
 20
95.9110994912
 30
0.0
 10
136.6968427044
 20
95.885795648
 30
0.0
 10
136.7626164813
 20
95.8601204271
 30
0.0
 10
136.8431568658
 20
95.8437203284
 30
0.0
 10
136.9012565994
 20
95.8399687285
 30
0.0
 10
136.9313713384
 20
95.8399687285
 30
0.0
  0
SPLINE
  5
4D2
100
AcDbEntity
  8
GEOM
100
AcDbSpline
 62
7
  6
CONTINUOUS
 70
0
 71
3
 72
11
 73
7
 74
0
 42
0.0000001
 43
0.0000001
 44
0.0000000001
 40
0.0
 40
0.0
 40
0.0
 40
0.0
 40
0.1745870618
 40
0.4100930079
 40
0.6927267026
 40
1.0
 40
1.0
 40
1.0
 40
1.0
 10
136.6494635522
 20
94.5182081535
 30
0.0
 10
136.6620992463
 20
94.5066938727
 30
0.0
 10
136.6983313729
 20
94.4874115156
 30
0.0
 10
136.7633727174
 20
94.4680264483
 30
0.0
 10
136.8435006773
 20
94.4555964142
 30
0.0
 10
136.9012841108
 20
94.4527389206
 30
0.0
 10
136.9313713384
 20
94.4527389252
 30
0.0
  0
SPLINE
  5
4D3
100
AcDbEntity
  8
GEOM
100
AcDbSpline
 62
7
  6
CONTINUOUS
 70
0
 71
3
 72
11
 73
7
 74
0
 42
0.0000001
 43
0.0000001
 44
0.0000000001
 40
0.0
 40
0.0
 40
0.0
 40
0.0
 40
0.1745870672
 40
0.4100930304
 40
0.6927267113
 40
1.0
 40
1.0
 40
1.0
 40
1.0
 10
136.6494635521
 20
85.2664039349
 30
0.0
 10
136.6620992492
 20
85.2779182129
 30
0.0
 10
136.6983313815
 20
85.2972005614
 30
0.0
 10
136.7633727252
 20
85.3165856275
 30
0.0
 10
136.8435006826
 20
85.3290156638
 30
0.0
 10
136.9012841123
 20
85.3318731632
 30
0.0
 10
136.9313713384
 20
85.3318731632
 30
0.0
  0
SPLINE
  5
4D4
100
AcDbEntity
  8
GEOM
100
AcDbSpline
 62
7
  6
CONTINUOUS
 70
0
 71
3
 72
11
 73
7
 74
0
 42
0.0000001
 43
0.0000001
 44
0.0000000001
 40
0.0
 40
0.0
 40
0.0
 40
0.0
 40
0.1854296997
 40
0.4222482216
 40
0.7002267528
 40
1.0
 40
1.0
 40
1.0
 40
1.0
 10
136.6494635521
 20
83.8592591656
 30
0.0
 10
136.6614569334
 20
83.873512591
 30
0.0
 10
136.6968426958
 20
83.898816428
 30
0.0
 10
136.7626164704
 20
83.9244916424
 30
0.0
 10
136.8431568565
 20
83.9408917472
 30
0.0
 10
136.9012565964
 20
83.9446433557
 30
0.0
 10
136.9313713384
 20
83.9446433601
 30
0.0
  0
SPLINE
  5
4D5
100
AcDbEntity
  8
GEOM
100
AcDbSpline
 62
7
  6
CONTINUOUS
 70
0
 71
3
 72
10
 73
6
 74
0
 42
0.0000001
 43
0.0000001
 44
0.0000000001
 40
0.0
 40
0.0
 40
0.0
 40
0.0
 40
0.4617588139
 40
0.7269598081
 40
1.0
 40
1.0
 40
1.0
 40
1.0
 10
136.6650304587
 20
83.6413639972
 30
0.0
 10
136.6869974252
 20
83.6886696917
 30
0.0
 10
136.7518937722
 20
83.7489572465
 30
0.0
 10
136.8558130216
 20
83.793192959
 30
0.0
 10
136.9161974765
 20
83.8048864395
 30
0.0
 10
136.946938245
 20
83.8073686125
 30
0.0
  0
SPLINE
  5
4D6
100
AcDbEntity
  8
GEOM
100
AcDbSpline
 62
7
  6
CONTINUOUS
 70
0
 71
3
 72
11
 73
7
 74
0
 42
0.0000001
 43
0.0000001
 44
0.0000000001
 40
0.0
 40
0.0
 40
0.0
 40
0.0
 40
0.2146869994
 40
0.4539606758
 40
0.718480753
 40
1.0
 40
1.0
 40
1.0
 40
1.0
 10
136.6650304584
 20
77.4719880684
 30
0.0
 10
136.6753975595
 20
77.4926393193
 30
0.0
 10
136.7073257122
 20
77.5315416699
 30
0.0
 10
136.7748364387
 20
77.5715646552
 30
0.0
 10
136.8574234668
 20
77.5933283898
 30
0.0
 10
136.9167358136
 20
77.5949058399
 30
0.0
 10
136.9469382444
 20
77.5924671632
 30
0.0
  0
SPLINE
  5
4D7
100
AcDbEntity
  8
GEOM
100
AcDbSpline
 62
7
  6
CONTINUOUS
 70
0
 71
3
 72
10
 73
6
 74
0
 42
0.0000001
 43
0.0000001
 44
0.0000000001
 40
0.0
 40
0.0
 40
0.0
 40
0.0
 40
0.2408399706
 40
0.4895038066
 40
1.0
 40
1.0
 40
1.0
 40
1.0
 10
136.6494635522
 20
77.3172456646
 30
0.0
 10
136.6599948585
 20
77.3433332201
 30
0.0
 10
136.6906656802
 20
77.3930262542
 30
0.0
 10
136.7802055051
 20
77.4700581249
 30
0.0
 10
136.8717391307
 20
77.4952173298
 30
0.0
 10
136.9313713384
 20
77.4952173298
 30
0.0
  0
SPLINE
  5
4D8
100
AcDbEntity
  8
GEOM
100
AcDbSpline
 62
7
  6
CONTINUOUS
 70
0
 71
3
 72
11
 73
7
 74
0
 42
0.0000001
 43
0.0000001
 44
0.0000000001
 40
0.0
 40
0.0
 40
0.0
 40
0.0
 40
0.2440457349
 40
0.4926227779
 40
0.7452631616
 40
1.0
 40
1.0
 40
1.0
 40
1.0
 10
136.6494635522
 20
76.7343872169
 30
0.0
 10
136.6599344735
 20
76.7615274227
 30
0.0
 10
136.6901948369
 20
76.8131781534
 30
0.0
 10
136.7572067489
 20
76.8735047308
 30
0.0
 10
136.8401866935
 20
76.9117744577
 30
0.0
 10
136.9010069185
 20
76.9206079294
 30
0.0
 10
136.9313713384
 20
76.920607931
 30
0.0
  0
SPLINE
  5
4D9
100
AcDbEntity
  8
GEOM
100
AcDbSpline
 62
7
  6
CONTINUOUS
 70
0
 71
3
 72
9
 73
5
 74
0
 42
0.0000001
 43
0.0000001
 44
0.0000000001
 40
0.0
 40
0.0
 40
0.0
 40
0.0
 40
0.500891714
 40
1.0
 40
1.0
 40
1.0
 40
1.0
 10
136.6650304587
 20
76.6897314699
 30
0.0
 10
136.6846855101
 20
76.7473464497
 30
0.0
 10
136.7616320244
 20
76.8528753086
 30
0.0
 10
136.8862796526
 20
76.8923060442
 30
0.0
 10
136.946938245
 20
76.8923060442
 30
0.0
  0
SPLINE
  5
4DA
100
AcDbEntity
  8
GEOM
100
AcDbSpline
 62
7
  6
CONTINUOUS
 70
0
 71
3
 72
9
 73
5
 74
0
 42
0.0000001
 43
0.0000001
 44
0.0000000001
 40
0.0
 40
0.0
 40
0.0
 40
0.0
 40
0.271562692
 40
1.0
 40
1.0
 40
1.0
 40
1.0
 10
136.6494635522
 20
83.8592591657
 30
0.0
 10
136.6494635815
 20
83.8394737872
 30
0.0
 10
136.6506421763
 20
83.7666394282
 30
0.0
 10
136.6564963523
 20
83.6937454727
 30
0.0
 10
136.6650304587
 20
83.6413639972
 30
0.0
  0
SPLINE
  5
4DB
100
AcDbEntity
  8
GEOM
100
AcDbSpline
 62
7
  6
CONTINUOUS
 70
0
 71
3
 72
11
 73
7
 74
0
 42
0.0000001
 43
0.0000001
 44
0.0000000001
 40
0.0
 40
0.0
 40
0.0
 40
0.0
 40
0.2499972207
 40
0.4994170661
 40
0.7491474505
 40
1.0
 40
1.0
 40
1.0
 40
1.0
 10
136.6650304587
 20
83.6413639972
 30
0.0
 10
136.7480554692
 20
83.1317622698
 30
0.0
 10
136.8776730434
 20
82.1072889072
 30
0.0
 10
136.9448245642
 20
80.5596654741
 30
0.0
 10
136.877521494
 20
79.0102875059
 30
0.0
 10
136.7479840704
 20
77.9833911097
 30
0.0
 10
136.6650304587
 20
77.4719880701
 30
0.0
  0
SPLINE
  5
4DC
100
AcDbEntity
  8
GEOM
100
AcDbSpline
 62
7
  6
CONTINUOUS
 70
0
 71
3
 72
9
 73
5
 74
0
 42
0.0000001
 43
0.0000001
 44
0.0000000001
 40
0.0
 40
0.0
 40
0.0
 40
0.0
 40
0.5610429589
 40
1.0
 40
1.0
 40
1.0
 40
1.0
 10
136.6650304587
 20
77.4719880701
 30
0.0
 10
136.6603702389
 20
77.4432576889
 30
0.0
 10
136.6531737293
 20
77.391868648
 30
0.0
 10
136.64946372
 20
77.3400179537
 30
0.0
 10
136.6494635522
 20
77.3172456646
 30
0.0
  0
SPLINE
  5
4DD
100
AcDbEntity
  8
0
100
AcDbSpline
 62
7
  6
CONTINUOUS
 70
0
 71
3
 72
38
 73
34
 74
0
 42
0.0000001
 43
0.0000001
 44
0.0000000001
 40
0.0
 40
0.0
 40
0.0
 40
0.0
 40
0.0009292724
 40
0.001726533
 40
0.0027817273
 40
0.0056968635
 40
0.0097055322
 40
0.0148109694
 40
0.0210051562
 40
0.0366141405
 40
0.0564071245
 40
0.0802102662
 40
0.1078116146
 40
0.1389650744
 40
0.1733885685
 40
0.2107745459
 40
0.2507833171
 40
0.2930564379
 40
0.3828479493
 40
0.476914174
 40
0.5718653946
 40
0.6642797889
 40
0.7508272409
 40
0.8283901512
 40
0.8629144547
 40
0.8941770946
 40
0.9218974851
 40
0.945825679
 40
0.9657512959
 40
0.9814966584
 40
0.9929358661
 40
0.9970145072
 40
1.0
 40
1.0
 40
1.0
 40
1.0
 10
102.6229377603
 20
80.5773060442
 30
0.0
 10
102.6171695513
 20
80.5773060442
 30
0.0
 10
102.6086949758
 20
80.5873016569
 30
0.0
 10
102.6015454018
 20
80.6022059146
 30
0.0
 10
102.591281473
 20
80.6303902422
 30
0.0
 10
102.5797649556
 20
80.678400538
 30
0.0
 10
102.5663668979
 20
80.7519750829
 30
0.0
 10
102.5529908934
 20
80.8460311909
 30
0.0
 10
102.5334074584
 20
81.011933221
 30
0.0
 10
102.5099739069
 20
81.2690897965
 30
0.0
 10
102.4831401888
 20
81.6356189608
 30
0.0
 10
102.4561682815
 20
82.0767420922
 30
0.0
 10
102.4290585874
 20
82.5884844596
 30
0.0
 10
102.4018829154
 20
83.1662275171
 30
0.0
 10
102.3746518221
 20
83.8047633573
 30
0.0
 10
102.3473901444
 20
84.498310458
 30
0.0
 10
102.3200995523
 20
85.2406157255
 30
0.0
 10
102.2829428656
 20
86.3080691837
 30
0.0
 10
102.2372141464
 20
87.7109719804
 30
0.0
 10
102.1832866433
 20
89.4407633075
 30
0.0
 10
102.1293446072
 20
91.1868427893
 30
0.0
 10
102.0754584531
 20
92.8862311421
 30
0.0
 10
102.021692547
 20
94.4776329974
 30
0.0
 10
101.9755168213
 20
95.7097455833
 30
0.0
 10
101.9377296991
 20
96.5987509318
 30
0.0
 10
101.9105440317
 20
97.1785373296
 30
0.0
 10
101.8834456524
 20
97.692478542
 30
0.0
 10
101.8564317292
 20
98.1359348874
 30
0.0
 10
101.8296927191
 20
98.5049415243
 30
0.0
 10
101.8031032865
 20
98.7961385548
 30
0.0
 10
101.7799509849
 20
98.9889356934
 30
0.0
 10
101.7598934677
 20
99.1020293417
 30
0.0
 10
101.7497291188
 20
99.144768161
 30
0.0
 10
101.7441416167
 20
99.1624373904
 30
0.0
  0
SPLINE
  5
4DE
100
AcDbEntity
  8
0
100
AcDbSpline
 62
7
  6
CONTINUOUS
 70
0
 71
3
 72
9
 73
5
 74
0
 42
0.0000001
 43
0.0000001
 44
0.0000000001
 40
0.0
 40
0.0
 40
0.0
 40
0.0
 40
0.2899556137
 40
1.0
 40
1.0
 40
1.0
 40
1.0
 10
101.7441416167
 20
99.1624373904
 30
0.0
 10
101.7432520548
 20
99.1652504315
 30
0.0
 10
101.740047213
 20
99.1749021697
 30
0.0
 10
101.7363086357
 20
99.1844185617
 30
0.0
 10
101.7329697805
 20
99.1908255828
 30
0.0
  0
SPLINE
  5
4DF
100
AcDbEntity
  8
0
100
AcDbSpline
 62
7
  6
CONTINUOUS
 70
0
 71
3
 72
9
 73
5
 74
0
 42
0.0000001
 43
0.0000001
 44
0.0000000001
 40
0.0
 40
0.0
 40
0.0
 40
0.0
 40
0.1975969114
 40
1.0
 40
1.0
 40
1.0
 40
1.0
 10
102.8057635219
 20
80.5938153874
 30
0.0
 10
102.8042918328
 20
80.5966408959
 30
0.0
 10
102.7975902768
 20
80.6113264415
 30
0.0
 10
102.7929680851
 20
80.6268552648
 30
0.0
 10
102.7896045332
 20
80.6393473107
 30
0.0
  0
SPLINE
  5
4E0
100
AcDbEntity
  8
0
100
AcDbSpline
 62
7
  6
CONTINUOUS
 70
0
 71
3
 72
38
 73
34
 74
0
 42
0.0000001
 43
0.0000001
 44
0.0000000001
 40
0.0
 40
0.0
 40
0.0
 40
0.0
 40
0.003362644
 40
0.007810882
 40
0.0199453173
 40
0.0363249723
 40
0.0568134019
 40
0.0812343947
 40
0.1093703036
 40
0.1409746875
 40
0.1757632971
 40
0.2536344039
 40
0.3402123487
 40
0.43241358
 40
0.5269533083
 40
0.6204631302
 40
0.7096115064
 40
0.7515488699
 40
0.7912230152
 40
0.8282810066
 40
0.8623922144
 40
0.8932524829
 40
0.9205888594
 40
0.9441569437
 40
0.9637526738
 40
0.9792030824
 40
0.9853348664
 40
0.9903879555
 40
0.9943553319
 40
0.9972417939
 40
0.9982870465
 40
0.9990771218
 40
1.0
 40
1.0
 40
1.0
 40
1.0
 10
102.7896045332
 20
80.6393473107
 30
0.0
 10
102.7841829213
 20
80.659482878
 30
0.0
 10
102.7741199476
 20
80.7069182852
 30
0.0
 10
102.7543047616
 20
80.8290175221
 30
0.0
 10
102.7311698227
 20
81.0322047382
 30
0.0
 10
102.7046920799
 20
81.3349227157
 30
0.0
 10
102.6780359693
 20
81.7140786381
 30
0.0
 10
102.6511596266
 20
82.1662574625
 30
0.0
 10
102.6241926089
 20
82.6874728181
 30
0.0
 10
102.5971538261
 20
83.2730508727
 30
0.0
 10
102.5596166064
 20
84.1668871266
 30
0.0
 10
102.5137181654
 20
85.4015685532
 30
0.0
 10
102.4602343194
 20
86.9922310408
 30
0.0
 10
102.4066380316
 20
88.6863110259
 30
0.0
 10
102.3529909646
 20
90.4233962574
 30
0.0
 10
102.2993608774
 20
92.1415413763
 30
0.0
 10
102.2538756347
 20
93.533579716
 30
0.0
 10
102.21691843
 20
94.5918649403
 30
0.0
 10
102.1897831569
 20
95.3272678634
 30
0.0
 10
102.1626742253
 20
96.0141046558
 30
0.0
 10
102.1355994329
 20
96.6462398727
 30
0.0
 10
102.1085748632
 20
97.2180309773
 30
0.0
 10
102.0816214962
 20
97.7243636938
 30
0.0
 10
102.0547990594
 20
98.1607393067
 30
0.0
 10
102.0281228505
 20
98.5232525217
 30
0.0
 10
102.0048138843
 20
98.7775678603
 30
0.0
 10
101.9853429402
 20
98.9416145332
 30
0.0
 10
101.9720433848
 20
99.0346133011
 30
0.0
 10
101.9587220265
 20
99.1073547502
 30
0.0
 10
101.9472780613
 20
99.1548304258
 30
0.0
 10
101.9370752699
 20
99.182695228
 30
0.0
 10
101.9299629189
 20
99.1974556438
 30
0.0
 10
101.9215184362
 20
99.2073078082
 30
0.0
 10
101.9157954144
 20
99.2073007741
 30
0.0
  0
SPLINE
  5
4E1
100
AcDbEntity
  8
0
100
AcDbSpline
 62
7
  6
CONTINUOUS
 70
0
 71
3
 72
38
 73
34
 74
0
 42
0.0000001
 43
0.0000001
 44
0.0000000001
 40
0.0
 40
0.0
 40
0.0
 40
0.0
 40
0.0009283559
 40
0.0017237733
 40
0.0027766659
 40
0.005687185
 40
0.0096898201
 40
0.0147852568
 40
0.0209676413
 40
0.0365506371
 40
0.0563078098
 40
0.0800710501
 40
0.1076256127
 40
0.1387281963
 40
0.1730974659
 40
0.2104258274
 40
0.2503769244
 40
0.292590847
 40
0.3822704413
 40
0.4762399554
 40
0.5711196307
 40
0.663496902
 40
0.7500496711
 40
0.8276663874
 40
0.8622378455
 40
0.8935591612
 40
0.921352531
 40
0.9453662878
 40
0.9653895929
 40
0.9812459819
 40
0.992804922
 40
0.9969480248
 40
1.0
 40
1.0
 40
1.0
 40
1.0
 10
100.8086524149
 20
80.5773206992
 30
0.0
 10
100.8028907941
 20
80.5773277898
 30
0.0
 10
100.7944177375
 20
80.587276514
 30
0.0
 10
100.7872693448
 20
80.6021534295
 30
0.0
 10
100.7770151701
 20
80.630274241
 30
0.0
 10
100.7655202203
 20
80.6782026411
 30
0.0
 10
100.752143025
 20
80.7516370278
 30
0.0
 10
100.7387763464
 20
80.8455056427
 30
0.0
 10
100.7192086825
 20
81.0110845247
 30
0.0
 10
100.6958014072
 20
81.2677447617
 30
0.0
 10
100.6689888364
 20
81.6335852819
 30
0.0
 10
100.6420481272
 20
82.0738799626
 30
0.0
 10
100.614962361
 20
82.5846889397
 30
0.0
 10
100.5878138354
 20
83.1613997055
 30
0.0
 10
100.5606099439
 20
83.7988266036
 30
0.0
 10
100.5333737949
 20
84.4912140017
 30
0.0
 10
100.5061112363
 20
85.2323212452
 30
0.0
 10
100.4689876837
 20
86.2981891388
 30
0.0
 10
100.4233018754
 20
87.6992122211
 30
0.0
 10
100.3694255567
 20
89.4269966516
 30
0.0
 10
100.3155345955
 20
91.1715311199
 30
0.0
 10
100.2616982842
 20
92.8700151872
 30
0.0
 10
100.2079815287
 20
94.461307947
 30
0.0
 10
100.1618520771
 20
95.6938906746
 30
0.0
 10
100.1241107053
 20
96.5837512835
 30
0.0
 10
100.0969482339
 20
97.1645595336
 30
0.0
 10
100.0698737875
 20
97.6797717336
 30
0.0
 10
100.0428836445
 20
98.1247539684
 30
0.0
 10
100.016156321
 20
98.4955334509
 30
0.0
 10
99.9895903024
 20
98.788736281
 30
0.0
 10
99.9664340385
 20
98.9833411181
 30
0.0
 10
99.9464186231
 20
99.0980052093
 30
0.0
 10
99.9362756611
 20
99.1415705775
 30
0.0
 10
99.9307194234
 20
99.1596786951
 30
0.0
  0
SPLINE
  5
4E2
100
AcDbEntity
  8
0
100
AcDbSpline
 62
7
  6
CONTINUOUS
 70
0
 71
3
 72
9
 73
5
 74
0
 42
0.0000001
 43
0.0000001
 44
0.0000000001
 40
0.0
 40
0.0
 40
0.0
 40
0.0
 40
0.2925633184
 40
1.0
 40
1.0
 40
1.0
 40
1.0
 10
99.9307194234
 20
99.1596786951
 30
0.0
 10
99.929763403
 20
99.162794424
 30
0.0
 10
99.9263411155
 20
99.173388264
 30
0.0
 10
99.9223287867
 20
99.1838455044
 30
0.0
 10
99.9186834411
 20
99.1908324285
 30
0.0
  0
SPLINE
  5
4E3
100
AcDbEntity
  8
0
100
AcDbSpline
 62
7
  6
CONTINUOUS
 70
0
 71
3
 72
15
 73
11
 74
0
 42
0.0000001
 43
0.0000001
 44
0.0000000001
 40
0.0
 40
0.0
 40
0.0
 40
0.0
 40
0.0441369395
 40
0.0748511769
 40
0.1124856172
 40
0.2088262755
 40
0.331675007
 40
0.4773500998
 40
0.6410470097
 40
1.0
 40
1.0
 40
1.0
 40
1.0
 10
113.6455864216
 20
111.6923060442
 30
0.0
 10
113.6581114619
 20
111.6923053408
 30
0.0
 10
113.6783944771
 20
111.6801113535
 30
0.0
 10
113.6989140035
 20
111.6561110398
 30
0.0
 10
113.7243196215
 20
111.6165348872
 30
0.0
 10
113.7533609895
 20
111.5494208863
 30
0.0
 10
113.7839466734
 20
111.4503652687
 30
0.0
 10
113.8101785087
 20
111.3304181023
 30
0.0
 10
113.8380366254
 20
111.1427273999
 30
0.0
 10
113.8461209633
 20
110.9941685822
 30
0.0
 10
113.8461243637
 20
110.8923060442
 30
0.0
  0
SPLINE
  5
4E4
100
AcDbEntity
  8
0
100
AcDbSpline
 62
7
  6
CONTINUOUS
 70
0
 71
3
 72
11
 73
7
 74
0
 42
0.0000001
 43
0.0000001
 44
0.0000000001
 40
0.0
 40
0.0
 40
0.0
 40
0.0
 40
0.2473359643
 40
0.4962408145
 40
0.7473476717
 40
1.0
 40
1.0
 40
1.0
 40
1.0
 10
113.2546890762
 20
111.2923060442
 30
0.0
 10
113.3055748323
 20
111.2923060442
 30
0.0
 10
113.4088207018
 20
111.3132925547
 30
0.0
 10
113.538756425
 20
111.4026607997
 30
0.0
 10
113.6254037801
 20
111.5355866831
 30
0.0
 10
113.6455864216
 20
111.640326524
 30
0.0
 10
113.6455864216
 20
111.6923060442
 30
0.0
  0
SPLINE
  5
4E5
100
AcDbEntity
  8
0
100
AcDbSpline
 62
7
  6
CONTINUOUS
 70
0
 71
3
 72
12
 73
8
 74
0
 42
0.0000001
 43
0.0000001
 44
0.0000000001
 40
0.0
 40
0.0
 40
0.0
 40
0.0
 40
0.1549025691
 40
0.2563717413
 40
0.3755391666
 40
0.6636986728
 40
1.0
 40
1.0
 40
1.0
 40
1.0
 10
113.2546890762
 20
111.2923060442
 30
0.0
 10
113.2795912441
 20
111.2923053404
 30
0.0
 10
113.3196901928
 20
111.2713700588
 30
0.0
 10
113.3612743481
 20
111.228122916
 30
0.0
 10
113.4076318141
 20
111.1600431002
 30
0.0
 10
113.4511868006
 20
111.0471859545
 30
0.0
 10
113.4636630043
 20
110.9463699121
 30
0.0
 10
113.4636707212
 20
110.8923060442
 30
0.0
  0
SPLINE
  5
4E6
100
AcDbEntity
  8
0
100
AcDbSpline
 62
7
  6
CONTINUOUS
 70
0
 71
3
 72
9
 73
5
 74
0
 42
0.0000001
 43
0.0000001
 44
0.0000000001
 40
0.0
 40
0.0
 40
0.0
 40
0.0
 40
0.50078802
 40
1.0
 40
1.0
 40
1.0
 40
1.0
 10
113.8461243637
 20
108.7908341817
 30
0.0
 10
113.8461272876
 20
108.7112104712
 30
0.0
 10
113.8821898792
 20
108.5503127591
 30
0.0
 10
113.9811780955
 20
108.4197632806
 30
0.0
 10
114.0400897236
 20
108.366570113
 30
0.0
  0
SPLINE
  5
4E7
100
AcDbEntity
  8
0
100
AcDbSpline
 62
7
  6
CONTINUOUS
 70
0
 71
3
 72
9
 73
5
 74
0
 42
0.0000001
 43
0.0000001
 44
0.0000000001
 40
0.0
 40
0.0
 40
0.0
 40
0.0
 40
0.4998876399
 40
1.0
 40
1.0
 40
1.0
 40
1.0
 10
113.4636707212
 20
108.7908341817
 30
0.0
 10
113.463676657
 20
108.659711569
 30
0.0
 10
113.5190909694
 20
108.3945527719
 30
0.0
 10
113.6754986274
 20
108.1742511677
 30
0.0
 10
113.7704409714
 20
108.0837274005
 30
0.0
  0
SPLINE
  5
4E8
100
AcDbEntity
  8
0
100
AcDbSpline
 62
7
  6
CONTINUOUS
 70
0
 71
3
 72
9
 73
5
 74
0
 42
0.0000001
 43
0.0000001
 44
0.0000000001
 40
0.0
 40
0.0
 40
0.0
 40
0.0
 40
0.4984492469
 40
1.0
 40
1.0
 40
1.0
 40
1.0
 10
114.4578308518
 20
107.9680419755
 30
0.0
 10
114.5121960624
 20
107.9127237187
 30
0.0
 10
114.6001538316
 20
107.7789380273
 30
0.0
 10
114.6304984622
 20
107.6218213658
 30
0.0
 10
114.6304991457
 20
107.5437779068
 30
0.0
  0
SPLINE
  5
4E9
100
AcDbEntity
  8
0
100
AcDbSpline
 62
7
  6
CONTINUOUS
 70
0
 71
3
 72
9
 73
5
 74
0
 42
0.0000001
 43
0.0000001
 44
0.0000000001
 40
0.0
 40
0.0
 40
0.0
 40
0.0
 40
0.5001319494
 40
1.0
 40
1.0
 40
1.0
 40
1.0
 10
114.189380031
 20
107.6851992631
 30
0.0
 10
114.2084319947
 20
107.6671171328
 30
0.0
 10
114.2398966742
 20
107.6231233009
 30
0.0
 10
114.2511211304
 20
107.5700307703
 30
0.0
 10
114.2511208953
 20
107.5437779068
 30
0.0
  0
SPLINE
  5
4EA
100
AcDbEntity
  8
0
100
AcDbSpline
 62
7
  6
CONTINUOUS
 70
0
 71
3
 72
17
 73
13
 74
0
 42
0.0000001
 43
0.0000001
 44
0.0000000001
 40
0.0
 40
0.0
 40
0.0
 40
0.0
 40
0.1820153194
 40
0.3596340019
 40
0.5271190641
 40
0.6772017826
 40
0.8018112203
 40
0.8943716206
 40
0.9282301659
 40
0.9549704965
 40
0.9774248589
 40
1.0
 40
1.0
 40
1.0
 40
1.0
 10
114.6304991457
 20
105.6816883295
 30
0.0
 10
114.6304990019
 20
105.628566283
 30
0.0
 10
114.6280071523
 20
105.5235859098
 30
0.0
 10
114.6162573194
 20
105.3701062558
 30
0.0
 10
114.5964288485
 20
105.2268675845
 30
0.0
 10
114.5692081965
 20
105.1004793038
 30
0.0
 10
114.5360685719
 20
104.9985019251
 30
0.0
 10
114.5030716369
 20
104.9321216503
 30
0.0
 10
114.4734662286
 20
104.8982779586
 30
0.0
 10
114.4529288481
 20
104.884507923
 30
0.0
 10
114.4314443417
 20
104.8810461658
 30
0.0
 10
114.4186078847
 20
104.8858626137
 30
0.0
 10
114.4129645003
 20
104.8892630105
 30
0.0
  0
SPLINE
  5
4EB
100
AcDbEntity
  8
0
100
AcDbSpline
 62
7
  6
CONTINUOUS
 70
0
 71
3
 72
42
 73
38
 74
0
 42
0.0000001
 43
0.0000001
 44
0.0000000001
 40
0.0
 40
0.0
 40
0.0
 40
0.0
 40
0.0008829567
 40
0.0016821575
 40
0.0027517624
 40
0.0057273788
 40
0.0098339024
 40
0.0150708367
 40
0.0214287529
 40
0.0288961265
 40
0.0374584966
 40
0.0577833994
 40
0.0822206094
 40
0.1105429232
 40
0.1424913494
 40
0.1777673378
 40
0.216044457
 40
0.256967487
 40
0.3001548676
 40
0.3917020264
 40
0.4872913759
 40
0.5833719153
 40
0.6763734304
 40
0.7628482352
 40
0.8026224435
 40
0.8395879981
 40
0.8733988207
 40
0.9037437026
 40
0.9303398864
 40
0.9529430311
 40
0.9713470679
 40
0.9789202648
 40
0.9853850773
 40
0.9907300003
 40
0.9949454308
 40
0.9980294125
 40
1.0
 40
1.0
 40
1.0
 40
1.0
 10
102.0164771464
 20
79.4123060442
 30
0.0
 10
102.010302207
 20
79.4123060442
 30
0.0
 10
102.0018332349
 20
79.424441793
 30
0.0
 10
101.9947424906
 20
79.4411806518
 30
0.0
 10
101.9843001156
 20
79.4740130831
 30
0.0
 10
101.9726502112
 20
79.5295187325
 30
0.0
 10
101.9590528788
 20
79.6147723058
 30
0.0
 10
101.9454903322
 20
79.7236920277
 30
0.0
 10
101.9317545449
 20
79.8563210859
 30
0.0
 10
101.9179861131
 20
80.0122795253
 30
0.0
 10
101.8984361727
 20
80.2657789474
 30
0.0
 10
101.8746230213
 20
80.6379532079
 30
0.0
 10
101.8472254184
 20
81.148337873
 30
0.0
 10
101.8197235042
 20
81.7401062951
 30
0.0
 10
101.7921429355
 20
82.4077429216
 30
0.0
 10
101.7645109653
 20
83.1450494623
 30
0.0
 10
101.7368444701
 20
83.9451585739
 30
0.0
 10
101.7091524166
 20
84.8006256407
 30
0.0
 10
101.6714714895
 20
86.0285055715
 30
0.0
 10
101.6251101312
 20
87.6386046329
 30
0.0
 10
101.5704035989
 20
89.6185214208
 30
0.0
 10
101.5156942744
 20
91.6086131639
 30
0.0
 10
101.4610406129
 20
93.5349394381
 30
0.0
 10
101.4144373454
 20
95.067557593
 30
0.0
 10
101.3764611806
 20
96.2083642419
 30
0.0
 10
101.3488077246
 20
96.981003728
 30
0.0
 10
101.3211955458
 20
97.6876556774
 30
0.0
 10
101.2936435752
 20
98.321730981
 30
0.0
 10
101.266193506
 20
98.8773499785
 30
0.0
 10
101.2388612894
 20
99.3493458528
 30
0.0
 10
101.215047627
 20
99.6882781745
 30
0.0
 10
101.1953745119
 20
99.9143072949
 30
0.0
 10
101.181658368
 20
100.0491830306
 30
0.0
 10
101.1680026473
 20
100.160400737
 30
0.0
 10
101.1546004612
 20
100.2479051944
 30
0.0
 10
101.1412743195
 20
100.3112268694
 30
0.0
 10
101.1309712575
 20
100.3454016772
 30
0.0
 10
101.1246068069
 20
100.3576253001
 30
0.0
  0
SPLINE
  5
4EC
100
AcDbEntity
  8
0
100
AcDbSpline
 62
7
  6
CONTINUOUS
 70
0
 71
3
 72
16
 73
12
 74
0
 42
0.0000001
 43
0.0000001
 44
0.0000000001
 40
0.0
 40
0.0
 40
0.0
 40
0.0
 40
0.3392435947
 40
0.5015734729
 40
0.6503187885
 40
0.7738030872
 40
0.822818803
 40
0.8629819081
 40
0.89681461
 40
0.9285307209
 40
1.0
 40
1.0
 40
1.0
 40
1.0
 10
114.2511208953
 20
105.6816883295
 30
0.0
 10
114.2706979168
 20
105.6251372171
 30
0.0
 10
114.2958802482
 20
105.5400272838
 30
0.0
 10
114.3159227148
 20
105.4269008873
 30
0.0
 10
114.3213245192
 20
105.350335558
 30
0.0
 10
114.3163457901
 20
105.2932589896
 30
0.0
 10
114.3041312709
 20
105.2575541685
 30
0.0
 10
114.2923071181
 20
105.2390056281
 30
0.0
 10
114.277099519
 20
105.2273412721
 30
0.0
 10
114.2527528774
 20
105.2220920023
 30
0.0
 10
114.2345620587
 20
105.2293726937
 30
0.0
 10
114.2236418089
 20
105.2356731721
 30
0.0
  0
SPLINE
  5
4ED
100
AcDbEntity
  8
0
100
AcDbSpline
 62
7
  6
CONTINUOUS
 70
0
 71
3
 72
9
 73
5
 74
0
 42
0.0000001
 43
0.0000001
 44
0.0000000001
 40
0.0
 40
0.0
 40
0.0
 40
0.0
 40
0.4959837351
 40
1.0
 40
1.0
 40
1.0
 40
1.0
 10
114.2236418088
 20
105.2356731719
 30
0.0
 10
114.2822893146
 20
105.2018130205
 30
0.0
 10
114.3832420152
 20
105.0984438817
 30
0.0
 10
114.4150563596
 20
104.9580482558
 30
0.0
 10
114.4129645079
 20
104.8892630105
 30
0.0
  0
SPLINE
  5
4EE
100
AcDbEntity
  8
0
100
AcDbSpline
 62
7
  6
CONTINUOUS
 70
0
 71
3
 72
42
 73
38
 74
0
 42
0.0000001
 43
0.0000001
 44
0.0000000001
 40
0.0
 40
0.0
 40
0.0
 40
0.0
 40
0.000882933
 40
0.0016821362
 40
0.0027517467
 40
0.0057273762
 40
0.0098339132
 40
0.0150708691
 40
0.0214288062
 40
0.0288961886
 40
0.037458569
 40
0.0577835314
 40
0.0822208609
 40
0.1105431195
 40
0.142491222
 40
0.1777672301
 40
0.2160448699
 40
0.2569686547
 40
0.3001567073
 40
0.3917041013
 40
0.4872923847
 40
0.5833703724
 40
0.6763708241
 40
0.7628464442
 40
0.8026209285
 40
0.8395867544
 40
0.8733977974
 40
0.9037428002
 40
0.9303390623
 40
0.9529421691
 40
0.9713462882
 40
0.9789195294
 40
0.9853845346
 40
0.9907296902
 40
0.9949452831
 40
0.9980293686
 40
1.0
 40
1.0
 40
1.0
 40
1.0
 10
100.707969769
 20
100.3723060442
 30
0.0
 10
100.7141445429
 20
100.3723060442
 30
0.0
 10
100.7226129352
 20
100.3601699233
 30
0.0
 10
100.7297037298
 20
100.3434313477
 30
0.0
 10
100.740146304
 20
100.3105987467
 30
0.0
 10
100.7517967628
 20
100.2550930401
 30
0.0
 10
100.7653944397
 20
100.1698391377
 30
0.0
 10
100.7789570288
 20
100.0609190303
 30
0.0
 10
100.7926927292
 20
99.9282895897
 30
0.0
 10
100.8064610781
 20
99.7723308541
 30
0.0
 10
100.8260110267
 20
99.5188308646
 30
0.0
 10
100.8498243361
 20
99.1466552641
 30
0.0
 10
100.8772219687
 20
98.6362697006
 30
0.0
 10
100.9047238274
 20
98.0445030554
 30
0.0
 10
100.9323043746
 20
97.3768689003
 30
0.0
 10
100.9599363561
 20
96.6395607976
 30
0.0
 10
100.9876032258
 20
95.8394425859
 30
0.0
 10
101.0152957251
 20
94.9839618545
 30
0.0
 10
101.0529769916
 20
93.756070229
 30
0.0
 10
101.0993383232
 20
92.1459721776
 30
0.0
 10
101.1540442559
 20
90.1660789135
 30
0.0
 10
101.2087527206
 20
88.1760197724
 30
0.0
 10
101.2634058635
 20
86.2497129518
 30
0.0
 10
101.3100090479
 20
84.7170945036
 30
0.0
 10
101.3479854924
 20
83.5762782574
 30
0.0
 10
101.3756390684
 20
82.8036333549
 30
0.0
 10
101.4032513969
 20
82.0969770787
 30
0.0
 10
101.4308034448
 20
81.4628988025
 30
0.0
 10
101.4582531217
 20
80.9072786207
 30
0.0
 10
101.485585867
 20
80.435281883
 30
0.0
 10
101.5093996345
 20
80.0963489392
 30
0.0
 10
101.5290716079
 20
79.8703174648
 30
0.0
 10
101.5427867757
 20
79.7354383307
 30
0.0
 10
101.5564425137
 20
79.6242164393
 30
0.0
 10
101.5698472574
 20
79.5367088646
 30
0.0
 10
101.5831782115
 20
79.4733857321
 30
0.0
 10
101.5934838053
 20
79.4392109713
 30
0.0
 10
101.5998478985
 20
79.4269868147
 30
0.0
  0
SPLINE
  5
4EF
100
AcDbEntity
  8
0
100
AcDbSpline
 62
7
  6
CONTINUOUS
 70
0
 71
3
 72
42
 73
38
 74
0
 42
0.0000001
 43
0.0000001
 44
0.0000000001
 40
0.0
 40
0.0
 40
0.0
 40
0.0
 40
0.0008833365
 40
0.0016825306
 40
0.0027520887
 40
0.0057275759
 40
0.009833954
 40
0.0150706515
 40
0.0214282571
 40
0.0288952812
 40
0.037457052
 40
0.0577805682
 40
0.0822167924
 40
0.1105385989
 40
0.1424869881
 40
0.1777640893
 40
0.21604288
 40
0.2569676916
 40
0.300156341
 40
0.3917034554
 40
0.4872900494
 40
0.5833691307
 40
0.6763705754
 40
0.7628449807
 40
0.802618321
 40
0.8395829002
 40
0.8733932671
 40
0.9037380863
 40
0.9303354169
 40
0.952939619
 40
0.9713451602
 40
0.9789187756
 40
0.9853841259
 40
0.9907295414
 40
0.9949452428
 40
0.9980293533
 40
1.0
 40
1.0
 40
1.0
 40
1.0
 10
100.2021918245
 20
79.4123060442
 30
0.0
 10
100.1960142279
 20
79.4123060442
 30
0.0
 10
100.1875365862
 20
79.4244369787
 30
0.0
 10
100.1804463563
 20
79.4411805554
 30
0.0
 10
100.1700066131
 20
79.4740114152
 30
0.0
 10
100.1583643539
 20
79.5295172293
 30
0.0
 10
100.1447713401
 20
79.6147673612
 30
0.0
 10
100.1312091533
 20
79.7236824227
 30
0.0
 10
100.1174719306
 20
79.8563049976
 30
0.0
 10
100.1037023335
 20
80.0122545584
 30
0.0
 10
100.0841523437
 20
80.2657376573
 30
0.0
 10
100.0603411779
 20
80.6378913281
 30
0.0
 10
100.0329442678
 20
81.1482559859
 30
0.0
 10
100.0054419113
 20
81.7400138316
 30
0.0
 10
99.9778605851
 20
82.4076545806
 30
0.0
 10
99.9502279187
 20
83.144980514
 30
0.0
 10
99.9225599252
 20
83.9451217327
 30
0.0
 10
99.8948667924
 20
84.8006220266
 30
0.0
 10
99.8571851626
 20
86.0285232874
 30
0.0
 10
99.8108240854
 20
87.6386120634
 30
0.0
 10
99.7561182991
 20
89.6184995975
 30
0.0
 10
99.7014097305
 20
91.6085619073
 30
0.0
 10
99.6467564696
 20
93.5348752051
 30
0.0
 10
99.6001535645
 20
95.0674844073
 30
0.0
 10
99.5621781595
 20
96.2082756846
 30
0.0
 10
99.5345253616
 20
96.9808993051
 30
0.0
 10
99.506914338
 20
97.6875410307
 30
0.0
 10
99.4793621083
 20
98.3216208831
 30
0.0
 10
99.4519128264
 20
98.8772550639
 30
0.0
 10
99.424578863
 20
99.3492769309
 30
0.0
 10
99.4007656029
 20
99.6882302691
 30
0.0
 10
99.3810909511
 20
99.9142765905
 30
0.0
 10
99.367374198
 20
100.0491624816
 30
0.0
 10
99.3537180008
 20
100.1603893266
 30
0.0
 10
99.340315014
 20
100.2479000066
 30
0.0
 10
99.326988216
 20
100.3112248398
 30
0.0
 10
99.3166849027
 20
100.3454009486
 30
0.0
 10
99.3103203574
 20
100.3576249936
 30
0.0
  0
SPLINE
  5
4F0
100
AcDbEntity
  8
0
100
AcDbSpline
 62
7
  6
CONTINUOUS
 70
0
 71
3
 72
42
 73
38
 74
0
 42
0.0000001
 43
0.0000001
 44
0.0000000001
 40
0.0
 40
0.0
 40
0.0
 40
0.0
 40
0.0008829179
 40
0.0016821049
 40
0.0027516913
 40
0.0057272458
 40
0.0098336405
 40
0.0150703002
 40
0.021427853
 40
0.0288948401
 40
0.0374565689
 40
0.057780015
 40
0.0822162296
 40
0.1105380323
 40
0.1424863878
 40
0.1777634717
 40
0.2160422338
 40
0.2569670467
 40
0.300155663
 40
0.3917028033
 40
0.4872900092
 40
0.5833695121
 40
0.6763710263
 40
0.7628452154
 40
0.8026183284
 40
0.8395827176
 40
0.8733931275
 40
0.9037380413
 40
0.9303353754
 40
0.9529395717
 40
0.9713451212
 40
0.9789187375
 40
0.9853840853
 40
0.9907295002
 40
0.9949452109
 40
0.9980293422
 40
1.0
 40
1.0
 40
1.0
 40
1.0
 10
98.8936836086
 20
100.3723060442
 30
0.0
 10
98.8998582766
 20
100.3723060442
 30
0.0
 10
98.9083265512
 20
100.360170215
 30
0.0
 10
98.9154173333
 20
100.3434320191
 30
0.0
 10
98.9258598347
 20
100.3106002616
 30
0.0
 10
98.9375101194
 20
100.2550962278
 30
0.0
 10
98.9511072568
 20
100.1698458923
 30
0.0
 10
98.9646694739
 20
100.0609315412
 30
0.0
 10
98.9784046477
 20
99.9283096169
 30
0.0
 10
98.9921721474
 20
99.7723608633
 30
0.0
 10
99.0117215447
 20
99.5188788254
 30
0.0
 10
99.035534103
 20
99.1467261979
 30
0.0
 10
99.0629310084
 20
98.6363622425
 30
0.0
 10
99.0904329723
 20
98.0446048592
 30
0.0
 10
99.1180144017
 20
97.3769646644
 30
0.0
 10
99.145647088
 20
96.6396394722
 30
0.0
 10
99.1733150581
 20
95.8394987641
 30
0.0
 10
99.2010081474
 20
94.9839991046
 30
0.0
 10
99.2386897881
 20
93.7560981923
 30
0.0
 10
99.2850509474
 20
92.1460055893
 30
0.0
 10
99.3397569063
 20
90.1661111421
 30
0.0
 10
99.3944656493
 20
88.1760416164
 30
0.0
 10
99.4491189302
 20
86.2497268768
 30
0.0
 10
99.4957217825
 20
84.7171206721
 30
0.0
 10
99.5336969792
 20
83.5763341057
 30
0.0
 10
99.561349688
 20
82.803713294
 30
0.0
 10
99.5889607259
 20
82.0970721119
 30
0.0
 10
99.6165129192
 20
81.4629914282
 30
0.0
 10
99.6439620917
 20
80.9073567348
 30
0.0
 10
99.6712963463
 20
80.4353349564
 30
0.0
 10
99.6951098428
 20
80.0963817044
 30
0.0
 10
99.7147836976
 20
79.8703353236
 30
0.0
 10
99.7284998732
 20
79.735449428
 30
0.0
 10
99.7421560128
 20
79.6242225399
 30
0.0
 10
99.7555601636
 20
79.5367118675
 30
0.0
 10
99.7688892374
 20
79.4733871081
 30
0.0
 10
99.7791937441
 20
79.4392113223
 30
0.0
 10
99.7855580724
 20
79.4269870812
 30
0.0
  0
SPLINE
  5
4F1
100
AcDbEntity
  8
0
100
AcDbSpline
 62
7
  6
CONTINUOUS
 70
0
 71
3
 72
8
 73
4
 74
0
 42
0.0000001
 43
0.0000001
 44
0.0000000001
 40
0.0
 40
0.0
 40
0.0
 40
0.0
 40
1.0
 40
1.0
 40
1.0
 40
1.0
 10
99.1771915622
 20
80.5937796571
 30
0.0
 10
99.1756338384
 20
80.5967652996
 30
0.0
 10
99.1742367906
 20
80.599836244
 30
0.0
 10
99.1729377603
 20
80.6029431854
 30
0.0
  0
SPLINE
  5
4F2
100
AcDbEntity
  8
0
100
AcDbSpline
 62
7
  6
CONTINUOUS
 70
0
 71
3
 72
9
 73
5
 74
0
 42
0.0000001
 43
0.0000001
 44
0.0000000001
 40
0.0
 40
0.0
 40
0.0
 40
0.0
 40
0.2245469538
 40
1.0
 40
1.0
 40
1.0
 40
1.0
 10
99.1729377603
 20
80.6029431854
 30
0.0
 10
99.1722640751
 20
80.6045544645
 30
0.0
 10
99.1693848582
 20
80.6117807684
 30
0.0
 10
99.1669245144
 20
80.6191682834
 30
0.0
 10
99.165155345
 20
80.6249341619
 30
0.0
  0
SPLINE
  5
4F3
100
AcDbEntity
  8
0
100
AcDbSpline
 62
7
  6
CONTINUOUS
 70
0
 71
3
 72
24
 73
20
 74
0
 42
0.0000001
 43
0.0000001
 44
0.0000000001
 40
0.0
 40
0.0
 40
0.0
 40
0.0
 40
0.0060994077
 40
0.0154654682
 40
0.0280699788
 40
0.0438392373
 40
0.0626830376
 40
0.0844807287
 40
0.1363825077
 40
0.1982408168
 40
0.2684955329
 40
0.3453723127
 40
0.4269283753
 40
0.5111020832
 40
0.5957653471
 40
0.7580402654
 40
0.8974487938
 40
0.9540742588
 40
1.0
 40
1.0
 40
1.0
 40
1.0
 10
99.165155345
 20
80.6249341619
 30
0.0
 10
99.1547213235
 20
80.6589395558
 30
0.0
 10
99.1378717909
 20
80.747858544
 30
0.0
 10
99.1158328856
 20
80.9099623975
 30
0.0
 10
99.0937158844
 20
81.1290237429
 30
0.0
 10
99.0711676376
 20
81.4034447865
 30
0.0
 10
99.0485462677
 20
81.7316542016
 30
0.0
 10
99.0163331904
 20
82.2703814328
 30
0.0
 10
98.9773220091
 20
83.0599751733
 30
0.0
 10
98.93235923
 20
84.132161864
 30
0.0
 10
98.887212778
 20
85.3501033468
 30
0.0
 10
98.841921691
 20
86.682981005
 30
0.0
 10
98.7965600588
 20
88.0970721668
 30
0.0
 10
98.7511593241
 20
89.5565927401
 30
0.0
 10
98.6914672644
 20
91.4866286937
 30
0.0
 10
98.6197944765
 20
93.738556182
 30
0.0
 10
98.5442298376
 20
95.8267871821
 30
0.0
 10
98.4800135163
 20
97.236377747
 30
0.0
 10
98.4469218776
 20
97.8335385325
 30
0.0
 10
98.4293979129
 20
98.1007915309
 30
0.0
  0
SPLINE
  5
4F4
100
AcDbEntity
  8
0
100
AcDbSpline
 62
7
  6
CONTINUOUS
 70
0
 71
3
 72
42
 73
38
 74
0
 42
0.0000001
 43
0.0000001
 44
0.0000000001
 40
0.0
 40
0.0
 40
0.0
 40
0.0
 40
0.0008830148
 40
0.001682199
 40
0.0027517684
 40
0.0057272588
 40
0.0098335361
 40
0.0150700101
 40
0.0214274043
 40
0.0288943616
 40
0.0374560999
 40
0.0577795718
 40
0.0822158093
 40
0.1105375461
 40
0.1424857296
 40
0.1777626304
 40
0.2160411138
 40
0.2569656318
 40
0.3001538684
 40
0.3917011042
 40
0.4872904583
 40
0.5833709747
 40
0.6763725794
 40
0.7628457531
 40
0.8026184285
 40
0.8395826826
 40
0.8733932618
 40
0.9037383415
 40
0.9303355919
 40
0.9529397039
 40
0.9713452079
 40
0.9789188132
 40
0.9853841404
 40
0.9907295343
 40
0.9949452317
 40
0.9980293513
 40
1.0
 40
1.0
 40
1.0
 40
1.0
 10
102.5222560618
 20
100.3723060442
 30
0.0
 10
102.5284314077
 20
100.3723060442
 30
0.0
 10
102.536901844
 20
100.3601713965
 30
0.0
 10
102.5439924836
 20
100.3434320502
 30
0.0
 10
102.554434251
 20
100.3106009466
 30
0.0
 10
102.5660824922
 20
100.2550976843
 30
0.0
 10
102.5796783952
 20
100.1698498834
 30
0.0
 10
102.5932404695
 20
100.0609387219
 30
0.0
 10
102.6069759638
 20
99.9283194665
 30
0.0
 10
102.62074373
 20
99.7723719758
 30
0.0
 10
102.6402933844
 20
99.518889904
 30
0.0
 10
102.6641059495
 20
99.1467368424
 30
0.0
 10
102.69150288
 20
98.6363729777
 30
0.0
 10
102.7190048908
 20
98.0446170628
 30
0.0
 10
102.7465862809
 20
97.3769797702
 30
0.0
 10
102.7742187913
 20
96.639658959
 30
0.0
 10
102.8018866817
 20
95.8395234913
 30
0.0
 10
102.8295795655
 20
94.98403044
 30
0.0
 10
102.8672611604
 20
93.7561334973
 30
0.0
 10
102.9136226989
 20
92.1460277596
 30
0.0
 10
102.9683292856
 20
90.1661104126
 30
0.0
 10
103.0230386097
 20
88.1760180212
 30
0.0
 10
103.077691922
 20
86.2497025366
 30
0.0
 10
103.1242945073
 20
84.7171057563
 30
0.0
 10
103.1622692982
 20
83.576330214
 30
0.0
 10
103.189921891
 20
82.8037121708
 30
0.0
 10
103.2175330081
 20
82.0970695458
 30
0.0
 10
103.245085196
 20
81.4629870602
 30
0.0
 10
103.272534429
 20
80.9073523478
 30
0.0
 10
103.2998685515
 20
80.4353320265
 30
0.0
 10
103.323681977
 20
80.0963797333
 30
0.0
 10
103.3433558733
 20
79.8703338828
 30
0.0
 10
103.3570720988
 20
79.7354483529
 30
0.0
 10
103.3707282191
 20
79.6242218446
 30
0.0
 10
103.3841321461
 20
79.5367114557
 30
0.0
 10
103.3974608509
 20
79.4733868766
 30
0.0
 10
103.4077651662
 20
79.4392111549
 30
0.0
 10
103.4141295138
 20
79.4269869939
 30
0.0
  0
SPLINE
  5
4F5
100
AcDbEntity
  8
0
100
AcDbSpline
 62
7
  6
CONTINUOUS
 70
0
 71
3
 72
9
 73
5
 74
0
 42
0.0000001
 43
0.0000001
 44
0.0000000001
 40
0.0
 40
0.0
 40
0.0
 40
0.0
 40
0.5654221024
 40
1.0
 40
1.0
 40
1.0
 40
1.0
 10
105.3150319421
 20
102.0690282963
 30
0.0
 10
105.3290718455
 20
102.1247148414
 30
0.0
 10
105.3507721411
 20
102.2239698738
 30
0.0
 10
105.362441524
 20
102.3253790912
 30
0.0
 10
105.3624110761
 20
102.3695185833
 30
0.0
  0
SPLINE
  5
4F6
100
AcDbEntity
  8
0
100
AcDbSpline
 62
7
  6
CONTINUOUS
 70
0
 71
3
 72
11
 73
7
 74
0
 42
0.0000001
 43
0.0000001
 44
0.0000000001
 40
0.0
 40
0.0
 40
0.0
 40
0.0
 40
0.1861561713
 40
0.3850139463
 40
0.6484598213
 40
1.0
 40
1.0
 40
1.0
 40
1.0
 10
105.3150319421
 20
102.8923060442
 30
0.0
 10
105.3221321797
 20
102.8923060442
 30
0.0
 10
105.3374443516
 20
102.8884193247
 30
0.0
 10
105.3532321021
 20
102.8677585826
 30
0.0
 10
105.3611056531
 20
102.8374033396
 30
0.0
 10
105.3624223565
 20
102.8138775027
 30
0.0
 10
105.3624110761
 20
102.8004693096
 30
0.0
  0
SPLINE
  5
4F7
100
AcDbEntity
  8
0
100
AcDbSpline
 62
7
  6
CONTINUOUS
 70
0
 71
3
 72
9
 73
5
 74
0
 42
0.0000001
 43
0.0000001
 44
0.0000000001
 40
0.0
 40
0.0
 40
0.0
 40
0.0
 40
0.2549850968
 40
1.0
 40
1.0
 40
1.0
 40
1.0
 10
105.3150319421
 20
94.1127917983
 30
0.0
 10
105.3227790412
 20
94.1562468492
 30
0.0
 10
105.3496060644
 20
94.3272657789
 30
0.0
 10
105.3624508963
 20
94.5006171802
 30
0.0
 10
105.3624110761
 20
94.6295859722
 30
0.0
  0
SPLINE
  5
4F8
100
AcDbEntity
  8
0
100
AcDbSpline
 62
7
  6
CONTINUOUS
 70
0
 71
3
 72
9
 73
5
 74
0
 42
0.0000001
 43
0.0000001
 44
0.0000000001
 40
0.0
 40
0.0
 40
0.0
 40
0.0
 40
0.4706831317
 40
1.0
 40
1.0
 40
1.0
 40
1.0
 10
105.3150319421
 20
96.1003601031
 30
0.0
 10
105.3316697907
 20
96.0343693138
 30
0.0
 10
105.3555897923
 20
95.8912374519
 30
0.0
 10
105.3624355227
 20
95.7465267599
 30
0.0
 10
105.3624110761
 20
95.6699930603
 30
0.0
  0
SPLINE
  5
4F9
100
AcDbEntity
  8
0
100
AcDbSpline
 62
7
  6
CONTINUOUS
 70
0
 71
3
 72
9
 73
5
 74
0
 42
0.0000001
 43
0.0000001
 44
0.0000000001
 40
0.0
 40
0.0
 40
0.0
 40
0.0
 40
0.4706831316
 40
1.0
 40
1.0
 40
1.0
 40
1.0
 10
105.3150319421
 20
83.6842519854
 30
0.0
 10
105.3316697907
 20
83.7502427747
 30
0.0
 10
105.3555897923
 20
83.8933746366
 30
0.0
 10
105.3624355227
 20
84.0380853286
 30
0.0
 10
105.3624110761
 20
84.1146190282
 30
0.0
  0
SPLINE
  5
4FA
100
AcDbEntity
  8
0
100
AcDbSpline
 62
7
  6
CONTINUOUS
 70
0
 71
3
 72
9
 73
5
 74
0
 42
0.0000001
 43
0.0000001
 44
0.0000000001
 40
0.0
 40
0.0
 40
0.0
 40
0.0
 40
0.2549850968
 40
1.0
 40
1.0
 40
1.0
 40
1.0
 10
105.3150319421
 20
85.6718202902
 30
0.0
 10
105.3227790412
 20
85.6283652393
 30
0.0
 10
105.3496060644
 20
85.4573463096
 30
0.0
 10
105.3624508963
 20
85.2839949083
 30
0.0
 10
105.3624110761
 20
85.1550261163
 30
0.0
  0
SPLINE
  5
4FB
100
AcDbEntity
  8
0
100
AcDbSpline
 62
7
  6
CONTINUOUS
 70
0
 71
3
 72
11
 73
7
 74
0
 42
0.0000001
 43
0.0000001
 44
0.0000000001
 40
0.0
 40
0.0
 40
0.0
 40
0.0
 40
0.1861561713
 40
0.3850139463
 40
0.6484598213
 40
1.0
 40
1.0
 40
1.0
 40
1.0
 10
105.3150319421
 20
76.8923060442
 30
0.0
 10
105.3221321797
 20
76.8923060442
 30
0.0
 10
105.3374443516
 20
76.8961927638
 30
0.0
 10
105.3532321021
 20
76.9168535059
 30
0.0
 10
105.3611056531
 20
76.9472087489
 30
0.0
 10
105.3624223565
 20
76.9707345858
 30
0.0
 10
105.3624110761
 20
76.9841427789
 30
0.0
  0
SPLINE
  5
4FC
100
AcDbEntity
  8
0
100
AcDbSpline
 62
7
  6
CONTINUOUS
 70
0
 71
3
 72
21
 73
17
 74
0
 42
0.0000001
 43
0.0000001
 44
0.0000000001
 40
0.0
 40
0.0
 40
0.0
 40
0.0
 40
0.1949288649
 40
0.3827395674
 40
0.5555980741
 40
0.7070929186
 40
0.7730199331
 40
0.8314905545
 40
0.8819225211
 40
0.9238821894
 40
0.9569478267
 40
0.9807664984
 40
0.9891521903
 40
0.9951646917
 40
0.9987861023
 40
1.0
 40
1.0
 40
1.0
 40
1.0
 10
109.3293983742
 20
110.8923060442
 30
0.0
 10
109.3034077321
 20
110.892343836
 30
0.0
 10
109.2523755264
 20
110.8924143483
 30
0.0
 10
109.1782952633
 20
110.892361247
 30
0.0
 10
109.1100066627
 20
110.8921634882
 30
0.0
 10
109.0579684478
 20
110.8922716693
 30
0.0
 10
109.0211836241
 20
110.8923974484
 30
0.0
 10
108.9978708124
 20
110.8924243335
 30
0.0
 10
108.9777618568
 20
110.8923731507
 30
0.0
 10
108.96101709
 20
110.892272154
 30
0.0
 10
108.9478830433
 20
110.8922400319
 30
0.0
 10
108.9390858906
 20
110.8921452169
 30
0.0
 10
108.9341180683
 20
110.8922732779
 30
0.0
 10
108.9315040197
 20
110.8921106981
 30
0.0
 10
108.9304330322
 20
110.8924577972
 30
0.0
 10
108.9293983742
 20
110.8921441903
 30
0.0
 10
108.9293983742
 20
110.8923060442
 30
0.0
  0
SPLINE
  5
4FD
100
AcDbEntity
  8
0
100
AcDbSpline
 62
7
  6
CONTINUOUS
 70
0
 71
3
 72
21
 73
17
 74
0
 42
0.0000001
 43
0.0000001
 44
0.0000000001
 40
0.0
 40
0.0
 40
0.0
 40
0.0
 40
0.1949195876
 40
0.3827121673
 40
0.5555694749
 40
0.707065966
 40
0.7729932287
 40
0.8314623396
 40
0.8818993248
 40
0.9238669043
 40
0.9569368625
 40
0.9807606648
 40
0.9891496444
 40
0.9951650103
 40
0.9987880197
 40
1.0
 40
1.0
 40
1.0
 40
1.0
 10
109.3293983742
 20
108.5232461519
 30
0.0
 10
109.3034091128
 20
108.523199529
 30
0.0
 10
109.2523808252
 20
108.5231211087
 30
0.0
 10
109.1783047213
 20
108.5231680052
 30
0.0
 10
109.1100188544
 20
108.5233549818
 30
0.0
 10
109.0579807715
 20
108.5233142367
 30
0.0
 10
109.0211959479
 20
108.5232343935
 30
0.0
 10
108.99788278
 20
108.5232070733
 30
0.0
 10
108.9777723991
 20
108.5232121173
 30
0.0
 10
108.961025102
 20
108.5232560924
 30
0.0
 10
108.9478889363
 20
108.5232365624
 30
0.0
 10
108.9390895305
 20
108.5233331774
 30
0.0
 10
108.9341210857
 20
108.523203988
 30
0.0
 10
108.9315044695
 20
108.5234049418
 30
0.0
 10
108.9304355408
 20
108.523033299
 30
0.0
 10
108.9293983742
 20
108.5234077494
 30
0.0
 10
108.9293983742
 20
108.5232461519
 30
0.0
  0
SPLINE
  5
4FE
100
AcDbEntity
  8
0
100
AcDbSpline
 62
7
  6
CONTINUOUS
 70
0
 71
3
 72
9
 73
5
 74
0
 42
0.0000001
 43
0.0000001
 44
0.0000000001
 40
0.0
 40
0.0
 40
0.0
 40
0.0
 40
0.5654221026
 40
1.0
 40
1.0
 40
1.0
 40
1.0
 10
105.3150319421
 20
77.7155837922
 30
0.0
 10
105.3290718455
 20
77.6598972471
 30
0.0
 10
105.3507721411
 20
77.5606422147
 30
0.0
 10
105.362441524
 20
77.4592329972
 30
0.0
 10
105.3624110761
 20
77.4150935052
 30
0.0
  0
SPLINE
  5
4FF
100
AcDbEntity
  8
0
100
AcDbSpline
 62
7
  6
CONTINUOUS
 70
0
 71
3
 72
21
 73
17
 74
0
 42
0.0000001
 43
0.0000001
 44
0.0000000001
 40
0.0
 40
0.0
 40
0.0
 40
0.0
 40
0.1949288649
 40
0.3827395674
 40
0.5555980741
 40
0.7070929186
 40
0.7730199331
 40
0.8314905545
 40
0.8819225211
 40
0.9238821894
 40
0.9569478267
 40
0.9807664984
 40
0.9891521903
 40
0.9951646917
 40
0.9987861023
 40
1.0
 40
1.0
 40
1.0
 40
1.0
 10
109.3293983742
 20
110.8923060442
 30
0.0
 10
109.3293605824
 20
110.9182966863
 30
0.0
 10
109.3292900701
 20
110.969328892
 30
0.0
 10
109.3293431714
 20
111.0434091551
 30
0.0
 10
109.3295409302
 20
111.1116977557
 30
0.0
 10
109.3294327491
 20
111.1637359706
 30
0.0
 10
109.32930697
 20
111.2005207943
 30
0.0
 10
109.3292800849
 20
111.223833606
 30
0.0
 10
109.3293312677
 20
111.2439425616
 30
0.0
 10
109.3294322644
 20
111.2606873285
 30
0.0
 10
109.3294643865
 20
111.2738213751
 30
0.0
 10
109.3295592015
 20
111.2826185278
 30
0.0
 10
109.3294311405
 20
111.2875863501
 30
0.0
 10
109.3295937203
 20
111.2902003988
 30
0.0
 10
109.3292466212
 20
111.2912713862
 30
0.0
 10
109.3295602281
 20
111.2923060442
 30
0.0
 10
109.3293983742
 20
111.2923060442
 30
0.0
  0
SPLINE
  5
500
100
AcDbEntity
  8
0
100
AcDbSpline
 62
7
  6
CONTINUOUS
 70
0
 71
3
 72
9
 73
5
 74
0
 42
0.0000001
 43
0.0000001
 44
0.0000000001
 40
0.0
 40
0.0
 40
0.0
 40
0.0
 40
0.2455529338
 40
1.0
 40
1.0
 40
1.0
 40
1.0
 10
126.6729199793
 20
102.8265107285
 30
0.0
 10
126.6865165747
 20
102.8311991806
 30
0.0
 10
126.7393660931
 20
102.8576356438
 30
0.0
 10
126.7796806875
 20
102.9041561047
 30
0.0
 10
126.8024945204
 20
102.9420000258
 30
0.0
  0
SPLINE
  5
501
100
AcDbEntity
  8
0
100
AcDbSpline
 62
7
  6
CONTINUOUS
 70
0
 71
3
 72
11
 73
7
 74
0
 42
0.0000001
 43
0.0000001
 44
0.0000000001
 40
0.0
 40
0.0
 40
0.0
 40
0.0
 40
0.21079431
 40
0.456280833
 40
0.7243673073
 40
1.0
 40
1.0
 40
1.0
 40
1.0
 10
127.0151848118
 20
102.1610854104
 30
0.0
 10
126.9771670421
 20
102.1981703693
 30
0.0
 10
126.9044569907
 20
102.2882313848
 30
0.0
 10
126.8116294061
 20
102.4458434223
 30
0.0
 10
126.7317479554
 20
102.6283967541
 30
0.0
 10
126.6902732915
 20
102.759268009
 30
0.0
 10
126.6729199792
 20
102.8265107285
 30
0.0
  0
SPLINE
  5
502
100
AcDbEntity
  8
0
100
AcDbSpline
 62
7
  6
CONTINUOUS
 70
0
 71
3
 72
9
 73
5
 74
0
 42
0.0000001
 43
0.0000001
 44
0.0000000001
 40
0.0
 40
0.0
 40
0.0
 40
0.0
 40
0.5036005116
 40
1.0
 40
1.0
 40
1.0
 40
1.0
 10
127.0151848118
 20
102.1610854071
 30
0.0
 10
127.1464435581
 20
102.169068533
 30
0.0
 10
127.406196642
 20
102.2311956288
 30
0.0
 10
127.629222857
 20
102.3788327539
 30
0.0
 10
127.722291593
 20
102.4690535869
 30
0.0
  0
SPLINE
  5
503
100
AcDbEntity
  8
0
100
AcDbSpline
 62
7
  6
CONTINUOUS
 70
0
 71
3
 72
12
 73
8
 74
0
 42
0.0000001
 43
0.0000001
 44
0.0000000001
 40
0.0
 40
0.0
 40
0.0
 40
0.0
 40
0.0789989437
 40
0.1781965155
 40
0.425884132
 40
0.7126344447
 40
1.0
 40
1.0
 40
1.0
 40
1.0
 10
127.722291593
 20
102.4690535869
 30
0.0
 10
127.6947919725
 20
102.4702669889
 30
0.0
 10
127.6331709557
 20
102.4805848537
 30
0.0
 10
127.4908956108
 20
102.5233023304
 30
0.0
 10
127.2891771044
 20
102.6152875017
 30
0.0
 10
127.0422294615
 20
102.7607727981
 30
0.0
 10
126.8799900489
 20
102.8785935565
 30
0.0
 10
126.8024945204
 20
102.9420000258
 30
0.0
  0
SPLINE
  5
504
100
AcDbEntity
  8
0
100
AcDbSpline
 62
7
  6
CONTINUOUS
 70
0
 71
3
 72
9
 73
5
 74
0
 42
0.0000001
 43
0.0000001
 44
0.0000000001
 40
0.0
 40
0.0
 40
0.0
 40
0.0
 40
0.5214778178
 40
1.0
 40
1.0
 40
1.0
 40
1.0
 10
127.1820095644
 20
103.5696655221
 30
0.0
 10
127.3267074669
 20
103.8082508476
 30
0.0
 10
127.6642838718
 20
104.2324604386
 30
0.0
 10
128.1135993337
 20
104.5435863949
 30
0.0
 10
128.3481804339
 20
104.6462181377
 30
0.0
  0
SPLINE
  5
505
100
AcDbEntity
  8
0
100
AcDbSpline
 62
7
  6
CONTINUOUS
 70
0
 71
3
 72
13
 73
9
 74
0
 42
0.0000001
 43
0.0000001
 44
0.0000000001
 40
0.0
 40
0.0
 40
0.0
 40
0.0
 40
0.0791779541
 40
0.1786252352
 40
0.2958962074
 40
0.4274588006
 40
0.714695752
 40
1.0
 40
1.0
 40
1.0
 40
1.0
 10
128.1365052034
 20
103.0867856679
 30
0.0
 10
128.1078762605
 20
103.0859866908
 30
0.0
 10
128.0431409586
 20
103.0932936476
 30
0.0
 10
127.9394778528
 20
103.1205146027
 30
0.0
 10
127.8213416368
 20
103.1648412535
 30
0.0
 10
127.6455537657
 20
103.2470074415
 30
0.0
 10
127.4259804188
 20
103.3772755559
 30
0.0
 10
127.2599997843
 20
103.5020807768
 30
0.0
 10
127.1820095577
 20
103.5696655221
 30
0.0
  0
SPLINE
  5
506
100
AcDbEntity
  8
0
100
AcDbSpline
 62
7
  6
CONTINUOUS
 70
0
 71
3
 72
9
 73
5
 74
0
 42
0.0000001
 43
0.0000001
 44
0.0000000001
 40
0.0
 40
0.0
 40
0.0
 40
0.0
 40
0.5308155672
 40
1.0
 40
1.0
 40
1.0
 40
1.0
 10
128.1365051553
 20
103.0867857089
 30
0.0
 10
128.2246614417
 20
103.2625411569
 30
0.0
 10
128.4275268638
 20
103.5766628243
 30
0.0
 10
128.7003063994
 20
103.8347095055
 30
0.0
 10
128.8436119365
 20
103.9330380969
 30
0.0
  0
SPLINE
  5
507
100
AcDbEntity
  8
0
100
AcDbSpline
 62
7
  6
CONTINUOUS
 70
0
 71
3
 72
26
 73
22
 74
0
 42
0.0000001
 43
0.0000001
 44
0.0000000001
 40
0.0
 40
0.0
 40
0.0
 40
0.0
 40
0.2096616699
 40
0.4014263011
 40
0.5723062242
 40
0.6489630369
 40
0.7191944665
 40
0.7825536967
 40
0.838602403
 40
0.8869138913
 40
0.9270720785
 40
0.9439841784
 40
0.9587318515
 40
0.9712752334
 40
0.9815764814
 40
0.9896138105
 40
0.9953729774
 40
0.9973938113
 40
0.9988397773
 40
0.999709099
 40
1.0
 40
1.0
 40
1.0
 40
1.0
 10
128.3481804339
 20
104.6462181377
 30
0.0
 10
128.5907146883
 20
104.752330322
 30
0.0
 10
129.0509265813
 20
104.9651102754
 30
0.0
 10
129.695901299
 20
105.2912307153
 30
0.0
 10
130.1836592317
 20
105.5555087182
 30
0.0
 10
130.5330666811
 20
105.7527561744
 30
0.0
 10
130.7629316188
 20
105.8855688371
 30
0.0
 10
130.9692214528
 20
106.0071498271
 30
0.0
 10
131.1508683568
 20
106.1160201724
 30
0.0
 10
131.3067744271
 20
106.2108446331
 30
0.0
 10
131.4201128862
 20
106.2805573833
 30
0.0
 10
131.497193124
 20
106.328325213
 30
0.0
 10
131.5445811209
 20
106.35781398
 30
0.0
 10
131.584835697
 20
106.3829631259
 30
0.0
 10
131.6178997936
 20
106.4036408001
 30
0.0
 10
131.6436439199
 20
106.4198404654
 30
0.0
 10
131.6606215618
 20
106.4303999778
 30
0.0
 10
131.6703885737
 20
106.4366972304
 30
0.0
 10
131.6751710353
 20
106.4394664967
 30
0.0
 10
131.6776873046
 20
106.4414882734
 30
0.0
 10
131.6792024563
 20
106.4419953482
 30
0.0
 10
131.6793983742
 20
106.4423060442
 30
0.0
  0
SPLINE
  5
508
100
AcDbEntity
  8
0
100
AcDbSpline
 62
7
  6
CONTINUOUS
 70
0
 71
3
 72
40
 73
36
 74
0
 42
0.0000001
 43
0.0000001
 44
0.0000000001
 40
0.0
 40
0.0
 40
0.0
 40
0.0
 40
0.0022811267
 40
0.0056675026
 40
0.0101713971
 40
0.0157897092
 40
0.030335174
 40
0.0491866833
 40
0.0721800255
 40
0.0991037963
 40
0.1297155056
 40
0.1637307916
 40
0.200839819
 40
0.2406987844
 40
0.3271791441
 40
0.4199909257
 40
0.5157190447
 40
0.6108406805
 40
0.7018553992
 40
0.7447664879
 40
0.7854145263
 40
0.8234232295
 40
0.8584451126
 40
0.8901549344
 40
0.9182647888
 40
0.9425142867
 40
0.9626854494
 40
0.9785966727
 40
0.9849118341
 40
0.9901148483
 40
0.9942012119
 40
0.9971735311
 40
0.998248395
 40
0.999059065
 40
1.0
 40
1.0
 40
1.0
 40
1.0
 10
100.9896044578
 20
80.5975835591
 30
0.0
 10
100.9835679657
 20
80.6104138988
 30
0.0
 10
100.973243273
 20
80.6443281542
 30
0.0
 10
100.9599340457
 20
80.7060863011
 30
0.0
 10
100.9464887337
 20
80.789031184
 30
0.0
 10
100.9265778914
 20
80.9410626052
 30
0.0
 10
100.9029353786
 20
81.1824864929
 30
0.0
 10
100.8758918643
 20
81.531962919
 30
0.0
 10
100.8486963565
 20
81.9585757622
 30
0.0
 10
100.8213274394
 20
82.4583956284
 30
0.0
 10
100.7938876236
 20
83.0268154884
 30
0.0
 10
100.7663830921
 20
83.6586082918
 30
0.0
 10
100.7388423839
 20
84.3479300212
 30
0.0
 10
100.7010492696
 20
85.3632204448
 30
0.0
 10
100.6546538237
 20
86.7246730896
 30
0.0
 10
100.6002183595
 20
88.4333285832
 30
0.0
 10
100.5457312551
 20
90.1957227487
 30
0.0
 10
100.4912491436
 20
91.9469410266
 30
0.0
 10
100.445070333
 20
93.3699488968
 30
0.0
 10
100.4075394984
 20
94.45444876
 30
0.0
 10
100.3799639613
 20
95.2096099767
 30
0.0
 10
100.3524118435
 20
95.9156983265
 30
0.0
 10
100.3248976095
 20
96.5661830745
 30
0.0
 10
100.2974315525
 20
97.1550792431
 30
0.0
 10
100.2700392081
 20
97.6769372889
 30
0.0
 10
100.2427808473
 20
98.1269687995
 30
0.0
 10
100.2156674752
 20
98.5010201176
 30
0.0
 10
100.191981687
 20
98.7635207328
 30
0.0
 10
100.1721964862
 20
98.9328965188
 30
0.0
 10
100.1586751308
 20
99.0289256618
 30
0.0
 10
100.1451367662
 20
99.1040543293
 30
0.0
 10
100.1335153651
 20
99.1530893794
 30
0.0
 10
100.1231424963
 20
99.1818897101
 30
0.0
 10
100.1159331642
 20
99.1970734706
 30
0.0
 10
100.1073579588
 20
99.2072878084
 30
0.0
 10
100.1015091207
 20
99.2072849276
 30
0.0
  0
SPLINE
  5
509
100
AcDbEntity
  8
0
100
AcDbSpline
 62
7
  6
CONTINUOUS
 70
0
 71
3
 72
11
 73
7
 74
0
 42
0.0000001
 43
0.0000001
 44
0.0000000001
 40
0.0
 40
0.0
 40
0.0
 40
0.0
 40
0.2176103583
 40
0.4648039409
 40
0.7305822194
 40
1.0
 40
1.0
 40
1.0
 40
1.0
 10
128.8436119365
 20
103.9330380664
 30
0.0
 10
128.7861018068
 20
103.9624880157
 30
0.0
 10
128.6738674112
 20
104.046343846
 30
0.0
 10
128.5336373139
 20
104.2135818937
 30
0.0
 10
128.4198217311
 20
104.417517498
 30
0.0
 10
128.3673713536
 20
104.5685597564
 30
0.0
 10
128.3481803534
 20
104.6462181377
 30
0.0
  0
SPLINE
  5
50A
100
AcDbEntity
  8
0
100
AcDbSpline
 62
7
  6
CONTINUOUS
 70
0
 71
3
 72
24
 73
20
 74
0
 42
0.0000001
 43
0.0000001
 44
0.0000000001
 40
0.0
 40
0.0
 40
0.0
 40
0.0
 40
0.2087990803
 40
0.4001812209
 40
0.5710366497
 40
0.6477782736
 40
0.7181406643
 40
0.781662289
 40
0.8378901238
 40
0.8863839115
 40
0.9267135953
 40
0.9585212617
 40
0.9711266306
 40
0.9814800782
 40
0.9895586914
 40
0.9953478939
 40
0.9973794302
 40
0.9988331703
 40
1.0
 40
1.0
 40
1.0
 40
1.0
 10
128.8436119365
 20
103.9330380969
 30
0.0
 10
129.1050647277
 20
104.0327823205
 30
0.0
 10
129.6026622079
 20
104.2332407316
 30
0.0
 10
130.303160796
 20
104.5416873513
 30
0.0
 10
130.8352749275
 20
104.7927748911
 30
0.0
 10
131.2176759315
 20
104.98081818
 30
0.0
 10
131.46982007
 20
105.1077356927
 30
0.0
 10
131.6964712928
 20
105.2241291626
 30
0.0
 10
131.896332548
 20
105.3285199197
 30
0.0
 10
132.0680912068
 20
105.4195687282
 30
0.0
 10
132.2105729664
 20
105.4959652767
 30
0.0
 10
132.3104549639
 20
105.5500220934
 30
0.0
 10
132.3749111763
 20
105.5851344615
 30
0.0
 10
132.4114309446
 20
105.6050427229
 30
0.0
 10
132.4398875731
 20
105.6206772043
 30
0.0
 10
132.4586214085
 20
105.6307993103
 30
0.0
 10
132.4694528744
 20
105.636940873
 30
0.0
 10
132.4750307588
 20
105.6396608058
 30
0.0
 10
132.4778881383
 20
105.6419003115
 30
0.0
 10
132.4793983742
 20
105.6423060442
 30
0.0
  0
SPLINE
  5
50B
100
AcDbEntity
  8
0
100
AcDbSpline
 62
7
  6
CONTINUOUS
 70
0
 71
3
 72
18
 73
14
 74
0
 42
0.0000001
 43
0.0000001
 44
0.0000000001
 40
0.0
 40
0.0
 40
0.0
 40
0.0
 40
0.0039611421
 40
0.0157931938
 40
0.0354513828
 40
0.0628954253
 40
0.098089614
 40
0.1410028658
 40
0.2498149399
 40
0.3890502905
 40
0.559063237
 40
0.7612695536
 40
1.0
 40
1.0
 40
1.0
 40
1.0
 10
114.1793983742
 20
103.3409155072
 30
0.0
 10
114.1794171482
 20
103.3405850956
 30
0.0
 10
114.1814520631
 20
103.3409634641
 30
0.0
 10
114.18365446
 20
103.3398286596
 30
0.0
 10
114.1889163038
 20
103.339365504
 30
0.0
 10
114.1955357958
 20
103.3381794842
 30
0.0
 10
114.2043410951
 20
103.3370351537
 30
0.0
 10
114.21980704
 20
103.3350898069
 30
0.0
 10
114.2440302074
 20
103.3327281609
 30
0.0
 10
114.2789526844
 20
103.3314598649
 30
0.0
 10
114.3217063286
 20
103.3329380364
 30
0.0
 10
114.372419543
 20
103.3396449087
 30
0.0
 10
114.4080715779
 20
103.3495525982
 30
0.0
 10
114.426873124
 20
103.3562099814
 30
0.0
  0
SPLINE
  5
50C
100
AcDbEntity
  8
0
100
AcDbSpline
 62
7
  6
CONTINUOUS
 70
0
 71
3
 72
21
 73
17
 74
0
 42
0.0000001
 43
0.0000001
 44
0.0000000001
 40
0.0
 40
0.0
 40
0.0
 40
0.0
 40
0.001002423
 40
0.0040052511
 40
0.0090008047
 40
0.0159816141
 40
0.0358700983
 40
0.0636152939
 40
0.0991652263
 40
0.142471451
 40
0.1934877536
 40
0.2521784161
 40
0.3925697206
 40
0.5639621455
 40
0.7663812016
 40
1.0
 40
1.0
 40
1.0
 40
1.0
 10
113.7650164573
 20
102.6399884825
 30
0.0
 10
113.7650206142
 20
102.6398280442
 30
0.0
 10
113.7660345187
 20
102.6403441615
 30
0.0
 10
113.7670988869
 20
102.640113652
 30
0.0
 10
113.7696801698
 20
102.6406806341
 30
0.0
 10
113.774604363
 20
102.6412684333
 30
0.0
 10
113.7833379291
 20
102.642714869
 30
0.0
 10
113.7964296961
 20
102.6448585589
 30
0.0
 10
113.8132460393
 20
102.6478949605
 30
0.0
 10
113.8336612742
 20
102.6518041262
 30
0.0
 10
113.8576593976
 20
102.6567471735
 30
0.0
 10
113.8967000935
 20
102.6656546992
 30
0.0
 10
113.9539663976
 20
102.6812387097
 30
0.0
 10
114.0319953488
 20
102.7076804382
 30
0.0
 10
114.1216055012
 20
102.7457478383
 30
0.0
 10
114.1831598442
 20
102.7789730275
 30
0.0
 10
114.2151848118
 20
102.7982969376
 30
0.0
  0
SPLINE
  5
50D
100
AcDbEntity
  8
0
100
AcDbSpline
 62
7
  6
CONTINUOUS
 70
0
 71
3
 72
9
 73
5
 74
0
 42
0.0000001
 43
0.0000001
 44
0.0000000001
 40
0.0
 40
0.0
 40
0.0
 40
0.0
 40
0.1783162429
 40
1.0
 40
1.0
 40
1.0
 40
1.0
 10
114.426873124
 20
103.3562099814
 30
0.0
 10
114.4872590028
 20
103.377609232
 30
0.0
 10
114.8242734091
 20
103.5021623148
 30
0.0
 10
115.1522754873
 20
103.6511714032
 30
0.0
 10
115.4149608037
 20
103.7858860325
 30
0.0
  0
SPLINE
  5
50E
100
AcDbEntity
  8
0
100
AcDbSpline
 62
7
  6
CONTINUOUS
 70
0
 71
3
 72
9
 73
5
 74
0
 42
0.0000001
 43
0.0000001
 44
0.0000000001
 40
0.0
 40
0.0
 40
0.0
 40
0.0
 40
0.4970823711
 40
1.0
 40
1.0
 40
1.0
 40
1.0
 10
114.2151848152
 20
102.7982969342
 30
0.0
 10
114.284008918
 20
102.8718535807
 30
0.0
 10
114.3939936894
 20
103.0490195685
 30
0.0
 10
114.4287181895
 20
103.2543101726
 30
0.0
 10
114.4268731436
 20
103.3562099814
 30
0.0
  0
SPLINE
  5
50F
100
AcDbEntity
  8
0
100
AcDbSpline
 62
7
  6
CONTINUOUS
 70
0
 71
3
 72
9
 73
5
 74
0
 42
0.0000001
 43
0.0000001
 44
0.0000000001
 40
0.0
 40
0.0
 40
0.0
 40
0.0
 40
0.1800415802
 40
1.0
 40
1.0
 40
1.0
 40
1.0
 10
114.2151848118
 20
102.7982969376
 30
0.0
 10
114.2814383406
 20
102.821625095
 30
0.0
 10
114.6479188297
 20
102.9554334053
 30
0.0
 10
115.0061306569
 20
103.1120080181
 30
0.0
 10
115.2936119365
 20
103.2523185106
 30
0.0
  0
SPLINE
  5
510
100
AcDbEntity
  8
0
100
AcDbSpline
 62
7
  6
CONTINUOUS
 70
0
 71
3
 72
11
 73
7
 74
0
 42
0.0000001
 43
0.0000001
 44
0.0000000001
 40
0.0
 40
0.0
 40
0.0
 40
0.0
 40
0.2165505689
 40
0.4508996508
 40
0.7112076325
 40
1.0
 40
1.0
 40
1.0
 40
1.0
 10
115.4149608037
 20
103.7858860325
 30
0.0
 10
115.5357401979
 20
103.8478088373
 30
0.0
 10
115.8095171189
 20
103.9358284278
 30
0.0
 10
116.2592574804
 20
103.9519505868
 30
0.0
 10
116.744958581
 20
103.8593693355
 30
0.0
 10
117.0666836407
 20
103.731326687
 30
0.0
 10
117.2290043785
 20
103.6512292958
 30
0.0
  0
SPLINE
  5
511
100
AcDbEntity
  8
0
100
AcDbSpline
 62
7
  6
CONTINUOUS
 70
0
 71
3
 72
9
 73
5
 74
0
 42
0.0000001
 43
0.0000001
 44
0.0000000001
 40
0.0
 40
0.0
 40
0.0
 40
0.0
 40
0.4837323167
 40
1.0
 40
1.0
 40
1.0
 40
1.0
 10
115.2936120299
 20
103.2523184226
 30
0.0
 10
115.3455449487
 20
103.3255129892
 30
0.0
 10
115.4202993612
 20
103.5013810522
 30
0.0
 10
115.4266853087
 20
103.6908233249
 30
0.0
 10
115.4149608486
 20
103.7858860325
 30
0.0
  0
SPLINE
  5
512
100
AcDbEntity
  8
0
100
AcDbSpline
 62
7
  6
CONTINUOUS
 70
0
 71
3
 72
10
 73
6
 74
0
 42
0.0000001
 43
0.0000001
 44
0.0000000001
 40
0.0
 40
0.0
 40
0.0
 40
0.0
 40
0.4329101754
 40
0.6985538276
 40
1.0
 40
1.0
 40
1.0
 40
1.0
 10
115.2936119365
 20
103.2523185106
 30
0.0
 10
115.4977731809
 20
103.3147668014
 30
0.0
 10
115.8608587541
 20
103.2984448782
 30
0.0
 10
116.3294066623
 20
103.1476530927
 30
0.0
 10
116.5803670078
 20
103.0198954123
 30
0.0
 10
116.7078254989
 20
102.9433747234
 30
0.0
  0
SPLINE
  5
513
100
AcDbEntity
  8
0
100
AcDbSpline
 62
7
  6
CONTINUOUS
 70
0
 71
3
 72
14
 73
10
 74
0
 42
0.0000001
 43
0.0000001
 44
0.0000000001
 40
0.0
 40
0.0
 40
0.0
 40
0.0
 40
0.2277425968
 40
0.3524899936
 40
0.4821406093
 40
0.6144156909
 40
0.7465510011
 40
0.8758142923
 40
1.0
 40
1.0
 40
1.0
 40
1.0
 10
117.2290043785
 20
103.6512292958
 30
0.0
 10
117.8933095682
 20
103.3233748347
 30
0.0
 10
118.9518870268
 20
102.8711442031
 30
0.0
 10
120.4603244786
 20
102.4345395716
 30
0.0
 10
121.7009548789
 20
102.2114915958
 30
0.0
 10
122.9839635264
 20
102.1372164668
 30
0.0
 10
124.2648718913
 20
102.2249355073
 30
0.0
 10
125.499639773
 20
102.459061857
 30
0.0
 10
126.2910271362
 20
102.694846133
 30
0.0
 10
126.6729199793
 20
102.8265107285
 30
0.0
  0
SPLINE
  5
514
100
AcDbEntity
  8
0
100
AcDbSpline
 62
7
  6
CONTINUOUS
 70
0
 71
3
 72
11
 73
7
 74
0
 42
0.0000001
 43
0.0000001
 44
0.0000000001
 40
0.0
 40
0.0
 40
0.0
 40
0.0
 40
0.2216188114
 40
0.4699950885
 40
0.7342374574
 40
1.0
 40
1.0
 40
1.0
 40
1.0
 10
116.7078254989
 20
102.9433746836
 30
0.0
 10
116.7679389011
 20
102.9722355109
 30
0.0
 10
116.885509915
 20
103.0544991341
 30
0.0
 10
117.0334967137
 20
103.2204487349
 30
0.0
 10
117.1534909521
 20
103.423127706
 30
0.0
 10
117.208863004
 20
103.5738425015
 30
0.0
 10
117.2290044152
 20
103.6512292958
 30
0.0
  0
SPLINE
  5
515
100
AcDbEntity
  8
0
100
AcDbSpline
 62
7
  6
CONTINUOUS
 70
0
 71
3
 72
14
 73
10
 74
0
 42
0.0000001
 43
0.0000001
 44
0.0000000001
 40
0.0
 40
0.0
 40
0.0
 40
0.0
 40
0.2289479873
 40
0.3539155971
 40
0.4833673809
 40
0.6151244545
 40
0.7467221274
 40
0.8757210369
 40
1.0
 40
1.0
 40
1.0
 40
1.0
 10
116.7078254989
 20
102.9433747234
 30
0.0
 10
117.4490591339
 20
102.6254427296
 30
0.0
 10
118.6224569508
 20
102.1918549718
 30
0.0
 10
120.2767058083
 20
101.7807658308
 30
0.0
 10
121.6237122402
 20
101.5745547644
 30
0.0
 10
123.0085650301
 20
101.5079960304
 30
0.0
 10
124.3909188905
 20
101.5913593851
 30
0.0
 10
125.7308287444
 20
101.8117985147
 30
0.0
 10
126.5957954998
 20
102.0354212367
 30
0.0
 10
127.0151848118
 20
102.1610854071
 30
0.0
  0
SPLINE
  5
516
100
AcDbEntity
  8
GEOM
100
AcDbSpline
 62
7
  6
CONTINUOUS
 70
0
 71
3
 72
11
 73
7
 74
0
 42
0.0000001
 43
0.0000001
 44
0.0000000001
 40
0.0
 40
0.0
 40
0.0
 40
0.0
 40
0.2494413288
 40
0.4991482516
 40
0.7493126612
 40
1.0
 40
1.0
 40
1.0
 40
1.0
 10
108.1901678896
 20
102.8923060442
 30
0.0
 10
108.2776566347
 20
102.8923061147
 30
0.0
 10
108.4536179348
 20
102.8686832109
 30
0.0
 10
108.6983364935
 20
102.7648316188
 30
0.0
 10
108.9075183515
 20
102.6000913127
 30
0.0
 10
109.013564009
 20
102.4570114217
 30
0.0
 10
109.0561946244
 20
102.380111672
 30
0.0
  0
SPLINE
  5
517
100
AcDbEntity
  8
GEOM
100
AcDbSpline
 62
7
  6
CONTINUOUS
 70
0
 71
3
 72
11
 73
7
 74
0
 42
0.0000001
 43
0.0000001
 44
0.0000000001
 40
0.0
 40
0.0
 40
0.0
 40
0.0
 40
0.2486975607
 40
0.4980192203
 40
0.7484079731
 40
1.0
 40
1.0
 40
1.0
 40
1.0
 10
107.9473607899
 20
102.8923060442
 30
0.0
 10
108.0354825533
 20
102.8923060364
 30
0.0
 10
108.2128924314
 20
102.8678093348
 30
0.0
 10
108.4588010713
 20
102.7602690048
 30
0.0
 10
108.6676025726
 20
102.5900687141
 30
0.0
 10
108.7719246062
 20
102.4429024871
 30
0.0
 10
108.8133861246
 20
102.363983568
 30
0.0
  0
SPLINE
  5
518
100
AcDbEntity
  8
GEOM
100
AcDbSpline
 62
7
  6
CONTINUOUS
 70
0
 71
3
 72
11
 73
7
 74
0
 42
0.0000001
 43
0.0000001
 44
0.0000000001
 40
0.0
 40
0.0
 40
0.0
 40
0.0
 40
0.2540747147
 40
0.5064378225
 40
0.7553491449
 40
1.0
 40
1.0
 40
1.0
 40
1.0
 10
107.9303602685
 20
102.8004693096
 30
0.0
 10
108.0172446913
 20
102.8004693172
 30
0.0
 10
108.1911481324
 20
102.7789747145
 30
0.0
 10
108.4345427975
 20
102.6849588872
 30
0.0
 10
108.6439105535
 20
102.5345473015
 30
0.0
 10
108.7525584396
 20
102.4023449441
 30
0.0
 10
108.7963856723
 20
102.3310815545
 30
0.0
  0
SPLINE
  5
519
100
AcDbEntity
  8
GEOM
100
AcDbSpline
 62
7
  6
CONTINUOUS
 70
0
 71
3
 72
11
 73
7
 74
0
 42
0.0000001
 43
0.0000001
 44
0.0000000001
 40
0.0
 40
0.0
 40
0.0
 40
0.0
 40
0.2562257067
 40
0.5097536993
 40
0.7580606115
 40
1.0
 40
1.0
 40
1.0
 40
1.0
 10
107.9303602685
 20
102.3695185833
 30
0.0
 10
108.0172016284
 20
102.3695185833
 30
0.0
 10
108.1906445581
 20
102.3488352223
 30
0.0
 10
108.4337204633
 20
102.2582713106
 30
0.0
 10
108.6430757958
 20
102.1132237087
 30
0.0
 10
108.752368056
 20
101.9849851829
 30
0.0
 10
108.7963856723
 20
101.9158017637
 30
0.0
  0
SPLINE
  5
51A
100
AcDbEntity
  8
GEOM
100
AcDbSpline
 62
7
  6
CONTINUOUS
 70
0
 71
3
 72
11
 73
7
 74
0
 42
0.0000001
 43
0.0000001
 44
0.0000000001
 40
0.0
 40
0.0
 40
0.0
 40
0.0
 40
0.2792751587
 40
0.541994127
 40
0.7823088945
 40
1.0
 40
1.0
 40
1.0
 40
1.0
 10
107.94736079
 20
102.0690227534
 30
0.0
 10
108.0339235676
 20
102.0807484223
 30
0.0
 10
108.2045628688
 20
102.0879577905
 30
0.0
 10
108.4479228636
 20
102.0479071073
 30
0.0
 10
108.657711206
 20
101.9589926247
 30
0.0
 10
108.7700192401
 20
101.865245866
 30
0.0
 10
108.8133861306
 20
101.8127515035
 30
0.0
  0
SPLINE
  5
51B
100
AcDbEntity
  8
GEOM
100
AcDbSpline
 62
7
  6
CONTINUOUS
 70
0
 71
3
 72
11
 73
7
 74
0
 42
0.0000001
 43
0.0000001
 44
0.0000000001
 40
0.0
 40
0.0
 40
0.0
 40
0.0
 40
0.2757807192
 40
0.537855255
 40
0.7798456511
 40
1.0
 40
1.0
 40
1.0
 40
1.0
 10
108.1901678896
 20
100.9938825089
 30
0.0
 10
108.2765309478
 20
101.0016219437
 30
0.0
 10
108.4468394566
 20
101.0012771595
 30
0.0
 10
108.6888752756
 20
100.9521633279
 30
0.0
 10
108.8982545271
 20
100.8573681839
 30
0.0
 10
109.0115712528
 20
100.7622322923
 30
0.0
 10
109.0561928872
 20
100.7093149475
 30
0.0
  0
SPLINE
  5
51C
100
AcDbEntity
  8
GEOM
100
AcDbSpline
 62
7
  6
CONTINUOUS
 70
0
 71
3
 72
10
 73
6
 74
0
 42
0.0000001
 43
0.0000001
 44
0.0000000001
 40
0.0
 40
0.0
 40
0.0
 40
0.0
 40
0.2660508306
 40
0.5271517507
 40
1.0
 40
1.0
 40
1.0
 40
1.0
 10
108.1901678896
 20
97.175505919
 30
0.0
 10
108.2779907699
 20
97.1676356267
 30
0.0
 10
108.4511964224
 20
97.1355606644
 30
0.0
 10
108.7609135117
 20
97.0165902348
 30
0.0
 10
108.9635861345
 20
96.862141922
 30
0.0
 10
109.0561932911
 20
96.7357199649
 30
0.0
  0
SPLINE
  5
51D
100
AcDbEntity
  8
GEOM
100
AcDbSpline
 62
7
  6
CONTINUOUS
 70
0
 71
3
 72
10
 73
6
 74
0
 42
0.0000001
 43
0.0000001
 44
0.0000000001
 40
0.0
 40
0.0
 40
0.0
 40
0.0
 40
0.263654171
 40
0.6496347116
 40
1.0
 40
1.0
 40
1.0
 40
1.0
 10
107.9473607899
 20
96.1003601031
 30
0.0
 10
108.0361834755
 20
96.0883290179
 30
0.0
 10
108.2525707246
 20
96.0376450877
 30
0.0
 10
108.561461912
 20
95.8858059079
 30
0.0
 10
108.7467425353
 20
95.7082003182
 30
0.0
 10
108.8133861439
 20
95.6094760926
 30
0.0
  0
SPLINE
  5
51E
100
AcDbEntity
  8
GEOM
100
AcDbSpline
 62
7
  6
CONTINUOUS
 70
0
 71
3
 72
11
 73
7
 74
0
 42
0.0000001
 43
0.0000001
 44
0.0000000001
 40
0.0
 40
0.0
 40
0.0
 40
0.0
 40
0.286967226
 40
0.5582953772
 40
0.7993756895
 40
1.0
 40
1.0
 40
1.0
 40
1.0
 10
107.9303602685
 20
95.6699930605
 30
0.0
 10
108.0167187742
 20
95.6699930805
 30
0.0
 10
108.1848622439
 20
95.6608894143
 30
0.0
 10
108.4227223197
 20
95.6208954253
 30
0.0
 10
108.6282094931
 20
95.5570687819
 30
0.0
 10
108.7475705702
 20
95.4954229956
 30
0.0
 10
108.7963856723
 20
95.4598953507
 30
0.0
  0
SPLINE
  5
51F
100
AcDbEntity
  8
GEOM
100
AcDbSpline
 62
7
  6
CONTINUOUS
 70
0
 71
3
 72
11
 73
7
 74
0
 42
0.0000001
 43
0.0000001
 44
0.0000000001
 40
0.0
 40
0.0
 40
0.0
 40
0.0
 40
0.2905817892
 40
0.5641411928
 40
0.8045757121
 40
1.0
 40
1.0
 40
1.0
 40
1.0
 10
107.9303602685
 20
94.6295859722
 30
0.0
 10
108.016675449
 20
94.6295859722
 30
0.0
 10
108.1843328969
 20
94.6221515739
 30
0.0
 10
108.4215487196
 20
94.5895439753
 30
0.0
 10
108.6261363004
 20
94.5375801352
 30
0.0
 10
108.7465372738
 20
94.487067906
 30
0.0
 10
108.7963856723
 20
94.4573212476
 30
0.0
  0
SPLINE
  5
520
100
AcDbEntity
  8
GEOM
100
AcDbSpline
 62
7
  6
CONTINUOUS
 70
0
 71
3
 72
11
 73
7
 74
0
 42
0.0000001
 43
0.0000001
 44
0.0000000001
 40
0.0
 40
0.0
 40
0.0
 40
0.0
 40
0.2905818053
 40
0.5641412244
 40
0.804575736
 40
1.0
 40
1.0
 40
1.0
 40
1.0
 10
107.9303602685
 20
85.1550261162
 30
0.0
 10
108.0166754519
 20
85.155026137
 30
0.0
 10
108.1843329036
 20
85.1624605673
 30
0.0
 10
108.421548725
 20
85.1950681827
 30
0.0
 10
108.626136299
 20
85.247032008
 30
0.0
 10
108.7465372706
 20
85.2975442044
 30
0.0
 10
108.7963856723
 20
85.3272908409
 30
0.0
  0
SPLINE
  5
521
100
AcDbEntity
  8
GEOM
100
AcDbSpline
 62
7
  6
CONTINUOUS
 70
0
 71
3
 72
11
 73
7
 74
0
 42
0.0000001
 43
0.0000001
 44
0.0000000001
 40
0.0
 40
0.0
 40
0.0
 40
0.0
 40
0.2869672285
 40
0.5582953821
 40
0.7993757031
 40
1.0
 40
1.0
 40
1.0
 40
1.0
 10
107.9303602685
 20
84.1146190282
 30
0.0
 10
108.0167187728
 20
84.1146190282
 30
0.0
 10
108.1848622377
 20
84.1237227221
 30
0.0
 10
108.4227223081
 20
84.163716727
 30
0.0
 10
108.628209478
 20
84.227543356
 30
0.0
 10
108.7475705639
 20
84.289189111
 30
0.0
 10
108.7963856723
 20
84.3247167378
 30
0.0
  0
SPLINE
  5
522
100
AcDbEntity
  8
GEOM
100
AcDbSpline
 62
7
  6
CONTINUOUS
 70
0
 71
3
 72
10
 73
6
 74
0
 42
0.0000001
 43
0.0000001
 44
0.0000000001
 40
0.0
 40
0.0
 40
0.0
 40
0.0
 40
0.2636539724
 40
0.6496347804
 40
1.0
 40
1.0
 40
1.0
 40
1.0
 10
107.94736079
 20
83.6842575278
 30
0.0
 10
108.0361831695
 20
83.6962883661
 30
0.0
 10
108.252569927
 20
83.7469714679
 30
0.0
 10
108.5614608927
 20
83.8988085626
 30
0.0
 10
108.746742207
 20
84.0764124456
 30
0.0
 10
108.8133861306
 20
84.1751359992
 30
0.0
  0
SPLINE
  5
523
100
AcDbEntity
  8
GEOM
100
AcDbSpline
 62
7
  6
CONTINUOUS
 70
0
 71
3
 72
10
 73
6
 74
0
 42
0.0000001
 43
0.0000001
 44
0.0000000001
 40
0.0
 40
0.0
 40
0.0
 40
0.0
 40
0.2660508456
 40
0.527151767
 40
1.0
 40
1.0
 40
1.0
 40
1.0
 10
108.1901678896
 20
82.609106198
 30
0.0
 10
108.2779907444
 20
82.6169765131
 30
0.0
 10
108.4511963381
 20
82.6490515108
 30
0.0
 10
108.7609132977
 20
82.7680219804
 30
0.0
 10
108.9635858086
 20
82.9224703032
 30
0.0
 10
109.0561928872
 20
83.0488922483
 30
0.0
  0
SPLINE
  5
524
100
AcDbEntity
  8
GEOM
100
AcDbSpline
 62
7
  6
CONTINUOUS
 70
0
 71
3
 72
11
 73
7
 74
0
 42
0.0000001
 43
0.0000001
 44
0.0000000001
 40
0.0
 40
0.0
 40
0.0
 40
0.0
 40
0.275780708
 40
0.5378552431
 40
0.7798456445
 40
1.0
 40
1.0
 40
1.0
 40
1.0
 10
108.1901678896
 20
78.7907295483
 30
0.0
 10
108.2765309727
 20
78.7829900853
 30
0.0
 10
108.4468395386
 20
78.7833348202
 30
0.0
 10
108.6888754562
 20
78.8324485964
 30
0.0
 10
108.8982548156
 20
78.9272437082
 30
0.0
 10
109.0115716177
 20
79.0223795961
 30
0.0
 10
109.0561932882
 20
79.0752969453
 30
0.0
  0
SPLINE
  5
525
100
AcDbEntity
  8
GEOM
100
AcDbSpline
 62
7
  6
CONTINUOUS
 70
0
 71
3
 72
11
 73
7
 74
0
 42
0.0000001
 43
0.0000001
 44
0.0000000001
 40
0.0
 40
0.0
 40
0.0
 40
0.0
 40
0.279275575
 40
0.5419946484
 40
0.7823092599
 40
1.0
 40
1.0
 40
1.0
 40
1.0
 10
107.9473607899
 20
77.7155837922
 30
0.0
 10
108.0339238957
 20
77.7038587764
 30
0.0
 10
108.2045636293
 20
77.6966507684
 30
0.0
 10
108.4479237178
 20
77.7367033443
 30
0.0
 10
108.6577116326
 20
77.8256191059
 30
0.0
 10
108.7700193496
 20
77.9193661757
 30
0.0
 10
108.8133861439
 20
77.9718605781
 30
0.0
  0
SPLINE
  5
526
100
AcDbEntity
  8
GEOM
100
AcDbSpline
 62
7
  6
CONTINUOUS
 70
0
 71
3
 72
11
 73
7
 74
0
 42
0.0000001
 43
0.0000001
 44
0.0000000001
 40
0.0
 40
0.0
 40
0.0
 40
0.0
 40
0.2562257196
 40
0.5097537252
 40
0.7580606295
 40
1.0
 40
1.0
 40
1.0
 40
1.0
 10
107.9303602685
 20
77.4150935052
 30
0.0
 10
108.0172016315
 20
77.4150935146
 30
0.0
 10
108.1906445645
 20
77.4357768935
 30
0.0
 10
108.4337204685
 20
77.5263408111
 30
0.0
 10
108.6430757971
 20
77.671388403
 30
0.0
 10
108.7523680557
 20
77.7996269145
 30
0.0
 10
108.7963856723
 20
77.8688103248
 30
0.0
  0
SPLINE
  5
527
100
AcDbEntity
  8
GEOM
100
AcDbSpline
 62
7
  6
CONTINUOUS
 70
0
 71
3
 72
11
 73
7
 74
0
 42
0.0000001
 43
0.0000001
 44
0.0000000001
 40
0.0
 40
0.0
 40
0.0
 40
0.0
 40
0.2540747132
 40
0.5064378195
 40
0.7553491493
 40
1.0
 40
1.0
 40
1.0
 40
1.0
 10
107.9303602685
 20
76.9841427789
 30
0.0
 10
108.0172446898
 20
76.9841427789
 30
0.0
 10
108.1911481259
 20
77.0056373893
 30
0.0
 10
108.4345427867
 20
77.0996532213
 30
0.0
 10
108.6439105433
 20
77.2500647994
 30
0.0
 10
108.7525584375
 20
77.3822671487
 30
0.0
 10
108.7963856723
 20
77.453530534
 30
0.0
  0
SPLINE
  5
528
100
AcDbEntity
  8
GEOM
100
AcDbSpline
 62
7
  6
CONTINUOUS
 70
0
 71
3
 72
11
 73
7
 74
0
 42
0.0000001
 43
0.0000001
 44
0.0000000001
 40
0.0
 40
0.0
 40
0.0
 40
0.0
 40
0.2486974446
 40
0.4980190655
 40
0.7484078637
 40
1.0
 40
1.0
 40
1.0
 40
1.0
 10
107.94736079
 20
76.8923138826
 30
0.0
 10
108.0354821931
 20
76.8923132422
 30
0.0
 10
108.2128915547
 20
76.9168084155
 30
0.0
 10
108.4588001567
 20
77.0243463544
 30
0.0
 10
108.6676021203
 20
77.1945446689
 30
0.0
 10
108.7719244936
 20
77.3417099814
 30
0.0
 10
108.8133861306
 20
77.4206285172
 30
0.0
  0
SPLINE
  5
529
100
AcDbEntity
  8
GEOM
100
AcDbSpline
 62
7
  6
CONTINUOUS
 70
0
 71
3
 72
11
 73
7
 74
0
 42
0.0000001
 43
0.0000001
 44
0.0000000001
 40
0.0
 40
0.0
 40
0.0
 40
0.0
 40
0.2494413234
 40
0.4991482441
 40
0.7493126562
 40
1.0
 40
1.0
 40
1.0
 40
1.0
 10
108.1901678896
 20
76.8923060442
 30
0.0
 10
108.2776565578
 20
76.892306069
 30
0.0
 10
108.4536176809
 20
76.9159291793
 30
0.0
 10
108.6983358655
 20
77.0197810789
 30
0.0
 10
108.9075172577
 20
77.1845216119
 30
0.0
 10
109.0135625888
 20
77.3276015523
 30
0.0
 10
109.056193056
 20
77.4045012999
 30
0.0
  0
SPLINE
  5
52A
100
AcDbEntity
  8
GEOM
100
AcDbSpline
 62
7
  6
CONTINUOUS
 70
0
 71
3
 72
9
 73
5
 74
0
 42
0.0000001
 43
0.0000001
 44
0.0000000001
 40
0.0
 40
0.0
 40
0.0
 40
0.0
 40
0.5634403956
 40
1.0
 40
1.0
 40
1.0
 40
1.0
 10
107.9473607899
 20
102.0690282963
 30
0.0
 10
107.942258308
 20
102.1253364487
 30
0.0
 10
107.9344615522
 20
102.2253855491
 30
0.0
 10
107.9303678924
 20
102.32571167
 30
0.0
 10
107.9303602685
 20
102.3695185833
 30
0.0
  0
SPLINE
  5
52B
100
AcDbEntity
  8
GEOM
100
AcDbSpline
 62
7
  6
CONTINUOUS
 70
0
 71
3
 72
12
 73
8
 74
0
 42
0.0000001
 43
0.0000001
 44
0.0000000001
 40
0.0
 40
0.0
 40
0.0
 40
0.0
 40
0.4143575251
 40
0.71431987
 40
0.821941309
 40
0.9027070731
 40
1.0
 40
1.0
 40
1.0
 40
1.0
 10
107.9303602685
 20
102.8004693096
 30
0.0
 10
107.9303630974
 20
102.8137950352
 30
0.0
 10
107.93086962
 20
102.8367918692
 30
0.0
 10
107.9330995809
 20
102.863107784
 30
0.0
 10
107.9366952319
 20
102.8785824306
 30
0.0
 10
107.9395296588
 20
102.8869909466
 30
0.0
 10
107.9442318523
 20
102.8923050211
 30
0.0
 10
107.9473607899
 20
102.8923060442
 30
0.0
  0
SPLINE
  5
52C
100
AcDbEntity
  8
GEOM
100
AcDbSpline
 62
7
  6
CONTINUOUS
 70
0
 71
3
 72
9
 73
5
 74
0
 42
0.0000001
 43
0.0000001
 44
0.0000000001
 40
0.0
 40
0.0
 40
0.0
 40
0.0
 40
0.2720071769
 40
1.0
 40
1.0
 40
1.0
 40
1.0
 10
107.9303602685
 20
95.6699930603
 30
0.0
 10
107.9303634165
 20
95.7090532069
 30
0.0
 10
107.931649559
 20
95.8526373776
 30
0.0
 10
107.9379288778
 20
95.9962693614
 30
0.0
 10
107.9473624746
 20
96.1003823945
 30
0.0
  0
SPLINE
  5
52D
100
AcDbEntity
  8
GEOM
100
AcDbSpline
 62
7
  6
CONTINUOUS
 70
0
 71
3
 72
9
 73
5
 74
0
 42
0.0000001
 43
0.0000001
 44
0.0000000001
 40
0.0
 40
0.0
 40
0.0
 40
0.0
 40
0.2548993413
 40
1.0
 40
1.0
 40
1.0
 40
1.0
 10
107.9473607899
 20
94.1127917983
 30
0.0
 10
107.9445512423
 20
94.1566398484
 30
0.0
 10
107.9349153836
 20
94.328745003
 30
0.0
 10
107.9303702741
 20
94.5011501402
 30
0.0
 10
107.9303602685
 20
94.6295859722
 30
0.0
  0
SPLINE
  5
52E
100
AcDbEntity
  8
GEOM
100
AcDbSpline
 62
7
  6
CONTINUOUS
 70
0
 71
3
 72
9
 73
5
 74
0
 42
0.0000001
 43
0.0000001
 44
0.0000000001
 40
0.0
 40
0.0
 40
0.0
 40
0.0
 40
0.2261730887
 40
1.0
 40
1.0
 40
1.0
 40
1.0
 10
107.9473607899
 20
83.6842519854
 30
0.0
 10
107.9444299106
 20
83.7165968927
 30
0.0
 10
107.9337425241
 20
83.8598107708
 30
0.0
 10
107.9303692243
 20
84.0035010126
 30
0.0
 10
107.9303602685
 20
84.1146190282
 30
0.0
  0
SPLINE
  5
52F
100
AcDbEntity
  8
GEOM
100
AcDbSpline
 62
7
  6
CONTINUOUS
 70
0
 71
3
 72
9
 73
5
 74
0
 42
0.0000001
 43
0.0000001
 44
0.0000000001
 40
0.0
 40
0.0
 40
0.0
 40
0.0
 40
0.4365570078
 40
1.0
 40
1.0
 40
1.0
 40
1.0
 10
107.9303602685
 20
77.4150935052
 30
0.0
 10
107.9303678926
 20
77.458903411
 30
0.0
 10
107.9344619946
 20
77.559236988
 30
0.0
 10
107.9422599272
 20
77.6592934602
 30
0.0
 10
107.9473624746
 20
77.7156060841
 30
0.0
  0
SPLINE
  5
530
100
AcDbEntity
  8
GEOM
100
AcDbSpline
 62
7
  6
CONTINUOUS
 70
0
 71
3
 72
12
 73
8
 74
0
 42
0.0000001
 43
0.0000001
 44
0.0000000001
 40
0.0
 40
0.0
 40
0.0
 40
0.0
 40
0.0972928978
 40
0.1780586672
 40
0.285680113
 40
0.5856424661
 40
1.0
 40
1.0
 40
1.0
 40
1.0
 10
107.9473607899
 20
76.8923060442
 30
0.0
 10
107.9442318534
 20
76.8923070664
 30
0.0
 10
107.9395296622
 20
76.8976211435
 30
0.0
 10
107.9366952359
 20
76.9060296578
 30
0.0
 10
107.9330995813
 20
76.9215043044
 30
0.0
 10
107.9308696183
 20
76.9478202191
 30
0.0
 10
107.9303630976
 20
76.9708170534
 30
0.0
 10
107.9303602685
 20
76.9841427789
 30
0.0
  0
SPLINE
  5
531
100
AcDbEntity
  8
GEOM
100
AcDbSpline
 62
7
  6
CONTINUOUS
 70
0
 71
3
 72
18
 73
14
 74
0
 42
0.0000001
 43
0.0000001
 44
0.0000000001
 40
0.0
 40
0.0
 40
0.0
 40
0.0
 40
0.2265749595
 40
0.4263473006
 40
0.5981598077
 40
0.7408686488
 40
0.8533154762
 40
0.8978777107
 40
0.9345046966
 40
0.9630818415
 40
0.9835495822
 40
0.9958687587
 40
1.0
 40
1.0
 40
1.0
 40
1.0
 10
109.0561932934
 20
102.3801109223
 30
0.0
 10
109.0613736739
 20
102.3956455374
 30
0.0
 10
109.0715930001
 20
102.4247229252
 30
0.0
 10
109.0872084891
 20
102.4650418388
 30
0.0
 10
109.1016123557
 20
102.4993148263
 30
0.0
 10
109.1142962402
 20
102.5274445013
 30
0.0
 10
109.1235942276
 20
102.5470224502
 30
0.0
 10
109.1297995599
 20
102.5595493399
 30
0.0
 10
109.1333248214
 20
102.5666928449
 30
0.0
 10
109.1362178892
 20
102.5720746222
 30
0.0
 10
109.1380351716
 20
102.5763384902
 30
0.0
 10
109.13962357
 20
102.5781501093
 30
0.0
 10
109.1398002321
 20
102.5797827936
 30
0.0
 10
109.1400979092
 20
102.5798060442
 30
0.0
  0
SPLINE
  5
532
100
AcDbEntity
  8
GEOM
100
AcDbSpline
 62
7
  6
CONTINUOUS
 70
0
 71
3
 72
11
 73
7
 74
0
 42
0.0000001
 43
0.0000001
 44
0.0000000001
 40
0.0
 40
0.0
 40
0.0
 40
0.0
 40
0.2759642982
 40
0.5354482471
 40
0.7770140831
 40
1.0
 40
1.0
 40
1.0
 40
1.0
 10
109.0561932934
 20
96.7357199656
 30
0.0
 10
109.0775214211
 20
97.1010060082
 30
0.0
 10
109.1198518039
 20
97.8097129738
 30
0.0
 10
109.1492989199
 20
98.8399317389
 30
0.0
 10
109.1235008088
 20
99.8000944613
 30
0.0
 10
109.0790707882
 20
100.4145388082
 30
0.0
 10
109.0561932934
 20
100.7093151457
 30
0.0
  0
SPLINE
  5
533
100
AcDbEntity
  8
GEOM
100
AcDbSpline
 62
7
  6
CONTINUOUS
 70
0
 71
3
 72
11
 73
7
 74
0
 42
0.0000001
 43
0.0000001
 44
0.0000000001
 40
0.0
 40
0.0
 40
0.0
 40
0.0
 40
0.2493809848
 40
0.500000546
 40
0.7506196018
 40
1.0
 40
1.0
 40
1.0
 40
1.0
 10
109.0561932934
 20
87.0825499467
 30
0.0
 10
109.0781993453
 20
87.5494082116
 30
0.0
 10
109.1216049195
 20
88.485503124
 30
0.0
 10
109.1493534371
 20
89.8923081673
 30
0.0
 10
109.1216053444
 20
91.2991121326
 30
0.0
 10
109.0781991226
 20
92.235204967
 30
0.0
 10
109.0561932934
 20
92.7020621418
 30
0.0
  0
SPLINE
  5
534
100
AcDbEntity
  8
GEOM
100
AcDbSpline
 62
7
  6
CONTINUOUS
 70
0
 71
3
 72
11
 73
7
 74
0
 42
0.0000001
 43
0.0000001
 44
0.0000000001
 40
0.0
 40
0.0
 40
0.0
 40
0.0
 40
0.2229858697
 40
0.4645516532
 40
0.7240356149
 40
1.0
 40
1.0
 40
1.0
 40
1.0
 10
109.0561932934
 20
79.0752969428
 30
0.0
 10
109.079070777
 20
79.3700732181
 30
0.0
 10
109.1235009794
 20
79.9845174243
 30
0.0
 10
109.1492986252
 20
80.9446800397
 30
0.0
 10
109.1198520011
 20
81.9748988737
 30
0.0
 10
109.0775213933
 20
82.6836059637
 30
0.0
 10
109.0561932934
 20
83.0488921229
 30
0.0
  0
SPLINE
  5
535
100
AcDbEntity
  8
GEOM
100
AcDbSpline
 62
7
  6
CONTINUOUS
 70
0
 71
3
 72
18
 73
14
 74
0
 42
0.0000001
 43
0.0000001
 44
0.0000000001
 40
0.0
 40
0.0
 40
0.0
 40
0.0
 40
0.0041290427
 40
0.0164481599
 40
0.0369169362
 40
0.0654951986
 40
0.1021224052
 40
0.1466841307
 40
0.2591299511
 40
0.4018395222
 40
0.5736530557
 40
0.7734252584
 40
1.0
 40
1.0
 40
1.0
 40
1.0
 10
109.1400979092
 20
77.2048060442
 30
0.0
 10
109.1398004625
 20
77.2048301868
 30
0.0
 10
109.1396253392
 20
77.2064613198
 30
0.0
 10
109.1380356164
 20
77.2082741305
 30
0.0
 10
109.1362185883
 20
77.2125372002
 30
0.0
 10
109.1333245794
 20
77.2179191761
 30
0.0
 10
109.1297990982
 20
77.2250624521
 30
0.0
 10
109.1235935617
 20
77.2375892269
 30
0.0
 10
109.1142957651
 20
77.2571671518
 30
0.0
 10
109.1016122847
 20
77.2852970946
 30
0.0
 10
109.0872087287
 20
77.3195703285
 30
0.0
 10
109.0715929677
 20
77.3598891897
 30
0.0
 10
109.0613735941
 20
77.38896654
 30
0.0
 10
109.0561932934
 20
77.4045011662
 30
0.0
  0
SPLINE
  5
536
100
AcDbEntity
  8
GEOM
100
AcDbSpline
 62
7
  6
CONTINUOUS
 70
0
 71
3
 72
11
 73
7
 74
0
 42
0.0000001
 43
0.0000001
 44
0.0000000001
 40
0.0
 40
0.0
 40
0.0
 40
0.0
 40
0.3438978943
 40
0.6061299058
 40
0.8092662545
 40
1.0
 40
1.0
 40
1.0
 40
1.0
 10
108.7963856723
 20
102.3310815545
 30
0.0
 10
108.7963860462
 20
102.3357466298
 30
0.0
 10
108.7968614537
 20
102.343993169
 30
0.0
 10
108.7997395705
 20
102.3547161575
 30
0.0
 10
108.8053712205
 20
102.3621141749
 30
0.0
 10
108.8108041873
 20
102.3638172639
 30
0.0
 10
108.8133861937
 20
102.3639836056
 30
0.0
  0
SPLINE
  5
537
100
AcDbEntity
  8
GEOM
100
AcDbSpline
 62
7
  6
CONTINUOUS
 70
0
 71
3
 72
9
 73
5
 74
0
 42
0.0000001
 43
0.0000001
 44
0.0000000001
 40
0.0
 40
0.0
 40
0.0
 40
0.0
 40
0.5643570715
 40
1.0
 40
1.0
 40
1.0
 40
1.0
 10
108.8133861937
 20
101.8127515363
 30
0.0
 10
108.8083462271
 20
101.8317791226
 30
0.0
 10
108.8005275858
 20
101.8657855927
 30
0.0
 10
108.7963866709
 20
101.9006073236
 30
0.0
 10
108.7963856723
 20
101.9158017637
 30
0.0
  0
SPLINE
  5
538
100
AcDbEntity
  8
GEOM
100
AcDbSpline
 62
7
  6
CONTINUOUS
 70
0
 71
3
 72
9
 73
5
 74
0
 42
0.0000001
 43
0.0000001
 44
0.0000000001
 40
0.0
 40
0.0
 40
0.0
 40
0.0
 40
0.2494959164
 40
1.0
 40
1.0
 40
1.0
 40
1.0
 10
109.0561932934
 20
100.7093151457
 30
0.0
 10
109.0400816948
 20
100.8019037749
 30
0.0
 10
108.9712387548
 20
101.1722569064
 30
0.0
 10
108.8857747602
 20
101.539477157
 30
0.0
 10
108.8133861937
 20
101.8127515363
 30
0.0
  0
SPLINE
  5
539
100
AcDbEntity
  8
GEOM
100
AcDbSpline
 62
7
  6
CONTINUOUS
 70
0
 71
3
 72
9
 73
5
 74
0
 42
0.0000001
 43
0.0000001
 44
0.0000000001
 40
0.0
 40
0.0
 40
0.0
 40
0.0
 40
0.2511579284
 40
1.0
 40
1.0
 40
1.0
 40
1.0
 10
108.8133861937
 20
95.609476105
 30
0.0
 10
108.837544964
 20
95.7028722973
 30
0.0
 10
108.9301250302
 20
96.0756536722
 30
0.0
 10
109.0076789483
 20
96.4522094247
 30
0.0
 10
109.0561932934
 20
96.7357199656
 30
0.0
  0
SPLINE
  5
53A
100
AcDbEntity
  8
GEOM
100
AcDbSpline
 62
7
  6
CONTINUOUS
 70
0
 71
3
 72
9
 73
5
 74
0
 42
0.0000001
 43
0.0000001
 44
0.0000000001
 40
0.0
 40
0.0
 40
0.0
 40
0.0
 40
0.2704408246
 40
1.0
 40
1.0
 40
1.0
 40
1.0
 10
108.7963856723
 20
95.4598953507
 30
0.0
 10
108.7963860859
 20
95.4734853044
 30
0.0
 10
108.7976743197
 20
95.5237009881
 30
0.0
 10
108.8042063828
 20
95.5739828378
 30
0.0
 10
108.8133861937
 20
95.609476105
 30
0.0
  0
SPLINE
  5
53B
100
AcDbEntity
  8
GEOM
100
AcDbSpline
 62
7
  6
CONTINUOUS
 70
0
 71
3
 72
9
 73
5
 74
0
 42
0.0000001
 43
0.0000001
 44
0.0000000001
 40
0.0
 40
0.0
 40
0.0
 40
0.0
 40
0.2550659927
 40
1.0
 40
1.0
 40
1.0
 40
1.0
 10
108.8133861937
 20
94.2786841673
 30
0.0
 10
108.8106077752
 20
94.2936975177
 30
0.0
 10
108.8009790785
 20
94.3527789722
 30
0.0
 10
108.7963869842
 20
94.4127294185
 30
0.0
 10
108.7963856723
 20
94.4573212476
 30
0.0
  0
SPLINE
  5
53C
100
AcDbEntity
  8
GEOM
100
AcDbSpline
 62
7
  6
CONTINUOUS
 70
0
 71
3
 72
9
 73
5
 74
0
 42
0.0000001
 43
0.0000001
 44
0.0000000001
 40
0.0
 40
0.0
 40
0.0
 40
0.0
 40
0.2433202621
 40
1.0
 40
1.0
 40
1.0
 40
1.0
 10
108.7963856723
 20
85.3272908409
 30
0.0
 10
108.7963861007
 20
85.3418564941
 30
0.0
 10
108.7979118126
 20
85.4017132616
 30
0.0
 10
108.8051434587
 20
85.4613878024
 30
0.0
 10
108.8133861937
 20
85.5059279212
 30
0.0
  0
SPLINE
  5
53D
100
AcDbEntity
  8
GEOM
100
AcDbSpline
 62
7
  6
CONTINUOUS
 70
0
 71
3
 72
9
 73
5
 74
0
 42
0.0000001
 43
0.0000001
 44
0.0000000001
 40
0.0
 40
0.0
 40
0.0
 40
0.0
 40
0.2288202037
 40
1.0
 40
1.0
 40
1.0
 40
1.0
 10
108.8133861937
 20
84.1751359835
 30
0.0
 10
108.8105065954
 20
84.1862697998
 30
0.0
 10
108.7998987285
 20
84.2354373535
 30
0.0
 10
108.796386852
 20
84.285958359
 30
0.0
 10
108.7963856723
 20
84.3247167378
 30
0.0
  0
SPLINE
  5
53E
100
AcDbEntity
  8
GEOM
100
AcDbSpline
 62
7
  6
CONTINUOUS
 70
0
 71
3
 72
9
 73
5
 74
0
 42
0.0000001
 43
0.0000001
 44
0.0000000001
 40
0.0
 40
0.0
 40
0.0
 40
0.0
 40
0.2489119161
 40
1.0
 40
1.0
 40
1.0
 40
1.0
 10
109.0561932934
 20
83.0488921229
 30
0.0
 10
109.0400672179
 20
83.1431304971
 30
0.0
 10
108.9710560087
 20
83.5210021504
 30
0.0
 10
108.8856335491
 20
83.8958325532
 30
0.0
 10
108.8133861937
 20
84.1751359835
 30
0.0
  0
SPLINE
  5
53F
100
AcDbEntity
  8
GEOM
100
AcDbSpline
 62
7
  6
CONTINUOUS
 70
0
 71
3
 72
9
 73
5
 74
0
 42
0.0000001
 43
0.0000001
 44
0.0000000001
 40
0.0
 40
0.0
 40
0.0
 40
0.0
 40
0.2506218825
 40
1.0
 40
1.0
 40
1.0
 40
1.0
 10
108.8133861937
 20
77.9718605522
 30
0.0
 10
108.8375593102
 20
78.0631165922
 30
0.0
 10
108.9303365939
 20
78.4281934943
 30
0.0
 10
109.0078013548
 20
78.797202705
 30
0.0
 10
109.0561932934
 20
79.0752969428
 30
0.0
  0
SPLINE
  5
540
100
AcDbEntity
  8
GEOM
100
AcDbSpline
 62
7
  6
CONTINUOUS
 70
0
 71
3
 72
9
 73
5
 74
0
 42
0.0000001
 43
0.0000001
 44
0.0000000001
 40
0.0
 40
0.0
 40
0.0
 40
0.0
 40
0.4356429246
 40
1.0
 40
1.0
 40
1.0
 40
1.0
 10
108.7963856723
 20
77.8688103248
 30
0.0
 10
108.7963866707
 20
77.8840047647
 30
0.0
 10
108.8005275853
 20
77.9188264958
 30
0.0
 10
108.8083462275
 20
77.9528329656
 30
0.0
 10
108.8133861937
 20
77.9718605522
 30
0.0
  0
SPLINE
  5
541
100
AcDbEntity
  8
GEOM
100
AcDbSpline
 62
7
  6
CONTINUOUS
 70
0
 71
3
 72
11
 73
7
 74
0
 42
0.0000001
 43
0.0000001
 44
0.0000000001
 40
0.0
 40
0.0
 40
0.0
 40
0.0
 40
0.1907337466
 40
0.3938701023
 40
0.6561021108
 40
1.0
 40
1.0
 40
1.0
 40
1.0
 10
108.8133861937
 20
77.4206284829
 30
0.0
 10
108.8108041872
 20
77.4207948238
 30
0.0
 10
108.8053712202
 20
77.4224979137
 30
0.0
 10
108.7997395711
 20
77.4298959315
 30
0.0
 10
108.7968614537
 20
77.4406189197
 30
0.0
 10
108.7963860463
 20
77.4488654588
 30
0.0
 10
108.7963856723
 20
77.453530534
 30
0.0
  0
SPLINE
  5
542
100
AcDbEntity
  8
0
100
AcDbSpline
 62
7
  6
CONTINUOUS
 70
0
 71
3
 72
28
 73
24
 74
0
 42
0.0000001
 43
0.0000001
 44
0.0000000001
 40
0.0
 40
0.0
 40
0.0
 40
0.0
 40
0.0007659203
 40
0.0019920041
 40
0.0038189254
 40
0.0062849816
 40
0.0131739505
 40
0.0226870654
 40
0.034810763
 40
0.049503863
 40
0.0667162305
 40
0.0863898856
 40
0.1084488656
 40
0.132813618
 40
0.1880939648
 40
0.2514095056
 40
0.3218166524
 40
0.3982682086
 40
0.4796246298
 40
0.564670945
 40
0.652139279
 40
0.8291051648
 40
1.0
 40
1.0
 40
1.0
 40
1.0
 10
98.9943658748
 20
80.5773271653
 30
0.0
 10
98.9910863428
 20
80.5773255498
 30
0.0
 10
98.9831378167
 20
80.5825481732
 30
0.0
 10
98.9752169199
 20
80.5968337939
 30
0.0
 10
98.9665438378
 20
80.6189156661
 30
0.0
 10
98.9537865576
 20
80.6650922208
 30
0.0
 10
98.9387267445
 20
80.7445668344
 30
0.0
 10
98.9216657447
 20
80.8655130367
 30
0.0
 10
98.9044343506
 20
81.0201367848
 30
0.0
 10
98.8870583154
 20
81.2078631308
 30
0.0
 10
98.8696132819
 20
81.4280313893
 30
0.0
 10
98.8521236006
 20
81.6798190878
 30
0.0
 10
98.8345963727
 20
81.9622950517
 30
0.0
 10
98.810157921
 20
82.3970891467
 30
0.0
 10
98.7801549085
 20
83.0084920139
 30
0.0
 10
98.7453419654
 20
83.8170224486
 30
0.0
 10
98.7104445588
 20
84.7162758588
 30
0.0
 10
98.6754838446
 20
85.6928272122
 30
0.0
 10
98.6404845921
 20
86.7320968774
 30
0.0
 10
98.6054582204
 20
87.8185627733
 30
0.0
 10
98.5585576803
 20
89.31424038
 30
0.0
 10
98.501213048
 20
91.177358265
 30
0.0
 10
98.4538663095
 20
92.6660839039
 30
0.0
 10
98.4293979129
 20
93.3974155605
 30
0.0
  0
SPLINE
  5
543
100
AcDbEntity
  8
0
100
AcDbSpline
 62
7
  6
CONTINUOUS
 70
0
 71
3
 72
9
 73
5
 74
0
 42
0.0000001
 43
0.0000001
 44
0.0000000001
 40
0.0
 40
0.0
 40
0.0
 40
0.0
 40
0.4980008321
 40
1.0
 40
1.0
 40
1.0
 40
1.0
 10
104.9293983742
 20
99.0846942022
 30
0.0
 10
104.9293983741
 20
98.5842057288
 30
0.0
 10
104.9973798281
 20
97.5781403252
 30
0.0
 10
105.1916934754
 20
96.5895581363
 30
0.0
 10
105.3150319421
 20
96.1003601031
 30
0.0
  0
SPLINE
  5
544
100
AcDbEntity
  8
GEOM
100
AcDbSpline
 62
7
  6
CONTINUOUS
 70
0
 71
3
 72
9
 73
5
 74
0
 42
0.0000001
 43
0.0000001
 44
0.0000000001
 40
0.0
 40
0.0
 40
0.0
 40
0.0
 40
0.2509473751
 40
1.0
 40
1.0
 40
1.0
 40
1.0
 10
107.9473665004
 20
96.1003823948
 30
0.0
 10
107.9714781879
 20
96.1893883363
 30
0.0
 10
108.0639967818
 20
96.5450179164
 30
0.0
 10
108.1416085701
 20
96.9045734988
 30
0.0
 10
108.1901678896
 20
97.1755058905
 30
0.0
  0
SPLINE
  5
545
100
AcDbEntity
  8
GEOM
100
AcDbSpline
 62
7
  6
CONTINUOUS
 70
0
 71
3
 72
13
 73
9
 74
0
 42
0.0000001
 43
0.0000001
 44
0.0000000001
 40
0.0
 40
0.0
 40
0.0
 40
0.0
 40
0.2506353966
 40
0.3754653775
 40
0.5000000073
 40
0.6245346659
 40
0.7493646156
 40
1.0
 40
1.0
 40
1.0
 40
1.0
 10
108.1901678896
 20
97.1755058905
 30
0.0
 10
108.2469072419
 20
97.4920810326
 30
0.0
 10
108.3328358983
 20
97.9664931296
 30
0.0
 10
108.4015637601
 20
98.6048048108
 30
0.0
 10
108.420077191
 20
99.08469418
 30
0.0
 10
108.401560994
 20
99.5645833344
 30
0.0
 10
108.3328346485
 20
100.2028950672
 30
0.0
 10
108.2469087224
 20
100.6773076479
 30
0.0
 10
108.1901678896
 20
100.9938825089
 30
0.0
  0
SPLINE
  5
546
100
AcDbEntity
  8
GEOM
100
AcDbSpline
 62
7
  6
CONTINUOUS
 70
0
 71
3
 72
9
 73
5
 74
0
 42
0.0000001
 43
0.0000001
 44
0.0000000001
 40
0.0
 40
0.0
 40
0.0
 40
0.0
 40
0.2491479928
 40
1.0
 40
1.0
 40
1.0
 40
1.0
 10
108.1901678896
 20
100.9938825089
 30
0.0
 10
108.1740157372
 20
101.0840020179
 30
0.0
 10
108.1049551778
 20
101.4449478427
 30
0.0
 10
108.0195067778
 20
101.8027084671
 30
0.0
 10
107.9473607899
 20
102.0690282963
 30
0.0
  0
SPLINE
  5
547
100
AcDbEntity
  8
0
100
AcDbSpline
 62
7
  6
CONTINUOUS
 70
0
 71
3
 72
9
 73
5
 74
0
 42
0.0000001
 43
0.0000001
 44
0.0000000001
 40
0.0
 40
0.0
 40
0.0
 40
0.0
 40
0.5019991721
 40
1.0
 40
1.0
 40
1.0
 40
1.0
 10
105.3150319421
 20
102.0690282963
 30
0.0
 10
105.1916934746
 20
101.5798302599
 30
0.0
 10
104.9973798314
 20
100.591248072
 30
0.0
 10
104.9293983743
 20
99.5851826705
 30
0.0
 10
104.9293983742
 20
99.0846942022
 30
0.0
  0
SPLINE
  5
548
100
AcDbEntity
  8
0
100
AcDbSpline
 62
7
  6
CONTINUOUS
 70
0
 71
3
 72
9
 73
5
 74
0
 42
0.0000001
 43
0.0000001
 44
0.0000000001
 40
0.0
 40
0.0
 40
0.0
 40
0.0
 40
0.499989876
 40
1.0
 40
1.0
 40
1.0
 40
1.0
 10
104.9293983742
 20
89.8923060478
 30
0.0
 10
104.9293983741
 20
89.1852787995
 30
0.0
 10
104.9967162382
 20
87.7704288023
 30
0.0
 10
105.1909357782
 20
86.3679008606
 30
0.0
 10
105.3150319421
 20
85.6718202902
 30
0.0
  0
SPLINE
  5
549
100
AcDbEntity
  8
GEOM
100
AcDbSpline
 62
7
  6
CONTINUOUS
 70
0
 71
3
 72
13
 73
9
 74
0
 42
0.0000001
 43
0.0000001
 44
0.0000000001
 40
0.0
 40
0.0
 40
0.0
 40
0.0
 40
0.2499948042
 40
0.3749986449
 40
0.5000003394
 40
0.6250019907
 40
0.7500055075
 40
1.0
 40
1.0
 40
1.0
 40
1.0
 10
108.1901678896
 20
87.1923060442
 30
0.0
 10
108.2469817436
 20
87.6405585373
 30
0.0
 10
108.3330606453
 20
88.3130784665
 30
0.0
 10
108.4015695237
 20
89.2144555542
 30
0.0
 10
108.4200394349
 20
89.8923078373
 30
0.0
 10
108.4015761892
 20
90.5701599535
 30
0.0
 10
108.3330561631
 20
91.4715350136
 30
0.0
 10
108.2469815948
 20
92.1440541002
 30
0.0
 10
108.1901678896
 20
92.5923060442
 30
0.0
  0
SPLINE
  5
54A
100
AcDbEntity
  8
0
100
AcDbSpline
 62
7
  6
CONTINUOUS
 70
0
 71
3
 72
9
 73
5
 74
0
 42
0.0000001
 43
0.0000001
 44
0.0000000001
 40
0.0
 40
0.0
 40
0.0
 40
0.0
 40
0.5000101282
 40
1.0
 40
1.0
 40
1.0
 40
1.0
 10
105.3150319421
 20
94.1127917983
 30
0.0
 10
105.1909357774
 20
93.4167112232
 30
0.0
 10
104.9967162415
 20
92.0141832834
 30
0.0
 10
104.9293983743
 20
90.5993332889
 30
0.0
 10
104.9293983742
 20
89.8923060478
 30
0.0
  0
SPLINE
  5
54B
100
AcDbEntity
  8
0
100
AcDbSpline
 62
7
  6
CONTINUOUS
 70
0
 71
3
 72
9
 73
5
 74
0
 42
0.0000001
 43
0.0000001
 44
0.0000000001
 40
0.0
 40
0.0
 40
0.0
 40
0.0
 40
0.4980008321
 40
1.0
 40
1.0
 40
1.0
 40
1.0
 10
104.9293983742
 20
80.6999178913
 30
0.0
 10
104.9293983741
 20
80.1994294179
 30
0.0
 10
104.9973798281
 20
79.1933640143
 30
0.0
 10
105.1916934754
 20
78.2047818254
 30
0.0
 10
105.3150319421
 20
77.7155837922
 30
0.0
  0
SPLINE
  5
54C
100
AcDbEntity
  8
GEOM
100
AcDbSpline
 62
7
  6
CONTINUOUS
 70
0
 71
3
 72
9
 73
5
 74
0
 42
0.0000001
 43
0.0000001
 44
0.0000000001
 40
0.0
 40
0.0
 40
0.0
 40
0.0
 40
0.2509473751
 40
1.0
 40
1.0
 40
1.0
 40
1.0
 10
107.9473665004
 20
77.7156060839
 30
0.0
 10
107.9714781879
 20
77.8046120254
 30
0.0
 10
108.0639967818
 20
78.1602416056
 30
0.0
 10
108.1416085701
 20
78.519797188
 30
0.0
 10
108.1901678896
 20
78.7907295796
 30
0.0
  0
SPLINE
  5
54D
100
AcDbEntity
  8
GEOM
100
AcDbSpline
 62
7
  6
CONTINUOUS
 70
0
 71
3
 72
13
 73
9
 74
0
 42
0.0000001
 43
0.0000001
 44
0.0000000001
 40
0.0
 40
0.0
 40
0.0
 40
0.0
 40
0.2506353894
 40
0.3754653483
 40
0.4999999979
 40
0.6245346312
 40
0.7493646028
 40
1.0
 40
1.0
 40
1.0
 40
1.0
 10
108.1901678896
 20
78.7907295796
 30
0.0
 10
108.2469086071
 20
79.1073044594
 30
0.0
 10
108.3328352025
 20
79.5817169402
 30
0.0
 10
108.4015610616
 20
80.220028728
 30
0.0
 10
108.420076748
 20
80.6999179071
 30
0.0
 10
108.4015624929
 20
81.1798071887
 30
0.0
 10
108.3328360051
 20
81.8181189675
 30
0.0
 10
108.2469076542
 20
82.2925311373
 30
0.0
 10
108.1901678896
 20
82.609106198
 30
0.0
  0
SPLINE
  5
54E
100
AcDbEntity
  8
GEOM
100
AcDbSpline
 62
7
  6
CONTINUOUS
 70
0
 71
3
 72
9
 73
5
 74
0
 42
0.0000001
 43
0.0000001
 44
0.0000000001
 40
0.0
 40
0.0
 40
0.0
 40
0.0
 40
0.2491479928
 40
1.0
 40
1.0
 40
1.0
 40
1.0
 10
108.1901678896
 20
82.609106198
 30
0.0
 10
108.1740157372
 20
82.6992257071
 30
0.0
 10
108.1049551778
 20
83.0601715318
 30
0.0
 10
108.0195067778
 20
83.4179321562
 30
0.0
 10
107.9473607899
 20
83.6842519854
 30
0.0
  0
SPLINE
  5
54F
100
AcDbEntity
  8
0
100
AcDbSpline
 62
7
  6
CONTINUOUS
 70
0
 71
3
 72
9
 73
5
 74
0
 42
0.0000001
 43
0.0000001
 44
0.0000000001
 40
0.0
 40
0.0
 40
0.0
 40
0.0
 40
0.5019991721
 40
1.0
 40
1.0
 40
1.0
 40
1.0
 10
105.3150319421
 20
83.6842519854
 30
0.0
 10
105.1916934746
 20
83.195053949
 30
0.0
 10
104.9973798314
 20
82.2064717611
 30
0.0
 10
104.9293983743
 20
81.2004063597
 30
0.0
 10
104.9293983742
 20
80.6999178913
 30
0.0
  0
SPLINE
  5
550
100
AcDbEntity
  8
0
100
AcDbSpline
 62
7
  6
CONTINUOUS
 70
0
 71
3
 72
9
 73
5
 74
0
 42
0.0000001
 43
0.0000001
 44
0.0000000001
 40
0.0
 40
0.0
 40
0.0
 40
0.0
 40
0.2373325247
 40
1.0
 40
1.0
 40
1.0
 40
1.0
 10
136.0131388534
 20
120.8541951988
 30
0.0
 10
136.0058634663
 20
120.8178008448
 30
0.0
 10
135.978285805
 20
120.6638622864
 30
0.0
 10
135.9557289555
 20
120.508973156
 30
0.0
 10
135.9309615152
 20
120.3923060442
 30
0.0
  0
ELLIPSE
  5
551
100
AcDbEntity
  8
0
100
AcDbEllipse
 62
7
  6
CONTINUOUS
 10
136.3536023216
 20
120.3923060442
 30
0.0
 11
-0.0
 21
1.0
 31
0.0
 40
0.383864035
 41
0.0
 42
1.0906723322
  0
ELLIPSE
  5
552
100
AcDbEntity
  8
0
100
AcDbEllipse
 62
7
  6
CONTINUOUS
 10
134.8985932929
 20
120.4295738255
 30
0.0
 11
0.5486916773
 21
1.2874646535
 31
0.0
 40
0.7145358838
 41
-1.5707963268
 42
-1.3028918007
  0
ELLIPSE
  5
553
100
AcDbEntity
  8
0
100
AcDbEllipse
 62
7
  6
CONTINUOUS
 10
133.7470011878
 20
117.7274476738
 30
0.0
 11
-0.5486916773
 21
-1.2874646535
 31
0.0
 40
0.7145358838
 41
1.5707963268
 42
2.1085963504
  0
ELLIPSE
  5
554
100
AcDbEntity
  8
0
100
AcDbEllipse
 62
7
  6
CONTINUOUS
 10
121.8629986817
 20
119.6830806675
 30
0.0
 11
-1.2104221425
 21
1.2980188316
 31
0.0
 40
0.563438437
 41
0.5435120867
 42
1.5707963268
  0
ELLIPSE
  5
555
100
AcDbEntity
  8
0
100
AcDbEllipse
 62
7
  6
CONTINUOUS
 10
117.4487851193
 20
121.3923060442
 30
0.0
 11
3.0
 21
0.0
 31
0.0
 40
1.0
 41
-0.0
 42
1.5707963268
  0
ELLIPSE
  5
556
100
AcDbEntity
  8
0
100
AcDbEllipse
 62
7
  6
CONTINUOUS
 10
135.9697382866
 20
121.3923060442
 30
0.0
 11
0.0
 21
3.0
 31
0.0
 40
0.383864035
 41
0.0
 42
1.5707963268
  0
ENDSEC
  0
SECTION
  2
OBJECTS
  0
DICTIONARY
  5
557
100
AcDbDictionary
  3
ACAD_GROUP
350
558
  3
ACAD_MLINESTYLE
350
559
  0
DICTIONARY
  5
558
102
{ACAD_REACTORS
330
557
102
}
100
AcDbDictionary
  0
DICTIONARY
  5
559
102
{ACAD_REACTORS
330
557
102
}
100
AcDbDictionary
  3
STANDARD
350
55A
  0
MLINESTYLE
  5
55A
102
{ACAD_REACTORS
330
559
102
}
100
AcDbMlineStyle
  2
STANDARD
 70
0
  3

 62
256
 51
90.0
 52
90.0
 71
2
 49
0.5
 62
256
  6
BYLAYER
 49
-0.5
 62
256
  6
BYLAYER
  0
ENDSEC
  0
EOF
