999
DXF file: C:\Users\64ciro\Desktop\FILE 3D-2D\ARMATEC\SINGOLI\h36fll012_3082.dxf
999
Pro/ENGINEER 2017260 by Parametric Technology Corporation
  0
SECTION
  2
HEADER
  9
$ACADVER
  1
AC1014
  9
$DWGCODEPAGE
  3
ANSI_1252
  9
$EXTMAX
 10
297.0
 20
210.0
 30
0.0
  9
$EXTMIN
 10
0.0
 20
0.0
 30
0.0
  9
$LIMMIN
 10
0.0
 20
0.0
  9
$LIMMAX
 10
297.0
 20
210.0
  9
$VIEWCTR
 10
148.5
 20
105.0
  9
$VIEWSIZE
 40
210.0
  9
$CLAYER
  8
0
  9
$LTSCALE
 40
16.335
  9
$CELTYPE
  6
BYLAYER
  9
$DIMSCALE
 40
1.0
  9
$DIMASZ
 40
2.5
  9
$DIMEXO
 40
0.0625
  9
$DIMDLI
 40
11.286
  9
$DIMEXE
 40
0.125
  9
$DIMCEN
 40
2.673
  9
$DIMLFAC
 40
1.0
  9
$DIMBLK
  1
_CLOSED
  9
$DIMALT
 70
0
  9
$DIMALTF
 40
25.4
  9
$DIMTXT
 40
2.5
  9
$DIMTOL
 70
1
  9
$DIMLIM
 70
0
  9
$DIMTFAC
 40
1.0
  9
$DIMTP
 40
0.01
  9
$DIMTM
 40
0.01
  9
$DIMGAP
 40
0.625
  9
$AUNITS
 70
0
  9
$PDMODE
 70
3
  9
$PDSIZE
 40
0.3125
  9
$HANDSEED
  5
57F
  9
$TILEMODE
 70
1
  9
$MEASUREMENT
 70
1
  0
ENDSEC
  0
SECTION
  2
CLASSES
  0
ENDSEC
  0
SECTION
  2
TABLES
  0
TABLE
  2
VPORT
  5
8
100
AcDbSymbolTable
 70
2
  0
VPORT
  5
1F4
100
AcDbSymbolTableRecord
100
AcDbViewportTableRecord
  2
*ACTIVE
 70
0
 10
0.0
 20
0.0
 11
1.0
 21
1.0
 12
148.5
 22
105.0
 13
0.0
 23
0.0
 14
1.0
 24
1.0
 15
0.0
 25
0.0
 16
0.0
 26
0.0
 36
1.0
 17
0.0
 27
0.0
 37
0.0
 40
210.0
 41
1.4142857143
 42
50.0
 43
0.0
 44
0.0
 50
0.0
 51
0.0
 71
0
 72
100
 73
1
 74
1
 75
0
 76
0
 77
0
 78
0
  0
ENDTAB
  0
TABLE
  2
LTYPE
  5
5
100
AcDbSymbolTable
 70
6
  0
LTYPE
  5
14
100
AcDbSymbolTableRecord
100
AcDbLinetypeTableRecord
  2
BYBLOCK
 70
0
  3

 72
65
 73
0
 40
0.0
  0
LTYPE
  5
15
100
AcDbSymbolTableRecord
100
AcDbLinetypeTableRecord
  2
BYLAYER
 70
0
  3

 72
65
 73
0
 40
0.0
  0
LTYPE
  5
16
100
AcDbSymbolTableRecord
100
AcDbLinetypeTableRecord
  2
CONTINUOUS
 70
64
  3
Solid line
 72
65
 73
0
 40
0.0
  0
LTYPE
  5
1F5
100
AcDbSymbolTableRecord
100
AcDbLinetypeTableRecord
  2
CENTER
 70
64
  3
____ _ ____ _ ____ _ ____ _ ____ _ ____ _ ____
 72
65
 73
4
 40
0.6
 49
0.375
 74
0
 49
-0.075
 74
0
 49
0.075
 74
0
 49
-0.075
 74
0
  0
LTYPE
  5
1F6
100
AcDbSymbolTableRecord
100
AcDbLinetypeTableRecord
  2
HIDDEN
 70
64
  3
- - - - - - - - - - - - - - - - - - - -
 72
65
 73
2
 40
0.2
 49
0.1
 74
0
 49
-0.1
 74
0
  0
LTYPE
  5
1F7
100
AcDbSymbolTableRecord
100
AcDbLinetypeTableRecord
  2
PHANTOM
 70
64
  3
_____ _ _ _____ _ _ _____ _ _ _____
 72
65
 73
6
 40
0.8
 49
0.45
 74
0
 49
-0.05
 74
0
 49
0.1
 74
0
 49
-0.05
 74
0
 49
0.1
 74
0
 49
-0.05
 74
0
  0
LTYPE
  5
1F8
100
AcDbSymbolTableRecord
100
AcDbLinetypeTableRecord
  2
DOT
 70
64
  3
. . . . . . . . . . . . . . . . . . . .
 72
65
 73
2
 40
0.2
 49
0.1
 74
0
 49
-0.1
 74
0
  0
LTYPE
  5
1F9
100
AcDbSymbolTableRecord
100
AcDbLinetypeTableRecord
  2
DASHED
 70
64
  3
- - - - - - - - - - - - - - - - - - - -
 72
65
 73
2
 40
0.2
 49
0.1
 74
0
 49
-0.1
 74
0
  0
ENDTAB
  0
TABLE
  2
LAYER
  5
2
100
AcDbSymbolTable
 70
36
  0
LAYER
  5
10
100
AcDbSymbolTableRecord
100
AcDbLayerTableRecord
  2
0
 70
0
 62
7
  6
CONTINUOUS
  0
LAYER
  5
1FA
100
AcDbSymbolTableRecord
100
AcDbLayerTableRecord
  2
DEFAULT_1
 70
0
 62
7
  6
CENTER
  0
LAYER
  5
1FB
100
AcDbSymbolTableRecord
100
AcDbLayerTableRecord
  2
DEFAULT_2
 70
0
 62
8
  6
HIDDEN
  0
LAYER
  5
1FC
100
AcDbSymbolTableRecord
100
AcDbLayerTableRecord
  2
DEFAULT_3
 70
0
 62
7
  6
PHANTOM
  0
LAYER
  5
1FD
100
AcDbSymbolTableRecord
100
AcDbLayerTableRecord
  2
ASSI
 70
0
 62
7
  6
CONTINUOUS
  0
LAYER
  5
1FE
100
AcDbSymbolTableRecord
100
AcDbLayerTableRecord
  2
COSMETICA
 70
0
 62
7
  6
CONTINUOUS
  0
LAYER
  5
1FF
100
AcDbSymbolTableRecord
100
AcDbLayerTableRecord
  2
CSYS
 70
0
 62
7
  6
CONTINUOUS
  0
LAYER
  5
200
100
AcDbSymbolTableRecord
100
AcDbLayerTableRecord
  2
CURVE
 70
0
 62
7
  6
CONTINUOUS
  0
LAYER
  5
201
100
AcDbSymbolTableRecord
100
AcDbLayerTableRecord
  2
DETTAGLI
 70
0
 62
7
  6
CONTINUOUS
  0
LAYER
  5
202
100
AcDbSymbolTableRecord
100
AcDbLayerTableRecord
  2
GEOM
 70
0
 62
7
  6
CONTINUOUS
  0
LAYER
  5
203
100
AcDbSymbolTableRecord
100
AcDbLayerTableRecord
  2
GEOMETRIA_SOLIDA
 70
0
 62
7
  6
CONTINUOUS
  0
LAYER
  5
204
100
AcDbSymbolTableRecord
100
AcDbLayerTableRecord
  2
NOGEOM
 70
0
 62
7
  6
CONTINUOUS
  0
LAYER
  5
205
100
AcDbSymbolTableRecord
100
AcDbLayerTableRecord
  2
PIANI
 70
0
 62
7
  6
CONTINUOUS
  0
LAYER
  5
206
100
AcDbSymbolTableRecord
100
AcDbLayerTableRecord
  2
QUOTE
 70
0
 62
7
  6
CONTINUOUS
  0
LAYER
  5
207
100
AcDbSymbolTableRecord
100
AcDbLayerTableRecord
  2
RACCORDI
 70
0
 62
7
  6
CONTINUOUS
  0
LAYER
  5
208
100
AcDbSymbolTableRecord
100
AcDbLayerTableRecord
  2
RIF
 70
0
 62
7
  6
CONTINUOUS
  0
LAYER
  5
209
100
AcDbSymbolTableRecord
100
AcDbLayerTableRecord
  2
SUPERFICI
 70
0
 62
7
  6
CONTINUOUS
  0
LAYER
  5
20A
100
AcDbSymbolTableRecord
100
AcDbLayerTableRecord
  2
TABELLE
 70
0
 62
7
  6
CONTINUOUS
  0
ENDTAB
  0
TABLE
  2
STYLE
  5
3
100
AcDbSymbolTable
 70
1
  0
STYLE
  5
11
100
AcDbSymbolTableRecord
100
AcDbTextStyleTableRecord
  2
STANDARD
 70
0
 40
0.0
 41
1.0
 50
0.0
 71
0
 42
0.2
  3
trium.ttf
  4

  0
STYLE
  5
20B
100
AcDbSymbolTableRecord
100
AcDbTextStyleTableRecord
  2
TEXTSTYLE_1
 70
0
 40
0.0
 41
0.8
 50
0.0
 71
0
 42
0.2
  3
gdt
  4

  0
ENDTAB
  0
TABLE
  2
VIEW
  5
6
100
AcDbSymbolTable
 70
0
  0
ENDTAB
  0
TABLE
  2
UCS
  5
7
100
AcDbSymbolTable
 70
0
  0
ENDTAB
  0
TABLE
  2
APPID
  5
9
100
AcDbSymbolTable
 70
1
  0
APPID
  5
20C
100
AcDbSymbolTableRecord
100
AcDbRegAppTableRecord
  2
ACAD
 70
0
  0
ENDTAB
  0
TABLE
  2
BLOCK_RECORD
  5
1
100
AcDbSymbolTable
 70
0
  0
BLOCK_RECORD
  5
1F
100
AcDbSymbolTableRecord
100
AcDbBlockTableRecord
  2
*MODEL_SPACE
  0
BLOCK_RECORD
  5
1B
100
AcDbSymbolTableRecord
100
AcDbBlockTableRecord
  2
*PAPER_SPACE
  0
ENDTAB
  0
TABLE
  2
DIMSTYLE
  5
A
100
AcDbSymbolTable
 70
1
  0
DIMSTYLE
105
20D
100
AcDbSymbolTableRecord
100
AcDbDimStyleTableRecord
  2
STANDARD
 70
0
  3

  4

  5
_CLOSED
  6
_CLOSED
  7
_CLOSED
 40
1.0
 41
2.5
 42
0.0625
 43
0.38
 44
0.125
 45
0.0
 46
0.0
 47
0.01
 48
0.01
140
2.5
141
0.09
142
0.0
143
25.4
144
1.0
145
0.0
146
1.0
147
0.625
 71
1.0
 72
0.0
 73
0
 74
0
 75
0
 76
0
 77
1
 78
8
 79
2
170
0
171
1
172
0
173
0
174
0
175
0
176
0
177
0
178
0
270
2
179
2
271
2
272
2
273
2
274
2
275
0
280
0
281
0
282
0
283
1
284
8
285
0
286
0
287
3
288
0
340
11
  0
ENDTAB
  0
ENDSEC
  0
SECTION
  2
BLOCKS
  0
BLOCK
  5
20
100
AcDbEntity
  8
0
100
AcDbBlockBegin
  2
*MODEL_SPACE
 70
0
 10
0.0
 20
0.0
 30
0.0
  3
*MODEL_SPACE
  1

  0
ENDBLK
  5
21
100
AcDbEntity
  8
0
100
AcDbBlockEnd
  0
BLOCK
  5
1C
100
AcDbEntity
  8
0
100
AcDbBlockBegin
  2
*PAPER_SPACE
 70
0
 10
0.0
 20
0.0
 30
0.0
  3
*PAPER_SPACE
  1

  0
ENDBLK
  5
1D
100
AcDbEntity
  8
0
100
AcDbBlockEnd
  0
ENDSEC
  0
SECTION
  2
ENTITIES
  0
LINE
  5
20E
100
AcDbEntity
  8
0
100
AcDbLine
 62
7
  6
CONTINUOUS
 10
0.0
 20
0.0
 11
0.0
 21
210.0
  0
LINE
  5
20F
100
AcDbEntity
  8
0
100
AcDbLine
 62
7
  6
CONTINUOUS
 10
0.0
 20
0.0
 11
297.0
 21
0.0
  0
LINE
  5
210
100
AcDbEntity
  8
0
100
AcDbLine
 62
7
  6
CONTINUOUS
 10
0.0
 20
210.0
 11
297.0
 21
210.0
  0
LINE
  5
211
100
AcDbEntity
  8
0
100
AcDbLine
 62
7
  6
CONTINUOUS
 10
297.0
 20
0.0
 11
297.0
 21
210.0
  0
LINE
  5
212
100
AcDbEntity
  8
0
100
AcDbLine
 62
7
  6
CONTINUOUS
 10
93.2883713766
 20
86.1129282302
 11
92.3934784594
 21
87.6629282302
  0
LINE
  5
213
100
AcDbEntity
  8
0
100
AcDbLine
 62
7
  6
CONTINUOUS
 10
90.2491408921
 20
88.4129282302
 11
90.2491408921
 21
107.0129282302
  0
LINE
  5
214
100
AcDbEntity
  8
0
100
AcDbLine
 62
7
  6
CONTINUOUS
 10
90.7491408921
 20
87.9129282302
 11
90.7491408921
 21
107.5129282302
  0
LINE
  5
215
100
AcDbEntity
  8
0
100
AcDbLine
 62
7
  6
CONTINUOUS
 10
91.9604657575
 20
107.5129282302
 11
91.9604657575
 21
87.9129282302
  0
LINE
  5
216
100
AcDbEntity
  8
0
100
AcDbLine
 62
7
  6
CONTINUOUS
 10
92.3934784594
 20
107.7629282302
 11
92.3934784594
 21
87.6629282302
  0
LINE
  5
217
100
AcDbEntity
  8
0
100
AcDbLine
 62
7
  6
CONTINUOUS
 10
93.2883713766
 20
86.1129282302
 11
93.2883713766
 21
86.118463972
  0
LINE
  5
218
100
AcDbEntity
  8
0
100
AcDbLine
 62
7
  6
CONTINUOUS
 10
93.2883713766
 20
91.6053754244
 11
93.2883713766
 21
92.2260167778
  0
LINE
  5
219
100
AcDbEntity
  8
0
100
AcDbLine
 62
7
  6
CONTINUOUS
 10
93.2883713766
 20
103.1998396827
 11
93.2883713766
 21
103.8204810361
  0
LINE
  5
21A
100
AcDbEntity
  8
0
100
AcDbLine
 62
7
  6
CONTINUOUS
 10
93.2883713766
 20
109.3073924885
 11
93.2883713766
 21
109.3129282302
  0
LINE
  5
21B
100
AcDbEntity
  8
0
100
AcDbLine
 62
7
  6
CONTINUOUS
 10
93.7213840785
 20
109.5629282302
 11
93.7213840785
 21
109.5527709895
  0
LINE
  5
21C
100
AcDbEntity
  8
0
100
AcDbLine
 62
7
  6
CONTINUOUS
 10
93.7213840785
 20
85.8730854711
 11
93.7213840785
 21
85.8629282302
  0
LINE
  5
21D
100
AcDbEntity
  8
0
100
AcDbLine
 62
7
  6
CONTINUOUS
 10
93.7213840785
 20
91.3681920938
 11
93.7213840785
 21
92.2178216196
  0
LINE
  5
21E
100
AcDbEntity
  8
0
100
AcDbLine
 62
7
  6
CONTINUOUS
 10
93.7213840785
 20
103.2080348404
 11
93.7213840785
 21
104.0576643673
  0
LINE
  5
21F
100
AcDbEntity
  8
0
100
AcDbLine
 62
7
  6
CONTINUOUS
 10
102.1233078671
 20
109.5629282302
 11
102.1233078671
 21
109.5526699835
  0
LINE
  5
220
100
AcDbEntity
  8
0
100
AcDbLine
 62
7
  6
CONTINUOUS
 10
102.1233078671
 20
104.0597199564
 11
102.1233078671
 21
103.2058782573
  0
LINE
  5
221
100
AcDbEntity
  8
0
100
AcDbLine
 62
7
  6
CONTINUOUS
 10
102.1233078671
 20
92.2199782032
 11
102.1233078671
 21
91.366136504
  0
LINE
  5
222
100
AcDbEntity
  8
0
100
AcDbLine
 62
7
  6
CONTINUOUS
 10
102.1233078671
 20
85.873186477
 11
102.1233078671
 21
85.8629282302
  0
LINE
  5
223
100
AcDbEntity
  8
0
100
AcDbLine
 62
7
  6
CONTINUOUS
 10
93.2883713766
 20
109.3129282302
 11
92.3934784594
 21
107.7629282302
  0
LINE
  5
224
100
AcDbEntity
  8
0
100
AcDbLine
 62
7
  6
CONTINUOUS
 10
103.991341442
 20
89.3929371812
 11
104.0017725569
 21
89.3829282302
  0
LINE
  5
225
100
AcDbEntity
  8
0
100
AcDbLine
 62
7
  6
CONTINUOUS
 10
103.5450657268
 20
90.2490771837
 11
103.991341442
 21
89.3929371812
  0
LINE
  5
226
100
AcDbEntity
  8
0
100
AcDbLine
 62
7
  6
CONTINUOUS
 10
104.8819080299
 20
90.2490771451
 11
105.3281837327
 21
89.3929371622
  0
LINE
  5
227
100
AcDbEntity
  8
0
100
AcDbLine
 62
7
  6
CONTINUOUS
 10
106.2187495408
 20
90.2490771818
 11
106.6650252581
 21
89.3929371752
  0
LINE
  5
228
100
AcDbEntity
  8
0
100
AcDbLine
 62
7
  6
CONTINUOUS
 10
103.2491408921
 20
87.8129282302
 11
103.2491408921
 21
107.6129282302
  0
LINE
  5
229
100
AcDbEntity
  8
0
100
AcDbLine
 62
7
  6
CONTINUOUS
 10
105.3281837327
 20
89.3929371622
 11
105.3386148277
 21
89.3829282302
  0
LINE
  5
22A
100
AcDbEntity
  8
0
100
AcDbLine
 62
7
  6
CONTINUOUS
 10
106.6650252581
 20
89.3929371752
 11
106.6754563667
 21
89.3829282302
  0
LINE
  5
22B
100
AcDbEntity
  8
0
100
AcDbLine
 62
7
  6
CONTINUOUS
 10
108.0018679097
 20
89.3929371793
 11
108.0122990226
 21
89.3829282302
  0
LINE
  5
22C
100
AcDbEntity
  8
0
100
AcDbLine
 62
7
  6
CONTINUOUS
 10
109.3387098075
 20
89.3929371523
 11
109.3491408921
 21
89.3829282302
  0
LINE
  5
22D
100
AcDbEntity
  8
0
100
AcDbLine
 62
7
  6
CONTINUOUS
 10
109.3491408921
 20
86.7129282302
 11
109.7532860805
 21
86.0129282302
  0
LINE
  5
22E
100
AcDbEntity
  8
0
100
AcDbLine
 62
7
  6
CONTINUOUS
 10
107.5555921975
 20
90.2490771768
 11
108.0018679097
 21
89.3929371793
  0
LINE
  5
22F
100
AcDbEntity
  8
0
100
AcDbLine
 62
7
  6
CONTINUOUS
 10
108.8924341067
 20
90.2490771326
 11
109.3387098075
 21
89.3929371523
  0
LINE
  5
230
100
AcDbEntity
  8
0
100
AcDbLine
 62
7
  6
CONTINUOUS
 10
104.0367310044
 20
105.1767792936
 11
103.5904552963
 21
106.0329192842
  0
LINE
  5
231
100
AcDbEntity
  8
0
100
AcDbLine
 62
7
  6
CONTINUOUS
 10
109.3491408921
 20
86.7130864379
 11
109.3491408921
 21
108.7127700226
  0
LINE
  5
232
100
AcDbEntity
  8
0
100
AcDbLine
 62
7
  6
CONTINUOUS
 10
109.7532860805
 20
109.4129282302
 11
109.7532860805
 21
109.401065845
  0
LINE
  5
233
100
AcDbEntity
  8
0
100
AcDbLine
 62
7
  6
CONTINUOUS
 10
109.7532860805
 20
86.0247906155
 11
109.7532860805
 21
86.0129282302
  0
LINE
  5
234
100
AcDbEntity
  8
0
100
AcDbLine
 62
7
  6
CONTINUOUS
 10
109.7532860805
 20
89.0757161298
 11
109.7532860805
 21
89.820617597
  0
LINE
  5
235
100
AcDbEntity
  8
0
100
AcDbLine
 62
7
  6
CONTINUOUS
 10
109.7532860805
 20
97.1862033515
 11
109.7532860805
 21
98.239653109
  0
LINE
  5
236
100
AcDbEntity
  8
0
100
AcDbLine
 62
7
  6
CONTINUOUS
 10
109.7532860805
 20
105.6052388635
 11
109.7532860805
 21
106.3501403307
  0
LINE
  5
237
100
AcDbEntity
  8
0
100
AcDbLine
 62
7
  6
CONTINUOUS
 10
102.6263715854
 20
105.202993901
 11
102.6332175525
 21
105.2234113742
  0
LINE
  5
238
100
AcDbEntity
  8
0
100
AcDbLine
 62
7
  6
CONTINUOUS
 10
102.626099411
 20
105.2030168497
 11
102.6333473684
 21
105.2234005563
  0
LINE
  5
239
100
AcDbEntity
  8
0
100
AcDbLine
 62
7
  6
CONTINUOUS
 10
118.0098010638
 20
86.8522680585
 11
117.5884807203
 21
87.273588402
  0
LINE
  5
23A
100
AcDbEntity
  8
0
100
AcDbLine
 62
7
  6
CONTINUOUS
 10
102.1277498183
 20
109.5552345452
 11
103.2491408921
 21
107.6129282302
  0
LINE
  5
23B
100
AcDbEntity
  8
0
100
AcDbLine
 62
7
  6
CONTINUOUS
 10
105.3735725274
 20
105.1767793058
 11
104.9272968189
 21
106.0329192984
  0
LINE
  5
23C
100
AcDbEntity
  8
0
100
AcDbLine
 62
7
  6
CONTINUOUS
 10
106.7104148124
 20
105.1767792738
 11
106.2641390958
 21
106.0329192784
  0
LINE
  5
23D
100
AcDbEntity
  8
0
100
AcDbLine
 62
7
  6
CONTINUOUS
 10
108.047257332
 20
105.176779305
 11
107.6009816273
 21
106.0329192903
  0
LINE
  5
23E
100
AcDbEntity
  8
0
100
AcDbLine
 62
7
  6
CONTINUOUS
 10
111.5789702998
 20
106.349510972
 11
111.5789702998
 21
105.6059275675
  0
LINE
  5
23F
100
AcDbEntity
  8
0
100
AcDbLine
 62
7
  6
CONTINUOUS
 10
111.5789702998
 20
98.2387210979
 11
111.5789702998
 21
97.1871353623
  0
LINE
  5
240
100
AcDbEntity
  8
0
100
AcDbLine
 62
7
  6
CONTINUOUS
 10
111.5789702998
 20
89.8199288926
 11
111.5789702998
 21
89.0763454881
  0
LINE
  5
241
100
AcDbEntity
  8
0
100
AcDbLine
 62
7
  6
CONTINUOUS
 10
111.5789702998
 20
86.0129282302
 11
111.5789702998
 21
86.0247486517
  0
LINE
  5
242
100
AcDbEntity
  8
0
100
AcDbLine
 62
7
  6
CONTINUOUS
 10
111.5789702998
 20
109.4011078088
 11
111.5789702998
 21
109.4129282302
  0
LINE
  5
243
100
AcDbEntity
  8
0
100
AcDbLine
 62
7
  6
CONTINUOUS
 10
112.0119830017
 20
109.1629282302
 11
112.0119830017
 21
109.1549734246
  0
LINE
  5
244
100
AcDbEntity
  8
0
100
AcDbLine
 62
7
  6
CONTINUOUS
 10
112.0119830017
 20
106.105422387
 11
112.0119830017
 21
105.5019295763
  0
LINE
  5
245
100
AcDbEntity
  8
0
100
AcDbLine
 62
7
  6
CONTINUOUS
 10
112.0119830017
 20
98.1396620764
 11
112.0119830017
 21
97.2861943915
  0
LINE
  5
246
100
AcDbEntity
  8
0
100
AcDbLine
 62
7
  6
CONTINUOUS
 10
112.0119830017
 20
89.9239268932
 11
112.0119830017
 21
89.3204340818
  0
LINE
  5
247
100
AcDbEntity
  8
0
100
AcDbLine
 62
7
  6
CONTINUOUS
 10
112.0119830017
 20
86.2708830361
 11
112.0119830017
 21
86.2629282302
  0
LINE
  5
248
100
AcDbEntity
  8
0
100
AcDbLine
 62
7
  6
CONTINUOUS
 10
112.7048033248
 20
107.9629282302
 11
112.7048033248
 21
87.4629282302
  0
LINE
  5
249
100
AcDbEntity
  8
0
100
AcDbLine
 62
7
  6
CONTINUOUS
 10
113.1378160267
 20
107.7129282302
 11
113.1378160267
 21
87.7129282302
  0
LINE
  5
24A
100
AcDbEntity
  8
0
100
AcDbLine
 62
7
  6
CONTINUOUS
 10
113.8491408921
 20
112.6129282302
 11
113.8491408921
 21
121.6129282302
  0
LINE
  5
24B
100
AcDbEntity
  8
0
100
AcDbLine
 62
7
  6
CONTINUOUS
 10
114.2491408921
 20
114.5129282302
 11
114.2491408921
 21
113.1438683379
  0
LINE
  5
24C
100
AcDbEntity
  8
0
100
AcDbLine
 62
7
  6
CONTINUOUS
 10
103.3229200847
 20
106.0329192814
 11
103.2491408921
 21
105.8913642054
  0
LINE
  5
24D
100
AcDbEntity
  8
0
100
AcDbLine
 62
7
  6
CONTINUOUS
 10
104.6597627448
 20
106.0329192849
 11
104.2205410056
 21
105.1903097163
  0
LINE
  5
24E
100
AcDbEntity
  8
0
100
AcDbLine
 62
7
  6
CONTINUOUS
 10
105.9966043005
 20
106.0329192989
 11
105.5573825513
 21
105.1903097098
  0
LINE
  5
24F
100
AcDbEntity
  8
0
100
AcDbLine
 62
7
  6
CONTINUOUS
 10
107.3334465479
 20
106.0329192793
 11
106.8942248043
 21
105.1903097044
  0
LINE
  5
250
100
AcDbEntity
  8
0
100
AcDbLine
 62
7
  6
CONTINUOUS
 10
103.5904552963
 20
106.0329192842
 11
103.5800241868
 21
106.0429282302
  0
LINE
  5
251
100
AcDbEntity
  8
0
100
AcDbLine
 62
7
  6
CONTINUOUS
 10
104.9272968189
 20
106.0329192984
 11
104.9168657244
 21
106.0429282302
  0
LINE
  5
252
100
AcDbEntity
  8
0
100
AcDbLine
 62
7
  6
CONTINUOUS
 10
116.3491408921
 20
114.9129282302
 11
116.3491408921
 21
121.6129282302
  0
LINE
  5
253
100
AcDbEntity
  8
0
100
AcDbLine
 62
7
  6
CONTINUOUS
 10
116.5278205485
 20
87.7129282302
 11
116.5278205485
 21
107.7129282302
  0
LINE
  5
254
100
AcDbEntity
  8
0
100
AcDbLine
 62
7
  6
CONTINUOUS
 10
116.822521465
 20
114.5129282302
 11
116.822521465
 21
113.1114563677
  0
LINE
  5
255
100
AcDbEntity
  8
0
100
AcDbLine
 62
7
  6
CONTINUOUS
 10
116.8491408921
 20
115.3129282302
 11
116.8491408921
 21
117.2129282302
  0
LINE
  5
256
100
AcDbEntity
  8
0
100
AcDbLine
 62
7
  6
CONTINUOUS
 10
117.2036161195
 20
114.5129282302
 11
117.2036161195
 21
113.1114563677
  0
LINE
  5
257
100
AcDbEntity
  8
0
100
AcDbLine
 62
7
  6
CONTINUOUS
 10
117.5884807203
 20
87.273588402
 11
117.5884807203
 21
107.970242724
  0
LINE
  5
258
100
AcDbEntity
  8
0
100
AcDbLine
 62
7
  6
CONTINUOUS
 10
117.5991408921
 20
108.7180409617
 11
117.5991408921
 21
110.5169246131
  0
LINE
  5
259
100
AcDbEntity
  8
0
100
AcDbLine
 62
7
  6
CONTINUOUS
 10
117.6139720003
 20
111.8644000928
 11
117.6139720003
 21
111.2011821918
  0
LINE
  5
25A
100
AcDbEntity
  8
0
100
AcDbLine
 62
7
  6
CONTINUOUS
 10
117.9907646656
 20
111.8644000928
 11
117.9907646656
 21
111.2011821918
  0
LINE
  5
25B
100
AcDbEntity
  8
0
100
AcDbLine
 62
7
  6
CONTINUOUS
 10
118.0098010638
 20
108.1425798792
 11
118.0098010638
 21
86.8522680585
  0
LINE
  5
25C
100
AcDbEntity
  8
0
100
AcDbLine
 62
7
  6
CONTINUOUS
 10
118.3491408921
 20
118.1629282302
 11
118.3491408921
 21
117.7129282302
  0
LINE
  5
25D
100
AcDbEntity
  8
0
100
AcDbLine
 62
7
  6
CONTINUOUS
 10
108.6702890831
 20
106.0329192908
 11
108.231067343
 21
105.1903097195
  0
LINE
  5
25E
100
AcDbEntity
  8
0
100
AcDbLine
 62
7
  6
CONTINUOUS
 10
103.2491408921
 20
90.0204871244
 11
103.3612557266
 21
90.2355467539
  0
LINE
  5
25F
100
AcDbEntity
  8
0
100
AcDbLine
 62
7
  6
CONTINUOUS
 10
109.3491408921
 20
108.7129282302
 11
109.748149517
 21
109.4040314413
  0
LINE
  5
260
100
AcDbEntity
  8
0
100
AcDbLine
 62
7
  6
CONTINUOUS
 10
114.2491408921
 20
113.1438683379
 11
114.0491408921
 21
112.7974581764
  0
LINE
  5
261
100
AcDbEntity
  8
0
100
AcDbLine
 62
7
  6
CONTINUOUS
 10
113.863716903
 20
121.6129282302
 11
113.8491408921
 21
121.599188984
  0
LINE
  5
262
100
AcDbEntity
  8
0
100
AcDbLine
 62
7
  6
CONTINUOUS
 10
106.2641390958
 20
106.0329192784
 11
106.2537079804
 21
106.0429282302
  0
LINE
  5
263
100
AcDbEntity
  8
0
100
AcDbLine
 62
7
  6
CONTINUOUS
 10
107.6009816273
 20
106.0329192903
 11
107.5905505242
 21
106.0429282302
  0
LINE
  5
264
100
AcDbEntity
  8
0
100
AcDbLine
 62
7
  6
CONTINUOUS
 10
128.2562476733
 20
86.0058214491
 11
128.1420341109
 21
86.1200350114
  0
LINE
  5
265
100
AcDbEntity
  8
0
100
AcDbLine
 62
7
  6
CONTINUOUS
 10
112.0119830017
 20
109.1629282302
 11
112.7048033248
 21
107.9629282302
  0
LINE
  5
266
100
AcDbEntity
  8
0
100
AcDbLine
 62
7
  6
CONTINUOUS
 10
121.1540339416
 20
93.4928627805
 11
120.3591408921
 21
95.0529282302
  0
LINE
  5
267
100
AcDbEntity
  8
0
100
AcDbLine
 62
7
  6
CONTINUOUS
 10
121.3672759267
 20
93.9113737408
 11
120.7856248624
 21
95.0529282302
  0
LINE
  5
268
100
AcDbEntity
  8
0
100
AcDbLine
 62
7
  6
CONTINUOUS
 10
119.0704612356
 20
107.738624686
 11
119.0704612356
 21
86.4129282302
  0
LINE
  5
269
100
AcDbEntity
  8
0
100
AcDbLine
 62
7
  6
CONTINUOUS
 10
119.1529884694
 20
118.9129282302
 11
119.1529884694
 21
120.5110044416
  0
LINE
  5
26A
100
AcDbEntity
  8
0
100
AcDbLine
 62
7
  6
CONTINUOUS
 10
119.2491408921
 20
97.7129282302
 11
119.2491408921
 21
98.4629282302
  0
LINE
  5
26B
100
AcDbEntity
  8
0
100
AcDbLine
 62
7
  6
CONTINUOUS
 10
119.2491408921
 20
100.0929282302
 11
119.2491408921
 21
103.2129282302
  0
LINE
  5
26C
100
AcDbEntity
  8
0
100
AcDbLine
 62
7
  6
CONTINUOUS
 10
119.3491408921
 20
124.7665180687
 11
119.3491408921
 21
124.1129282302
  0
LINE
  5
26D
100
AcDbEntity
  8
0
100
AcDbLine
 62
7
  6
CONTINUOUS
 10
119.4491408921
 20
92.2129282302
 11
119.4491408921
 21
96.7129282302
  0
LINE
  5
26E
100
AcDbEntity
  8
0
100
AcDbLine
 62
7
  6
CONTINUOUS
 10
119.8291408921
 20
92.5929282302
 11
119.8291408921
 21
96.3329282302
  0
LINE
  5
26F
100
AcDbEntity
  8
0
100
AcDbLine
 62
7
  6
CONTINUOUS
 10
119.9991408921
 20
100.8429282302
 11
119.9991408921
 21
102.4629282302
  0
LINE
  5
270
100
AcDbEntity
  8
0
100
AcDbLine
 62
7
  6
CONTINUOUS
 10
120.3076890077
 20
125.6663462429
 11
120.3076890077
 21
127.8003208391
  0
LINE
  5
271
100
AcDbEntity
  8
0
100
AcDbLine
 62
7
  6
CONTINUOUS
 10
120.4991408921
 20
104.2129282302
 11
120.4991408921
 21
105.2129282302
  0
LINE
  5
272
100
AcDbEntity
  8
0
100
AcDbLine
 62
7
  6
CONTINUOUS
 10
120.8491408921
 20
120.9129282302
 11
120.8491408921
 21
121.6129282302
  0
LINE
  5
273
100
AcDbEntity
  8
0
100
AcDbLine
 62
7
  6
CONTINUOUS
 10
120.9991408921
 20
98.4629282302
 11
120.9991408921
 21
100.0929282302
  0
LINE
  5
274
100
AcDbEntity
  8
0
100
AcDbLine
 62
7
  6
CONTINUOUS
 10
121.7491408921
 20
97.7129282302
 11
121.7491408921
 21
100.8429282302
  0
LINE
  5
275
100
AcDbEntity
  8
0
100
AcDbLine
 62
7
  6
CONTINUOUS
 10
121.7491408921
 20
102.4629282302
 11
121.7491408921
 21
103.2129282302
  0
LINE
  5
276
100
AcDbEntity
  8
0
100
AcDbLine
 62
7
  6
CONTINUOUS
 10
121.7510646807
 20
118.9129282302
 11
121.7510646807
 21
120.5110044416
  0
LINE
  5
277
100
AcDbEntity
  8
0
100
AcDbLine
 62
7
  6
CONTINUOUS
 10
121.9291408921
 20
110.2444000928
 11
121.9291408921
 21
109.2844000928
  0
LINE
  5
278
100
AcDbEntity
  8
0
100
AcDbLine
 62
7
  6
CONTINUOUS
 10
122.3284149499
 20
125.6663462429
 11
122.3284149499
 21
127.8003208391
  0
LINE
  5
279
100
AcDbEntity
  8
0
100
AcDbLine
 62
7
  6
CONTINUOUS
 10
122.3491408921
 20
110.2444000928
 11
122.3491408921
 21
109.2844000928
  0
LINE
  5
27A
100
AcDbEntity
  8
0
100
AcDbLine
 62
7
  6
CONTINUOUS
 10
122.7491408921
 20
97.7129282302
 11
122.7491408921
 21
104.2129282302
  0
LINE
  5
27B
100
AcDbEntity
  8
0
100
AcDbLine
 62
7
  6
CONTINUOUS
 10
122.9697469681
 20
120.9559693472
 11
122.9697469681
 21
121.6129282302
  0
LINE
  5
27C
100
AcDbEntity
  8
0
100
AcDbLine
 62
7
  6
CONTINUOUS
 10
108.7040560638
 20
90.2379282302
 11
108.2589712356
 21
89.3829282302
  0
LINE
  5
27D
100
AcDbEntity
  8
0
100
AcDbLine
 62
7
  6
CONTINUOUS
 10
104.2588762647
 20
89.3929371625
 11
104.2818983266
 21
89.4371087107
  0
LINE
  5
27E
100
AcDbEntity
  8
0
100
AcDbLine
 62
7
  6
CONTINUOUS
 10
104.2818983266
 20
89.4371087107
 11
104.6980979985
 21
90.2355467411
  0
LINE
  5
27F
100
AcDbEntity
  8
0
100
AcDbLine
 62
7
  6
CONTINUOUS
 10
105.5957177919
 20
89.3929371761
 11
105.618739867
 21
89.4371087496
  0
LINE
  5
280
100
AcDbEntity
  8
0
100
AcDbLine
 62
7
  6
CONTINUOUS
 10
105.618739867
 20
89.4371087496
 11
106.0349395307
 21
90.2355467603
  0
LINE
  5
281
100
AcDbEntity
  8
0
100
AcDbLine
 62
7
  6
CONTINUOUS
 10
106.9325604634
 20
89.3929371802
 11
106.9555825327
 21
89.4371087425
  0
LINE
  5
282
100
AcDbEntity
  8
0
100
AcDbLine
 62
7
  6
CONTINUOUS
 10
106.9555825327
 20
89.4371087425
 11
107.3717821942
 21
90.2355467495
  0
LINE
  5
283
100
AcDbEntity
  8
0
100
AcDbLine
 62
7
  6
CONTINUOUS
 10
102.1233078671
 20
85.8629282302
 11
103.2491408921
 21
87.8129282302
  0
LINE
  5
284
100
AcDbEntity
  8
0
100
AcDbLine
 62
7
  6
CONTINUOUS
 10
116.8491408921
 20
117.2129282302
 11
117.3491408921
 21
117.7129282302
  0
LINE
  5
285
100
AcDbEntity
  8
0
100
AcDbLine
 62
7
  6
CONTINUOUS
 10
119.0991408921
 20
118.9129282302
 11
118.3491408921
 21
118.1629282302
  0
LINE
  5
286
100
AcDbEntity
  8
0
100
AcDbLine
 62
7
  6
CONTINUOUS
 10
103.3229200847
 20
106.0329192814
 11
103.3333511974
 21
106.0429282302
  0
LINE
  5
287
100
AcDbEntity
  8
0
100
AcDbLine
 62
7
  6
CONTINUOUS
 10
104.6597627448
 20
106.0329192849
 11
104.6701938538
 21
106.0429282302
  0
LINE
  5
288
100
AcDbEntity
  8
0
100
AcDbLine
 62
7
  6
CONTINUOUS
 10
105.9966043005
 20
106.0329192989
 11
106.0070353949
 21
106.0429282302
  0
LINE
  5
289
100
AcDbEntity
  8
0
100
AcDbLine
 62
7
  6
CONTINUOUS
 10
120.3076890077
 20
127.8003208391
 11
120.8491408921
 21
128.1129282302
  0
LINE
  5
28A
100
AcDbEntity
  8
0
100
AcDbLine
 62
7
  6
CONTINUOUS
 10
120.3076890077
 20
125.6663462429
 11
119.6491408921
 21
125.286133311
  0
LINE
  5
28B
100
AcDbEntity
  8
0
100
AcDbLine
 62
7
  6
CONTINUOUS
 10
134.1491408921
 20
85.2129282302
 11
133.1378160267
 21
85.2129282302
  0
LINE
  5
28C
100
AcDbEntity
  8
0
100
AcDbLine
 62
7
  6
CONTINUOUS
 10
134.3491408921
 20
85.2129282302
 11
135.5800809997
 21
85.2129282302
  0
LINE
  5
28D
100
AcDbEntity
  8
0
100
AcDbLine
 62
7
  6
CONTINUOUS
 10
128.9633544544
 20
85.7129282302
 11
132.5027307306
 21
85.7129282302
  0
LINE
  5
28E
100
AcDbEntity
  8
0
100
AcDbLine
 62
7
  6
CONTINUOUS
 10
156.9768977056
 20
85.8629282302
 11
148.574973917
 21
85.8629282302
  0
LINE
  5
28F
100
AcDbEntity
  8
0
100
AcDbLine
 62
7
  6
CONTINUOUS
 10
93.7213840785
 20
85.8629282302
 11
102.1233078671
 21
85.8629282302
  0
LINE
  5
290
100
AcDbEntity
  8
0
100
AcDbLine
 62
7
  6
CONTINUOUS
 10
156.9426513842
 20
85.873186477
 11
148.574973917
 21
85.873186477
  0
LINE
  5
291
100
AcDbEntity
  8
0
100
AcDbLine
 62
7
  6
CONTINUOUS
 10
93.7556303999
 20
85.873186477
 11
102.1233078671
 21
85.873186477
  0
LINE
  5
292
100
AcDbEntity
  8
0
100
AcDbLine
 62
7
  6
CONTINUOUS
 10
111.5789702998
 20
86.0129282302
 11
109.7532860805
 21
86.0129282302
  0
LINE
  5
293
100
AcDbEntity
  8
0
100
AcDbLine
 62
7
  6
CONTINUOUS
 10
111.5609532044
 20
86.0247906155
 11
109.7532860805
 21
86.0247906155
  0
LINE
  5
294
100
AcDbEntity
  8
0
100
AcDbLine
 62
7
  6
CONTINUOUS
 10
133.0223459728
 20
85.4129282302
 11
133.1378160267
 21
85.2129282302
  0
LINE
  5
295
100
AcDbEntity
  8
0
100
AcDbLine
 62
7
  6
CONTINUOUS
 10
123.2421088327
 20
93.1529282302
 11
123.2421088327
 21
95.0529282302
  0
LINE
  5
296
100
AcDbEntity
  8
0
100
AcDbLine
 62
7
  6
CONTINUOUS
 10
123.2421088327
 20
95.4329282302
 11
123.2421088327
 21
95.8129282302
  0
LINE
  5
297
100
AcDbEntity
  8
0
100
AcDbLine
 62
7
  6
CONTINUOUS
 10
123.6221088327
 20
93.1529282302
 11
123.6221088327
 21
95.0529282302
  0
LINE
  5
298
100
AcDbEntity
  8
0
100
AcDbLine
 62
7
  6
CONTINUOUS
 10
123.6221088327
 20
95.4329282302
 11
123.6221088327
 21
95.8129282302
  0
LINE
  5
299
100
AcDbEntity
  8
0
100
AcDbLine
 62
7
  6
CONTINUOUS
 10
123.7491408921
 20
97.7129282302
 11
123.7491408921
 21
104.2129282302
  0
LINE
  5
29A
100
AcDbEntity
  8
0
100
AcDbLine
 62
7
  6
CONTINUOUS
 10
123.9291408921
 20
111.1444000928
 11
123.9291408921
 21
108.3844000928
  0
LINE
  5
29B
100
AcDbEntity
  8
0
100
AcDbLine
 62
7
  6
CONTINUOUS
 10
124.1521088327
 20
93.1529282302
 11
124.1521088327
 21
93.2529282302
  0
LINE
  5
29C
100
AcDbEntity
  8
0
100
AcDbLine
 62
7
  6
CONTINUOUS
 10
124.1521088327
 20
94.2323324167
 11
124.1521088327
 21
95.0529282302
  0
LINE
  5
29D
100
AcDbEntity
  8
0
100
AcDbLine
 62
7
  6
CONTINUOUS
 10
124.3491408921
 20
111.1444000928
 11
124.3491408921
 21
109.9444000928
  0
LINE
  5
29E
100
AcDbEntity
  8
0
100
AcDbLine
 62
7
  6
CONTINUOUS
 10
124.3491408921
 20
109.4443015598
 11
124.3491408921
 21
107.9644000928
  0
LINE
  5
29F
100
AcDbEntity
  8
0
100
AcDbLine
 62
7
  6
CONTINUOUS
 10
124.5321088327
 20
94.6729282302
 11
124.5321088327
 21
95.0529282302
  0
LINE
  5
2A0
100
AcDbEntity
  8
0
100
AcDbLine
 62
7
  6
CONTINUOUS
 10
124.7491408921
 20
97.7129282302
 11
124.7491408921
 21
103.2129282302
  0
LINE
  5
2A1
100
AcDbEntity
  8
0
100
AcDbLine
 62
7
  6
CONTINUOUS
 10
125.4991408921
 20
97.7129282302
 11
125.4991408921
 21
100.0929282302
  0
LINE
  5
2A2
100
AcDbEntity
  8
0
100
AcDbLine
 62
7
  6
CONTINUOUS
 10
125.4991408921
 20
100.8429282302
 11
125.4991408921
 21
102.4629282302
  0
LINE
  5
2A3
100
AcDbEntity
  8
0
100
AcDbLine
 62
7
  6
CONTINUOUS
 10
125.5721088327
 20
94.4529282302
 11
125.5721088327
 21
94.8229282302
  0
LINE
  5
2A4
100
AcDbEntity
  8
0
100
AcDbLine
 62
7
  6
CONTINUOUS
 10
125.9521088327
 20
94.3427601511
 11
125.9521088327
 21
94.8229282302
  0
LINE
  5
2A5
100
AcDbEntity
  8
0
100
AcDbLine
 62
7
  6
CONTINUOUS
 10
125.9991408921
 20
104.2129282302
 11
125.9991408921
 21
105.2129282302
  0
LINE
  5
2A6
100
AcDbEntity
  8
0
100
AcDbLine
 62
7
  6
CONTINUOUS
 10
126.3491408921
 20
112.6129282302
 11
126.3491408921
 21
117.3707593689
  0
LINE
  5
2A7
100
AcDbEntity
  8
0
100
AcDbLine
 62
7
  6
CONTINUOUS
 10
126.3698668342
 20
125.6663462429
 11
126.3698668342
 21
127.8003208391
  0
LINE
  5
2A8
100
AcDbEntity
  8
0
100
AcDbLine
 62
7
  6
CONTINUOUS
 10
126.5691408921
 20
92.5929282302
 11
126.5691408921
 21
96.3329282302
  0
LINE
  5
2A9
100
AcDbEntity
  8
0
100
AcDbLine
 62
7
  6
CONTINUOUS
 10
126.9491408921
 20
92.2129282302
 11
126.9491408921
 21
96.7129282302
  0
LINE
  5
2AA
100
AcDbEntity
  8
0
100
AcDbLine
 62
7
  6
CONTINUOUS
 10
127.2491408921
 20
100.0929282302
 11
127.2491408921
 21
100.8429282302
  0
LINE
  5
2AB
100
AcDbEntity
  8
0
100
AcDbLine
 62
7
  6
CONTINUOUS
 10
127.2491408921
 20
102.4629282302
 11
127.2491408921
 21
103.2129282302
  0
LINE
  5
2AC
100
AcDbEntity
  8
0
100
AcDbLine
 62
7
  6
CONTINUOUS
 10
117.5518174436
 20
112.0058214491
 11
117.8185237474
 21
112.2886641562
  0
LINE
  5
2AD
100
AcDbEntity
  8
0
100
AcDbLine
 62
7
  6
CONTINUOUS
 10
117.1305486761
 20
112.4043495865
 11
117.3989458817
 21
112.687192299
  0
LINE
  5
2AE
100
AcDbEntity
  8
0
100
AcDbLine
 62
7
  6
CONTINUOUS
 10
107.3334465479
 20
106.0329192793
 11
107.3438776628
 21
106.0429282302
  0
LINE
  5
2AF
100
AcDbEntity
  8
0
100
AcDbLine
 62
7
  6
CONTINUOUS
 10
108.6702890831
 20
106.0329192908
 11
108.6807201858
 21
106.0429282302
  0
LINE
  5
2B0
100
AcDbEntity
  8
0
100
AcDbLine
 62
7
  6
CONTINUOUS
 10
119.1529884694
 20
120.5110044416
 11
119.8491408921
 21
120.9129282302
  0
LINE
  5
2B1
100
AcDbEntity
  8
GEOM
100
AcDbLine
 62
7
  6
CONTINUOUS
 10
135.9744465255
 20
86.554898786
 11
135.948085545
 21
86.5540300872
  0
LINE
  5
2B2
100
AcDbEntity
  8
GEOM
100
AcDbLine
 62
7
  6
CONTINUOUS
 10
136.0792407202
 20
86.5568464069
 11
136.0531194113
 21
86.5561498084
  0
LINE
  5
2B3
100
AcDbEntity
  8
GEOM
100
AcDbLine
 62
7
  6
CONTINUOUS
 10
136.3595038631
 20
86.5629282302
 11
135.948085545
 21
86.5540300872
  0
LWPOLYLINE
  5
2B4
100
AcDbEntity
  8
GEOM
100
AcDbPolyline
 62
7
  6
CONTINUOUS
 90
3
 70
0
 10
136.1795378392
 20
86.5589015115
 10
136.1553162596
 20
86.558496754
 10
136.1303391443
 20
86.5577827705
  0
LWPOLYLINE
  5
2B5
100
AcDbEntity
  8
GEOM
100
AcDbPolyline
 62
7
  6
CONTINUOUS
 90
3
 70
0
 10
136.2473023114
 20
86.5603920594
 10
136.225780861
 20
86.560072515
 10
136.2030371179
 20
86.5593539511
  0
LINE
  5
2B6
100
AcDbEntity
  8
GEOM
100
AcDbLine
 62
7
  6
CONTINUOUS
 10
136.0269129103
 20
86.5556522605
 11
136.000722314
 21
86.5553755188
  0
LINE
  5
2B7
100
AcDbEntity
  8
0
100
AcDbLine
 62
7
  6
CONTINUOUS
 10
127.4349273297
 20
86.4129282302
 11
119.0704612356
 21
86.4129282302
  0
LINE
  5
2B8
100
AcDbEntity
  8
GEOM
100
AcDbLine
 62
7
  6
CONTINUOUS
 10
136.2078930729
 20
86.7129282302
 11
141.1491408921
 21
86.7129282302
  0
LINE
  5
2B9
100
AcDbEntity
  8
GEOM
100
AcDbLine
 62
7
  6
CONTINUOUS
 10
136.1862987824
 20
86.7325788853
 11
140.8429231094
 21
86.7325788853
  0
LINE
  5
2BA
100
AcDbEntity
  8
GEOM
100
AcDbLine
 62
7
  6
CONTINUOUS
 10
140.8429231094
 20
86.9910797923
 11
136.1862987824
 21
86.9910797923
  0
LINE
  5
2BB
100
AcDbEntity
  8
GEOM
100
AcDbLine
 62
7
  6
CONTINUOUS
 10
140.8429231094
 20
87.0526970798
 11
136.2078930831
 21
87.0526970797
  0
LINE
  5
2BC
100
AcDbEntity
  8
0
100
AcDbLine
 62
7
  6
CONTINUOUS
 10
113.1378160267
 20
87.7129282302
 11
116.5278205485
 21
87.7129282302
  0
LINE
  5
2BD
100
AcDbEntity
  8
0
100
AcDbLine
 62
7
  6
CONTINUOUS
 10
91.9604657575
 20
87.9129282302
 11
90.7491408921
 21
87.9129282302
  0
LINE
  5
2BE
100
AcDbEntity
  8
0
100
AcDbLine
 62
7
  6
CONTINUOUS
 10
158.7378160267
 20
87.9129282302
 11
159.9491408921
 21
87.9129282302
  0
LINE
  5
2BF
100
AcDbEntity
  8
0
100
AcDbLine
 62
7
  6
CONTINUOUS
 10
111.5609532044
 20
89.0757161298
 11
109.7532860805
 21
89.0757161298
  0
LINE
  5
2C0
100
AcDbEntity
  8
0
100
AcDbLine
 62
7
  6
CONTINUOUS
 10
106.92212935
 20
89.3829282302
 11
106.6754563667
 21
89.3829282302
  0
LINE
  5
2C1
100
AcDbEntity
  8
0
100
AcDbLine
 62
7
  6
CONTINUOUS
 10
105.5852866827
 20
89.3829282302
 11
105.3386148277
 21
89.3829282302
  0
LINE
  5
2C2
100
AcDbEntity
  8
0
100
AcDbLine
 62
7
  6
CONTINUOUS
 10
104.2484451697
 20
89.3829282302
 11
104.0017725569
 21
89.3829282302
  0
LINE
  5
2C3
100
AcDbEntity
  8
0
100
AcDbLine
 62
7
  6
CONTINUOUS
 10
108.0122990226
 20
89.3829282302
 11
109.3491408921
 21
89.3829282302
  0
LINE
  5
2C4
100
AcDbEntity
  8
0
100
AcDbLine
 62
7
  6
CONTINUOUS
 10
141.3491408921
 20
89.3829282302
 11
142.0175615983
 21
89.3829282302
  0
LINE
  5
2C5
100
AcDbEntity
  8
0
100
AcDbLine
 62
7
  6
CONTINUOUS
 10
143.1077312599
 20
89.3829282302
 11
143.3544041214
 21
89.3829282302
  0
LINE
  5
2C6
100
AcDbEntity
  8
0
100
AcDbLine
 62
7
  6
CONTINUOUS
 10
144.4445738037
 20
89.3829282302
 11
144.6912463892
 21
89.3829282302
  0
LINE
  5
2C7
100
AcDbEntity
  8
0
100
AcDbLine
 62
7
  6
CONTINUOUS
 10
145.7814160597
 20
89.3829282302
 11
146.0280879303
 21
89.3829282302
  0
LINE
  5
2C8
100
AcDbEntity
  8
0
100
AcDbLine
 62
7
  6
CONTINUOUS
 10
147.1182575973
 20
89.3829282302
 11
147.3649305867
 21
89.3829282302
  0
LINE
  5
2C9
100
AcDbEntity
  8
0
100
AcDbLine
 62
7
  6
CONTINUOUS
 10
111.5609532044
 20
89.820617597
 11
109.7532860805
 21
89.820617597
  0
LINE
  5
2CA
100
AcDbEntity
  8
0
100
AcDbLine
 62
7
  6
CONTINUOUS
 10
108.9040560638
 20
90.2379282302
 11
108.7040560638
 21
90.2379282302
  0
LINE
  5
2CB
100
AcDbEntity
  8
0
100
AcDbLine
 62
7
  6
CONTINUOUS
 10
103.3566877179
 20
90.237928249
 11
103.5566877179
 21
90.237928249
  0
LINE
  5
2CC
100
AcDbEntity
  8
0
100
AcDbLine
 62
7
  6
CONTINUOUS
 10
104.6935299987
 20
90.2379282316
 11
104.8935299987
 21
90.2379282316
  0
LINE
  5
2CD
100
AcDbEntity
  8
0
100
AcDbLine
 62
7
  6
CONTINUOUS
 10
106.0303715247
 20
90.237928254
 11
106.2187495408
 21
90.237928254
  0
LINE
  5
2CE
100
AcDbEntity
  8
0
100
AcDbLine
 62
7
  6
CONTINUOUS
 10
107.3672141864
 20
90.2379282442
 11
107.5672141864
 21
90.2379282442
  0
LINE
  5
2CF
100
AcDbEntity
  8
0
100
AcDbLine
 62
7
  6
CONTINUOUS
 10
142.462646429
 20
90.2379282347
 11
142.6568368361
 21
90.2379282347
  0
LINE
  5
2D0
100
AcDbEntity
  8
0
100
AcDbLine
 62
7
  6
CONTINUOUS
 10
143.7994889625
 20
90.2379282526
 11
143.9936793627
 21
90.2379282526
  0
LINE
  5
2D1
100
AcDbEntity
  8
0
100
AcDbLine
 62
7
  6
CONTINUOUS
 10
145.1363312246
 20
90.2379282424
 11
145.3305216363
 21
90.2379282424
  0
LINE
  5
2D2
100
AcDbEntity
  8
0
100
AcDbLine
 62
7
  6
CONTINUOUS
 10
146.4731727637
 20
90.2379282393
 11
146.6673631673
 21
90.2379282393
  0
LINE
  5
2D3
100
AcDbEntity
  8
0
100
AcDbLine
 62
7
  6
CONTINUOUS
 10
141.2312476214
 20
86.7245378629
 11
140.9310195903
 21
86.7267268998
  0
LINE
  5
2D4
100
AcDbEntity
  8
0
100
AcDbLine
 62
7
  6
CONTINUOUS
 10
127.4349273297
 20
86.4129282302
 11
127.4349273297
 21
106.9342876496
  0
LINE
  5
2D5
100
AcDbEntity
  8
0
100
AcDbLine
 62
7
  6
CONTINUOUS
 10
128.1420341109
 20
107.1733030162
 11
128.1420341109
 21
86.1200350114
  0
LINE
  5
2D6
100
AcDbEntity
  8
0
100
AcDbLine
 62
7
  6
CONTINUOUS
 10
128.2562476733
 20
86.0058214491
 11
128.2562476733
 21
107.343500931
  0
LINE
  5
2D7
100
AcDbEntity
  8
0
100
AcDbLine
 62
7
  6
CONTINUOUS
 10
128.3905927764
 20
125.6663462429
 11
128.3905927764
 21
127.8003208391
  0
LINE
  5
2D8
100
AcDbEntity
  8
0
100
AcDbLine
 62
7
  6
CONTINUOUS
 10
128.9633544544
 20
108.246868647
 11
128.9633544544
 21
85.7129282302
  0
LINE
  5
2D9
100
AcDbEntity
  8
0
100
AcDbLine
 62
7
  6
CONTINUOUS
 10
129.3491408921
 20
124.7665180687
 11
129.3491408921
 21
124.1129282302
  0
LINE
  5
2DA
100
AcDbEntity
  8
0
100
AcDbLine
 62
7
  6
CONTINUOUS
 10
131.0991408921
 20
110.7129282302
 11
131.0991408921
 21
111.8644000928
  0
LINE
  5
2DB
100
AcDbEntity
  8
0
100
AcDbLine
 62
7
  6
CONTINUOUS
 10
128.8033438431
 20
112.6129282302
 11
131.891026085
 21
121.6129282302
  0
LINE
  5
2DC
100
AcDbEntity
  8
0
100
AcDbLine
 62
7
  6
CONTINUOUS
 10
112.0119830017
 20
86.2629282302
 11
112.7048033248
 21
87.4629282302
  0
LINE
  5
2DD
100
AcDbEntity
  8
0
100
AcDbLine
 62
7
  6
CONTINUOUS
 10
134.7269569854
 20
124.4058214491
 11
145.1071252073
 21
134.5878019644
  0
LINE
  5
2DE
100
AcDbEntity
  8
0
100
AcDbLine
 62
7
  6
CONTINUOUS
 10
136.5291327332
 20
122.6380544961
 11
146.9093009551
 21
132.8200350114
  0
LINE
  5
2DF
100
AcDbEntity
  8
0
100
AcDbLine
 62
7
  6
CONTINUOUS
 10
156.9426513842
 20
91.366136504
 11
148.574973917
 21
91.366136504
  0
LINE
  5
2E0
100
AcDbEntity
  8
0
100
AcDbLine
 62
7
  6
CONTINUOUS
 10
93.7556303999
 20
91.366136504
 11
102.1233078671
 21
91.366136504
  0
LINE
  5
2E1
100
AcDbEntity
  8
0
100
AcDbLine
 62
7
  6
CONTINUOUS
 10
126.9491408921
 20
92.2129282302
 11
119.4491408921
 21
92.2129282302
  0
LINE
  5
2E2
100
AcDbEntity
  8
0
100
AcDbLine
 62
7
  6
CONTINUOUS
 10
156.9426513901
 20
92.2199782032
 11
148.574973917
 21
92.2199782032
  0
LINE
  5
2E3
100
AcDbEntity
  8
0
100
AcDbLine
 62
7
  6
CONTINUOUS
 10
93.7556303962
 20
92.2199782032
 11
102.1233078671
 21
92.2199782032
  0
LINE
  5
2E4
100
AcDbEntity
  8
0
100
AcDbLine
 62
7
  6
CONTINUOUS
 10
126.5691408921
 20
92.5929282302
 11
119.8291408921
 21
92.5929282302
  0
LINE
  5
2E5
100
AcDbEntity
  8
GEOM
100
AcDbLine
 62
7
  6
CONTINUOUS
 10
136.207893042
 20
92.8168101936
 11
140.8429231094
 21
92.8168101946
  0
LINE
  5
2E6
100
AcDbEntity
  8
GEOM
100
AcDbLine
 62
7
  6
CONTINUOUS
 10
136.1862987824
 20
92.9062177049
 11
140.8429231094
 21
92.9062177049
  0
LINE
  5
2E7
100
AcDbEntity
  8
0
100
AcDbLine
 62
7
  6
CONTINUOUS
 10
124.5221088327
 20
93.1529282302
 11
124.1521088327
 21
93.1529282302
  0
LINE
  5
2E8
100
AcDbEntity
  8
0
100
AcDbLine
 62
7
  6
CONTINUOUS
 10
123.6221088327
 20
93.1529282302
 11
123.2421088327
 21
93.1529282302
  0
LINE
  5
2E9
100
AcDbEntity
  8
0
100
AcDbLine
 62
7
  6
CONTINUOUS
 10
121.7440104786
 20
93.1529282302
 11
121.3175265083
 21
93.1529282302
  0
LINE
  5
2EA
100
AcDbEntity
  8
GEOM
100
AcDbLine
 62
7
  6
CONTINUOUS
 10
140.8429231094
 20
93.5302941006
 11
136.1862987824
 21
93.5302941006
  0
LINE
  5
2EB
100
AcDbEntity
  8
GEOM
100
AcDbLine
 62
7
  6
CONTINUOUS
 10
140.8429231094
 20
93.6370847593
 11
136.2078928326
 21
93.6370847718
  0
LINE
  5
2EC
100
AcDbEntity
  8
0
100
AcDbLine
 62
7
  6
CONTINUOUS
 10
125.5721088327
 20
94.4529282302
 11
125.3521088327
 21
94.4529282302
  0
LINE
  5
2ED
100
AcDbEntity
  8
GEOM
100
AcDbLine
 62
7
  6
CONTINUOUS
 10
136.2078928398
 20
93.6370848092
 11
135.9480852293
 21
93.6879794215
  0
LINE
  5
2EE
100
AcDbEntity
  8
0
100
AcDbLine
 62
7
  6
CONTINUOUS
 10
140.9310195933
 20
93.6189792908
 11
140.8429231094
 21
93.6370847593
  0
LINE
  5
2EF
100
AcDbEntity
  8
0
100
AcDbLine
 62
7
  6
CONTINUOUS
 10
143.0973001549
 20
89.392937174
 11
143.1077312599
 21
89.3829282302
  0
LINE
  5
2F0
100
AcDbEntity
  8
0
100
AcDbLine
 62
7
  6
CONTINUOUS
 10
144.4341426863
 20
89.3929371859
 11
144.4445738037
 21
89.3829282302
  0
LINE
  5
2F1
100
AcDbEntity
  8
0
100
AcDbLine
 62
7
  6
CONTINUOUS
 10
145.7709849632
 20
89.3929371659
 11
145.7814160597
 21
89.3829282302
  0
LINE
  5
2F2
100
AcDbEntity
  8
0
100
AcDbLine
 62
7
  6
CONTINUOUS
 10
125.9538859627
 20
107.9644000928
 11
125.0291408921
 21
109.4443015598
  0
LINE
  5
2F3
100
AcDbEntity
  8
0
100
AcDbLine
 62
7
  6
CONTINUOUS
 10
126.4491408921
 20
107.9644000928
 11
125.4666951937
 21
109.5366418668
  0
LINE
  5
2F4
100
AcDbEntity
  8
0
100
AcDbLine
 62
7
  6
CONTINUOUS
 10
131.8491408921
 20
113.1114563677
 11
131.8491408921
 21
117.2129282302
  0
LINE
  5
2F5
100
AcDbEntity
  8
0
100
AcDbLine
 62
7
  6
CONTINUOUS
 10
132.5027307306
 20
85.7129282302
 11
132.5027307306
 21
109.7129282302
  0
LINE
  5
2F6
100
AcDbEntity
  8
0
100
AcDbLine
 62
7
  6
CONTINUOUS
 10
133.0223459728
 20
85.4129282302
 11
133.0223459728
 21
110.0129282302
  0
LINE
  5
2F7
100
AcDbEntity
  8
0
100
AcDbLine
 62
7
  6
CONTINUOUS
 10
133.1378160267
 20
110.2129282302
 11
133.1378160267
 21
85.2129282302
  0
LINE
  5
2F8
100
AcDbEntity
  8
0
100
AcDbLine
 62
7
  6
CONTINUOUS
 10
133.2382816195
 20
124.1129282302
 11
133.2382816195
 21
121.6129282302
  0
LINE
  5
2F9
100
AcDbEntity
  8
0
100
AcDbLine
 62
7
  6
CONTINUOUS
 10
133.9211953122
 20
121.6129282302
 11
133.9211953122
 21
124.1129282302
  0
LINE
  5
2FA
100
AcDbEntity
  8
0
100
AcDbLine
 62
7
  6
CONTINUOUS
 10
134.1491408921
 20
85.2129282302
 11
134.1491408921
 21
110.2129282302
  0
LINE
  5
2FB
100
AcDbEntity
  8
0
100
AcDbLine
 62
7
  6
CONTINUOUS
 10
134.3491408921
 20
110.2129282302
 11
134.3491408921
 21
85.2129282302
  0
LINE
  5
2FC
100
AcDbEntity
  8
0
100
AcDbLine
 62
7
  6
CONTINUOUS
 10
135.5800809997
 20
85.2129282302
 11
135.5800809997
 21
110.2129282302
  0
LINE
  5
2FD
100
AcDbEntity
  8
0
100
AcDbLine
 62
7
  6
CONTINUOUS
 10
121.1540339416
 20
93.4928627805
 11
121.3672759267
 21
93.9113737408
  0
LINE
  5
2FE
100
AcDbEntity
  8
0
100
AcDbLine
 62
7
  6
CONTINUOUS
 10
121.3175265083
 20
93.1529282302
 11
122.2856248624
 21
95.0529282302
  0
LINE
  5
2FF
100
AcDbEntity
  8
0
100
AcDbLine
 62
7
  6
CONTINUOUS
 10
121.7440104786
 20
93.1529282302
 11
122.7121088327
 21
95.0529282302
  0
LINE
  5
300
100
AcDbEntity
  8
0
100
AcDbLine
 62
7
  6
CONTINUOUS
 10
133.0223459728
 20
110.0129282302
 11
133.1378160267
 21
110.2129282302
  0
LINE
  5
301
100
AcDbEntity
  8
0
100
AcDbLine
 62
7
  6
CONTINUOUS
 10
131.6734049608
 20
112.687192299
 11
131.2748768234
 21
112.2886641615
  0
LINE
  5
302
100
AcDbEntity
  8
0
100
AcDbLine
 62
7
  6
CONTINUOUS
 10
104.2588762648
 20
89.3929371625
 11
104.2484451697
 21
89.3829282302
  0
LINE
  5
303
100
AcDbEntity
  8
0
100
AcDbLine
 62
7
  6
CONTINUOUS
 10
105.5957177919
 20
89.3929371761
 11
105.5852866827
 21
89.3829282302
  0
LINE
  5
304
100
AcDbEntity
  8
0
100
AcDbLine
 62
7
  6
CONTINUOUS
 10
106.9325604634
 20
89.3929371802
 11
106.92212935
 21
89.3829282302
  0
LINE
  5
305
100
AcDbEntity
  8
0
100
AcDbLine
 62
7
  6
CONTINUOUS
 10
125.9521088327
 20
94.8229282302
 11
125.5721088327
 21
94.8229282302
  0
LINE
  5
306
100
AcDbEntity
  8
0
100
AcDbLine
 62
7
  6
CONTINUOUS
 10
124.5321088327
 20
95.0529282302
 11
124.1521088327
 21
95.0529282302
  0
LINE
  5
307
100
AcDbEntity
  8
0
100
AcDbLine
 62
7
  6
CONTINUOUS
 10
123.6221088327
 20
95.0529282302
 11
123.2421088327
 21
95.0529282302
  0
LINE
  5
308
100
AcDbEntity
  8
0
100
AcDbLine
 62
7
  6
CONTINUOUS
 10
122.7121088327
 20
95.0529282302
 11
122.2856248624
 21
95.0529282302
  0
LINE
  5
309
100
AcDbEntity
  8
0
100
AcDbLine
 62
7
  6
CONTINUOUS
 10
120.7856248624
 20
95.0529282302
 11
120.3591408921
 21
95.0529282302
  0
LINE
  5
30A
100
AcDbEntity
  8
0
100
AcDbLine
 62
7
  6
CONTINUOUS
 10
123.6221088327
 20
95.4329282302
 11
123.2421088327
 21
95.4329282302
  0
LINE
  5
30B
100
AcDbEntity
  8
0
100
AcDbLine
 62
7
  6
CONTINUOUS
 10
141.2324136644
 20
95.5339383176
 11
141.1491408921
 21
95.5339383176
  0
LINE
  5
30C
100
AcDbEntity
  8
0
100
AcDbLine
 62
7
  6
CONTINUOUS
 10
123.6221088327
 20
95.8129282302
 11
123.2421088327
 21
95.8129282302
  0
LINE
  5
30D
100
AcDbEntity
  8
0
100
AcDbLine
 62
7
  6
CONTINUOUS
 10
126.5691408921
 20
96.3329282302
 11
119.8291408921
 21
96.3329282302
  0
LINE
  5
30E
100
AcDbEntity
  8
0
100
AcDbLine
 62
7
  6
CONTINUOUS
 10
126.9491408921
 20
96.7129282302
 11
119.4491408921
 21
96.7129282302
  0
LINE
  5
30F
100
AcDbEntity
  8
0
100
AcDbLine
 62
7
  6
CONTINUOUS
 10
111.5609532044
 20
97.1862033515
 11
109.7532860805
 21
97.1862033515
  0
LINE
  5
310
100
AcDbEntity
  8
0
100
AcDbLine
 62
7
  6
CONTINUOUS
 10
125.4991408921
 20
97.7129282302
 11
124.7491408921
 21
97.7129282302
  0
LINE
  5
311
100
AcDbEntity
  8
0
100
AcDbLine
 62
7
  6
CONTINUOUS
 10
123.7491408921
 20
97.7129282302
 11
122.7491408921
 21
97.7129282302
  0
LINE
  5
312
100
AcDbEntity
  8
0
100
AcDbLine
 62
7
  6
CONTINUOUS
 10
121.7491408921
 20
97.7129282302
 11
119.2491408921
 21
97.7129282302
  0
LINE
  5
313
100
AcDbEntity
  8
0
100
AcDbLine
 62
7
  6
CONTINUOUS
 10
111.5609532044
 20
98.239653109
 11
109.7532860805
 21
98.239653109
  0
LINE
  5
314
100
AcDbEntity
  8
0
100
AcDbLine
 62
7
  6
CONTINUOUS
 10
120.9991408921
 20
98.4629282302
 11
119.2491408921
 21
98.4629282302
  0
LINE
  5
315
100
AcDbEntity
  8
0
100
AcDbLine
 62
7
  6
CONTINUOUS
 10
141.2312476207
 20
95.524478872
 11
141.1491408921
 21
95.5339383176
  0
LINE
  5
316
100
AcDbEntity
  8
0
100
AcDbLine
 62
7
  6
CONTINUOUS
 10
114.0491408921
 20
112.7974581764
 11
117.5804609597
 21
110.7586495848
  0
LINE
  5
317
100
AcDbEntity
  8
0
100
AcDbLine
 62
7
  6
CONTINUOUS
 10
114.2491408921
 20
113.1438683379
 11
117.6139720003
 21
111.2011821918
  0
LINE
  5
318
100
AcDbEntity
  8
0
100
AcDbLine
 62
7
  6
CONTINUOUS
 10
117.7703171797
 20
110.4122394233
 11
117.599140892
 21
110.5169246132
  0
LINE
  5
319
100
AcDbEntity
  8
0
100
AcDbLine
 62
7
  6
CONTINUOUS
 10
147.1078264859
 20
89.3929371802
 11
147.1182575973
 21
89.3829282302
  0
LINE
  5
31A
100
AcDbEntity
  8
0
100
AcDbLine
 62
7
  6
CONTINUOUS
 10
142.6510244505
 20
90.2490771587
 11
143.0973001549
 21
89.392937174
  0
LINE
  5
31B
100
AcDbEntity
  8
0
100
AcDbLine
 62
7
  6
CONTINUOUS
 10
143.9878669701
 20
90.2490771899
 11
144.4341426863
 21
89.3929371859
  0
LINE
  5
31C
100
AcDbEntity
  8
GEOM
100
AcDbLine
 62
7
  6
CONTINUOUS
 10
135.9264911613
 20
108.8334522477
 11
135.9264911613
 21
108.5716513291
  0
LINE
  5
31D
100
AcDbEntity
  8
GEOM
100
AcDbLine
 62
7
  6
CONTINUOUS
 10
135.9264911613
 20
102.5810010176
 11
135.9264911613
 21
101.9489576892
  0
LINE
  5
31E
100
AcDbEntity
  8
GEOM
100
AcDbLine
 62
7
  6
CONTINUOUS
 10
135.9264911613
 20
93.4768987713
 11
135.9264911613
 21
92.8448554429
  0
LINE
  5
31F
100
AcDbEntity
  8
GEOM
100
AcDbLine
 62
7
  6
CONTINUOUS
 10
135.9264911613
 20
86.8542051314
 11
135.9264911613
 21
86.5924042128
  0
LINE
  5
320
100
AcDbEntity
  8
GEOM
100
AcDbLine
 62
7
  6
CONTINUOUS
 10
136.1862987824
 20
108.6932775752
 11
136.1862987824
 21
108.4347766681
  0
LINE
  5
321
100
AcDbEntity
  8
GEOM
100
AcDbLine
 62
7
  6
CONTINUOUS
 10
136.1862987824
 20
102.5196387556
 11
136.1862987824
 21
101.8955623599
  0
LINE
  5
322
100
AcDbEntity
  8
GEOM
100
AcDbLine
 62
7
  6
CONTINUOUS
 10
136.1862987824
 20
93.5302941006
 11
136.1862987824
 21
92.9062177049
  0
LINE
  5
323
100
AcDbEntity
  8
GEOM
100
AcDbLine
 62
7
  6
CONTINUOUS
 10
136.1862987824
 20
86.9910797923
 11
136.1862987824
 21
86.7325788853
  0
LINE
  5
324
100
AcDbEntity
  8
0
100
AcDbLine
 62
7
  6
CONTINUOUS
 10
141.2312476202
 20
99.901377593
 11
141.1491408921
 21
99.8919181428
  0
LINE
  5
325
100
AcDbEntity
  8
0
100
AcDbLine
 62
7
  6
CONTINUOUS
 10
141.2324136644
 20
99.8919181428
 11
141.1491408921
 21
99.8919181428
  0
LINE
  5
326
100
AcDbEntity
  8
0
100
AcDbLine
 62
7
  6
CONTINUOUS
 10
127.2491408921
 20
100.0929282302
 11
125.4991408921
 21
100.0929282302
  0
LINE
  5
327
100
AcDbEntity
  8
0
100
AcDbLine
 62
7
  6
CONTINUOUS
 10
120.9991408921
 20
100.0929282302
 11
119.2491408921
 21
100.0929282302
  0
LINE
  5
328
100
AcDbEntity
  8
0
100
AcDbLine
 62
7
  6
CONTINUOUS
 10
127.2491408921
 20
100.8429282302
 11
125.4991408921
 21
100.8429282302
  0
LINE
  5
329
100
AcDbEntity
  8
0
100
AcDbLine
 62
7
  6
CONTINUOUS
 10
121.7491408921
 20
100.8429282302
 11
119.9991408921
 21
100.8429282302
  0
LINE
  5
32A
100
AcDbEntity
  8
GEOM
100
AcDbLine
 62
7
  6
CONTINUOUS
 10
136.2078929479
 20
101.788771696
 11
140.8429231094
 21
101.7887717012
  0
LINE
  5
32B
100
AcDbEntity
  8
GEOM
100
AcDbLine
 62
7
  6
CONTINUOUS
 10
136.1862987824
 20
101.8955623599
 11
140.8429231094
 21
101.8955623599
  0
LINE
  5
32C
100
AcDbEntity
  8
0
100
AcDbLine
 62
7
  6
CONTINUOUS
 10
127.2491408921
 20
102.4629282302
 11
125.4991408921
 21
102.4629282302
  0
LINE
  5
32D
100
AcDbEntity
  8
0
100
AcDbLine
 62
7
  6
CONTINUOUS
 10
121.7491408921
 20
102.4629282302
 11
119.9991408921
 21
102.4629282302
  0
LINE
  5
32E
100
AcDbEntity
  8
GEOM
100
AcDbLine
 62
7
  6
CONTINUOUS
 10
140.8429231094
 20
102.5196387556
 11
136.1862987824
 21
102.5196387556
  0
LINE
  5
32F
100
AcDbEntity
  8
GEOM
100
AcDbLine
 62
7
  6
CONTINUOUS
 10
140.8429231094
 20
102.6090462659
 11
136.2078930949
 21
102.609046265
  0
LINE
  5
330
100
AcDbEntity
  8
0
100
AcDbLine
 62
7
  6
CONTINUOUS
 10
141.3595719786
 20
106.0329193043
 11
141.3491408921
 21
106.0429282302
  0
LINE
  5
331
100
AcDbEntity
  8
0
100
AcDbLine
 62
7
  6
CONTINUOUS
 10
134.1491408921
 20
110.2129282302
 11
134.3491408921
 21
110.0129282302
  0
LINE
  5
332
100
AcDbEntity
  8
0
100
AcDbLine
 62
7
  6
CONTINUOUS
 10
122.3505021063
 20
121.6129282302
 11
126.3491408921
 21
117.3707593689
  0
LINE
  5
333
100
AcDbEntity
  8
0
100
AcDbLine
 62
7
  6
CONTINUOUS
 10
148.5705319659
 20
85.8706219153
 11
147.4491408921
 21
87.8129282302
  0
LINE
  5
334
100
AcDbEntity
  8
0
100
AcDbLine
 62
7
  6
CONTINUOUS
 10
136.3595038631
 20
108.8629282302
 11
135.5800809997
 21
110.2129282302
  0
LINE
  5
335
100
AcDbEntity
  8
0
100
AcDbLine
 62
7
  6
CONTINUOUS
 10
145.3247092551
 20
90.2490771579
 11
145.7709849632
 21
89.3929371659
  0
LINE
  5
336
100
AcDbEntity
  8
0
100
AcDbLine
 62
7
  6
CONTINUOUS
 10
146.6615507781
 20
90.2490771701
 11
147.1078264859
 21
89.3929371802
  0
LINE
  5
337
100
AcDbEntity
  8
0
100
AcDbLine
 62
7
  6
CONTINUOUS
 10
141.8058476791
 20
105.1767793247
 11
141.3595719786
 21
106.0329193043
  0
LINE
  5
338
100
AcDbEntity
  8
GEOM
100
AcDbLine
 62
7
  6
CONTINUOUS
 10
140.8429231094
 20
86.7129282302
 11
140.8429231094
 21
87.0526970798
  0
LINE
  5
339
100
AcDbEntity
  8
GEOM
100
AcDbLine
 62
7
  6
CONTINUOUS
 10
140.8429231094
 20
92.8168101946
 11
140.8429231094
 21
93.6370847593
  0
LINE
  5
33A
100
AcDbEntity
  8
GEOM
100
AcDbLine
 62
7
  6
CONTINUOUS
 10
140.8429231094
 20
101.7887717012
 11
140.8429231094
 21
102.6090462659
  0
LINE
  5
33B
100
AcDbEntity
  8
GEOM
100
AcDbLine
 62
7
  6
CONTINUOUS
 10
140.8429231094
 20
108.3731593807
 11
140.8429231094
 21
108.7129282302
  0
LINE
  5
33C
100
AcDbEntity
  8
0
100
AcDbLine
 62
7
  6
CONTINUOUS
 10
140.922301223
 20
108.6832859185
 11
140.922301223
 21
108.4250202364
  0
LINE
  5
33D
100
AcDbEntity
  8
0
100
AcDbLine
 62
7
  6
CONTINUOUS
 10
140.922301223
 20
102.5152648509
 11
140.922301223
 21
101.8917563385
  0
LINE
  5
33E
100
AcDbEntity
  8
0
100
AcDbLine
 62
7
  6
CONTINUOUS
 10
140.922301223
 20
93.534100122
 11
140.922301223
 21
92.9105916096
  0
LINE
  5
33F
100
AcDbEntity
  8
0
100
AcDbLine
 62
7
  6
CONTINUOUS
 10
140.922301223
 20
87.0008362241
 11
140.922301223
 21
86.742570542
  0
LINE
  5
340
100
AcDbEntity
  8
GEOM
100
AcDbLine
 62
7
  6
CONTINUOUS
 10
141.1491408921
 20
107.0318813666
 11
141.1491408921
 21
103.95032428
  0
LINE
  5
341
100
AcDbEntity
  8
GEOM
100
AcDbLine
 62
7
  6
CONTINUOUS
 10
141.1491408921
 20
99.8919181428
 11
141.1491408921
 21
95.5339383176
  0
LINE
  5
342
100
AcDbEntity
  8
GEOM
100
AcDbLine
 62
7
  6
CONTINUOUS
 10
141.1491408921
 20
91.4755321805
 11
141.1491408921
 21
88.3939750939
  0
LINE
  5
343
100
AcDbEntity
  8
0
100
AcDbLine
 62
7
  6
CONTINUOUS
 10
141.3491408921
 20
86.7893214325
 11
141.3491408921
 21
108.636535028
  0
LINE
  5
344
100
AcDbEntity
  8
0
100
AcDbLine
 62
7
  6
CONTINUOUS
 10
140.9310195941
 20
101.8068771657
 11
140.8429231094
 21
101.7887717012
  0
LINE
  5
345
100
AcDbEntity
  8
GEOM
100
AcDbLine
 62
7
  6
CONTINUOUS
 10
136.2078929522
 20
101.7887716734
 11
135.9480853358
 21
101.7378770599
  0
LINE
  5
346
100
AcDbEntity
  8
0
100
AcDbLine
 62
7
  6
CONTINUOUS
 10
156.9426513879
 20
103.2058782573
 11
148.574973917
 21
103.2058782573
  0
LINE
  5
347
100
AcDbEntity
  8
0
100
AcDbLine
 62
7
  6
CONTINUOUS
 10
93.755630394
 20
103.2058782573
 11
102.1233078671
 21
103.2058782573
  0
LINE
  5
348
100
AcDbEntity
  8
0
100
AcDbLine
 62
7
  6
CONTINUOUS
 10
127.2491408921
 20
103.2129282302
 11
124.7491408921
 21
103.2129282302
  0
LINE
  5
349
100
AcDbEntity
  8
0
100
AcDbLine
 62
7
  6
CONTINUOUS
 10
121.7491408921
 20
103.2129282302
 11
119.2491408921
 21
103.2129282302
  0
LINE
  5
34A
100
AcDbEntity
  8
0
100
AcDbLine
 62
7
  6
CONTINUOUS
 10
156.9426513842
 20
104.0597199564
 11
148.574973917
 21
104.0597199564
  0
LINE
  5
34B
100
AcDbEntity
  8
0
100
AcDbLine
 62
7
  6
CONTINUOUS
 10
93.7556303999
 20
104.0597199564
 11
102.1233078671
 21
104.0597199564
  0
LINE
  5
34C
100
AcDbEntity
  8
0
100
AcDbLine
 62
7
  6
CONTINUOUS
 10
125.9991408921
 20
104.2129282302
 11
123.7491408921
 21
104.2129282302
  0
LINE
  5
34D
100
AcDbEntity
  8
0
100
AcDbLine
 62
7
  6
CONTINUOUS
 10
122.7491408921
 20
104.2129282302
 11
120.4991408921
 21
104.2129282302
  0
LINE
  5
34E
100
AcDbEntity
  8
0
100
AcDbLine
 62
7
  6
CONTINUOUS
 10
147.3415940662
 20
105.1879282115
 11
147.147403672
 21
105.1879282115
  0
LINE
  5
34F
100
AcDbEntity
  8
0
100
AcDbLine
 62
7
  6
CONTINUOUS
 10
146.0047517854
 20
105.1879282289
 11
145.81056138
 21
105.1879282289
  0
LINE
  5
350
100
AcDbEntity
  8
0
100
AcDbLine
 62
7
  6
CONTINUOUS
 10
144.6679102594
 20
105.1879282065
 11
144.4737198616
 21
105.1879282065
  0
LINE
  5
351
100
AcDbEntity
  8
0
100
AcDbLine
 62
7
  6
CONTINUOUS
 10
143.3310675977
 20
105.1879282163
 11
143.1368772024
 21
105.1879282163
  0
LINE
  5
352
100
AcDbEntity
  8
0
100
AcDbLine
 62
7
  6
CONTINUOUS
 10
108.2356353551
 20
105.1879282258
 11
108.047257332
 21
105.1879282258
  0
LINE
  5
353
100
AcDbEntity
  8
0
100
AcDbLine
 62
7
  6
CONTINUOUS
 10
106.8987928216
 20
105.1879282079
 11
106.6987928216
 21
105.1879282079
  0
LINE
  5
354
100
AcDbEntity
  8
0
100
AcDbLine
 62
7
  6
CONTINUOUS
 10
105.5619505595
 20
105.1879282181
 11
105.3619505595
 21
105.1879282181
  0
LINE
  5
355
100
AcDbEntity
  8
0
100
AcDbLine
 62
7
  6
CONTINUOUS
 10
104.2251090204
 20
105.1879282211
 11
104.0251090204
 21
105.1879282211
  0
LINE
  5
356
100
AcDbEntity
  8
0
100
AcDbLine
 62
7
  6
CONTINUOUS
 10
141.800035309
 20
105.1879282302
 11
141.9942257203
 21
105.1879282302
  0
LINE
  5
357
100
AcDbEntity
  8
0
100
AcDbLine
 62
7
  6
CONTINUOUS
 10
125.9991408921
 20
105.2129282302
 11
120.4991408921
 21
105.2129282302
  0
LINE
  5
358
100
AcDbEntity
  8
0
100
AcDbLine
 62
7
  6
CONTINUOUS
 10
111.5609532044
 20
105.6052388635
 11
109.7532860805
 21
105.6052388635
  0
LINE
  5
359
100
AcDbEntity
  8
0
100
AcDbLine
 62
7
  6
CONTINUOUS
 10
109.3491408921
 20
106.0429282302
 11
108.6807201858
 21
106.0429282302
  0
LINE
  5
35A
100
AcDbEntity
  8
0
100
AcDbLine
 62
7
  6
CONTINUOUS
 10
107.5905505242
 20
106.0429282302
 11
107.3438776628
 21
106.0429282302
  0
LINE
  5
35B
100
AcDbEntity
  8
0
100
AcDbLine
 62
7
  6
CONTINUOUS
 10
106.2537079804
 20
106.0429282302
 11
106.0070353949
 21
106.0429282302
  0
LINE
  5
35C
100
AcDbEntity
  8
0
100
AcDbLine
 62
7
  6
CONTINUOUS
 10
104.9168657244
 20
106.0429282302
 11
104.6701938538
 21
106.0429282302
  0
LINE
  5
35D
100
AcDbEntity
  8
0
100
AcDbLine
 62
7
  6
CONTINUOUS
 10
103.5800241868
 20
106.0429282302
 11
103.3333511974
 21
106.0429282302
  0
LINE
  5
35E
100
AcDbEntity
  8
0
100
AcDbLine
 62
7
  6
CONTINUOUS
 10
141.3491408921
 20
106.0429282302
 11
142.6859827615
 21
106.0429282302
  0
LINE
  5
35F
100
AcDbEntity
  8
0
100
AcDbLine
 62
7
  6
CONTINUOUS
 10
143.7761524341
 20
106.0429282302
 11
144.0228254174
 21
106.0429282302
  0
LINE
  5
360
100
AcDbEntity
  8
0
100
AcDbLine
 62
7
  6
CONTINUOUS
 10
145.1129951014
 20
106.0429282302
 11
145.3596669565
 21
106.0429282302
  0
LINE
  5
361
100
AcDbEntity
  8
0
100
AcDbLine
 62
7
  6
CONTINUOUS
 10
146.4498366144
 20
106.0429282302
 11
146.6965092272
 21
106.0429282302
  0
LINE
  5
362
100
AcDbEntity
  8
0
100
AcDbLine
 62
7
  6
CONTINUOUS
 10
111.5609532044
 20
106.3501403307
 11
109.7532860805
 21
106.3501403307
  0
LINE
  5
363
100
AcDbEntity
  8
0
100
AcDbLine
 62
7
  6
CONTINUOUS
 10
142.6964138764
 20
106.0329192773
 11
142.6859827615
 21
106.0429282302
  0
LINE
  5
364
100
AcDbEntity
  8
0
100
AcDbLine
 62
7
  6
CONTINUOUS
 10
144.0332565281
 20
106.0329192814
 11
144.0228254174
 21
106.0429282302
  0
LINE
  5
365
100
AcDbEntity
  8
0
100
AcDbLine
 62
7
  6
CONTINUOUS
 10
145.3700980534
 20
106.0329192944
 11
145.3596669565
 21
106.0429282302
  0
LINE
  5
366
100
AcDbEntity
  8
0
100
AcDbLine
 62
7
  6
CONTINUOUS
 10
146.7069403441
 20
106.0329192754
 11
146.6965092272
 21
106.0429282302
  0
LINE
  5
367
100
AcDbEntity
  8
0
100
AcDbLine
 62
7
  6
CONTINUOUS
 10
131.8491408921
 20
117.2129282302
 11
131.3491408921
 21
117.7129282302
  0
LINE
  5
368
100
AcDbEntity
  8
0
100
AcDbLine
 62
7
  6
CONTINUOUS
 10
143.1426895883
 20
105.1767792805
 11
142.6964138764
 21
106.0329192773
  0
LINE
  5
369
100
AcDbEntity
  8
0
100
AcDbLine
 62
7
  6
CONTINUOUS
 10
144.479532245
 20
105.1767792755
 11
144.0332565281
 21
106.0329192814
  0
LINE
  5
36A
100
AcDbEntity
  8
0
100
AcDbLine
 62
7
  6
CONTINUOUS
 10
145.8163737559
 20
105.1767793123
 11
145.3700980534
 21
106.0329192944
  0
LINE
  5
36B
100
AcDbEntity
  8
0
100
AcDbLine
 62
7
  6
CONTINUOUS
 10
147.4491408921
 20
87.8129282302
 11
147.4491408921
 21
107.6129282302
  0
LINE
  5
36C
100
AcDbEntity
  8
0
100
AcDbLine
 62
7
  6
CONTINUOUS
 10
141.9942257203
 20
105.1879282302
 11
142.4393105485
 21
106.0429282302
  0
LINE
  5
36D
100
AcDbEntity
  8
0
100
AcDbLine
 62
7
  6
CONTINUOUS
 10
143.7657213187
 20
106.0329192765
 11
143.3252579991
 21
105.1879282163
  0
LINE
  5
36E
100
AcDbEntity
  8
0
100
AcDbLine
 62
7
  6
CONTINUOUS
 10
145.1025639903
 20
106.0329192806
 11
144.662100663
 21
105.1879282065
  0
LINE
  5
36F
100
AcDbEntity
  8
0
100
AcDbLine
 62
7
  6
CONTINUOUS
 10
140.9310195944
 20
108.6991295607
 11
141.2312476203
 21
108.7013185976
  0
LINE
  5
370
100
AcDbEntity
  8
0
100
AcDbLine
 62
7
  6
CONTINUOUS
 10
91.9604657575
 20
107.5129282302
 11
90.7491408921
 21
107.5129282302
  0
LINE
  5
371
100
AcDbEntity
  8
0
100
AcDbLine
 62
7
  6
CONTINUOUS
 10
158.7378160267
 20
107.5129282302
 11
159.9491408921
 21
107.5129282302
  0
LINE
  5
372
100
AcDbEntity
  8
0
100
AcDbLine
 62
7
  6
CONTINUOUS
 10
113.1378160267
 20
107.7129282302
 11
116.5278205485
 21
107.7129282302
  0
LINE
  5
373
100
AcDbEntity
  8
0
100
AcDbLine
 62
7
  6
CONTINUOUS
 10
126.4491408921
 20
107.9644000928
 11
125.9538859627
 21
107.9644000928
  0
LINE
  5
374
100
AcDbEntity
  8
0
100
AcDbLine
 62
7
  6
CONTINUOUS
 10
124.3491408921
 20
107.9644000928
 11
123.2491408921
 21
107.9644000928
  0
LINE
  5
375
100
AcDbEntity
  8
GEOM
100
AcDbLine
 62
7
  6
CONTINUOUS
 10
136.2078930155
 20
108.373159379
 11
140.8429231094
 21
108.3731593807
  0
LINE
  5
376
100
AcDbEntity
  8
0
100
AcDbLine
 62
7
  6
CONTINUOUS
 10
123.9291408921
 20
108.3844000928
 11
123.2491408921
 21
108.3844000928
  0
LINE
  5
377
100
AcDbEntity
  8
GEOM
100
AcDbLine
 62
7
  6
CONTINUOUS
 10
136.1862987824
 20
108.4347766681
 11
140.8429231094
 21
108.4347766681
  0
LINE
  5
378
100
AcDbEntity
  8
GEOM
100
AcDbLine
 62
7
  6
CONTINUOUS
 10
140.8429231094
 20
108.6932775752
 11
136.1862987824
 21
108.6932775752
  0
LINE
  5
379
100
AcDbEntity
  8
GEOM
100
AcDbLine
 62
7
  6
CONTINUOUS
 10
141.1491408921
 20
108.7129282302
 11
136.2078930951
 21
108.7129282302
  0
LINE
  5
37A
100
AcDbEntity
  8
0
100
AcDbLine
 62
7
  6
CONTINUOUS
 10
111.5609532044
 20
109.401065845
 11
109.7532860805
 21
109.401065845
  0
LINE
  5
37B
100
AcDbEntity
  8
0
100
AcDbLine
 62
7
  6
CONTINUOUS
 10
111.5789702998
 20
109.4129282302
 11
109.7532860805
 21
109.4129282302
  0
LINE
  5
37C
100
AcDbEntity
  8
0
100
AcDbLine
 62
7
  6
CONTINUOUS
 10
125.0291408921
 20
109.4443015598
 11
124.3491408921
 21
109.4443015598
  0
LINE
  5
37D
100
AcDbEntity
  8
0
100
AcDbLine
 62
7
  6
CONTINUOUS
 10
156.9426513842
 20
109.5526699835
 11
148.574973917
 21
109.5526699835
  0
LINE
  5
37E
100
AcDbEntity
  8
0
100
AcDbLine
 62
7
  6
CONTINUOUS
 10
93.7556303999
 20
109.5526699835
 11
102.1233078671
 21
109.5526699835
  0
LINE
  5
37F
100
AcDbEntity
  8
0
100
AcDbLine
 62
7
  6
CONTINUOUS
 10
156.9768977056
 20
109.5629282302
 11
148.574973917
 21
109.5629282302
  0
LINE
  5
380
100
AcDbEntity
  8
0
100
AcDbLine
 62
7
  6
CONTINUOUS
 10
93.7213840785
 20
109.5629282302
 11
102.1233078671
 21
109.5629282302
  0
LINE
  5
381
100
AcDbEntity
  8
0
100
AcDbLine
 62
7
  6
CONTINUOUS
 10
132.0991408921
 20
109.7129282302
 11
132.5027307306
 21
109.7129282302
  0
LINE
  5
382
100
AcDbEntity
  8
0
100
AcDbLine
 62
7
  6
CONTINUOUS
 10
125.3091408921
 20
109.9444000928
 11
124.3491408921
 21
109.9444000928
  0
LINE
  5
383
100
AcDbEntity
  8
0
100
AcDbLine
 62
7
  6
CONTINUOUS
 10
134.1491408921
 20
110.2129282302
 11
133.1378160267
 21
110.2129282302
  0
LINE
  5
384
100
AcDbEntity
  8
0
100
AcDbLine
 62
7
  6
CONTINUOUS
 10
134.3491408921
 20
110.2129282302
 11
135.5800809997
 21
110.2129282302
  0
LINE
  5
385
100
AcDbEntity
  8
0
100
AcDbLine
 62
7
  6
CONTINUOUS
 10
125.3091408921
 20
111.1444000928
 11
124.3491408921
 21
111.1444000928
  0
LINE
  5
386
100
AcDbEntity
  8
0
100
AcDbLine
 62
7
  6
CONTINUOUS
 10
123.9291408921
 20
111.1444000928
 11
123.2491408921
 21
111.1444000928
  0
LINE
  5
387
100
AcDbEntity
  8
0
100
AcDbLine
 62
7
  6
CONTINUOUS
 10
117.6139720003
 20
111.2011821918
 11
117.9907646656
 21
111.2011821918
  0
LINE
  5
388
100
AcDbEntity
  8
GEOM
100
AcDbLine
 62
7
  6
CONTINUOUS
 10
136.2623054929
 20
108.8651306182
 11
136.2824629425
 21
108.8649534928
  0
LINE
  5
389
100
AcDbEntity
  8
GEOM
100
AcDbLine
 62
7
  6
CONTINUOUS
 10
136.004139346
 20
108.8703717317
 11
136.0319156564
 21
108.8700999856
  0
LWPOLYLINE
  5
38A
100
AcDbEntity
  8
GEOM
100
AcDbPolyline
 62
7
  6
CONTINUOUS
 90
4
 70
0
 10
136.0871591584
 20
108.86880672
 10
136.1409327943
 20
108.8678603288
 10
136.1671682213
 20
108.8670733993
 10
136.2169334139
 20
108.8662855572
  0
LINE
  5
38B
100
AcDbEntity
  8
GEOM
100
AcDbLine
 62
7
  6
CONTINUOUS
 10
135.9480854728
 20
108.8718263583
 11
136.3595038631
 21
108.8629282302
  0
LINE
  5
38C
100
AcDbEntity
  8
GEOM
100
AcDbLine
 62
7
  6
CONTINUOUS
 10
136.0596209495
 20
108.8695640174
 11
136.0871591584
 21
108.86880672
  0
LINE
  5
38D
100
AcDbEntity
  8
GEOM
100
AcDbLine
 62
7
  6
CONTINUOUS
 10
136.2169334139
 20
108.8662855572
 11
136.2404631796
 21
108.8655379781
  0
LWPOLYLINE
  5
38E
100
AcDbEntity
  8
GEOM
100
AcDbPolyline
 62
7
  6
CONTINUOUS
 90
8
 70
0
 10
136.2824629425
 20
108.8649534928
 10
136.3169529674
 20
108.8639005778
 10
136.3302908857
 20
108.8637801119
 10
136.3411788346
 20
108.8636110897
 10
136.3495507165
 20
108.8631568178
 10
136.355384499
 20
108.862667284
 10
136.3587022146
 20
108.8625077853
 10
136.3595038631
 20
108.8629282302
  0
LINE
  5
38F
100
AcDbEntity
  8
GEOM
100
AcDbLine
 62
7
  6
CONTINUOUS
 10
135.9480854728
 20
108.8718263583
 11
135.9761959515
 21
108.8708739611
  0
LINE
  5
390
100
AcDbEntity
  8
0
100
AcDbLine
 62
7
  6
CONTINUOUS
 10
147.153216059
 20
105.1767792736
 11
146.7069403441
 21
106.0329192754
  0
LINE
  5
391
100
AcDbEntity
  8
0
100
AcDbLine
 62
7
  6
CONTINUOUS
 10
148.574973917
 20
85.8629282302
 11
148.574973917
 21
85.873186477
  0
LINE
  5
392
100
AcDbEntity
  8
0
100
AcDbLine
 62
7
  6
CONTINUOUS
 10
148.574973917
 20
91.366136504
 11
148.574973917
 21
92.2199782032
  0
LINE
  5
393
100
AcDbEntity
  8
0
100
AcDbLine
 62
7
  6
CONTINUOUS
 10
148.574973917
 20
103.2058782573
 11
148.574973917
 21
104.0597199564
  0
LINE
  5
394
100
AcDbEntity
  8
0
100
AcDbLine
 62
7
  6
CONTINUOUS
 10
148.574973917
 20
109.5526699835
 11
148.574973917
 21
109.5629282302
  0
LINE
  5
395
100
AcDbEntity
  8
0
100
AcDbLine
 62
7
  6
CONTINUOUS
 10
146.4394055174
 20
106.0329192942
 11
145.9989421969
 21
105.1879282289
  0
LINE
  5
396
100
AcDbEntity
  8
0
100
AcDbLine
 62
7
  6
CONTINUOUS
 10
147.4491408921
 20
105.4053694285
 11
147.3357844664
 21
105.1879282115
  0
LINE
  5
397
100
AcDbEntity
  8
0
100
AcDbLine
 62
7
  6
CONTINUOUS
 10
148.574973917
 20
109.5629282302
 11
147.4491408921
 21
107.6129282302
  0
LINE
  5
398
100
AcDbEntity
  8
0
100
AcDbLine
 62
7
  6
CONTINUOUS
 10
136.3595038631
 20
86.5629282302
 11
135.5800809997
 21
85.2129282302
  0
LINE
  5
399
100
AcDbEntity
  8
0
100
AcDbLine
 62
7
  6
CONTINUOUS
 10
143.7657213187
 20
106.0329192765
 11
143.7761524341
 21
106.0429282302
  0
LINE
  5
39A
100
AcDbEntity
  8
0
100
AcDbLine
 62
7
  6
CONTINUOUS
 10
145.1025639903
 20
106.0329192806
 11
145.1129951014
 21
106.0429282302
  0
LINE
  5
39B
100
AcDbEntity
  8
0
100
AcDbLine
 62
7
  6
CONTINUOUS
 10
146.4394055174
 20
106.0329192942
 11
146.4498366144
 21
106.0429282302
  0
LINE
  5
39C
100
AcDbEntity
  8
0
100
AcDbLine
 62
7
  6
CONTINUOUS
 10
125.3091408921
 20
111.5644000928
 11
123.2491408921
 21
111.5644000928
  0
LINE
  5
39D
100
AcDbEntity
  8
0
100
AcDbLine
 62
7
  6
CONTINUOUS
 10
117.6139720003
 20
111.8644000928
 11
131.0991408921
 21
111.8644000928
  0
LINE
  5
39E
100
AcDbEntity
  8
0
100
AcDbLine
 62
7
  6
CONTINUOUS
 10
117.8185237524
 20
112.2886641615
 11
131.2748768234
 21
112.2886641615
  0
LINE
  5
39F
100
AcDbEntity
  8
0
100
AcDbLine
 62
7
  6
CONTINUOUS
 10
114.3687561343
 20
112.6129282302
 11
113.8491408921
 21
112.6129282302
  0
LINE
  5
3A0
100
AcDbEntity
  8
0
100
AcDbLine
 62
7
  6
CONTINUOUS
 10
126.3491408921
 20
112.6129282302
 11
128.8033438431
 21
112.6129282302
  0
LINE
  5
3A1
100
AcDbEntity
  8
0
100
AcDbLine
 62
7
  6
CONTINUOUS
 10
131.6734049608
 20
112.687192299
 11
128.8288220482
 21
112.687192299
  0
LINE
  5
3A2
100
AcDbEntity
  8
0
100
AcDbLine
 62
7
  6
CONTINUOUS
 10
126.3491408921
 20
112.687192299
 11
117.3989458817
 21
112.687192299
  0
LINE
  5
3A3
100
AcDbEntity
  8
0
100
AcDbLine
 62
7
  6
CONTINUOUS
 10
116.822521465
 20
113.1114563677
 11
126.3491408921
 21
113.1114563677
  0
LINE
  5
3A4
100
AcDbEntity
  8
0
100
AcDbLine
 62
7
  6
CONTINUOUS
 10
128.974376785
 20
113.1114563677
 11
131.8491408921
 21
113.1114563677
  0
LINE
  5
3A5
100
AcDbEntity
  8
0
100
AcDbLine
 62
7
  6
CONTINUOUS
 10
114.2491408921
 20
114.5129282302
 11
117.2036161195
 21
114.5129282302
  0
LINE
  5
3A6
100
AcDbEntity
  8
0
100
AcDbLine
 62
7
  6
CONTINUOUS
 10
116.6128627171
 20
114.9129282302
 11
114.2491408921
 21
114.9129282302
  0
LINE
  5
3A7
100
AcDbEntity
  8
0
100
AcDbLine
 62
7
  6
CONTINUOUS
 10
116.8491408921
 20
115.3129282302
 11
117.0045730045
 21
115.3129282302
  0
LINE
  5
3A8
100
AcDbEntity
  8
0
100
AcDbLine
 62
7
  6
CONTINUOUS
 10
128.3905927764
 20
125.6663462429
 11
129.0491408921
 21
125.286133311
  0
LINE
  5
3A9
100
AcDbEntity
  8
0
100
AcDbLine
 62
7
  6
CONTINUOUS
 10
155.3491408921
 20
132.6129282302
 11
155.3491408921
 21
136.1129282302
  0
LINE
  5
3AA
100
AcDbEntity
  8
0
100
AcDbLine
 62
7
  6
CONTINUOUS
 10
155.8491408921
 20
132.1129282302
 11
155.8491408921
 21
136.6129282302
  0
LINE
  5
3AB
100
AcDbEntity
  8
0
100
AcDbLine
 62
7
  6
CONTINUOUS
 10
142.0279927031
 20
89.3929371736
 11
142.468456028
 21
90.2379282347
  0
LINE
  5
3AC
100
AcDbEntity
  8
0
100
AcDbLine
 62
7
  6
CONTINUOUS
 10
143.3648352382
 20
89.392937185
 11
143.8052985682
 21
90.2379282526
  0
LINE
  5
3AD
100
AcDbEntity
  8
0
100
AcDbLine
 62
7
  6
CONTINUOUS
 10
144.7016774857
 20
89.3929371654
 11
145.1421408188
 21
90.2379282424
  0
LINE
  5
3AE
100
AcDbEntity
  8
0
100
AcDbLine
 62
7
  6
CONTINUOUS
 10
146.0385190413
 20
89.3929371795
 11
146.4789823662
 21
90.2379282393
  0
LINE
  5
3AF
100
AcDbEntity
  8
0
100
AcDbLine
 62
7
  6
CONTINUOUS
 10
134.1491408921
 20
85.2129282302
 11
134.3491408921
 21
85.4129282302
  0
LINE
  5
3B0
100
AcDbEntity
  8
0
100
AcDbLine
 62
7
  6
CONTINUOUS
 10
131.8491408921
 20
117.2129282302
 11
130.3814925445
 21
117.2129282302
  0
LINE
  5
3B1
100
AcDbEntity
  8
0
100
AcDbLine
 62
7
  6
CONTINUOUS
 10
126.3491408921
 20
117.2129282302
 11
116.8491408921
 21
117.2129282302
  0
LINE
  5
3B2
100
AcDbEntity
  8
0
100
AcDbLine
 62
7
  6
CONTINUOUS
 10
131.3489500926
 20
117.7129282302
 11
130.5530304468
 21
117.7129282302
  0
LINE
  5
3B3
100
AcDbEntity
  8
0
100
AcDbLine
 62
7
  6
CONTINUOUS
 10
117.3493316915
 20
117.7129282302
 11
126.0266149095
 21
117.7129282302
  0
LINE
  5
3B4
100
AcDbEntity
  8
0
100
AcDbLine
 62
7
  6
CONTINUOUS
 10
118.3491408921
 20
118.1629282302
 11
125.6024480476
 21
118.1629282302
  0
LINE
  5
3B5
100
AcDbEntity
  8
0
100
AcDbLine
 62
7
  6
CONTINUOUS
 10
113.8491408921
 20
118.4137958376
 11
116.3491408921
 21
118.4137958376
  0
LINE
  5
3B6
100
AcDbEntity
  8
0
100
AcDbLine
 62
7
  6
CONTINUOUS
 10
119.0991408921
 20
118.9129282302
 11
124.8955032777
 21
118.9129282302
  0
LINE
  5
3B7
100
AcDbEntity
  8
0
100
AcDbLine
 62
7
  6
CONTINUOUS
 10
128.3905927764
 20
127.8003208391
 11
127.8491408921
 21
128.1129282302
  0
LINE
  5
3B8
100
AcDbEntity
  8
0
100
AcDbLine
 62
7
  6
CONTINUOUS
 10
157.4099104075
 20
109.3129282302
 11
158.3048033248
 21
107.7629282302
  0
LINE
  5
3B9
100
AcDbEntity
  8
0
100
AcDbLine
 62
7
  6
CONTINUOUS
 10
156.9768977056
 20
104.0576643667
 11
156.9768977056
 21
103.2080348408
  0
LINE
  5
3BA
100
AcDbEntity
  8
0
100
AcDbLine
 62
7
  6
CONTINUOUS
 10
156.9768977056
 20
92.2178216201
 11
156.9768977056
 21
91.3681920932
  0
LINE
  5
3BB
100
AcDbEntity
  8
0
100
AcDbLine
 62
7
  6
CONTINUOUS
 10
156.9768977056
 20
85.8629282302
 11
156.9768977056
 21
85.873085471
  0
LINE
  5
3BC
100
AcDbEntity
  8
0
100
AcDbLine
 62
7
  6
CONTINUOUS
 10
156.9768977056
 20
109.5527709894
 11
156.9768977056
 21
109.5629282302
  0
LINE
  5
3BD
100
AcDbEntity
  8
GEOM
100
AcDbLine
 62
7
  6
CONTINUOUS
 10
157.0797378866
 20
136.6129282302
 11
157.0797378866
 21
136.6343834542
  0
LINE
  5
3BE
100
AcDbEntity
  8
0
100
AcDbLine
 62
7
  6
CONTINUOUS
 10
157.4099104075
 20
109.3129282302
 11
157.4099104075
 21
109.3073924885
  0
LINE
  5
3BF
100
AcDbEntity
  8
0
100
AcDbLine
 62
7
  6
CONTINUOUS
 10
157.4099104075
 20
103.8204810361
 11
157.4099104075
 21
103.1998396827
  0
LINE
  5
3C0
100
AcDbEntity
  8
0
100
AcDbLine
 62
7
  6
CONTINUOUS
 10
157.4099104075
 20
92.2260167778
 11
157.4099104075
 21
91.6053754244
  0
LINE
  5
3C1
100
AcDbEntity
  8
0
100
AcDbLine
 62
7
  6
CONTINUOUS
 10
157.4099104075
 20
86.118463972
 11
157.4099104075
 21
86.1129282302
  0
LINE
  5
3C2
100
AcDbEntity
  8
GEOM
100
AcDbLine
 62
7
  6
CONTINUOUS
 10
157.7714159337
 20
136.6129282302
 11
157.7714159337
 21
136.6343834542
  0
LINE
  5
3C3
100
AcDbEntity
  8
GEOM
100
AcDbLine
 62
7
  6
CONTINUOUS
 10
158.2797378866
 20
136.6129282302
 11
158.2797378866
 21
136.6343834542
  0
LINE
  5
3C4
100
AcDbEntity
  8
0
100
AcDbLine
 62
7
  6
CONTINUOUS
 10
158.3048033248
 20
87.6629282302
 11
158.3048033248
 21
107.7629282302
  0
LINE
  5
3C5
100
AcDbEntity
  8
0
100
AcDbLine
 62
7
  6
CONTINUOUS
 10
158.7378160267
 20
87.9129282302
 11
158.7378160267
 21
107.5129282302
  0
LINE
  5
3C6
100
AcDbEntity
  8
GEOM
100
AcDbLine
 62
7
  6
CONTINUOUS
 10
158.8119771516
 20
136.6129282302
 11
158.8119771516
 21
136.6343834542
  0
LINE
  5
3C7
100
AcDbEntity
  8
GEOM
100
AcDbLine
 62
7
  6
CONTINUOUS
 10
159.8338801351
 20
136.6129282302
 11
159.8338801351
 21
136.6343834542
  0
LINE
  5
3C8
100
AcDbEntity
  8
0
100
AcDbLine
 62
7
  6
CONTINUOUS
 10
159.9491408921
 20
107.5129282302
 11
159.9491408921
 21
87.9129282302
  0
LINE
  5
3C9
100
AcDbEntity
  8
GEOM
100
AcDbLine
 62
7
  6
CONTINUOUS
 10
160.4468302139
 20
136.6129282302
 11
160.4468302139
 21
136.6343834542
  0
LINE
  5
3CA
100
AcDbEntity
  8
0
100
AcDbLine
 62
7
  6
CONTINUOUS
 10
160.4491408921
 20
107.0129282302
 11
160.4491408921
 21
88.4129282302
  0
LINE
  5
3CB
100
AcDbEntity
  8
0
100
AcDbLine
 62
7
  6
CONTINUOUS
 10
147.3753617014
 20
89.3929371829
 11
147.4491408921
 21
89.5344921474
  0
LINE
  5
3CC
100
AcDbEntity
  8
0
100
AcDbLine
 62
7
  6
CONTINUOUS
 10
142.0279927031
 20
89.3929371736
 11
142.0175615983
 21
89.3829282302
  0
LINE
  5
3CD
100
AcDbEntity
  8
0
100
AcDbLine
 62
7
  6
CONTINUOUS
 10
143.3648352382
 20
89.392937185
 11
143.3544041214
 21
89.3829282302
  0
LINE
  5
3CE
100
AcDbEntity
  8
0
100
AcDbLine
 62
7
  6
CONTINUOUS
 10
119.8491938434
 20
120.9129282302
 11
123.0103172248
 21
120.9129282302
  0
LINE
  5
3CF
100
AcDbEntity
  8
0
100
AcDbLine
 62
7
  6
CONTINUOUS
 10
113.863716903
 20
121.6129282302
 11
122.3505021063
 21
121.6129282302
  0
LINE
  5
3D0
100
AcDbEntity
  8
0
100
AcDbLine
 62
7
  6
CONTINUOUS
 10
122.9697469681
 20
121.6129282302
 11
134.0060866863
 21
121.6129282302
  0
LINE
  5
3D1
100
AcDbEntity
  8
GEOM
100
AcDbLine
 62
7
  6
CONTINUOUS
 10
162.8902630459
 20
136.6129282302
 11
162.8902630459
 21
136.6343834542
  0
LINE
  5
3D2
100
AcDbEntity
  8
GEOM
100
AcDbLine
 62
7
  6
CONTINUOUS
 10
163.513505812
 20
136.6129282302
 11
163.513505812
 21
136.6343834542
  0
LINE
  5
3D3
100
AcDbEntity
  8
GEOM
100
AcDbLine
 62
7
  6
CONTINUOUS
 10
164.6153341685
 20
136.6129282302
 11
164.6153341685
 21
136.6343834542
  0
LINE
  5
3D4
100
AcDbEntity
  8
GEOM
100
AcDbLine
 62
7
  6
CONTINUOUS
 10
165.0948864065
 20
136.6129282302
 11
165.0948864065
 21
136.6343834542
  0
LINE
  5
3D5
100
AcDbEntity
  8
0
100
AcDbLine
 62
7
  6
CONTINUOUS
 10
144.7016774857
 20
89.3929371654
 11
144.6912463892
 21
89.3829282302
  0
LINE
  5
3D6
100
AcDbEntity
  8
0
100
AcDbLine
 62
7
  6
CONTINUOUS
 10
146.0385190413
 20
89.3929371795
 11
146.0280879303
 21
89.3829282302
  0
LINE
  5
3D7
100
AcDbEntity
  8
0
100
AcDbLine
 62
7
  6
CONTINUOUS
 10
147.3753617014
 20
89.3929371829
 11
147.3649305867
 21
89.3829282302
  0
LINE
  5
3D8
100
AcDbEntity
  8
0
100
AcDbLine
 62
7
  6
CONTINUOUS
 10
116.3491408921
 20
124.1129282302
 11
134.0060866863
 21
124.1129282302
  0
LINE
  5
3D9
100
AcDbEntity
  8
0
100
AcDbLine
 62
7
  6
CONTINUOUS
 10
119.3491408921
 20
124.7665180687
 11
129.3491408921
 21
124.7665180687
  0
LINE
  5
3DA
100
AcDbEntity
  8
0
100
AcDbLine
 62
7
  6
CONTINUOUS
 10
119.6491408921
 20
125.286133311
 11
129.0491408921
 21
125.286133311
  0
LINE
  5
3DB
100
AcDbEntity
  8
0
100
AcDbLine
 62
7
  6
CONTINUOUS
 10
120.8491820834
 20
128.1129282302
 11
127.8490997007
 21
128.1129282302
  0
LINE
  5
3DC
100
AcDbEntity
  8
GEOM
100
AcDbLine
 62
7
  6
CONTINUOUS
 10
165.1805207347
 20
136.6129282302
 11
165.1805207347
 21
136.6343834542
  0
LINE
  5
3DD
100
AcDbEntity
  8
GEOM
100
AcDbLine
 62
7
  6
CONTINUOUS
 10
165.3289535703
 20
136.6129282302
 11
165.3289535703
 21
136.6343834542
  0
LINE
  5
3DE
100
AcDbEntity
  8
GEOM
100
AcDbLine
 62
7
  6
CONTINUOUS
 10
165.9215431216
 20
136.6129282302
 11
165.9215431216
 21
136.6343834542
  0
LINE
  5
3DF
100
AcDbEntity
  8
GEOM
100
AcDbLine
 62
7
  6
CONTINUOUS
 10
166.3608472254
 20
136.6129282302
 11
166.3608472254
 21
136.6343834542
  0
LINE
  5
3E0
100
AcDbEntity
  8
GEOM
100
AcDbLine
 62
7
  6
CONTINUOUS
 10
166.8246998367
 20
136.6129282302
 11
166.8246998367
 21
136.6343834542
  0
LINE
  5
3E1
100
AcDbEntity
  8
GEOM
100
AcDbLine
 62
7
  6
CONTINUOUS
 10
167.2871252091
 20
136.6129282302
 11
167.2871252091
 21
136.6343834542
  0
LINE
  5
3E2
100
AcDbEntity
  8
GEOM
100
AcDbLine
 62
7
  6
CONTINUOUS
 10
167.5668640146
 20
136.6129282302
 11
167.5668640146
 21
136.6343834542
  0
LINE
  5
3E3
100
AcDbEntity
  8
GEOM
100
AcDbLine
 62
7
  6
CONTINUOUS
 10
168.2233938643
 20
136.6129282302
 11
168.2233938643
 21
136.6343834542
  0
LINE
  5
3E4
100
AcDbEntity
  8
GEOM
100
AcDbLine
 62
7
  6
CONTINUOUS
 10
168.9198864006
 20
136.6129282302
 11
168.9198864006
 21
136.6343834542
  0
LINE
  5
3E5
100
AcDbEntity
  8
GEOM
100
AcDbLine
 62
7
  6
CONTINUOUS
 10
168.9282550265
 20
136.6129282302
 11
168.9282550265
 21
136.6343834542
  0
LINE
  5
3E6
100
AcDbEntity
  8
GEOM
100
AcDbLine
 62
7
  6
CONTINUOUS
 10
169.3252222208
 20
136.6129282302
 11
169.3252222208
 21
136.6343834542
  0
LINE
  5
3E7
100
AcDbEntity
  8
0
100
AcDbLine
 62
7
  6
CONTINUOUS
 10
157.4099104075
 20
86.1129282302
 11
158.3048033248
 21
87.6629282302
  0
LWPOLYLINE
  5
3E8
100
AcDbEntity
  8
GEOM
100
AcDbPolyline
 62
7
  6
CONTINUOUS
 90
9
 70
0
 10
136.3595038631
 20
86.5629282302
 10
136.3570832693
 20
86.561882795
 10
136.3519350654
 20
86.5619732116
 10
136.3440592514
 20
86.5625739151
 10
136.3331677622
 20
86.5625708158
 10
136.3195486631
 20
86.5619145391
 10
136.3040661489
 20
86.5616643038
 10
136.2867945773
 20
86.5614725266
 10
136.2676595907
 20
86.560768491
  0
LINE
  5
3E9
100
AcDbEntity
  8
0
100
AcDbLine
 62
7
  6
CONTINUOUS
 10
155.8491408921
 20
132.1129282302
 11
203.3491408921
 21
132.1129282302
  0
LINE
  5
3EA
100
AcDbEntity
  8
GEOM
100
AcDbLine
 62
7
  6
CONTINUOUS
 10
169.5764162503
 20
136.6129282302
 11
169.5764162503
 21
136.6343834542
  0
LINE
  5
3EB
100
AcDbEntity
  8
GEOM
100
AcDbLine
 62
7
  6
CONTINUOUS
 10
171.29481177
 20
136.6129282302
 11
171.29481177
 21
136.6343834542
  0
LINE
  5
3EC
100
AcDbEntity
  8
GEOM
100
AcDbLine
 62
7
  6
CONTINUOUS
 10
172.6212232635
 20
136.6129282302
 11
172.6212232635
 21
136.6343834542
  0
LINE
  5
3ED
100
AcDbEntity
  8
GEOM
100
AcDbLine
 62
7
  6
CONTINUOUS
 10
172.7049237081
 20
136.6129282302
 11
172.7049237081
 21
136.6343834542
  0
LINE
  5
3EE
100
AcDbEntity
  8
GEOM
100
AcDbLine
 62
7
  6
CONTINUOUS
 10
173.41854311
 20
136.6129282302
 11
173.41854311
 21
136.6343834542
  0
LINE
  5
3EF
100
AcDbEntity
  8
GEOM
100
AcDbLine
 62
7
  6
CONTINUOUS
 10
173.5441384991
 20
136.6343834542
 11
173.5441384991
 21
136.6129282302
  0
LINE
  5
3F0
100
AcDbEntity
  8
0
100
AcDbLine
 62
7
  6
CONTINUOUS
 10
147.6301712542
 20
133.1129282302
 11
155.3491408921
 21
133.1129282302
  0
LINE
  5
3F1
100
AcDbEntity
  8
0
100
AcDbLine
 62
7
  6
CONTINUOUS
 10
155.3491408921
 20
134.1129282302
 11
205.3491408921
 21
134.1129282302
  0
LINE
  5
3F2
100
AcDbEntity
  8
0
100
AcDbLine
 62
7
  6
CONTINUOUS
 10
155.3491408921
 20
134.6129282302
 11
205.3491408921
 21
134.6129282302
  0
LINE
  5
3F3
100
AcDbEntity
  8
0
100
AcDbLine
 62
7
  6
CONTINUOUS
 10
147.6301712542
 20
135.6129282302
 11
155.3491408921
 21
135.6129282302
  0
LINE
  5
3F4
100
AcDbEntity
  8
0
100
AcDbLine
 62
7
  6
CONTINUOUS
 10
155.8491408921
 20
136.6129282302
 11
203.3491408921
 21
136.6129282302
  0
LINE
  5
3F5
100
AcDbEntity
  8
GEOM
100
AcDbLine
 62
7
  6
CONTINUOUS
 10
157.0797378866
 20
136.6343834542
 11
158.2797378866
 21
136.6343834542
  0
LINE
  5
3F6
100
AcDbEntity
  8
GEOM
100
AcDbLine
 62
7
  6
CONTINUOUS
 10
158.8119771516
 20
136.6343834542
 11
164.6153341685
 21
136.6343834542
  0
LINE
  5
3F7
100
AcDbEntity
  8
GEOM
100
AcDbLine
 62
7
  6
CONTINUOUS
 10
164.6254088761
 20
136.6343834542
 11
169.3252222208
 21
136.6343834542
  0
LINE
  5
3F8
100
AcDbEntity
  8
GEOM
100
AcDbLine
 62
7
  6
CONTINUOUS
 10
169.5764162503
 20
136.6343834542
 11
172.7049237081
 21
136.6343834542
  0
LINE
  5
3F9
100
AcDbEntity
  8
GEOM
100
AcDbLine
 62
7
  6
CONTINUOUS
 10
172.7138351285
 20
136.6343834542
 11
173.41854311
 21
136.6343834542
  0
LINE
  5
3FA
100
AcDbEntity
  8
GEOM
100
AcDbLine
 62
7
  6
CONTINUOUS
 10
173.5441765966
 20
136.6343834542
 11
180.3556861255
 21
136.6343834542
  0
LINE
  5
3FB
100
AcDbEntity
  8
GEOM
100
AcDbLine
 62
7
  6
CONTINUOUS
 10
189.5490838637
 20
136.6343834542
 11
190.5136863563
 21
136.6343834542
  0
LINE
  5
3FC
100
AcDbEntity
  8
GEOM
100
AcDbLine
 62
7
  6
CONTINUOUS
 10
190.6794233163
 20
136.6343834542
 11
191.5018666404
 21
136.6343834542
  0
LINE
  5
3FD
100
AcDbEntity
  8
GEOM
100
AcDbLine
 62
7
  6
CONTINUOUS
 10
191.5517956477
 20
136.6343834542
 11
192.2695265434
 21
136.6343834542
  0
LINE
  5
3FE
100
AcDbEntity
  8
GEOM
100
AcDbLine
 62
7
  6
CONTINUOUS
 10
193.1957402556
 20
136.6343834542
 11
195.8840982265
 21
136.6343834542
  0
LINE
  5
3FF
100
AcDbEntity
  8
GEOM
100
AcDbLine
 62
7
  6
CONTINUOUS
 10
173.9152222137
 20
136.6129282302
 11
173.9152222137
 21
136.6343834542
  0
LINE
  5
400
100
AcDbEntity
  8
GEOM
100
AcDbLine
 62
7
  6
CONTINUOUS
 10
175.1483565401
 20
136.6129282302
 11
175.1483565401
 21
136.6343834542
  0
LINE
  5
401
100
AcDbEntity
  8
GEOM
100
AcDbLine
 62
7
  6
CONTINUOUS
 10
176.1547378752
 20
136.6129282302
 11
176.1547378752
 21
136.6343834542
  0
LINE
  5
402
100
AcDbEntity
  8
GEOM
100
AcDbLine
 62
7
  6
CONTINUOUS
 10
176.7057303853
 20
136.6129282302
 11
176.7057303853
 21
136.6343834542
  0
LINE
  5
403
100
AcDbEntity
  8
GEOM
100
AcDbLine
 62
7
  6
CONTINUOUS
 10
176.938349738
 20
136.6129282302
 11
176.938349738
 21
136.6343834542
  0
LINE
  5
404
100
AcDbEntity
  8
GEOM
100
AcDbLine
 62
7
  6
CONTINUOUS
 10
177.096864456
 20
136.6129282302
 11
177.096864456
 21
136.6343834542
  0
LINE
  5
405
100
AcDbEntity
  8
GEOM
100
AcDbLine
 62
7
  6
CONTINUOUS
 10
177.202510713
 20
136.6129282302
 11
177.202510713
 21
136.6343834542
  0
LINE
  5
406
100
AcDbEntity
  8
GEOM
100
AcDbLine
 62
7
  6
CONTINUOUS
 10
177.2458804856
 20
136.6129282302
 11
177.2458804856
 21
136.6343834542
  0
LINE
  5
407
100
AcDbEntity
  8
GEOM
100
AcDbLine
 62
7
  6
CONTINUOUS
 10
177.323468477
 20
136.6129282302
 11
177.323468477
 21
136.6343834542
  0
LINE
  5
408
100
AcDbEntity
  8
GEOM
100
AcDbLine
 62
7
  6
CONTINUOUS
 10
177.4824424664
 20
136.6129282302
 11
177.4824424664
 21
136.6343834542
  0
LINE
  5
409
100
AcDbEntity
  8
GEOM
100
AcDbLine
 62
7
  6
CONTINUOUS
 10
177.6598639951
 20
136.6129282302
 11
177.6598639951
 21
136.6343834542
  0
LINE
  5
40A
100
AcDbEntity
  8
GEOM
100
AcDbLine
 62
7
  6
CONTINUOUS
 10
177.8343285529
 20
136.6129282302
 11
177.8343285529
 21
136.6343834542
  0
LINE
  5
40B
100
AcDbEntity
  8
GEOM
100
AcDbLine
 62
7
  6
CONTINUOUS
 10
177.9072685472
 20
136.6129282302
 11
177.9072685472
 21
136.6343834542
  0
LINE
  5
40C
100
AcDbEntity
  8
GEOM
100
AcDbLine
 62
7
  6
CONTINUOUS
 10
177.9269820312
 20
136.6129282302
 11
177.9269820312
 21
136.6343834542
  0
LINE
  5
40D
100
AcDbEntity
  8
GEOM
100
AcDbLine
 62
7
  6
CONTINUOUS
 10
178.0413204799
 20
136.6129282302
 11
178.0413204799
 21
136.6343834542
  0
LINE
  5
40E
100
AcDbEntity
  8
GEOM
100
AcDbLine
 62
7
  6
CONTINUOUS
 10
178.1870454994
 20
136.6129282302
 11
178.1870454994
 21
136.6343834542
  0
LINE
  5
40F
100
AcDbEntity
  8
GEOM
100
AcDbLine
 62
7
  6
CONTINUOUS
 10
178.2956837616
 20
136.6129282302
 11
178.2956837616
 21
136.6343834542
  0
LINE
  5
410
100
AcDbEntity
  8
GEOM
100
AcDbLine
 62
7
  6
CONTINUOUS
 10
178.3951778803
 20
136.6129282302
 11
178.3951778803
 21
136.6343834542
  0
LINE
  5
411
100
AcDbEntity
  8
GEOM
100
AcDbLine
 62
7
  6
CONTINUOUS
 10
178.793390706
 20
136.6129282302
 11
178.793390706
 21
136.6343834542
  0
LINE
  5
412
100
AcDbEntity
  8
GEOM
100
AcDbLine
 62
7
  6
CONTINUOUS
 10
178.8298607031
 20
136.6129282302
 11
178.8298607031
 21
136.6343834542
  0
LINE
  5
413
100
AcDbEntity
  8
GEOM
100
AcDbLine
 62
7
  6
CONTINUOUS
 10
178.9865830908
 20
136.6129282302
 11
178.9865830908
 21
136.6343834542
  0
LINE
  5
414
100
AcDbEntity
  8
GEOM
100
AcDbLine
 62
7
  6
CONTINUOUS
 10
179.1630187903
 20
136.6129282302
 11
179.1630187903
 21
136.6343834542
  0
LINE
  5
415
100
AcDbEntity
  8
GEOM
100
AcDbLine
 62
7
  6
CONTINUOUS
 10
179.3670535741
 20
136.6129282302
 11
179.3670535741
 21
136.6343834542
  0
LINE
  5
416
100
AcDbEntity
  8
GEOM
100
AcDbLine
 62
7
  6
CONTINUOUS
 10
179.4153517995
 20
136.6129282302
 11
179.4153517995
 21
136.6343834542
  0
LINE
  5
417
100
AcDbEntity
  8
GEOM
100
AcDbLine
 62
7
  6
CONTINUOUS
 10
179.4419648824
 20
136.6129282302
 11
179.4419648824
 21
136.6343834542
  0
LINE
  5
418
100
AcDbEntity
  8
GEOM
100
AcDbLine
 62
7
  6
CONTINUOUS
 10
179.4768863841
 20
136.6129282302
 11
179.4768863841
 21
136.6343834542
  0
LINE
  5
419
100
AcDbEntity
  8
GEOM
100
AcDbLine
 62
7
  6
CONTINUOUS
 10
179.503076993
 20
136.6129282302
 11
179.503076993
 21
136.6343834542
  0
LINE
  5
41A
100
AcDbEntity
  8
GEOM
100
AcDbLine
 62
7
  6
CONTINUOUS
 10
179.6804983494
 20
136.6129282302
 11
179.6804983494
 21
136.6343834542
  0
LINE
  5
41B
100
AcDbEntity
  8
GEOM
100
AcDbLine
 62
7
  6
CONTINUOUS
 10
179.7100009773
 20
136.6129282302
 11
179.7100009773
 21
136.6343834542
  0
LINE
  5
41C
100
AcDbEntity
  8
GEOM
100
AcDbLine
 62
7
  6
CONTINUOUS
 10
179.775926934
 20
136.6129282302
 11
179.775926934
 21
136.6343834542
  0
LINE
  5
41D
100
AcDbEntity
  8
GEOM
100
AcDbLine
 62
7
  6
CONTINUOUS
 10
179.8805905054
 20
136.6129282302
 11
179.8805905054
 21
136.6343834542
  0
LINE
  5
41E
100
AcDbEntity
  8
GEOM
100
AcDbLine
 62
7
  6
CONTINUOUS
 10
180.0106996379
 20
136.6129282302
 11
180.0106996379
 21
136.6343834542
  0
LINE
  5
41F
100
AcDbEntity
  8
GEOM
100
AcDbLine
 62
7
  6
CONTINUOUS
 10
180.071811404
 20
136.6129282302
 11
180.071811404
 21
136.6343834542
  0
LINE
  5
420
100
AcDbEntity
  8
GEOM
100
AcDbLine
 62
7
  6
CONTINUOUS
 10
180.1782644246
 20
136.6129282302
 11
180.1782644246
 21
136.6343834542
  0
LINE
  5
421
100
AcDbEntity
  8
GEOM
100
AcDbLine
 62
7
  6
CONTINUOUS
 10
180.3556861255
 20
136.6129282302
 11
180.3556861255
 21
136.6343834542
  0
LINE
  5
422
100
AcDbEntity
  8
GEOM
100
AcDbLine
 62
7
  6
CONTINUOUS
 10
189.5490838637
 20
136.6129282302
 11
189.5490838637
 21
136.6343834542
  0
LINE
  5
423
100
AcDbEntity
  8
GEOM
100
AcDbLine
 62
7
  6
CONTINUOUS
 10
189.6820552766
 20
136.6129282302
 11
189.6820552766
 21
136.6343834542
  0
LINE
  5
424
100
AcDbEntity
  8
GEOM
100
AcDbLine
 62
7
  6
CONTINUOUS
 10
190.0338122331
 20
136.6129282302
 11
190.0338122331
 21
136.6343834542
  0
LINE
  5
425
100
AcDbEntity
  8
GEOM
100
AcDbLine
 62
7
  6
CONTINUOUS
 10
190.3833159722
 20
136.6129282302
 11
190.3833159722
 21
136.6343834542
  0
LINE
  5
426
100
AcDbEntity
  8
GEOM
100
AcDbLine
 62
7
  6
CONTINUOUS
 10
190.5136863563
 20
136.6129282302
 11
190.5136863563
 21
136.6343834542
  0
LINE
  5
427
100
AcDbEntity
  8
GEOM
100
AcDbLine
 62
7
  6
CONTINUOUS
 10
190.6794233163
 20
136.6129282302
 11
190.6794233163
 21
136.6343834542
  0
LINE
  5
428
100
AcDbEntity
  8
GEOM
100
AcDbLine
 62
7
  6
CONTINUOUS
 10
190.6877448378
 20
136.6129282302
 11
190.6877448378
 21
136.6343834542
  0
LINE
  5
429
100
AcDbEntity
  8
GEOM
100
AcDbLine
 62
7
  6
CONTINUOUS
 10
190.8957827539
 20
136.6129282302
 11
190.8957827539
 21
136.6343834542
  0
LINE
  5
42A
100
AcDbEntity
  8
GEOM
100
AcDbLine
 62
7
  6
CONTINUOUS
 10
191.3416774425
 20
136.6129282302
 11
191.3416774425
 21
136.6343834542
  0
LINE
  5
42B
100
AcDbEntity
  8
GEOM
100
AcDbLine
 62
7
  6
CONTINUOUS
 10
191.4054757336
 20
136.6129282302
 11
191.4054757336
 21
136.6343834542
  0
LINE
  5
42C
100
AcDbEntity
  8
GEOM
100
AcDbLine
 62
7
  6
CONTINUOUS
 10
191.5018666404
 20
136.6129282302
 11
191.5018666404
 21
136.6343834542
  0
LINE
  5
42D
100
AcDbEntity
  8
GEOM
100
AcDbLine
 62
7
  6
CONTINUOUS
 10
191.5517956477
 20
136.6129282302
 11
191.5517956477
 21
136.6343834542
  0
LINE
  5
42E
100
AcDbEntity
  8
GEOM
100
AcDbLine
 62
7
  6
CONTINUOUS
 10
191.7598335638
 20
136.6129282302
 11
191.7598335638
 21
136.6343834542
  0
LINE
  5
42F
100
AcDbEntity
  8
GEOM
100
AcDbLine
 62
7
  6
CONTINUOUS
 10
192.2057282524
 20
136.6129282302
 11
192.2057282524
 21
136.6343834542
  0
LINE
  5
430
100
AcDbEntity
  8
GEOM
100
AcDbLine
 62
7
  6
CONTINUOUS
 10
192.2695265434
 20
136.6129282302
 11
192.2695265434
 21
136.6343834542
  0
LINE
  5
431
100
AcDbEntity
  8
GEOM
100
AcDbLine
 62
7
  6
CONTINUOUS
 10
193.1957402556
 20
136.6129282302
 11
193.1957402556
 21
136.6343834542
  0
LINE
  5
432
100
AcDbEntity
  8
GEOM
100
AcDbLine
 62
7
  6
CONTINUOUS
 10
194.3388096288
 20
136.6129282302
 11
194.3388096288
 21
136.6343834542
  0
LINE
  5
433
100
AcDbEntity
  8
GEOM
100
AcDbLine
 62
7
  6
CONTINUOUS
 10
195.8841691262
 20
136.6129282302
 11
195.8841691262
 21
136.6343834542
  0
LINE
  5
434
100
AcDbEntity
  8
0
100
AcDbLine
 62
7
  6
CONTINUOUS
 10
198.3491408921
 20
132.1129282302
 11
198.3491408921
 21
136.6129282302
  0
LINE
  5
435
100
AcDbEntity
  8
0
100
AcDbLine
 62
7
  6
CONTINUOUS
 10
205.3491408921
 20
134.1129282302
 11
205.3491408921
 21
134.6129282302
  0
ARC
  5
436
100
AcDbEntity
  8
0
100
AcDbCircle
 62
7
  6
CONTINUOUS
 10
119.0179104863
 20
98.0479817245
 40
22.3562164351
100
AcDbArc
 50
348.573508896
 51
353.518810703
  0
ARC
  5
437
100
AcDbEntity
  8
0
100
AcDbCircle
 62
7
  6
CONTINUOUS
 10
119.017915524
 20
97.3778755296
 40
22.35621134
100
AcDbArc
 50
6.4811887453
 51
11.4264916578
  0
ARC
  5
438
100
AcDbEntity
  8
GEOM
100
AcDbCircle
 62
7
  6
CONTINUOUS
 10
119.4425478384
 20
97.3608669732
 40
21.8536587788
100
AcDbArc
 50
6.6508191409
 51
11.6899876123
  0
ARC
  5
439
100
AcDbEntity
  8
GEOM
100
AcDbCircle
 62
7
  6
CONTINUOUS
 10
119.4425727492
 20
98.0649854658
 40
21.8536335699
100
AcDbArc
 50
348.3100094794
 51
353.3491837674
  0
ARC
  5
43A
100
AcDbEntity
  8
0
100
AcDbCircle
 62
7
  6
CONTINUOUS
 10
93.7553562201
 20
80.1604443631
 40
5.7127421205
100
AcDbArc
 50
89.9972496878
 51
90.3407246055
  0
ARC
  5
43B
100
AcDbEntity
  8
0
100
AcDbCircle
 62
7
  6
CONTINUOUS
 10
111.5610367459
 20
82.1928285377
 40
3.8319620786
100
AcDbArc
 50
89.7318552007
 51
90.0012505923
  0
ARC
  5
43C
100
AcDbEntity
  8
0
100
AcDbCircle
 62
7
  6
CONTINUOUS
 10
119.0704612356
 20
87.9129282302
 40
1.5
100
AcDbArc
 50
225.0
 51
270.0
  0
ARC
  5
43D
100
AcDbEntity
  8
0
100
AcDbCircle
 62
7
  6
CONTINUOUS
 10
116.5278205485
 20
86.2129282302
 40
1.5
100
AcDbArc
 50
45.0
 51
90.0
  0
ARC
  5
43E
100
AcDbEntity
  8
0
100
AcDbCircle
 62
7
  6
CONTINUOUS
 10
124.8983055011
 20
93.9729282302
 40
0.79
100
AcDbArc
 50
117.6157798177
 51
160.830752033
  0
ARC
  5
43F
100
AcDbEntity
  8
0
100
AcDbCircle
 62
7
  6
CONTINUOUS
 10
93.7213840785
 20
86.3629282302
 40
0.5
100
AcDbArc
 50
210.0
 51
270.0
  0
ARC
  5
440
100
AcDbEntity
  8
0
100
AcDbCircle
 62
7
  6
CONTINUOUS
 10
91.9604657575
 20
87.4129282302
 40
0.5
100
AcDbArc
 50
30.0
 51
90.0
  0
ARC
  5
441
100
AcDbEntity
  8
0
100
AcDbCircle
 62
7
  6
CONTINUOUS
 10
91.9604657575
 20
108.0129282302
 40
0.5
100
AcDbArc
 50
270.0
 51
330.0
  0
ARC
  5
442
100
AcDbEntity
  8
0
100
AcDbCircle
 62
7
  6
CONTINUOUS
 10
90.7491408921
 20
107.0129282302
 40
0.5
100
AcDbArc
 50
90.0
 51
180.0
  0
ARC
  5
443
100
AcDbEntity
  8
0
100
AcDbCircle
 62
7
  6
CONTINUOUS
 10
90.7491408921
 20
88.4129282302
 40
0.5
100
AcDbArc
 50
180.0
 51
270.0
  0
ARC
  5
444
100
AcDbEntity
  8
0
100
AcDbCircle
 62
7
  6
CONTINUOUS
 10
111.5789702998
 20
86.5129282302
 40
0.5
100
AcDbArc
 50
270.0
 51
330.0
  0
ARC
  5
445
100
AcDbEntity
  8
0
100
AcDbCircle
 62
7
  6
CONTINUOUS
 10
113.1378160267
 20
87.2129282302
 40
0.5
100
AcDbArc
 50
90.0
 51
150.0000000001
  0
ARC
  5
446
100
AcDbEntity
  8
0
100
AcDbCircle
 62
7
  6
CONTINUOUS
 10
93.7553915682
 20
91.6484588239
 40
0.2823224209
100
AcDbArc
 50
263.0815673421
 51
270.0484791076
  0
ARC
  5
447
100
AcDbEntity
  8
0
100
AcDbCircle
 62
7
  6
CONTINUOUS
 10
93.7553915624
 20
103.7773976522
 40
0.2823224053
100
AcDbArc
 50
89.9515202524
 51
96.9184318541
  0
ARC
  5
448
100
AcDbEntity
  8
0
100
AcDbCircle
 62
7
  6
CONTINUOUS
 10
93.7554012871
 20
103.4752323272
 40
0.2693541673
100
AcDbArc
 50
262.7446412977
 51
270.0487345865
  0
ARC
  5
449
100
AcDbEntity
  8
0
100
AcDbCircle
 62
7
  6
CONTINUOUS
 10
93.7554012901
 20
91.9506241446
 40
0.269354156
100
AcDbArc
 50
89.9512655936
 51
97.2553596583
  0
ARC
  5
44A
100
AcDbEntity
  8
0
100
AcDbCircle
 62
7
  6
CONTINUOUS
 10
111.5610312321
 20
106.0941653684
 40
0.2559749743
100
AcDbArc
 50
85.9813411987
 51
90.0174874489
  0
ARC
  5
44B
100
AcDbEntity
  8
0
100
AcDbCircle
 62
7
  6
CONTINUOUS
 10
111.5610312384
 20
89.3316910605
 40
0.2559749427
100
AcDbArc
 50
269.9825116317
 51
274.0186578848
  0
ARC
  5
44C
100
AcDbEntity
  8
0
100
AcDbCircle
 62
7
  6
CONTINUOUS
 10
111.5610277856
 20
89.5865530704
 40
0.2340645386
100
AcDbArc
 50
85.603606455
 51
90.0182807557
  0
ARC
  5
44D
100
AcDbEntity
  8
0
100
AcDbCircle
 62
7
  6
CONTINUOUS
 10
111.561027792
 20
105.8393033608
 40
0.2340645093
100
AcDbArc
 50
269.9817182271
 51
274.3963925322
  0
ARC
  5
44E
100
AcDbEntity
  8
0
100
AcDbCircle
 62
7
  6
CONTINUOUS
 10
111.5610143662
 20
98.0662214736
 40
0.1734316463
100
AcDbArc
 50
84.0573353615
 51
90.0202382648
  0
ARC
  5
44F
100
AcDbEntity
  8
0
100
AcDbCircle
 62
7
  6
CONTINUOUS
 10
111.5610143702
 20
97.3596349732
 40
0.1734316325
100
AcDbArc
 50
269.9797608686
 51
275.9426637828
  0
ARC
  5
450
100
AcDbEntity
  8
0
100
AcDbCircle
 62
7
  6
CONTINUOUS
 10
114.6828635601
 20
115.674913737
 40
8.2343528282
100
AcDbArc
 50
290.6626685031
 51
293.8304469749
  0
ARC
  5
451
100
AcDbEntity
  8
0
100
AcDbCircle
 62
7
  6
CONTINUOUS
 10
93.7553562247
 20
115.2654123453
 40
5.7127423684
100
AcDbArc
 50
269.6592753632
 51
270.0027502872
  0
ARC
  5
452
100
AcDbEntity
  8
0
100
AcDbCircle
 62
7
  6
CONTINUOUS
 10
115.7908320893
 20
113.9864722699
 40
5.7041460285
100
AcDbArc
 50
291.1070017847
 51
295.1153707105
  0
ARC
  5
453
100
AcDbEntity
  8
0
100
AcDbCircle
 62
7
  6
CONTINUOUS
 10
111.56103675
 20
113.2330276101
 40
3.8319617659
100
AcDbArc
 50
269.9987493677
 51
270.2681447602
  0
ARC
  5
454
100
AcDbEntity
  8
0
100
AcDbCircle
 62
7
  6
CONTINUOUS
 10
120.4695810257
 20
121.6127793529
 40
2.5001338121
100
AcDbArc
 50
0.0034117907
 51
89.9961971061
  0
ARC
  5
455
100
AcDbEntity
  8
0
100
AcDbCircle
 62
7
  6
CONTINUOUS
 10
116.3491408921
 20
121.6129282302
 40
2.5
100
AcDbArc
 50
90.0
 51
180.0
  0
ARC
  5
456
100
AcDbEntity
  8
0
100
AcDbCircle
 62
7
  6
CONTINUOUS
 10
116.5278205485
 20
109.2129282302
 40
1.5
100
AcDbArc
 50
270.0
 51
278.2006803776
  0
ARC
  5
457
100
AcDbEntity
  8
0
100
AcDbCircle
 62
7
  6
CONTINUOUS
 10
123.2491408921
 20
110.2444000928
 40
1.32
100
AcDbArc
 50
90.0
 51
180.0
  0
ARC
  5
458
100
AcDbEntity
  8
0
100
AcDbCircle
 62
7
  6
CONTINUOUS
 10
123.2491408921
 20
109.2844000928
 40
1.32
100
AcDbArc
 50
180.0
 51
270.0
  0
ARC
  5
459
100
AcDbEntity
  8
0
100
AcDbCircle
 62
7
  6
CONTINUOUS
 10
125.3091408921
 20
110.5444000928
 40
1.02
100
AcDbArc
 50
278.8857694273
 51
90.0
  0
ARC
  5
45A
100
AcDbEntity
  8
0
100
AcDbCircle
 62
7
  6
CONTINUOUS
 10
116.5991410249
 20
108.7180404172
 40
0.9999999829
100
AcDbArc
 50
278.2006772919
 51
0.0000311977
  0
ARC
  5
45B
100
AcDbEntity
  8
0
100
AcDbCircle
 62
7
  6
CONTINUOUS
 10
123.2491408921
 20
109.2844000928
 40
0.9
100
AcDbArc
 50
180.0
 51
270.0
  0
ARC
  5
45C
100
AcDbEntity
  8
0
100
AcDbCircle
 62
7
  6
CONTINUOUS
 10
123.2491408921
 20
110.2444000928
 40
0.9
100
AcDbArc
 50
90.0
 51
180.0
  0
ARC
  5
45D
100
AcDbEntity
  8
0
100
AcDbCircle
 62
7
  6
CONTINUOUS
 10
119.9491408921
 20
124.7665180687
 40
0.6
100
AcDbArc
 50
120.0
 51
180.0
  0
ARC
  5
45E
100
AcDbEntity
  8
0
100
AcDbCircle
 62
7
  6
CONTINUOUS
 10
125.3091408921
 20
110.5444000928
 40
0.6
100
AcDbArc
 50
270.0
 51
90.0
  0
ARC
  5
45F
100
AcDbEntity
  8
0
100
AcDbCircle
 62
7
  6
CONTINUOUS
 10
93.7213840785
 20
109.0629282302
 40
0.5
100
AcDbArc
 50
90.0
 51
150.0
  0
ARC
  5
460
100
AcDbEntity
  8
0
100
AcDbCircle
 62
7
  6
CONTINUOUS
 10
111.5789702998
 20
108.9129282302
 40
0.5
100
AcDbArc
 50
30.0
 51
90.0
  0
ARC
  5
461
100
AcDbEntity
  8
0
100
AcDbCircle
 62
7
  6
CONTINUOUS
 10
113.1378160267
 20
108.2129282302
 40
0.5
100
AcDbArc
 50
209.9999999999
 51
270.0
  0
ARC
  5
462
100
AcDbEntity
  8
0
100
AcDbCircle
 62
7
  6
CONTINUOUS
 10
116.4491408921
 20
115.3129282302
 40
0.4
100
AcDbArc
 50
276.0
 51
360.0
  0
ARC
  5
463
100
AcDbEntity
  8
0
100
AcDbCircle
 62
7
  6
CONTINUOUS
 10
114.2491408921
 20
114.5129282302
 40
0.4
100
AcDbArc
 50
90.0
 51
180.0
  0
ARC
  5
464
100
AcDbEntity
  8
0
100
AcDbCircle
 62
7
  6
CONTINUOUS
 10
114.2491408921
 20
113.1438683379
 40
0.4
100
AcDbArc
 50
180.0
 51
240.0
  0
ARC
  5
465
100
AcDbEntity
  8
0
100
AcDbCircle
 62
7
  6
CONTINUOUS
 10
117.1991409669
 20
110.5169245699
 40
0.3999999958
100
AcDbArc
 50
0.0000061875
 51
46.6666775813
  0
ARC
  5
466
100
AcDbEntity
  8
0
100
AcDbCircle
 62
7
  6
CONTINUOUS
 10
125.7321088327
 20
93.1529282302
 40
1.21
100
AcDbArc
 50
79.5243183036
 51
180.0
  0
ARC
  5
467
100
AcDbEntity
  8
0
100
AcDbCircle
 62
7
  6
CONTINUOUS
 10
125.3521088327
 20
93.2529282302
 40
1.2
100
AcDbArc
 50
90.0
 51
180.0
  0
ARC
  5
468
100
AcDbEntity
  8
0
100
AcDbCircle
 62
7
  6
CONTINUOUS
 10
128.9633544544
 20
86.7129282302
 40
1.0
100
AcDbArc
 50
225.0
 51
270.0
  0
ARC
  5
469
100
AcDbEntity
  8
0
100
AcDbCircle
 62
7
  6
CONTINUOUS
 10
127.4349273297
 20
85.4129282302
 40
1.0
100
AcDbArc
 50
45.0
 51
90.0
  0
ARC
  5
46A
100
AcDbEntity
  8
0
100
AcDbCircle
 62
7
  6
CONTINUOUS
 10
132.5027307306
 20
85.1129282302
 40
0.6
100
AcDbArc
 50
29.9999999999
 51
90.0
  0
ARC
  5
46B
100
AcDbEntity
  8
0
100
AcDbCircle
 62
7
  6
CONTINUOUS
 10
140.7806452432
 20
93.2432985619
 40
0.4310114385
100
AcDbArc
 50
278.3078848435
 51
290.4192626616
  0
ARC
  5
46C
100
AcDbEntity
  8
0
100
AcDbCircle
 62
7
  6
CONTINUOUS
 10
141.1145435179
 20
91.899909666
 40
0.4257854254
100
AcDbArc
 50
274.6607310397
 51
285.9078720923
  0
ARC
  5
46D
100
AcDbEntity
  8
0
100
AcDbCircle
 62
7
  6
CONTINUOUS
 10
141.1496676718
 20
88.8088088776
 40
0.4148341182
100
AcDbArc
 50
269.92724257
 51
281.5058312219
  0
ARC
  5
46E
100
AcDbEntity
  8
0
100
AcDbCircle
 62
7
  6
CONTINUOUS
 10
141.1496698963
 20
91.8903437422
 40
0.414811899
100
AcDbArc
 50
269.9269314092
 51
281.5061423827
  0
ARC
  5
46F
100
AcDbEntity
  8
0
100
AcDbCircle
 62
7
  6
CONTINUOUS
 10
140.8428914715
 20
87.3191247028
 40
0.328044912
100
AcDbArc
 50
270.0055258187
 51
284.0087312368
  0
ARC
  5
470
100
AcDbEntity
  8
0
100
AcDbCircle
 62
7
  6
CONTINUOUS
 10
140.8428553638
 20
87.0534202287
 40
0.3208413506
100
AcDbArc
 50
270.0120979936
 51
284.3365591521
  0
ARC
  5
471
100
AcDbEntity
  8
0
100
AcDbCircle
 62
7
  6
CONTINUOUS
 10
141.1491408921
 20
87.0129282302
 40
0.3
100
AcDbArc
 50
270.0
 51
311.8103148958
  0
ARC
  5
472
100
AcDbEntity
  8
GEOM
100
AcDbCircle
 62
7
  6
CONTINUOUS
 10
136.6193114843
 20
86.4129282302
 40
0.3
100
AcDbArc
 50
90.0
 51
150.0
  0
ARC
  5
473
100
AcDbEntity
  8
0
100
AcDbCircle
 62
7
  6
CONTINUOUS
 10
141.5259490252
 20
88.348584125
 40
0.2984117884
100
AcDbArc
 50
169.6277321368
 51
170.955385431
  0
ARC
  5
474
100
AcDbEntity
  8
0
100
AcDbCircle
 62
7
  6
CONTINUOUS
 10
141.148925218
 20
87.0105998007
 40
0.2976716486
100
AcDbArc
 50
270.0415128967
 51
286.054667519
  0
ARC
  5
475
100
AcDbEntity
  8
0
100
AcDbCircle
 62
7
  6
CONTINUOUS
 10
140.8426104804
 20
87.0030459186
 40
0.2901178568
100
AcDbArc
 50
270.0617415456
 51
287.7422308664
  0
ARC
  5
476
100
AcDbEntity
  8
0
100
AcDbCircle
 62
7
  6
CONTINUOUS
 10
141.406024188
 20
91.5181023856
 40
0.1769536508
100
AcDbArc
 50
188.9968764561
 51
191.1550224503
  0
ARC
  5
477
100
AcDbEntity
  8
0
100
AcDbCircle
 62
7
  6
CONTINUOUS
 10
140.8431106607
 20
101.0698187391
 40
0.8257436421
100
AcDbArc
 50
84.4967556805
 51
90.0130135991
  0
ARC
  5
478
100
AcDbEntity
  8
0
100
AcDbCircle
 62
7
  6
CONTINUOUS
 10
140.8437298217
 20
94.3431245423
 40
0.812830842
100
AcDbArc
 50
269.9431355005
 51
275.5470952199
  0
ARC
  5
479
100
AcDbEntity
  8
0
100
AcDbCircle
 62
7
  6
CONTINUOUS
 10
140.8436919374
 20
101.8111231229
 40
0.7085160498
100
AcDbArc
 50
83.6299645989
 51
90.0621730566
  0
ARC
  5
47A
100
AcDbEntity
  8
0
100
AcDbCircle
 62
7
  6
CONTINUOUS
 10
141.6689004326
 20
95.4753320244
 40
0.4404036744
100
AcDbArc
 50
172.3527347163
 51
173.5927315468
  0
ARC
  5
47B
100
AcDbEntity
  8
0
100
AcDbCircle
 62
7
  6
CONTINUOUS
 10
141.6689004326
 20
99.9505244361
 40
0.4404036743
100
AcDbArc
 50
186.4072678518
 51
187.6472652838
  0
ARC
  5
47C
100
AcDbEntity
  8
0
100
AcDbCircle
 62
7
  6
CONTINUOUS
 10
140.780645292
 20
102.1825578951
 40
0.4310114348
100
AcDbArc
 50
69.5807436974
 51
81.6921216539
  0
ARC
  5
47D
100
AcDbEntity
  8
0
100
AcDbCircle
 62
7
  6
CONTINUOUS
 10
141.1145434914
 20
103.5259467978
 40
0.4257854242
100
AcDbArc
 50
74.0921242783
 51
85.3392653773
  0
ARC
  5
47E
100
AcDbEntity
  8
0
100
AcDbCircle
 62
7
  6
CONTINUOUS
 10
141.1496676718
 20
103.5354904962
 40
0.4148341182
100
AcDbArc
 50
78.4941687781
 51
90.07275743
  0
ARC
  5
47F
100
AcDbEntity
  8
0
100
AcDbCircle
 62
7
  6
CONTINUOUS
 10
141.1496698963
 20
106.617069805
 40
0.414811899
100
AcDbArc
 50
78.4938576173
 51
90.0730685908
  0
ARC
  5
480
100
AcDbEntity
  8
0
100
AcDbCircle
 62
7
  6
CONTINUOUS
 10
140.842891472
 20
108.1067317614
 40
0.3280449083
100
AcDbArc
 50
75.991268684
 51
89.9944742605
  0
ARC
  5
481
100
AcDbEntity
  8
0
100
AcDbCircle
 62
7
  6
CONTINUOUS
 10
141.5259490419
 20
107.0772723384
 40
0.2984118053
100
AcDbArc
 50
189.0446158455
 51
190.3722678373
  0
ARC
  5
482
100
AcDbEntity
  8
0
100
AcDbCircle
 62
7
  6
CONTINUOUS
 10
141.4060241954
 20
103.9077540736
 40
0.1769536583
100
AcDbArc
 50
168.8449775794
 51
171.0031251836
  0
ARC
  5
483
100
AcDbEntity
  8
0
100
AcDbCircle
 62
7
  6
CONTINUOUS
 10
156.9429255595
 20
80.1604441171
 40
5.7127423665
100
AcDbArc
 50
89.6592753631
 51
90.0027502872
  0
ARC
  5
484
100
AcDbEntity
  8
0
100
AcDbCircle
 62
7
  6
CONTINUOUS
 10
156.9768977056
 20
86.3629282302
 40
0.5
100
AcDbArc
 50
270.0
 51
330.0
  0
ARC
  5
485
100
AcDbEntity
  8
0
100
AcDbCircle
 62
7
  6
CONTINUOUS
 10
158.7378160267
 20
87.4129282302
 40
0.5
100
AcDbArc
 50
90.0
 51
150.0
  0
ARC
  5
486
100
AcDbEntity
  8
0
100
AcDbCircle
 62
7
  6
CONTINUOUS
 10
159.9491408921
 20
88.4129282302
 40
0.5
100
AcDbArc
 50
270.0
 51
360.0
  0
ARC
  5
487
100
AcDbEntity
  8
0
100
AcDbCircle
 62
7
  6
CONTINUOUS
 10
156.9428902217
 20
91.6484588083
 40
0.2823224053
100
AcDbArc
 50
269.9515202524
 51
276.9184318541
  0
ARC
  5
488
100
AcDbEntity
  8
0
100
AcDbCircle
 62
7
  6
CONTINUOUS
 10
156.9428804971
 20
91.9506241333
 40
0.2693541673
100
AcDbArc
 50
82.7446412976
 51
90.0487345866
  0
ARC
  5
489
100
AcDbEntity
  8
0
100
AcDbCircle
 62
7
  6
CONTINUOUS
 10
158.7378160267
 20
108.0129282302
 40
0.5
100
AcDbArc
 50
210.0
 51
270.0
  0
ARC
  5
48A
100
AcDbEntity
  8
0
100
AcDbCircle
 62
7
  6
CONTINUOUS
 10
159.9491408921
 20
107.0129282302
 40
0.5
100
AcDbArc
 50
0.0
 51
90.0
  0
ARC
  5
48B
100
AcDbEntity
  8
0
100
AcDbCircle
 62
7
  6
CONTINUOUS
 10
156.9428902159
 20
103.7773976366
 40
0.2823224209
100
AcDbArc
 50
83.0815673423
 51
90.0484791075
  0
ARC
  5
48C
100
AcDbEntity
  8
0
100
AcDbCircle
 62
7
  6
CONTINUOUS
 10
156.942880494
 20
103.4752323159
 40
0.269354156
100
AcDbArc
 50
269.9512655935
 51
277.2553596584
  0
ARC
  5
48D
100
AcDbEntity
  8
0
100
AcDbCircle
 62
7
  6
CONTINUOUS
 10
144.4177704229
 20
105.144623386
 40
0.0696258413
100
AcDbArc
 50
25.1250121161
 51
27.4947728278
  0
ARC
  5
48E
100
AcDbEntity
  8
0
100
AcDbCircle
 62
7
  6
CONTINUOUS
 10
156.9429255641
 20
115.2654120936
 40
5.7127421166
100
AcDbArc
 50
269.9972496877
 51
270.3407246056
  0
ARC
  5
48F
100
AcDbEntity
  8
0
100
AcDbCircle
 62
7
  6
CONTINUOUS
 10
132.099140722
 20
110.7129281077
 40
0.9999999781
100
AcDbArc
 50
179.9999929787
 51
270.0000097448
  0
ARC
  5
490
100
AcDbEntity
  8
0
100
AcDbCircle
 62
7
  6
CONTINUOUS
 10
128.7491408921
 20
124.7665180687
 40
0.6
100
AcDbArc
 50
0.0
 51
60.0
  0
ARC
  5
491
100
AcDbEntity
  8
0
100
AcDbCircle
 62
7
  6
CONTINUOUS
 10
131.2491408921
 20
113.1114563677
 40
0.6
100
AcDbArc
 50
315.0
 51
360.0
  0
ARC
  5
492
100
AcDbEntity
  8
0
100
AcDbCircle
 62
7
  6
CONTINUOUS
 10
131.6991408921
 20
111.8644000928
 40
0.6
100
AcDbArc
 50
135.0
 51
180.0
  0
ARC
  5
493
100
AcDbEntity
  8
0
100
AcDbCircle
 62
7
  6
CONTINUOUS
 10
132.5027307306
 20
110.3129282302
 40
0.6
100
AcDbArc
 50
270.0
 51
330.0000000001
  0
ARC
  5
494
100
AcDbEntity
  8
0
100
AcDbCircle
 62
7
  6
CONTINUOUS
 10
155.8491408921
 20
132.6129282302
 40
0.5
100
AcDbArc
 50
180.0
 51
270.0
  0
ARC
  5
495
100
AcDbEntity
  8
0
100
AcDbCircle
 62
7
  6
CONTINUOUS
 10
155.8491408921
 20
136.1129282302
 40
0.5
100
AcDbArc
 50
90.0
 51
180.0
  0
ARC
  5
496
100
AcDbEntity
  8
0
100
AcDbCircle
 62
7
  6
CONTINUOUS
 10
156.9768977056
 20
109.0629282302
 40
0.5
100
AcDbArc
 50
30.0
 51
90.0
  0
ARC
  5
497
100
AcDbEntity
  8
0
100
AcDbCircle
 62
7
  6
CONTINUOUS
 10
140.8428553607
 20
108.3724362069
 40
0.3208413755
100
AcDbArc
 50
75.6634414074
 51
89.9879014469
  0
ARC
  5
498
100
AcDbEntity
  8
0
100
AcDbCircle
 62
7
  6
CONTINUOUS
 10
141.1491408921
 20
108.4129282302
 40
0.3
100
AcDbArc
 50
48.1896851042
 51
90.0
  0
ARC
  5
499
100
AcDbEntity
  8
GEOM
100
AcDbCircle
 62
7
  6
CONTINUOUS
 10
136.6193114843
 20
109.0129282302
 40
0.3
100
AcDbArc
 50
210.0
 51
270.0
  0
ARC
  5
49A
100
AcDbEntity
  8
0
100
AcDbCircle
 62
7
  6
CONTINUOUS
 10
141.148925218
 20
108.4152566672
 40
0.2976716411
100
AcDbArc
 50
73.9453322725
 51
89.958487101
  0
ARC
  5
49B
100
AcDbEntity
  8
0
100
AcDbCircle
 62
7
  6
CONTINUOUS
 10
140.8426104805
 20
108.4228105151
 40
0.2901178835
100
AcDbArc
 50
72.2577699763
 51
89.9382584775
  0
ARC
  5
49C
100
AcDbEntity
  8
0
100
AcDbCircle
 62
7
  6
CONTINUOUS
 10
203.3491408921
 20
134.6129282302
 40
2.0
100
AcDbArc
 50
0.0
 51
90.0
  0
ARC
  5
49D
100
AcDbEntity
  8
0
100
AcDbCircle
 62
7
  6
CONTINUOUS
 10
203.3491408921
 20
134.1129282302
 40
2.0
100
AcDbArc
 50
270.0
 51
360.0
  0
ARC
  5
49E
100
AcDbEntity
  8
0
100
AcDbCircle
 62
7
  6
CONTINUOUS
 10
258.3970890842
 20
260.712538628
 40
204.4308673914
100
AcDbArc
 50
226.392792577
 51
226.5549790389
  0
ARC
  5
49F
100
AcDbEntity
  8
0
100
AcDbCircle
 62
7
  6
CONTINUOUS
 10
243.6545139586
 20
245.726049854
 40
183.8014949695
100
AcDbArc
 50
226.4985538026
 51
226.6793261818
  0
SPLINE
  5
4A0
100
AcDbEntity
  8
0
100
AcDbSpline
 62
7
  6
CONTINUOUS
 70
0
 71
3
 72
11
 73
7
 74
0
 42
0.0000001
 43
0.0000001
 44
0.0000000001
 40
0.0
 40
0.0
 40
0.0
 40
0.0
 40
0.2616427467
 40
0.514496923
 40
0.7595946879
 40
1.0
 40
1.0
 40
1.0
 40
1.0
 10
119.1529884694
 20
120.5110044416
 30
0.0
 10
119.2568316468
 20
120.570958328
 30
0.0
 10
119.4657432444
 20
120.6810611556
 30
0.0
 10
119.7896729466
 20
120.8107460828
 30
0.0
 10
120.1189386068
 20
120.8937197544
 30
0.0
 10
120.341851667
 20
120.9129282328
 30
0.0
 10
120.452026575
 20
120.9129282302
 30
0.0
  0
SPLINE
  5
4A1
100
AcDbEntity
  8
0
100
AcDbSpline
 62
7
  6
CONTINUOUS
 70
0
 71
3
 72
11
 73
7
 74
0
 42
0.0000001
 43
0.0000001
 44
0.0000000001
 40
0.0
 40
0.0
 40
0.0
 40
0.0
 40
0.2404053246
 40
0.4855030915
 40
0.7383572554
 40
1.0
 40
1.0
 40
1.0
 40
1.0
 10
120.452026575
 20
120.9129282302
 30
0.0
 10
120.5622014888
 20
120.9129282277
 30
0.0
 10
120.7851145561
 20
120.8937197592
 30
0.0
 10
121.114380216
 20
120.8107460778
 30
0.0
 10
121.4383099125
 20
120.681061153
 30
0.0
 10
121.6472215041
 20
120.5709583276
 30
0.0
 10
121.7510646807
 20
120.5110044416
 30
0.0
  0
SPLINE
  5
4A2
100
AcDbEntity
  8
0
100
AcDbSpline
 62
7
  6
CONTINUOUS
 70
0
 71
3
 72
9
 73
5
 74
0
 42
0.0000001
 43
0.0000001
 44
0.0000000001
 40
0.0
 40
0.0
 40
0.0
 40
0.0
 40
0.7499385371
 40
1.0
 40
1.0
 40
1.0
 40
1.0
 10
121.7510646807
 20
120.5110044416
 30
0.0
 10
122.0839616577
 20
120.6071035212
 30
0.0
 10
122.5333120209
 20
120.7183759897
 30
0.0
 10
122.9885945059
 20
120.7975181345
 30
0.0
 10
123.1027810287
 20
120.8151158005
 30
0.0
  0
SPLINE
  5
4A3
100
AcDbEntity
  8
0
100
AcDbSpline
 62
7
  6
CONTINUOUS
 70
0
 71
3
 72
11
 73
7
 74
0
 42
0.0000001
 43
0.0000001
 44
0.0000000001
 40
0.0
 40
0.0
 40
0.0
 40
0.0
 40
0.2616427077
 40
0.5144968967
 40
0.7595946687
 40
1.0
 40
1.0
 40
1.0
 40
1.0
 10
120.3076890077
 20
127.8003208391
 30
0.0
 10
120.3884559114
 20
127.8469516327
 30
0.0
 10
120.5509427
 20
127.9325871637
 30
0.0
 10
120.8028880183
 20
128.0334532122
 30
0.0
 10
121.0589835415
 20
128.0979883104
 30
0.0
 10
121.2323603765
 20
128.1129282302
 30
0.0
 10
121.3180519785
 20
128.1129282302
 30
0.0
  0
SPLINE
  5
4A4
100
AcDbEntity
  8
0
100
AcDbSpline
 62
7
  6
CONTINUOUS
 70
0
 71
3
 72
11
 73
7
 74
0
 42
0.0000001
 43
0.0000001
 44
0.0000000001
 40
0.0
 40
0.0
 40
0.0
 40
0.0
 40
0.2404053311
 40
0.4855030658
 40
0.7383571506
 40
1.0
 40
1.0
 40
1.0
 40
1.0
 10
121.3180519785
 20
128.1129282302
 30
0.0
 10
121.4037435806
 20
128.1129282303
 30
0.0
 10
121.5771204011
 20
128.0979883071
 30
0.0
 10
121.8332158835
 20
128.0334532498
 30
0.0
 10
122.0851611971
 20
127.9325871866
 30
0.0
 10
122.2476480023
 20
127.846951658
 30
0.0
 10
122.3284149499
 20
127.8003208391
 30
0.0
  0
SPLINE
  5
4A5
100
AcDbEntity
  8
0
100
AcDbSpline
 62
7
  6
CONTINUOUS
 70
0
 71
3
 72
15
 73
11
 74
0
 42
0.0000001
 43
0.0000001
 44
0.0000000001
 40
0.0
 40
0.0
 40
0.0
 40
0.0
 40
0.1308200708
 40
0.2572467319
 40
0.3797970168
 40
0.5000000223
 40
0.6202030245
 40
0.7427533017
 40
0.8691799406
 40
1.0
 40
1.0
 40
1.0
 40
1.0
 10
122.3284149499
 20
125.6663462429
 30
0.0
 10
122.2476489098
 20
125.7129765378
 30
0.0
 10
122.0851596559
 20
125.798611276
 30
0.0
 10
121.8332312214
 20
125.8994786536
 30
0.0
 10
121.577078262
 20
125.9640111847
 30
0.0
 10
121.3180519341
 20
125.986343225
 30
0.0
 10
121.0590256152
 20
125.9640111567
 30
0.0
 10
120.8028726816
 20
125.899478625
 30
0.0
 10
120.5509442728
 20
125.7986112626
 30
0.0
 10
120.3884550408
 20
125.7129765338
 30
0.0
 10
120.3076890077
 20
125.6663462429
 30
0.0
  0
SPLINE
  5
4A6
100
AcDbEntity
  8
0
100
AcDbSpline
 62
7
  6
CONTINUOUS
 70
0
 71
3
 72
11
 73
7
 74
0
 42
0.0000001
 43
0.0000001
 44
0.0000000001
 40
0.0
 40
0.0
 40
0.0
 40
0.0
 40
0.2500117335
 40
0.5000149808
 40
0.7500086174
 40
1.0
 40
1.0
 40
1.0
 40
1.0
 10
122.3284149499
 20
127.8003208391
 30
0.0
 10
122.4926539787
 20
127.8477325628
 30
0.0
 10
122.8235179109
 20
127.9345931197
 30
0.0
 10
123.3268405895
 20
128.0347471985
 30
0.0
 10
123.8361777729
 20
128.0983446206
 30
0.0
 10
124.1782094058
 20
128.1129282302
 30
0.0
 10
124.3491408919
 20
128.1129282302
 30
0.0
  0
SPLINE
  5
4A7
100
AcDbEntity
  8
0
100
AcDbSpline
 62
7
  6
CONTINUOUS
 70
0
 71
3
 72
11
 73
7
 74
0
 42
0.0000001
 43
0.0000001
 44
0.0000000001
 40
0.0
 40
0.0
 40
0.0
 40
0.0
 40
0.2499914031
 40
0.4999850448
 40
0.7499882752
 40
1.0
 40
1.0
 40
1.0
 40
1.0
 10
124.3491408919
 20
128.1129282302
 30
0.0
 10
124.5200723921
 20
128.1129282302
 30
0.0
 10
124.8621040429
 20
128.0983446233
 30
0.0
 10
125.3714412312
 20
128.0347471909
 30
0.0
 10
125.8747638962
 20
127.9345931155
 30
0.0
 10
126.205627811
 20
127.8477325612
 30
0.0
 10
126.3698668342
 20
127.8003208391
 30
0.0
  0
SPLINE
  5
4A8
100
AcDbEntity
  8
0
100
AcDbSpline
 62
7
  6
CONTINUOUS
 70
0
 71
3
 72
11
 73
7
 74
0
 42
0.0000001
 43
0.0000001
 44
0.0000000001
 40
0.0
 40
0.0
 40
0.0
 40
0.0
 40
0.2500114268
 40
0.5000145918
 40
0.7500082941
 40
1.0
 40
1.0
 40
1.0
 40
1.0
 10
126.3698668342
 20
125.6663462429
 30
0.0
 10
126.2056280066
 20
125.7137579085
 30
0.0
 10
125.8747643377
 20
125.8006184243
 30
0.0
 10
125.3714418789
 20
125.9007724648
 30
0.0
 10
124.8621045043
 20
125.9643700705
 30
0.0
 10
124.5200725996
 20
125.978953634
 30
0.0
 10
124.3491408921
 20
125.978953634
 30
0.0
  0
SPLINE
  5
4A9
100
AcDbEntity
  8
0
100
AcDbSpline
 62
7
  6
CONTINUOUS
 70
0
 71
3
 72
11
 73
7
 74
0
 42
0.0000001
 43
0.0000001
 44
0.0000000001
 40
0.0
 40
0.0
 40
0.0
 40
0.0
 40
0.2499921142
 40
0.4999859344
 40
0.7499889522
 40
1.0
 40
1.0
 40
1.0
 40
1.0
 10
124.3491408921
 20
125.978953634
 30
0.0
 10
124.178208905
 20
125.978953634
 30
0.0
 10
123.8361766344
 20
125.9643701104
 30
0.0
 10
123.3268390201
 20
125.9007723052
 30
0.0
 10
122.8235168423
 20
125.8006182929
 30
0.0
 10
122.4926535289
 20
125.7137578368
 30
0.0
 10
122.3284149499
 20
125.6663462429
 30
0.0
  0
SPLINE
  5
4AA
100
AcDbEntity
  8
0
100
AcDbSpline
 62
7
  6
CONTINUOUS
 70
0
 71
3
 72
11
 73
7
 74
0
 42
0.0000001
 43
0.0000001
 44
0.0000000001
 40
0.0
 40
0.0
 40
0.0
 40
0.0
 40
0.2616429101
 40
0.5144970262
 40
0.7595947381
 40
1.0
 40
1.0
 40
1.0
 40
1.0
 10
126.3698668342
 20
127.8003208391
 30
0.0
 10
126.4506338005
 20
127.8469516688
 30
0.0
 10
126.6131206367
 20
127.9325872078
 30
0.0
 10
126.8650659747
 20
128.0334532787
 30
0.0
 10
127.1211614427
 20
128.0979883004
 30
0.0
 10
127.2945382283
 20
128.1129282303
 30
0.0
 10
127.3802298057
 20
128.1129282302
 30
0.0
  0
SPLINE
  5
4AB
100
AcDbEntity
  8
0
100
AcDbSpline
 62
7
  6
CONTINUOUS
 70
0
 71
3
 72
11
 73
7
 74
0
 42
0.0000001
 43
0.0000001
 44
0.0000000001
 40
0.0
 40
0.0
 40
0.0
 40
0.0
 40
0.2404052946
 40
0.4855030509
 40
0.7383572437
 40
1.0
 40
1.0
 40
1.0
 40
1.0
 10
127.3802298057
 20
128.1129282302
 30
0.0
 10
127.4659213945
 20
128.1129282302
 30
0.0
 10
127.6392982096
 20
128.0979883068
 30
0.0
 10
127.8953937201
 20
128.0334532312
 30
0.0
 10
128.147339051
 20
127.9325871777
 30
0.0
 10
128.3098258577
 20
127.8469516413
 30
0.0
 10
128.3905927764
 20
127.8003208391
 30
0.0
  0
SPLINE
  5
4AC
100
AcDbEntity
  8
0
100
AcDbSpline
 62
7
  6
CONTINUOUS
 70
0
 71
3
 72
15
 73
11
 74
0
 42
0.0000001
 43
0.0000001
 44
0.0000000001
 40
0.0
 40
0.0
 40
0.0
 40
0.0
 40
0.1308200708
 40
0.2572467319
 40
0.3797970168
 40
0.5000000223
 40
0.6202030245
 40
0.7427533017
 40
0.8691799406
 40
1.0
 40
1.0
 40
1.0
 40
1.0
 10
128.3905927764
 20
125.6663462429
 30
0.0
 10
128.3098267363
 20
125.7129765378
 30
0.0
 10
128.1473374824
 20
125.798611276
 30
0.0
 10
127.8954090478
 20
125.8994786536
 30
0.0
 10
127.6392560885
 20
125.9640111847
 30
0.0
 10
127.3802297606
 20
125.986343225
 30
0.0
 10
127.1212034417
 20
125.9640111567
 30
0.0
 10
126.8650505081
 20
125.899478625
 30
0.0
 10
126.6131220993
 20
125.7986112626
 30
0.0
 10
126.4506328673
 20
125.7129765338
 30
0.0
 10
126.3698668342
 20
125.6663462429
 30
0.0
  0
SPLINE
  5
4AD
100
AcDbEntity
  8
0
100
AcDbSpline
 62
7
  6
CONTINUOUS
 70
0
 71
3
 72
15
 73
11
 74
0
 42
0.0000001
 43
0.0000001
 44
0.0000000001
 40
0.0
 40
0.0
 40
0.0
 40
0.0
 40
0.1301220917
 40
0.2562964044
 40
0.3791284759
 40
0.5000000147
 40
0.6208715512
 40
0.7437036189
 40
0.869877914
 40
1.0
 40
1.0
 40
1.0
 40
1.0
 10
148.574973917
 20
91.366136504
 30
0.0
 10
148.456961898
 20
91.1456563141
 30
0.0
 10
148.2413244975
 20
90.7019532288
 30
0.0
 10
147.9905770744
 20
90.016195892
 30
0.0
 10
147.8319646142
 20
89.320953076
 30
0.0
 10
147.7774907362
 20
88.6196614101
 30
0.0
 10
147.8319646383
 20
87.9183697535
 30
0.0
 10
147.9905771115
 20
87.2231269874
 30
0.0
 10
148.2413245266
 20
86.5373697044
 30
0.0
 10
148.4569619032
 20
86.0936666573
 30
0.0
 10
148.574973917
 20
85.873186477
 30
0.0
  0
SPLINE
  5
4AE
100
AcDbEntity
  8
0
100
AcDbSpline
 62
7
  6
CONTINUOUS
 70
0
 71
3
 72
13
 73
9
 74
0
 42
0.0000001
 43
0.0000001
 44
0.0000000001
 40
0.0
 40
0.0
 40
0.0
 40
0.0
 40
0.2499501088
 40
0.3749753146
 40
0.5000000151
 40
0.6250247132
 40
0.7500499144
 40
1.0
 40
1.0
 40
1.0
 40
1.0
 10
148.574973917
 20
103.2058782573
 30
0.0
 10
148.335366668
 20
102.3105685719
 30
0.0
 10
148.0399180054
 20
100.9476491797
 30
0.0
 10
147.8312630313
 20
99.1040660414
 30
0.0
 10
147.7776950949
 20
97.7129280708
 30
0.0
 10
147.8312630548
 20
96.321790118
 30
0.0
 10
148.0399180497
 20
94.4782070954
 30
0.0
 10
148.3353666902
 20
93.1152878054
 30
0.0
 10
148.574973917
 20
92.2199782032
 30
0.0
  0
SPLINE
  5
4AF
100
AcDbEntity
  8
0
100
AcDbSpline
 62
7
  6
CONTINUOUS
 70
0
 71
3
 72
15
 73
11
 74
0
 42
0.0000001
 43
0.0000001
 44
0.0000000001
 40
0.0
 40
0.0
 40
0.0
 40
0.0
 40
0.1301220917
 40
0.2562964044
 40
0.3791284759
 40
0.5000000147
 40
0.6208715512
 40
0.7437036189
 40
0.869877914
 40
1.0
 40
1.0
 40
1.0
 40
1.0
 10
148.574973917
 20
109.5526699835
 30
0.0
 10
148.456961898
 20
109.3321897936
 30
0.0
 10
148.2413244975
 20
108.8884867083
 30
0.0
 10
147.9905770744
 20
108.2027293715
 30
0.0
 10
147.8319646142
 20
107.5074865555
 30
0.0
 10
147.7774907362
 20
106.8061948895
 30
0.0
 10
147.8319646383
 20
106.1049032329
 30
0.0
 10
147.9905771115
 20
105.4096604669
 30
0.0
 10
148.2413245266
 20
104.7239031838
 30
0.0
 10
148.4569619032
 20
104.2802001368
 30
0.0
 10
148.574973917
 20
104.0597199564
 30
0.0
  0
SPLINE
  5
4B0
100
AcDbEntity
  8
0
100
AcDbSpline
 62
7
  6
CONTINUOUS
 70
0
 71
3
 72
15
 73
11
 74
0
 42
0.0000001
 43
0.0000001
 44
0.0000000001
 40
0.0
 40
0.0
 40
0.0
 40
0.0
 40
0.1304640899
 40
0.2567580914
 40
0.3794513575
 40
0.4999998773
 40
0.6205483887
 40
0.7432416797
 40
0.8695357368
 40
1.0
 40
1.0
 40
1.0
 40
1.0
 10
156.9426513842
 20
85.873186477
 30
0.0
 10
157.064964738
 20
86.0932063524
 30
0.0
 10
157.2890155619
 20
86.5359302459
 30
0.0
 10
157.5511702844
 20
87.2212638198
 30
0.0
 10
157.7178875411
 20
87.9170328463
 30
0.0
 10
157.775346077
 20
88.6196607847
 30
0.0
 10
157.7178880802
 20
89.322288834
 30
0.0
 10
157.5511708431
 20
90.018058028
 30
0.0
 10
157.2890159159
 20
90.7033920423
 30
0.0
 10
157.0649649408
 20
91.1461163588
 30
0.0
 10
156.9426513842
 20
91.366136504
 30
0.0
  0
SPLINE
  5
4B1
100
AcDbEntity
  8
0
100
AcDbSpline
 62
7
  6
CONTINUOUS
 70
0
 71
3
 72
10
 73
6
 74
0
 42
0.0000001
 43
0.0000001
 44
0.0000000001
 40
0.0
 40
0.0
 40
0.0
 40
0.0
 40
0.2656773072
 40
0.5262524847
 40
1.0
 40
1.0
 40
1.0
 40
1.0
 10
156.9768977056
 20
91.3681920932
 30
0.0
 10
157.0212836732
 20
91.3736210675
 30
0.0
 10
157.1084611698
 20
91.3930276003
 30
0.0
 10
157.2635452347
 20
91.4591351477
 30
0.0
 10
157.3634984558
 20
91.5405371828
 30
0.0
 10
157.4099104075
 20
91.6053754669
 30
0.0
  0
SPLINE
  5
4B2
100
AcDbEntity
  8
0
100
AcDbSpline
 62
7
  6
CONTINUOUS
 70
0
 71
3
 72
15
 73
11
 74
0
 42
0.0000001
 43
0.0000001
 44
0.0000000001
 40
0.0
 40
0.0
 40
0.0
 40
0.0
 40
0.1285942657
 40
0.2534132791
 40
0.3752912898
 40
0.4958105463
 40
0.6170081733
 40
0.7407646461
 40
0.8682868854
 40
1.0
 40
1.0
 40
1.0
 40
1.0
 10
157.4099104075
 20
86.118463972
 30
0.0
 10
157.528154177
 20
86.3352129941
 30
0.0
 10
157.7442213516
 20
86.7720515976
 30
0.0
 10
157.9950498487
 20
87.4492540707
 30
0.0
 10
158.1533014777
 20
88.1387044746
 30
0.0
 10
158.2073253601
 20
88.8374870477
 30
0.0
 10
158.1527400677
 20
89.539789077
 30
0.0
 10
157.9943806861
 20
90.2394559318
 30
0.0
 10
157.7438384997
 20
90.9324083991
 30
0.0
 10
157.5281185968
 20
91.3818100648
 30
0.0
 10
157.4099104075
 20
91.6053754244
 30
0.0
  0
SPLINE
  5
4B3
100
AcDbEntity
  8
0
100
AcDbSpline
 62
7
  6
CONTINUOUS
 70
0
 71
3
 72
11
 73
7
 74
0
 42
0.0000001
 43
0.0000001
 44
0.0000000001
 40
0.0
 40
0.0
 40
0.0
 40
0.0
 40
0.254019785
 40
0.50515159
 40
0.7535081185
 40
1.0
 40
1.0
 40
1.0
 40
1.0
 10
156.9768977056
 20
85.873085471
 30
0.0
 10
157.0209077763
 20
85.8728216368
 30
0.0
 10
157.1089144188
 20
85.8839479372
 30
0.0
 10
157.2311679406
 20
85.9337519171
 30
0.0
 10
157.3351463693
 20
86.012921254
 30
0.0
 10
157.3883853513
 20
86.0815786727
 30
0.0
 10
157.4099104075
 20
86.1184639706
 30
0.0
  0
SPLINE
  5
4B4
100
AcDbEntity
  8
0
100
AcDbSpline
 62
7
  6
CONTINUOUS
 70
0
 71
3
 72
13
 73
9
 74
0
 42
0.0000001
 43
0.0000001
 44
0.0000000001
 40
0.0
 40
0.0
 40
0.0
 40
0.0
 40
0.2499454819
 40
0.3749736878
 40
0.5
 40
0.6250263122
 40
0.7500545181
 40
1.0
 40
1.0
 40
1.0
 40
1.0
 10
156.9426513901
 20
92.2199782032
 30
0.0
 10
157.191125205
 20
93.1138925536
 30
0.0
 10
157.4995605036
 20
94.4756981064
 30
0.0
 10
157.7186967355
 20
96.3202266554
 30
0.0
 10
157.7751046439
 20
97.7129282309
 30
0.0
 10
157.7186967324
 20
99.1056298042
 30
0.0
 10
157.4995605251
 20
100.9501583613
 30
0.0
 10
157.1911250858
 20
102.3119638743
 30
0.0
 10
156.9426513879
 20
103.2058782573
 30
0.0
  0
SPLINE
  5
4B5
100
AcDbEntity
  8
0
100
AcDbSpline
 62
7
  6
CONTINUOUS
 70
0
 71
3
 72
11
 73
7
 74
0
 42
0.0000001
 43
0.0000001
 44
0.0000000001
 40
0.0
 40
0.0
 40
0.0
 40
0.0
 40
0.3021062167
 40
0.5796409905
 40
0.8160321623
 40
1.0
 40
1.0
 40
1.0
 40
1.0
 10
156.9768977056
 20
103.2080348408
 30
0.0
 10
157.0203994524
 20
103.213616442
 30
0.0
 10
157.1042284406
 20
103.2216474914
 30
0.0
 10
157.2227954379
 20
103.2248466309
 30
0.0
 10
157.3240032683
 20
103.2187835394
 30
0.0
 10
157.384448314
 20
103.20790065
 30
0.0
 10
157.4099104075
 20
103.1998398121
 30
0.0
  0
SPLINE
  5
4B6
100
AcDbEntity
  8
0
100
AcDbSpline
 62
7
  6
CONTINUOUS
 70
0
 71
3
 72
13
 73
9
 74
0
 42
0.0000001
 43
0.0000001
 44
0.0000000001
 40
0.0
 40
0.0
 40
0.0
 40
0.0
 40
0.2499441733
 40
0.3749723075
 40
0.5
 40
0.6250276925
 40
0.7500558267
 40
1.0
 40
1.0
 40
1.0
 40
1.0
 10
157.4099104075
 20
92.2260167778
 30
0.0
 10
157.6499894598
 20
93.1201561246
 30
0.0
 10
157.9454788418
 20
94.4815943457
 30
0.0
 10
158.1537087263
 20
96.3232375308
 30
0.0
 10
158.2071231376
 20
97.7129282303
 30
0.0
 10
158.1537087253
 20
99.1026189293
 30
0.0
 10
157.9454788481
 20
100.9442621166
 30
0.0
 10
157.6499894273
 20
102.3057003271
 30
0.0
 10
157.4099104075
 20
103.1998396827
 30
0.0
  0
SPLINE
  5
4B7
100
AcDbEntity
  8
0
100
AcDbSpline
 62
7
  6
CONTINUOUS
 70
0
 71
3
 72
11
 73
7
 74
0
 42
0.0000001
 43
0.0000001
 44
0.0000000001
 40
0.0
 40
0.0
 40
0.0
 40
0.0
 40
0.3021062255
 40
0.5796410185
 40
0.8160321935
 40
1.0
 40
1.0
 40
1.0
 40
1.0
 10
156.9768977056
 20
92.2178216201
 30
0.0
 10
157.0203994529
 20
92.2122400195
 30
0.0
 10
157.1042284428
 20
92.2042089604
 30
0.0
 10
157.2227954454
 20
92.2010098619
 30
0.0
 10
157.3240032666
 20
92.2070729676
 30
0.0
 10
157.3844483187
 20
92.2179558016
 30
0.0
 10
157.4099104075
 20
92.2260166378
 30
0.0
  0
SPLINE
  5
4B8
100
AcDbEntity
  8
0
100
AcDbSpline
 62
7
  6
CONTINUOUS
 70
0
 71
3
 72
15
 73
11
 74
0
 42
0.0000001
 43
0.0000001
 44
0.0000000001
 40
0.0
 40
0.0
 40
0.0
 40
0.0
 40
0.1304642633
 40
0.2567583203
 40
0.3794516114
 40
0.5000001228
 40
0.6205486425
 40
0.7432419086
 40
0.8695359102
 40
1.0
 40
1.0
 40
1.0
 40
1.0
 10
156.9426513842
 20
104.0597199564
 30
0.0
 10
157.0649649061
 20
104.2797401212
 30
0.0
 10
157.2890159354
 20
104.722464408
 30
0.0
 10
157.5511708364
 20
105.4077984357
 30
0.0
 10
157.7178880823
 20
106.1035676255
 30
0.0
 10
157.7753460769
 20
106.8061956762
 30
0.0
 10
157.7178875394
 20
107.5088236134
 30
0.0
 10
157.55117029
 20
108.2045926434
 30
0.0
 10
157.2890155454
 20
108.889926206
 30
0.0
 10
157.064964767
 20
109.3326501243
 30
0.0
 10
156.9426513842
 20
109.5526699835
 30
0.0
  0
SPLINE
  5
4B9
100
AcDbEntity
  8
0
100
AcDbSpline
 62
7
  6
CONTINUOUS
 70
0
 71
3
 72
11
 73
7
 74
0
 42
0.0000001
 43
0.0000001
 44
0.0000000001
 40
0.0
 40
0.0
 40
0.0
 40
0.0
 40
0.2540197871
 40
0.5051516038
 40
0.7535081325
 40
1.0
 40
1.0
 40
1.0
 40
1.0
 10
156.9768977056
 20
109.5527709894
 30
0.0
 10
157.0209077766
 20
109.5530348237
 30
0.0
 10
157.1089144218
 20
109.5419085239
 30
0.0
 10
157.231167944
 20
109.4921045389
 30
0.0
 10
157.3351463729
 20
109.4129352033
 30
0.0
 10
157.3883853521
 20
109.3442777856
 30
0.0
 10
157.4099104075
 20
109.3073924901
 30
0.0
  0
SPLINE
  5
4BA
100
AcDbEntity
  8
0
100
AcDbSpline
 62
7
  6
CONTINUOUS
 70
0
 71
3
 72
15
 73
11
 74
0
 42
0.0000001
 43
0.0000001
 44
0.0000000001
 40
0.0
 40
0.0
 40
0.0
 40
0.0
 40
0.1317131146
 40
0.259235354
 40
0.3829918267
 40
0.5041894537
 40
0.6247087102
 40
0.7465867209
 40
0.8714057344
 40
1.0
 40
1.0
 40
1.0
 40
1.0
 10
157.4099104075
 20
103.8204810361
 30
0.0
 10
157.5281185815
 20
104.0440464037
 30
0.0
 10
157.7438385088
 20
104.4934480567
 30
0.0
 10
157.994380683
 20
105.18640053
 30
0.0
 10
158.1527400686
 20
105.8860673831
 30
0.0
 10
158.20732536
 20
106.5883694129
 30
0.0
 10
158.1533014771
 20
107.2871519856
 30
0.0
 10
157.9950498506
 20
107.9766023908
 30
0.0
 10
157.744221346
 20
108.6538048602
 30
0.0
 10
157.5281541863
 20
109.0906434717
 30
0.0
 10
157.4099104075
 20
109.3073924885
 30
0.0
  0
SPLINE
  5
4BB
100
AcDbEntity
  8
0
100
AcDbSpline
 62
7
  6
CONTINUOUS
 70
0
 71
3
 72
10
 73
6
 74
0
 42
0.0000001
 43
0.0000001
 44
0.0000000001
 40
0.0
 40
0.0
 40
0.0
 40
0.0
 40
0.2656773118
 40
0.5262524997
 40
1.0
 40
1.0
 40
1.0
 40
1.0
 10
156.9768977056
 20
104.0576643667
 30
0.0
 10
157.0212836728
 20
104.0522353919
 30
0.0
 10
157.1084611732
 20
104.0328288657
 30
0.0
 10
157.2635452133
 20
103.9667212776
 30
0.0
 10
157.363498459
 20
103.8853192834
 30
0.0
 10
157.4099104075
 20
103.8204810026
 30
0.0
  0
SPLINE
  5
4BC
100
AcDbEntity
  8
0
100
AcDbSpline
 62
7
  6
CONTINUOUS
 70
0
 71
3
 72
13
 73
9
 74
0
 42
0.0000001
 43
0.0000001
 44
0.0000000001
 40
0.0
 40
0.0
 40
0.0
 40
0.0
 40
0.2499501088
 40
0.3749753146
 40
0.5000000151
 40
0.6250247132
 40
0.7500499144
 40
1.0
 40
1.0
 40
1.0
 40
1.0
 10
102.1233078671
 20
92.2199782032
 30
0.0
 10
102.3629151162
 20
93.1152878886
 30
0.0
 10
102.6583637787
 20
94.4782072808
 30
0.0
 10
102.8670187528
 20
96.3217904191
 30
0.0
 10
102.9205866892
 20
97.7129283897
 30
0.0
 10
102.8670187294
 20
99.1040663425
 30
0.0
 10
102.6583637344
 20
100.9476493651
 30
0.0
 10
102.3629150939
 20
102.3105686551
 30
0.0
 10
102.1233078671
 20
103.2058782573
 30
0.0
  0
SPLINE
  5
4BD
100
AcDbEntity
  8
0
100
AcDbSpline
 62
7
  6
CONTINUOUS
 70
0
 71
3
 72
15
 73
11
 74
0
 42
0.0000001
 43
0.0000001
 44
0.0000000001
 40
0.0
 40
0.0
 40
0.0
 40
0.0
 40
0.1301220917
 40
0.2562964044
 40
0.3791284759
 40
0.5000000147
 40
0.6208715512
 40
0.7437036189
 40
0.869877914
 40
1.0
 40
1.0
 40
1.0
 40
1.0
 10
102.1233078671
 20
85.873186477
 30
0.0
 10
102.2413198861
 20
86.0936666669
 30
0.0
 10
102.4569572867
 20
86.5373697522
 30
0.0
 10
102.7077047097
 20
87.223127089
 30
0.0
 10
102.8663171699
 20
87.918369905
 30
0.0
 10
102.920791048
 20
88.6196615709
 30
0.0
 10
102.8663171458
 20
89.3209532276
 30
0.0
 10
102.7077046726
 20
90.0161959936
 30
0.0
 10
102.4569572576
 20
90.7019532766
 30
0.0
 10
102.241319881
 20
91.1456563237
 30
0.0
 10
102.1233078671
 20
91.366136504
 30
0.0
  0
SPLINE
  5
4BE
100
AcDbEntity
  8
0
100
AcDbSpline
 62
7
  6
CONTINUOUS
 70
0
 71
3
 72
9
 73
5
 74
0
 42
0.0000001
 43
0.0000001
 44
0.0000000001
 40
0.0
 40
0.0
 40
0.0
 40
0.0
 40
0.2549996497
 40
1.0
 40
1.0
 40
1.0
 40
1.0
 10
102.1233078671
 20
104.0597199564
 30
0.0
 10
102.1734401755
 20
104.1533814409
 30
0.0
 10
102.3638701171
 20
104.5238735383
 30
0.0
 10
102.5271835282
 20
104.9088985447
 30
0.0
 10
102.6263715854
 20
105.202993901
 30
0.0
  0
SPLINE
  5
4BF
100
AcDbEntity
  8
0
100
AcDbSpline
 62
7
  6
CONTINUOUS
 70
0
 71
3
 72
15
 73
11
 74
0
 42
0.0000001
 43
0.0000001
 44
0.0000000001
 40
0.0
 40
0.0
 40
0.0
 40
0.0
 40
0.1250156059
 40
0.247843771
 40
0.3695235626
 40
0.4913210468
 40
0.6144775129
 40
0.7399708259
 40
0.8684036987
 40
1.0
 40
1.0
 40
1.0
 40
1.0
 10
102.6332175525
 20
105.2234113742
 30
0.0
 10
102.6924554143
 20
105.401125851
 30
0.0
 10
102.7936142201
 20
105.7592211609
 30
0.0
 10
102.886177039
 20
106.3063019789
 30
0.0
 10
102.9135357073
 20
106.8558494278
 30
0.0
 10
102.8742040694
 20
107.4051356457
 30
0.0
 10
102.7702484588
 20
107.9515776929
 30
0.0
 10
102.6065766242
 20
108.4933417212
 30
0.0
 10
102.3896984055
 20
109.0294644256
 30
0.0
 10
102.2163616035
 20
109.3788190009
 30
0.0
 10
102.1233078671
 20
109.5526699835
 30
0.0
  0
SPLINE
  5
4C0
100
AcDbEntity
  8
0
100
AcDbSpline
 62
7
  6
CONTINUOUS
 70
0
 71
3
 72
15
 73
11
 74
0
 42
0.0000001
 43
0.0000001
 44
0.0000000001
 40
0.0
 40
0.0
 40
0.0
 40
0.0
 40
0.1304640899
 40
0.2567580914
 40
0.3794513575
 40
0.4999998773
 40
0.6205483887
 40
0.7432416797
 40
0.8695357368
 40
1.0
 40
1.0
 40
1.0
 40
1.0
 10
93.7556303999
 20
109.5526699835
 30
0.0
 10
93.6333170461
 20
109.332650108
 30
0.0
 10
93.4092662223
 20
108.8899262146
 30
0.0
 10
93.1471114998
 20
108.2045926407
 30
0.0
 10
92.980394243
 20
107.5088236142
 30
0.0
 10
92.9229357071
 20
106.8061956758
 30
0.0
 10
92.980393704
 20
106.1035676265
 30
0.0
 10
93.1471109411
 20
105.4077984325
 30
0.0
 10
93.4092658682
 20
104.7224644182
 30
0.0
 10
93.6333168434
 20
104.2797401017
 30
0.0
 10
93.7556303999
 20
104.0597199564
 30
0.0
  0
SPLINE
  5
4C1
100
AcDbEntity
  8
0
100
AcDbSpline
 62
7
  6
CONTINUOUS
 70
0
 71
3
 72
10
 73
6
 74
0
 42
0.0000001
 43
0.0000001
 44
0.0000000001
 40
0.0
 40
0.0
 40
0.0
 40
0.0
 40
0.2656773072
 40
0.5262524847
 40
1.0
 40
1.0
 40
1.0
 40
1.0
 10
93.7213840785
 20
104.0576643673
 30
0.0
 10
93.6769981109
 20
104.0522353929
 30
0.0
 10
93.5898206143
 20
104.0328288602
 30
0.0
 10
93.4347365495
 20
103.9667213127
 30
0.0
 10
93.3347833283
 20
103.8853192777
 30
0.0
 10
93.2883713766
 20
103.8204809936
 30
0.0
  0
SPLINE
  5
4C2
100
AcDbEntity
  8
0
100
AcDbSpline
 62
7
  6
CONTINUOUS
 70
0
 71
3
 72
15
 73
11
 74
0
 42
0.0000001
 43
0.0000001
 44
0.0000000001
 40
0.0
 40
0.0
 40
0.0
 40
0.0
 40
0.1285942657
 40
0.2534132791
 40
0.3752912898
 40
0.4958105463
 40
0.6170081733
 40
0.7407646461
 40
0.8682868854
 40
1.0
 40
1.0
 40
1.0
 40
1.0
 10
93.2883713766
 20
109.3073924885
 30
0.0
 10
93.1701276072
 20
109.0906434664
 30
0.0
 10
92.9540604325
 20
108.6538048629
 30
0.0
 10
92.7032319354
 20
107.9766023898
 30
0.0
 10
92.5449803065
 20
107.2871519859
 30
0.0
 10
92.4909564241
 20
106.5883694127
 30
0.0
 10
92.5455417165
 20
105.8860673835
 30
0.0
 10
92.703901098
 20
105.1864005287
 30
0.0
 10
92.9544432844
 20
104.4934480614
 30
0.0
 10
93.1701631873
 20
104.0440463957
 30
0.0
 10
93.2883713766
 20
103.8204810361
 30
0.0
  0
SPLINE
  5
4C3
100
AcDbEntity
  8
0
100
AcDbSpline
 62
7
  6
CONTINUOUS
 70
0
 71
3
 72
11
 73
7
 74
0
 42
0.0000001
 43
0.0000001
 44
0.0000000001
 40
0.0
 40
0.0
 40
0.0
 40
0.0
 40
0.254019785
 40
0.50515159
 40
0.7535081185
 40
1.0
 40
1.0
 40
1.0
 40
1.0
 10
93.7213840785
 20
109.5527709895
 30
0.0
 10
93.6773740079
 20
109.5530348237
 30
0.0
 10
93.5893673653
 20
109.5419085232
 30
0.0
 10
93.4671138436
 20
109.4921045434
 30
0.0
 10
93.3631354149
 20
109.4129352065
 30
0.0
 10
93.3098964328
 20
109.3442777877
 30
0.0
 10
93.2883713766
 20
109.3073924899
 30
0.0
  0
SPLINE
  5
4C4
100
AcDbEntity
  8
0
100
AcDbSpline
 62
7
  6
CONTINUOUS
 70
0
 71
3
 72
13
 73
9
 74
0
 42
0.0000001
 43
0.0000001
 44
0.0000000001
 40
0.0
 40
0.0
 40
0.0
 40
0.0
 40
0.2499454819
 40
0.3749736878
 40
0.5
 40
0.6250263122
 40
0.7500545181
 40
1.0
 40
1.0
 40
1.0
 40
1.0
 10
93.755630394
 20
103.2058782573
 30
0.0
 10
93.5071565791
 20
102.3119639069
 30
0.0
 10
93.1987212805
 20
100.9501583541
 30
0.0
 10
92.9795850487
 20
99.1056298051
 30
0.0
 10
92.9231771403
 20
97.7129282296
 30
0.0
 10
92.9795850517
 20
96.3202266563
 30
0.0
 10
93.1987212591
 20
94.4756980992
 30
0.0
 10
93.5071566984
 20
93.1138925862
 30
0.0
 10
93.7556303962
 20
92.2199782032
 30
0.0
  0
SPLINE
  5
4C5
100
AcDbEntity
  8
0
100
AcDbSpline
 62
7
  6
CONTINUOUS
 70
0
 71
3
 72
11
 73
7
 74
0
 42
0.0000001
 43
0.0000001
 44
0.0000000001
 40
0.0
 40
0.0
 40
0.0
 40
0.0
 40
0.3021062167
 40
0.5796409905
 40
0.8160321623
 40
1.0
 40
1.0
 40
1.0
 40
1.0
 10
93.7213840785
 20
92.2178216196
 30
0.0
 10
93.6778823317
 20
92.2122400185
 30
0.0
 10
93.5940533435
 20
92.2042089691
 30
0.0
 10
93.4754863462
 20
92.2010098296
 30
0.0
 10
93.3742785159
 20
92.2070729211
 30
0.0
 10
93.3138334702
 20
92.2179558104
 30
0.0
 10
93.2883713766
 20
92.2260166484
 30
0.0
  0
SPLINE
  5
4C6
100
AcDbEntity
  8
0
100
AcDbSpline
 62
7
  6
CONTINUOUS
 70
0
 71
3
 72
13
 73
9
 74
0
 42
0.0000001
 43
0.0000001
 44
0.0000000001
 40
0.0
 40
0.0
 40
0.0
 40
0.0
 40
0.2499441733
 40
0.3749723075
 40
0.5
 40
0.6250276925
 40
0.7500558267
 40
1.0
 40
1.0
 40
1.0
 40
1.0
 10
93.2883713766
 20
103.1998396827
 30
0.0
 10
93.0482923243
 20
102.3057003359
 30
0.0
 10
92.7528029423
 20
100.9442621148
 30
0.0
 10
92.5445730578
 20
99.1026189297
 30
0.0
 10
92.4911586466
 20
97.7129282301
 30
0.0
 10
92.5445730588
 20
96.3232375312
 30
0.0
 10
92.7528029361
 20
94.4815943439
 30
0.0
 10
93.0482923568
 20
93.1201561334
 30
0.0
 10
93.2883713766
 20
92.2260167778
 30
0.0
  0
SPLINE
  5
4C7
100
AcDbEntity
  8
0
100
AcDbSpline
 62
7
  6
CONTINUOUS
 70
0
 71
3
 72
11
 73
7
 74
0
 42
0.0000001
 43
0.0000001
 44
0.0000000001
 40
0.0
 40
0.0
 40
0.0
 40
0.0
 40
0.3021062255
 40
0.5796410185
 40
0.8160321935
 40
1.0
 40
1.0
 40
1.0
 40
1.0
 10
93.7213840785
 20
103.2080348404
 30
0.0
 10
93.6778823313
 20
103.2136164409
 30
0.0
 10
93.5940533413
 20
103.2216475
 30
0.0
 10
93.4754863388
 20
103.2248465986
 30
0.0
 10
93.3742785176
 20
103.2187834928
 30
0.0
 10
93.3138334654
 20
103.2079006589
 30
0.0
 10
93.2883713766
 20
103.1998398227
 30
0.0
  0
SPLINE
  5
4C8
100
AcDbEntity
  8
0
100
AcDbSpline
 62
7
  6
CONTINUOUS
 70
0
 71
3
 72
15
 73
11
 74
0
 42
0.0000001
 43
0.0000001
 44
0.0000000001
 40
0.0
 40
0.0
 40
0.0
 40
0.0
 40
0.1304642633
 40
0.2567583203
 40
0.3794516114
 40
0.5000001228
 40
0.6205486425
 40
0.7432419086
 40
0.8695359102
 40
1.0
 40
1.0
 40
1.0
 40
1.0
 10
93.7556303999
 20
91.366136504
 30
0.0
 10
93.633316878
 20
91.1461163393
 30
0.0
 10
93.4092658488
 20
90.7033920525
 30
0.0
 10
93.1471109477
 20
90.0180580248
 30
0.0
 10
92.9803937018
 20
89.322288835
 30
0.0
 10
92.9229357073
 20
88.6196607843
 30
0.0
 10
92.9803942447
 20
87.9170328471
 30
0.0
 10
93.1471114942
 20
87.2212638171
 30
0.0
 10
93.4092662387
 20
86.5359302545
 30
0.0
 10
93.6333170172
 20
86.0932063361
 30
0.0
 10
93.7556303999
 20
85.873186477
 30
0.0
  0
SPLINE
  5
4C9
100
AcDbEntity
  8
0
100
AcDbSpline
 62
7
  6
CONTINUOUS
 70
0
 71
3
 72
11
 73
7
 74
0
 42
0.0000001
 43
0.0000001
 44
0.0000000001
 40
0.0
 40
0.0
 40
0.0
 40
0.0
 40
0.2540197871
 40
0.5051516038
 40
0.7535081325
 40
1.0
 40
1.0
 40
1.0
 40
1.0
 10
93.7213840785
 20
85.8730854711
 30
0.0
 10
93.6773740076
 20
85.8728216368
 30
0.0
 10
93.5893673623
 20
85.8839479366
 30
0.0
 10
93.4671138401
 20
85.9337519216
 30
0.0
 10
93.3631354113
 20
86.0129212572
 30
0.0
 10
93.309896432
 20
86.0815786749
 30
0.0
 10
93.2883713766
 20
86.1184639704
 30
0.0
  0
SPLINE
  5
4CA
100
AcDbEntity
  8
0
100
AcDbSpline
 62
7
  6
CONTINUOUS
 70
0
 71
3
 72
15
 73
11
 74
0
 42
0.0000001
 43
0.0000001
 44
0.0000000001
 40
0.0
 40
0.0
 40
0.0
 40
0.0
 40
0.1317131146
 40
0.259235354
 40
0.3829918267
 40
0.5041894537
 40
0.6247087102
 40
0.7465867209
 40
0.8714057344
 40
1.0
 40
1.0
 40
1.0
 40
1.0
 10
93.2883713766
 20
91.6053754244
 30
0.0
 10
93.1701632026
 20
91.3818100568
 30
0.0
 10
92.9544432753
 20
90.9324084037
 30
0.0
 10
92.7039011011
 20
90.2394559305
 30
0.0
 10
92.5455417155
 20
89.5397890774
 30
0.0
 10
92.4909564242
 20
88.8374870476
 30
0.0
 10
92.5449803071
 20
88.1387044749
 30
0.0
 10
92.7032319336
 20
87.4492540697
 30
0.0
 10
92.9540604381
 20
86.7720516003
 30
0.0
 10
93.1701275978
 20
86.3352129888
 30
0.0
 10
93.2883713766
 20
86.118463972
 30
0.0
  0
SPLINE
  5
4CB
100
AcDbEntity
  8
0
100
AcDbSpline
 62
7
  6
CONTINUOUS
 70
0
 71
3
 72
10
 73
6
 74
0
 42
0.0000001
 43
0.0000001
 44
0.0000000001
 40
0.0
 40
0.0
 40
0.0
 40
0.0
 40
0.2656773118
 40
0.5262524997
 40
1.0
 40
1.0
 40
1.0
 40
1.0
 10
93.7213840785
 20
91.3681920938
 30
0.0
 10
93.6769981113
 20
91.3736210686
 30
0.0
 10
93.5898206109
 20
91.3930275948
 30
0.0
 10
93.4347365709
 20
91.4591351829
 30
0.0
 10
93.3347833252
 20
91.5405371771
 30
0.0
 10
93.2883713766
 20
91.6053754579
 30
0.0
  0
SPLINE
  5
4CC
100
AcDbEntity
  8
0
100
AcDbSpline
 62
7
  6
CONTINUOUS
 70
0
 71
3
 72
9
 73
5
 74
0
 42
0.0000001
 43
0.0000001
 44
0.0000000001
 40
0.0
 40
0.0
 40
0.0
 40
0.0
 40
0.2523215111
 40
1.0
 40
1.0
 40
1.0
 40
1.0
 10
140.8429231094
 20
92.9062177049
 30
0.0
 10
140.8496114344
 20
92.9062177049
 30
0.0
 10
140.8761169163
 20
92.9065812703
 30
0.0
 10
140.902606066
 20
92.908381011
 30
0.0
 10
140.922301223
 20
92.9105916096
 30
0.0
  0
SPLINE
  5
4CD
100
AcDbEntity
  8
0
100
AcDbSpline
 62
7
  6
CONTINUOUS
 70
0
 71
3
 72
9
 73
5
 74
0
 42
0.0000001
 43
0.0000001
 44
0.0000000001
 40
0.0
 40
0.0
 40
0.0
 40
0.0
 40
0.4309977401
 40
1.0
 40
1.0
 40
1.0
 40
1.0
 10
140.922301223
 20
87.0008362241
 30
0.0
 10
140.922301223
 20
87.007975025
 30
0.0
 10
140.9244634012
 20
87.0245023851
 30
0.0
 10
140.9284413361
 20
87.0405866073
 30
0.0
 10
140.9310195945
 20
87.0496517172
 30
0.0
  0
SPLINE
  5
4CE
100
AcDbEntity
  8
0
100
AcDbSpline
 62
7
  6
CONTINUOUS
 70
0
 71
3
 72
9
 73
5
 74
0
 42
0.0000001
 43
0.0000001
 44
0.0000000001
 40
0.0
 40
0.0
 40
0.0
 40
0.0
 40
0.2446877517
 40
1.0
 40
1.0
 40
1.0
 40
1.0
 10
140.9310195945
 20
87.0496517172
 30
0.0
 10
140.9238450785
 20
87.0490668044
 30
0.0
 10
140.8944556909
 20
87.0475641239
 30
0.0
 10
140.8649121986
 20
87.0495015469
 30
0.0
 10
140.8429231094
 20
87.0526970798
 30
0.0
  0
SPLINE
  5
4CF
100
AcDbEntity
  8
0
100
AcDbSpline
 62
7
  6
CONTINUOUS
 70
0
 71
3
 72
9
 73
5
 74
0
 42
0.0000001
 43
0.0000001
 44
0.0000000001
 40
0.0
 40
0.0
 40
0.0
 40
0.0
 40
0.2512555905
 40
1.0
 40
1.0
 40
1.0
 40
1.0
 10
140.9310195945
 20
87.0496517172
 30
0.0
 10
140.9626232953
 20
87.1607697611
 30
0.0
 10
141.0824996189
 20
87.6046607169
 30
0.0
 10
141.1772049908
 20
88.0554981443
 30
0.0
 10
141.2312476203
 20
88.3954955031
 30
0.0
  0
SPLINE
  5
4D0
100
AcDbEntity
  8
0
100
AcDbSpline
 62
7
  6
CONTINUOUS
 70
0
 71
3
 72
9
 73
5
 74
0
 42
0.0000001
 43
0.0000001
 44
0.0000000001
 40
0.0
 40
0.0
 40
0.0
 40
0.0
 40
0.2464959052
 40
1.0
 40
1.0
 40
1.0
 40
1.0
 10
141.2312476203
 20
88.3954955031
 30
0.0
 10
141.2245437146
 20
88.3946741063
 30
0.0
 10
141.197261591
 20
88.3920673736
 30
0.0
 10
141.1697188904
 20
88.3922987032
 30
0.0
 10
141.1491408921
 20
88.3939750939
 30
0.0
  0
SPLINE
  5
4D1
100
AcDbEntity
  8
0
100
AcDbSpline
 62
7
  6
CONTINUOUS
 70
0
 71
3
 72
9
 73
5
 74
0
 42
0.0000001
 43
0.0000001
 44
0.0000000001
 40
0.0
 40
0.0
 40
0.0
 40
0.0
 40
0.4919402287
 40
1.0
 40
1.0
 40
1.0
 40
1.0
 10
141.2324136644
 20
88.4023110961
 30
0.0
 10
141.2525071721
 20
88.5122315621
 30
0.0
 10
141.2920281249
 20
88.7359180039
 30
0.0
 10
141.3292132768
 20
88.9600023415
 30
0.0
 10
141.3491408921
 20
89.0736721961
 30
0.0
  0
SPLINE
  5
4D2
100
AcDbEntity
  8
0
100
AcDbSpline
 62
7
  6
CONTINUOUS
 70
0
 71
3
 72
10
 73
6
 74
0
 42
0.0000001
 43
0.0000001
 44
0.0000000001
 40
0.0
 40
0.0
 40
0.0
 40
0.0
 40
0.241062243
 40
0.4892606402
 40
1.0
 40
1.0
 40
1.0
 40
1.0
 10
141.3491408921
 20
90.903871381
 30
0.0
 10
141.3386935269
 20
90.9502495991
 30
0.0
 10
141.3191317947
 20
91.0447434131
 30
0.0
 10
141.280686946
 20
91.2381684863
 30
0.0
 10
141.2519350496
 20
91.3850540848
 30
0.0
 10
141.2324136644
 20
91.4838681828
 30
0.0
  0
SPLINE
  5
4D3
100
AcDbEntity
  8
GEOM
100
AcDbSpline
 62
7
  6
CONTINUOUS
 70
0
 71
3
 72
11
 73
7
 74
0
 42
0.0000001
 43
0.0000001
 44
0.0000000001
 40
0.0
 40
0.0
 40
0.0
 40
0.0
 40
0.2512107659
 40
0.5000029703
 40
0.7487919187
 40
1.0
 40
1.0
 40
1.0
 40
1.0
 10
136.207893042
 20
92.8168101936
 30
0.0
 10
136.3383654688
 20
92.3458504286
 30
0.0
 10
136.5458827118
 20
91.3924962152
 30
0.0
 10
136.6558467013
 20
89.9347425153
 30
0.0
 10
136.5458798244
 20
88.4769944391
 30
0.0
 10
136.33836426
 20
87.5236517719
 30
0.0
 10
136.2078930831
 20
87.0526970797
 30
0.0
  0
SPLINE
  5
4D4
100
AcDbEntity
  8
GEOM
100
AcDbSpline
 62
7
  6
CONTINUOUS
 70
0
 71
3
 72
9
 73
5
 74
0
 42
0.0000001
 43
0.0000001
 44
0.0000000001
 40
0.0
 40
0.0
 40
0.0
 40
0.0
 40
0.2513557082
 40
1.0
 40
1.0
 40
1.0
 40
1.0
 10
140.8429231094
 20
92.8168101946
 30
0.0
 10
140.8751057004
 20
92.7060829483
 30
0.0
 10
140.9972007129
 20
92.2638782434
 30
0.0
 10
141.0939123461
 20
91.8145027264
 30
0.0
 10
141.1491408921
 20
91.4755321805
 30
0.0
  0
SPLINE
  5
4D5
100
AcDbEntity
  8
GEOM
100
AcDbSpline
 62
7
  6
CONTINUOUS
 70
0
 71
3
 72
9
 73
5
 74
0
 42
0.0000001
 43
0.0000001
 44
0.0000000001
 40
0.0
 40
0.0
 40
0.0
 40
0.0
 40
0.2488267206
 40
1.0
 40
1.0
 40
1.0
 40
1.0
 10
141.1491408921
 20
88.3939750939
 30
0.0
 10
141.1307841403
 20
88.2813088726
 30
0.0
 10
141.0494481786
 20
87.8297625207
 30
0.0
 10
140.9391025494
 20
87.3836118811
 30
0.0
 10
140.8429231094
 20
87.0526970798
 30
0.0
  0
SPLINE
  5
4D6
100
AcDbEntity
  8
GEOM
100
AcDbSpline
 62
7
  6
CONTINUOUS
 70
0
 71
3
 72
11
 73
7
 74
0
 42
0.0000001
 43
0.0000001
 44
0.0000000001
 40
0.0
 40
0.0
 40
0.0
 40
0.0
 40
0.2500067579
 40
0.4999948834
 40
0.7499896752
 40
1.0
 40
1.0
 40
1.0
 40
1.0
 10
136.2078929479
 20
101.788771696
 30
0.0
 10
136.339305473
 20
101.1179320739
 30
0.0
 10
136.5467560323
 20
99.7644139299
 30
0.0
 10
136.6555872964
 20
97.7129521336
 30
0.0
 10
136.546758778
 20
95.6614803414
 30
0.0
 10
136.3393070228
 20
94.3079340061
 30
0.0
 10
136.2078928326
 20
93.6370847718
 30
0.0
  0
SPLINE
  5
4D7
100
AcDbEntity
  8
0
100
AcDbSpline
 62
7
  6
CONTINUOUS
 70
0
 71
3
 72
16
 73
12
 74
0
 42
0.0000001
 43
0.0000001
 44
0.0000000001
 40
0.0
 40
0.0
 40
0.0
 40
0.0
 40
0.008115914
 40
0.0218938627
 40
0.0711946039
 40
0.1509217052
 40
0.2612353847
 40
0.4018727897
 40
0.5723102754
 40
0.7719523019
 40
1.0
 40
1.0
 40
1.0
 40
1.0
 10
147.3415940564
 20
105.187915349
 30
0.0
 10
147.3441554
 20
105.1879167269
 30
0.0
 10
147.3503682241
 20
105.1831544729
 30
0.0
 10
147.3600215793
 20
105.1630751083
 30
0.0
 10
147.3714296704
 20
105.1189308607
 30
0.0
 10
147.383963181
 20
105.0446469952
 30
0.0
 10
147.3969544209
 20
104.9409767245
 30
0.0
 10
147.4100696775
 20
104.8086676794
 30
0.0
 10
147.4233016272
 20
104.6480126837
 30
0.0
 10
147.4365800989
 20
104.4597160487
 30
0.0
 10
147.4449169405
 20
104.3249942024
 30
0.0
 10
147.4491404945
 20
104.253147466
 30
0.0
  0
SPLINE
  5
4D8
100
AcDbEntity
  8
0
100
AcDbSpline
 62
7
  6
CONTINUOUS
 70
0
 71
3
 72
9
 73
5
 74
0
 42
0.0000001
 43
0.0000001
 44
0.0000000001
 40
0.0
 40
0.0
 40
0.0
 40
0.0
 40
0.2488245011
 40
1.0
 40
1.0
 40
1.0
 40
1.0
 10
141.2312476214
 20
91.490430264
 30
0.0
 10
141.2132773901
 20
91.6036733338
 30
0.0
 10
141.1336339215
 20
92.0575961081
 30
0.0
 10
141.0254605188
 20
92.5063555483
 30
0.0
 10
140.9310195908
 20
92.8393698359
 30
0.0
  0
SPLINE
  5
4D9
100
AcDbEntity
  8
0
100
AcDbSpline
 62
7
  6
CONTINUOUS
 70
0
 71
3
 72
42
 73
38
 74
0
 42
0.0000001
 43
0.0000001
 44
0.0000000001
 40
0.0
 40
0.0
 40
0.0
 40
0.0
 40
0.0008990044
 40
0.0017020488
 40
0.0027740142
 40
0.0057512722
 40
0.0098563388
 40
0.0150899106
 40
0.0214427521
 40
0.0289032541
 40
0.0374571277
 40
0.0577613208
 40
0.0821735905
 40
0.1104672839
 40
0.1423836325
 40
0.1776253683
 40
0.2158662691
 40
0.2567520577
 40
0.2999018796
 40
0.3913764064
 40
0.4868984865
 40
0.5829264776
 40
0.6759000221
 40
0.7623721736
 40
0.8021553753
 40
0.8391378012
 40
0.872975319
 40
0.9033543369
 40
0.9299951408
 40
0.9526497729
 40
0.9711139747
 40
0.9787200936
 40
0.9852211069
 40
0.9906034461
 40
0.9948575403
 40
0.9979841746
 40
1.0
 40
1.0
 40
1.0
 40
1.0
 10
146.0047517777
 20
105.1879275478
 30
0.0
 10
146.00923644
 20
105.1879303373
 30
0.0
 10
146.0155135533
 20
105.1793828018
 30
0.0
 10
146.0207597446
 20
105.1673597695
 30
0.0
 10
146.0284455747
 20
105.1439979051
 30
0.0
 10
146.0370252774
 20
105.1044284275
 30
0.0
 10
146.047037402
 20
105.0436921201
 30
0.0
 10
146.0570259078
 20
104.9660844438
 30
0.0
 10
146.0671421245
 20
104.8715909753
 30
0.0
 10
146.077282797
 20
104.7604755883
 30
0.0
 10
146.0916801257
 20
104.5798694173
 30
0.0
 10
146.1092159879
 20
104.3147016786
 30
0.0
 10
146.1293926893
 20
103.9510476934
 30
0.0
 10
146.1496465499
 20
103.5293944026
 30
0.0
 10
146.1699583443
 20
103.0536672656
 30
0.0
 10
146.1903075738
 20
102.5282797087
 30
0.0
 10
146.2106827601
 20
101.9581187336
 30
0.0
 10
146.2310764074
 20
101.3484857448
 30
0.0
 10
146.2588271942
 20
100.4733969876
 30
0.0
 10
146.2929705342
 20
99.3258237346
 30
0.0
 10
146.3332585937
 20
97.9145369361
 30
0.0
 10
146.3735488296
 20
96.4957692346
 30
0.0
 10
146.4137985531
 20
95.1221643501
 30
0.0
 10
146.4481177423
 20
94.029082665
 30
0.0
 10
146.4760817915
 20
93.2152543251
 30
0.0
 10
146.4964475759
 20
92.6638882947
 30
0.0
 10
146.5167812144
 20
92.1594678802
 30
0.0
 10
146.5370743915
 20
91.7066809699
 30
0.0
 10
146.557289799
 20
91.3097367905
 30
0.0
 10
146.577422208
 20
90.9723164271
 30
0.0
 10
146.5949581728
 20
90.7298701743
 30
0.0
 10
146.6094448772
 20
90.5680348671
 30
0.0
 10
146.6195481178
 20
90.4713263629
 30
0.0
 10
146.6296051897
 20
90.3914676327
 30
0.0
 10
146.6394909235
 20
90.328503835
 30
0.0
 10
146.6493044672
 20
90.2827497853
 30
0.0
 10
146.6569033766
 20
90.2579957007
 30
0.0
 10
146.6615507689
 20
90.2490781418
 30
0.0
  0
SPLINE
  5
4DA
100
AcDbEntity
  8
0
100
AcDbSpline
 62
7
  6
CONTINUOUS
 70
0
 71
3
 72
9
 73
5
 74
0
 42
0.0000001
 43
0.0000001
 44
0.0000000001
 40
0.0
 40
0.0
 40
0.0
 40
0.0
 40
0.2274723675
 40
1.0
 40
1.0
 40
1.0
 40
1.0
 10
140.9310195908
 20
92.8393698359
 30
0.0
 10
140.9295324686
 20
92.844613674
 30
0.0
 10
140.9240638342
 20
92.8679686
 30
0.0
 10
140.922301223
 20
92.8920805151
 30
0.0
 10
140.922301223
 20
92.9105916096
 30
0.0
  0
SPLINE
  5
4DB
100
AcDbEntity
  8
GEOM
100
AcDbSpline
 62
7
  6
CONTINUOUS
 70
0
 71
3
 72
9
 73
5
 74
0
 42
0.0000001
 43
0.0000001
 44
0.0000000001
 40
0.0
 40
0.0
 40
0.0
 40
0.0
 40
0.4978457276
 40
1.0
 40
1.0
 40
1.0
 40
1.0
 10
136.2078930953
 20
108.7129282296
 30
0.0
 10
136.1554162624
 20
108.7129282296
 30
0.0
 10
136.0479597152
 20
108.7429415794
 30
0.0
 10
135.972617144
 20
108.8249234102
 30
0.0
 10
135.9480854735
 20
108.8718263584
 30
0.0
  0
SPLINE
  5
4DC
100
AcDbEntity
  8
GEOM
100
AcDbSpline
 62
7
  6
CONTINUOUS
 70
0
 71
3
 72
9
 73
5
 74
0
 42
0.0000001
 43
0.0000001
 44
0.0000000001
 40
0.0
 40
0.0
 40
0.0
 40
0.0
 40
0.5095145777
 40
1.0
 40
1.0
 40
1.0
 40
1.0
 10
136.1862987824
 20
108.4347766681
 30
0.0
 10
136.1348249586
 20
108.4347766681
 30
0.0
 10
136.0321386664
 20
108.458795312
 30
0.0
 10
135.9529852342
 20
108.5297776469
 30
0.0
 10
135.9264911613
 20
108.5716513291
 30
0.0
  0
SPLINE
  5
4DD
100
AcDbEntity
  8
GEOM
100
AcDbSpline
 62
7
  6
CONTINUOUS
 70
0
 71
3
 72
9
 73
5
 74
0
 42
0.0000001
 43
0.0000001
 44
0.0000000001
 40
0.0
 40
0.0
 40
0.0
 40
0.0
 40
0.5071171037
 40
1.0
 40
1.0
 40
1.0
 40
1.0
 10
136.1862987824
 20
108.6932775752
 30
0.0
 10
136.1347541906
 20
108.6932775752
 30
0.0
 10
136.0313865668
 20
108.7182102292
 30
0.0
 10
135.9528224913
 20
108.7908324176
 30
0.0
 10
135.9264911613
 20
108.8334522477
 30
0.0
  0
SPLINE
  5
4DE
100
AcDbEntity
  8
GEOM
100
AcDbSpline
 62
7
  6
CONTINUOUS
 70
0
 71
3
 72
10
 73
6
 74
0
 42
0.0000001
 43
0.0000001
 44
0.0000000001
 40
0.0
 40
0.0
 40
0.0
 40
0.0
 40
0.2807683206
 40
0.5450231922
 40
1.0
 40
1.0
 40
1.0
 40
1.0
 10
136.2078930179
 20
108.3731593714
 30
0.0
 10
136.1819326469
 20
108.3695633058
 30
0.0
 10
136.1306049
 20
108.3673754995
 30
0.0
 10
136.0383829749
 20
108.3818760232
 30
0.0
 10
135.9750949511
 20
108.4167550105
 30
0.0
 10
135.9480853983
 20
108.449529388
 30
0.0
  0
SPLINE
  5
4DF
100
AcDbEntity
  8
GEOM
100
AcDbSpline
 62
7
  6
CONTINUOUS
 70
0
 71
3
 72
9
 73
5
 74
0
 42
0.0000001
 43
0.0000001
 44
0.0000000001
 40
0.0
 40
0.0
 40
0.0
 40
0.0
 40
0.2658808358
 40
1.0
 40
1.0
 40
1.0
 40
1.0
 10
136.2078930951
 20
102.6090462657
 30
0.0
 10
136.1812373262
 20
102.6127385587
 30
0.0
 10
136.0830003523
 20
102.6358846096
 30
0.0
 10
135.9894826479
 20
102.6956913262
 30
0.0
 10
135.9480854738
 20
102.7573921368
 30
0.0
  0
SPLINE
  5
4E0
100
AcDbEntity
  8
GEOM
100
AcDbSpline
 62
7
  6
CONTINUOUS
 70
0
 71
3
 72
10
 73
6
 74
0
 42
0.0000001
 43
0.0000001
 44
0.0000000001
 40
0.0
 40
0.0
 40
0.0
 40
0.0
 40
0.5630071304
 40
0.803697176
 40
1.0
 40
1.0
 40
1.0
 40
1.0
 10
136.1862987824
 20
101.8955623599
 30
0.0
 10
136.1360703263
 20
101.8955623599
 30
0.0
 10
136.0639102643
 20
101.9014747704
 30
0.0
 10
135.9774793554
 20
101.9240967407
 30
0.0
 10
135.9413985191
 20
101.939766466
 30
0.0
 10
135.9264911613
 20
101.9489576892
 30
0.0
  0
SPLINE
  5
4E1
100
AcDbEntity
  8
GEOM
100
AcDbSpline
 62
7
  6
CONTINUOUS
 70
0
 71
3
 72
10
 73
6
 74
0
 42
0.0000001
 43
0.0000001
 44
0.0000000001
 40
0.0
 40
0.0
 40
0.0
 40
0.0
 40
0.5588045019
 40
0.7999990253
 40
1.0
 40
1.0
 40
1.0
 40
1.0
 10
136.1862987824
 20
102.5196387556
 30
0.0
 10
136.1359978062
 20
102.5196387556
 30
0.0
 10
136.0634042903
 20
102.526542777
 30
0.0
 10
135.9770436185
 20
102.5525773568
 30
0.0
 10
135.9411806728
 20
102.5705927588
 30
0.0
 10
135.9264911613
 20
102.5810010176
 30
0.0
  0
SPLINE
  5
4E2
100
AcDbEntity
  8
GEOM
100
AcDbSpline
 62
7
  6
CONTINUOUS
 70
0
 71
3
 72
10
 73
6
 74
0
 42
0.0000001
 43
0.0000001
 44
0.0000000001
 40
0.0
 40
0.0
 40
0.0
 40
0.0
 40
0.5588045019
 40
0.7999990253
 40
1.0
 40
1.0
 40
1.0
 40
1.0
 10
136.1862987824
 20
92.9062177049
 30
0.0
 10
136.1359978062
 20
92.9062177049
 30
0.0
 10
136.0634042903
 20
92.8993136834
 30
0.0
 10
135.9770436185
 20
92.8732791037
 30
0.0
 10
135.9411806728
 20
92.8552637017
 30
0.0
 10
135.9264911613
 20
92.8448554429
 30
0.0
  0
SPLINE
  5
4E3
100
AcDbEntity
  8
GEOM
100
AcDbSpline
 62
7
  6
CONTINUOUS
 70
0
 71
3
 72
10
 73
6
 74
0
 42
0.0000001
 43
0.0000001
 44
0.0000000001
 40
0.0
 40
0.0
 40
0.0
 40
0.0
 40
0.5630071306
 40
0.8036971763
 40
1.0
 40
1.0
 40
1.0
 40
1.0
 10
136.1862987824
 20
93.5302941006
 30
0.0
 10
136.1360703263
 20
93.5302941006
 30
0.0
 10
136.0639102642
 20
93.52438169
 30
0.0
 10
135.9774793553
 20
93.5017597198
 30
0.0
 10
135.941398519
 20
93.4860899945
 30
0.0
 10
135.9264911613
 20
93.4768987713
 30
0.0
  0
SPLINE
  5
4E4
100
AcDbEntity
  8
GEOM
100
AcDbSpline
 62
7
  6
CONTINUOUS
 70
0
 71
3
 72
9
 73
5
 74
0
 42
0.0000001
 43
0.0000001
 44
0.0000000001
 40
0.0
 40
0.0
 40
0.0
 40
0.0
 40
0.2658808698
 40
1.0
 40
1.0
 40
1.0
 40
1.0
 10
136.2078930436
 20
92.8168101871
 30
0.0
 10
136.1812372857
 20
92.8131178304
 30
0.0
 10
136.0830003606
 20
92.7899715689
 30
0.0
 10
135.9894829078
 20
92.7301648951
 30
0.0
 10
135.9480854228
 20
92.6684643161
 30
0.0
  0
SPLINE
  5
4E5
100
AcDbEntity
  8
GEOM
100
AcDbSpline
 62
7
  6
CONTINUOUS
 70
0
 71
3
 72
10
 73
6
 74
0
 42
0.0000001
 43
0.0000001
 44
0.0000000001
 40
0.0
 40
0.0
 40
0.0
 40
0.0
 40
0.2807687378
 40
0.5450241887
 40
1.0
 40
1.0
 40
1.0
 40
1.0
 10
136.2078930835
 20
87.0526970815
 30
0.0
 10
136.1819326797
 20
87.0562930542
 30
0.0
 10
136.1306048653
 20
87.058480739
 30
0.0
 10
136.0383830907
 20
87.0439798151
 30
0.0
 10
135.9750950979
 20
87.0091012124
 30
0.0
 10
135.9480854621
 20
86.9763270643
 30
0.0
  0
SPLINE
  5
4E6
100
AcDbEntity
  8
GEOM
100
AcDbSpline
 62
7
  6
CONTINUOUS
 70
0
 71
3
 72
9
 73
5
 74
0
 42
0.0000001
 43
0.0000001
 44
0.0000000001
 40
0.0
 40
0.0
 40
0.0
 40
0.0
 40
0.5095145777
 40
1.0
 40
1.0
 40
1.0
 40
1.0
 10
136.1862987824
 20
86.9910797923
 30
0.0
 10
136.1348249586
 20
86.9910797923
 30
0.0
 10
136.0321386664
 20
86.9670611485
 30
0.0
 10
135.9529852342
 20
86.8960788135
 30
0.0
 10
135.9264911613
 20
86.8542051314
 30
0.0
  0
SPLINE
  5
4E7
100
AcDbEntity
  8
GEOM
100
AcDbSpline
 62
7
  6
CONTINUOUS
 70
0
 71
3
 72
9
 73
5
 74
0
 42
0.0000001
 43
0.0000001
 44
0.0000000001
 40
0.0
 40
0.0
 40
0.0
 40
0.0
 40
0.5071171034
 40
1.0
 40
1.0
 40
1.0
 40
1.0
 10
136.1862987824
 20
86.7325788853
 30
0.0
 10
136.1347541907
 20
86.7325788853
 30
0.0
 10
136.0313865668
 20
86.7076462314
 30
0.0
 10
135.9528224913
 20
86.6350240429
 30
0.0
 10
135.9264911613
 20
86.5924042128
 30
0.0
  0
SPLINE
  5
4E8
100
AcDbEntity
  8
GEOM
100
AcDbSpline
 62
7
  6
CONTINUOUS
 70
0
 71
3
 72
9
 73
5
 74
0
 42
0.0000001
 43
0.0000001
 44
0.0000000001
 40
0.0
 40
0.0
 40
0.0
 40
0.0
 40
0.4978456986
 40
1.0
 40
1.0
 40
1.0
 40
1.0
 10
136.2078930736
 20
86.7129282297
 30
0.0
 10
136.1554162445
 20
86.7129282297
 30
0.0
 10
136.0479596993
 20
86.6829148748
 30
0.0
 10
135.9726171324
 20
86.6009330478
 30
0.0
 10
135.9480854529
 20
86.5540301017
 30
0.0
  0
SPLINE
  5
4E9
100
AcDbEntity
  8
0
100
AcDbSpline
 62
7
  6
CONTINUOUS
 70
0
 71
3
 72
9
 73
5
 74
0
 42
0.0000001
 43
0.0000001
 44
0.0000000001
 40
0.0
 40
0.0
 40
0.0
 40
0.0
 40
0.2426551546
 40
1.0
 40
1.0
 40
1.0
 40
1.0
 10
140.922301223
 20
93.534100122
 30
0.0
 10
140.922301223
 20
93.5410080424
 30
0.0
 10
140.9230853134
 20
93.5694726177
 30
0.0
 10
140.9267746096
 20
93.5978411847
 30
0.0
 10
140.9310195933
 20
93.6189792908
 30
0.0
  0
LINE
  5
4EA
100
AcDbEntity
  8
0
100
AcDbLine
 62
7
  6
CONTINUOUS
 10
147.1532160492
 20
105.1767781847
 11
147.1558609404
 21
105.1711295293
  0
SPLINE
  5
4EB
100
AcDbEntity
  8
0
100
AcDbSpline
 62
7
  6
CONTINUOUS
 70
0
 71
3
 72
22
 73
18
 74
0
 42
0.0000001
 43
0.0000001
 44
0.0000000001
 40
0.0
 40
0.0
 40
0.0
 40
0.0
 40
0.0045812366
 40
0.0112019557
 40
0.0198821454
 40
0.0306223657
 40
0.0582275612
 40
0.0938376717
 40
0.137207938
 40
0.1880187798
 40
0.2459016319
 40
0.3104274162
 40
0.3811212138
 40
0.4574597564
 40
0.6247732635
 40
0.807421022
 40
1.0
 40
1.0
 40
1.0
 40
1.0
 10
147.1558609404
 20
105.1711295293
 30
0.0
 10
147.1597619807
 20
105.161946365
 30
0.0
 10
147.1665743802
 20
105.13840454
 30
0.0
 10
147.1753955549
 20
105.0960293023
 30
0.0
 10
147.1843050376
 20
105.0399893238
 30
0.0
 10
147.1974326175
 20
104.9384169664
 30
0.0
 10
147.2130698264
 20
104.7780760383
 30
0.0
 10
147.2309523739
 20
104.5466331209
 30
0.0
 10
147.2489327679
 20
104.2645267065
 30
0.0
 10
147.2670206523
 20
103.9338412018
 30
0.0
 10
147.2851557601
 20
103.5570229599
 30
0.0
 10
147.3033304869
 20
103.136859893
 30
0.0
 10
147.3215305671
 20
102.676469422
 30
0.0
 10
147.3465929087
 20
101.9923185743
 30
0.0
 10
147.377394202
 20
101.064395432
 30
0.0
 10
147.4134369917
 20
99.8833545864
 30
0.0
 10
147.4371132847
 20
99.0664968375
 30
0.0
 10
147.4491407157
 20
98.6472545009
 30
0.0
  0
LINE
  5
4EC
100
AcDbEntity
  8
0
100
AcDbLine
 62
7
  6
CONTINUOUS
 10
145.8163737751
 20
105.1767705573
 11
145.8183347516
 21
105.1726901753
  0
SPLINE
  5
4ED
100
AcDbEntity
  8
0
100
AcDbSpline
 62
7
  6
CONTINUOUS
 70
0
 71
3
 72
43
 73
39
 74
0
 42
0.0000001
 43
0.0000001
 44
0.0000000001
 40
0.0
 40
0.0
 40
0.0
 40
0.0
 40
0.0022169332
 40
0.0055440127
 40
0.00999446
 40
0.0155646437
 40
0.0222443132
 40
0.0300215132
 40
0.0487988431
 40
0.0717280028
 40
0.0986007747
 40
0.1291720281
 40
0.1631585467
 40
0.2002494695
 40
0.2401009465
 40
0.326595044
 40
0.4194542464
 40
0.5152565418
 40
0.6104709679
 40
0.7015879834
 40
0.744551372
 40
0.7852498487
 40
0.8233087227
 40
0.858375157
 40
0.8901281427
 40
0.9182735006
 40
0.9425539306
 40
0.9627482799
 40
0.9712541361
 40
0.9786733526
 40
0.9849916197
 40
0.9901957076
 40
0.9942773927
 40
0.9958978927
 40
0.9972397364
 40
0.9983062525
 40
0.9991051528
 40
1.0
 40
1.0
 40
1.0
 40
1.0
 10
145.8183347516
 20
105.1726901753
 30
0.0
 10
145.8228378147
 20
105.1625930003
 30
0.0
 10
145.8304306945
 20
105.1358338963
 30
0.0
 10
145.8402440271
 20
105.0870106891
 30
0.0
 10
145.8501369926
 20
105.0211396656
 30
0.0
 10
145.8601760867
 20
104.9384677509
 30
0.0
 10
145.8702617948
 20
104.8390951243
 30
0.0
 10
145.8846822104
 20
104.6739835216
 30
0.0
 10
145.9021684714
 20
104.427815483
 30
0.0
 10
145.9222505487
 20
104.0863992303
 30
0.0
 10
145.9424167117
 20
103.6860837325
 30
0.0
 10
145.962652492
 20
103.230569474
 30
0.0
 10
145.9829304725
 20
102.724054403
 30
0.0
 10
146.0032375466
 20
102.1712267399
 30
0.0
 10
146.0311067226
 20
101.3566489099
 30
0.0
 10
146.0653178967
 20
100.2640136966
 30
0.0
 10
146.1054542242
 20
98.8924064252
 30
0.0
 10
146.1456291507
 20
97.4772942904
 30
0.0
 10
146.1858004094
 20
96.0708739206
 30
0.0
 10
146.2198492627
 20
94.9278924435
 30
0.0
 10
146.2475209646
 20
94.0567135057
 30
0.0
 10
146.2678548834
 20
93.4500354425
 30
0.0
 10
146.288168572
 20
92.8827619992
 30
0.0
 10
146.3084579154
 20
92.3601291439
 30
0.0
 10
146.3287094309
 20
91.8869738568
 30
0.0
 10
146.3489020067
 20
91.4676591423
 30
0.0
 10
146.3690205556
 20
91.1060603065
 30
0.0
 10
146.3865030376
 20
90.842415773
 30
0.0
 10
146.4008569008
 20
90.6628593705
 30
0.0
 10
146.4109748739
 20
90.5523906647
 30
0.0
 10
146.4210376293
 20
90.4584646993
 30
0.0
 10
146.4310568215
 20
90.3812780856
 30
0.0
 10
146.4398092667
 20
90.327602713
 30
0.0
 10
146.447132582
 20
90.2931926451
 30
0.0
 10
146.4520977985
 20
90.2738160552
 30
0.0
 10
146.4572172154
 20
90.2583655239
 30
0.0
 10
146.4624408124
 20
90.2464080824
 30
0.0
 10
146.4687102055
 20
90.2379313252
 30
0.0
 10
146.4731727833
 20
90.2379365093
 30
0.0
  0
SPLINE
  5
4EE
100
AcDbEntity
  8
0
100
AcDbSpline
 62
7
  6
CONTINUOUS
 70
0
 71
3
 72
9
 73
5
 74
0
 42
0.0000001
 43
0.0000001
 44
0.0000000001
 40
0.0
 40
0.0
 40
0.0
 40
0.0
 40
0.5007066007
 40
1.0
 40
1.0
 40
1.0
 40
1.0
 10
141.2324136644
 20
95.5339383176
 30
0.0
 10
141.2522374776
 20
95.6815751816
 30
0.0
 10
141.2911102951
 20
95.9765264141
 30
0.0
 10
141.3286292719
 20
96.2716635855
 30
0.0
 10
141.3491408921
 20
96.4187819757
 30
0.0
  0
SPLINE
  5
4EF
100
AcDbEntity
  8
0
100
AcDbSpline
 62
7
  6
CONTINUOUS
 70
0
 71
3
 72
9
 73
5
 74
0
 42
0.0000001
 43
0.0000001
 44
0.0000000001
 40
0.0
 40
0.0
 40
0.0
 40
0.0
 40
0.4992933992
 40
1.0
 40
1.0
 40
1.0
 40
1.0
 10
141.3491408921
 20
99.0070744848
 30
0.0
 10
141.3286292719
 20
99.154192875
 30
0.0
 10
141.2911102951
 20
99.4493300464
 30
0.0
 10
141.2522374776
 20
99.7442812788
 30
0.0
 10
141.2324136644
 20
99.8919181428
 30
0.0
  0
SPLINE
  5
4F0
100
AcDbEntity
  8
0
100
AcDbSpline
 62
7
  6
CONTINUOUS
 70
0
 71
3
 72
9
 73
5
 74
0
 42
0.0000001
 43
0.0000001
 44
0.0000000001
 40
0.0
 40
0.0
 40
0.0
 40
0.0
 40
0.2552803257
 40
1.0
 40
1.0
 40
1.0
 40
1.0
 10
140.9310195941
 20
101.8068771657
 30
0.0
 10
140.9295887668
 20
101.8140020405
 30
0.0
 10
140.9246507783
 20
101.8420386309
 30
0.0
 10
140.922301223
 20
101.8705562283
 30
0.0
 10
140.922301223
 20
101.8917563385
 30
0.0
  0
SPLINE
  5
4F1
100
AcDbEntity
  8
0
100
AcDbSpline
 62
7
  6
CONTINUOUS
 70
0
 71
3
 72
9
 73
5
 74
0
 42
0.0000001
 43
0.0000001
 44
0.0000000001
 40
0.0
 40
0.0
 40
0.0
 40
0.0
 40
0.2712976041
 40
1.0
 40
1.0
 40
1.0
 40
1.0
 10
140.922301223
 20
102.5152648509
 30
0.0
 10
140.922301223
 20
102.5217642607
 30
0.0
 10
140.922959973
 20
102.5456987017
 30
0.0
 10
140.9262566199
 20
102.5696916074
 30
0.0
 10
140.9310195935
 20
102.5864866344
 30
0.0
  0
SPLINE
  5
4F2
100
AcDbEntity
  8
0
100
AcDbSpline
 62
7
  6
CONTINUOUS
 70
0
 71
3
 72
9
 73
5
 74
0
 42
0.0000001
 43
0.0000001
 44
0.0000000001
 40
0.0
 40
0.0
 40
0.0
 40
0.0
 40
0.2513514594
 40
1.0
 40
1.0
 40
1.0
 40
1.0
 10
140.9310195935
 20
102.5864866344
 30
0.0
 10
140.9626198701
 20
102.6979143965
 30
0.0
 10
141.0824508847
 20
103.1428594461
 30
0.0
 10
141.1771810303
 20
103.5947145067
 30
0.0
 10
141.2312476206
 20
103.9354261913
 30
0.0
  0
SPLINE
  5
4F3
100
AcDbEntity
  8
0
100
AcDbSpline
 62
7
  6
CONTINUOUS
 70
0
 71
3
 72
42
 73
38
 74
0
 42
0.0000001
 43
0.0000001
 44
0.0000000001
 40
0.0
 40
0.0
 40
0.0
 40
0.0
 40
0.0008988751
 40
0.0017013339
 40
0.0027728437
 40
0.0057508679
 40
0.0098566278
 40
0.0150890878
 40
0.0214418231
 40
0.0289035897
 40
0.0374568077
 40
0.0577613112
 40
0.0821727003
 40
0.110467602
 40
0.1423828567
 40
0.1776253188
 40
0.2158661663
 40
0.2567516641
 40
0.2999020947
 40
0.3913765325
 40
0.4868986104
 40
0.5829267497
 40
0.6759002185
 40
0.7623720672
 40
0.8021562155
 40
0.8391378276
 40
0.872975871
 40
0.9033549757
 40
0.9299949975
 40
0.9526509562
 40
0.9711138223
 40
0.9787210763
 40
0.9852219845
 40
0.9906031374
 40
0.9948580808
 40
0.9979854158
 40
1.0
 40
1.0
 40
1.0
 40
1.0
 10
144.6679102781
 20
105.1879187809
 30
0.0
 10
144.6723942893
 20
105.1879139191
 30
0.0
 10
144.6786696833
 20
105.1793824411
 30
0.0
 10
144.6839195674
 20
105.1673623588
 30
0.0
 10
144.6916069883
 20
105.1440044885
 30
0.0
 10
144.7001822967
 20
105.1044273419
 30
0.0
 10
144.7101939802
 20
105.0436901805
 30
0.0
 10
144.7201858939
 20
104.9660853189
 30
0.0
 10
144.730301634
 20
104.8715917335
 30
0.0
 10
144.7404396576
 20
104.7604736653
 30
0.0
 10
144.7548403285
 20
104.5798633526
 30
0.0
 10
144.772373199
 20
104.3147017534
 30
0.0
 10
144.7925526904
 20
103.9510450966
 30
0.0
 10
144.8128037931
 20
103.5293958763
 30
0.0
 10
144.8331179046
 20
103.0536650892
 30
0.0
 10
144.8534657131
 20
102.5282800582
 30
0.0
 10
144.8738413514
 20
101.9581177219
 30
0.0
 10
144.8942352734
 20
101.3484839834
 30
0.0
 10
144.9219854336
 20
100.4733948728
 30
0.0
 10
144.9561292672
 20
99.3258201126
 30
0.0
 10
144.9964172054
 20
97.9145343296
 30
0.0
 10
145.0367074598
 20
96.4957675899
 30
0.0
 10
145.0769568739
 20
95.1221651134
 30
0.0
 10
145.1112771145
 20
94.0290816391
 30
0.0
 10
145.1392397234
 20
93.2152548498
 30
0.0
 10
145.1596066693
 20
92.6638860836
 30
0.0
 10
145.1799397719
 20
92.1594671252
 30
0.0
 10
145.2002321743
 20
91.7066814324
 30
0.0
 10
145.2204501312
 20
91.3097346224
 30
0.0
 10
145.2405781715
 20
90.9723182306
 30
0.0
 10
145.2581192295
 20
90.7298669621
 30
0.0
 10
145.2726026609
 20
90.5680330633
 30
0.0
 10
145.2827050837
 20
90.4713253169
 30
0.0
 10
145.2927658908
 20
90.3914693344
 30
0.0
 10
145.3026508188
 20
90.3285037472
 30
0.0
 10
145.3124580566
 20
90.2827469074
 30
0.0
 10
145.3200612544
 20
90.2579963292
 30
0.0
 10
145.3247092741
 20
90.249086091
 30
0.0
  0
SPLINE
  5
4F4
100
AcDbEntity
  8
0
100
AcDbSpline
 62
7
  6
CONTINUOUS
 70
0
 71
3
 72
10
 73
6
 74
0
 42
0.0000001
 43
0.0000001
 44
0.0000000001
 40
0.0
 40
0.0
 40
0.0
 40
0.0
 40
0.5107390494
 40
0.7589377139
 40
1.0
 40
1.0
 40
1.0
 40
1.0
 10
141.2324136644
 20
103.9419882777
 30
0.0
 10
141.2519350378
 20
104.0408023157
 30
0.0
 10
141.2806871231
 20
104.1876878679
 30
0.0
 10
141.3191316598
 20
104.3811130041
 30
0.0
 10
141.338693525
 20
104.4756068531
 30
0.0
 10
141.3491408921
 20
104.5219850795
 30
0.0
  0
SPLINE
  5
4F5
100
AcDbEntity
  8
GEOM
100
AcDbSpline
 62
7
  6
CONTINUOUS
 70
0
 71
3
 72
11
 73
7
 74
0
 42
0.0000001
 43
0.0000001
 44
0.0000000001
 40
0.0
 40
0.0
 40
0.0
 40
0.0
 40
0.3456149074
 40
0.605059641
 40
0.8051569303
 40
1.0
 40
1.0
 40
1.0
 40
1.0
 10
135.9264911613
 20
108.8334522477
 30
0.0
 10
135.9264911778
 20
108.8391181788
 30
0.0
 10
135.9270904041
 20
108.8490618347
 30
0.0
 10
135.9307297483
 20
108.8619507006
 30
0.0
 10
135.9381037461
 20
108.8705118323
 30
0.0
 10
135.9448919248
 20
108.8718915003
 30
0.0
 10
135.9480854728
 20
108.8718263583
 30
0.0
  0
SPLINE
  5
4F6
100
AcDbEntity
  8
GEOM
100
AcDbSpline
 62
7
  6
CONTINUOUS
 70
0
 71
3
 72
10
 73
6
 74
0
 42
0.0000001
 43
0.0000001
 44
0.0000000001
 40
0.0
 40
0.0
 40
0.0
 40
0.0
 40
0.2681189166
 40
0.4946237976
 40
1.0
 40
1.0
 40
1.0
 40
1.0
 10
136.1862987824
 20
108.6932775752
 30
0.0
 10
136.1862988991
 20
108.6962223408
 30
0.0
 10
136.1869398349
 20
108.701764333
 30
0.0
 10
136.193287505
 20
108.7113511982
 30
0.0
 10
136.2023425181
 20
108.7129282445
 30
0.0
 10
136.2078930941
 20
108.7129282302
 30
0.0
  0
SPLINE
  5
4F7
100
AcDbEntity
  8
GEOM
100
AcDbSpline
 62
7
  6
CONTINUOUS
 70
0
 71
3
 72
9
 73
5
 74
0
 42
0.0000001
 43
0.0000001
 44
0.0000000001
 40
0.0
 40
0.0
 40
0.0
 40
0.0
 40
0.5693670811
 40
1.0
 40
1.0
 40
1.0
 40
1.0
 10
135.9480858242
 20
108.4495280412
 30
0.0
 10
135.9417481622
 20
108.472244131
 30
0.0
 10
135.931927935
 20
108.5124895748
 30
0.0
 10
135.9264910795
 20
108.5538141912
 30
0.0
 10
135.9264911613
 20
108.5716513291
 30
0.0
  0
SPLINE
  5
4F8
100
AcDbEntity
  8
GEOM
100
AcDbSpline
 62
7
  6
CONTINUOUS
 70
0
 71
3
 72
9
 73
5
 74
0
 42
0.0000001
 43
0.0000001
 44
0.0000000001
 40
0.0
 40
0.0
 40
0.0
 40
0.0
 40
0.575721954
 40
1.0
 40
1.0
 40
1.0
 40
1.0
 10
136.2078930954
 20
108.373159379
 30
0.0
 10
136.2017868684
 20
108.3841951206
 30
0.0
 10
136.1921381636
 20
108.4038235517
 30
0.0
 10
136.1862990864
 20
108.4254819371
 30
0.0
 10
136.1862987824
 20
108.4347766681
 30
0.0
  0
SPLINE
  5
4F9
100
AcDbEntity
  8
GEOM
100
AcDbSpline
 62
7
  6
CONTINUOUS
 70
0
 71
3
 72
9
 73
5
 74
0
 42
0.0000001
 43
0.0000001
 44
0.0000000001
 40
0.0
 40
0.0
 40
0.0
 40
0.0
 40
0.2721562141
 40
1.0
 40
1.0
 40
1.0
 40
1.0
 10
135.9264911613
 20
102.5810010176
 30
0.0
 10
135.9264911639
 20
102.597148718
 30
0.0
 10
135.9281251544
 20
102.6564302386
 30
0.0
 10
135.9363927409
 20
102.715820454
 30
0.0
 10
135.9480854721
 20
102.7573921313
 30
0.0
  0
SPLINE
  5
4FA
100
AcDbEntity
  8
GEOM
100
AcDbSpline
 62
7
  6
CONTINUOUS
 70
0
 71
3
 72
9
 73
5
 74
0
 42
0.0000001
 43
0.0000001
 44
0.0000000001
 40
0.0
 40
0.0
 40
0.0
 40
0.0
 40
0.2698585928
 40
1.0
 40
1.0
 40
1.0
 40
1.0
 10
136.1862987824
 20
102.5196387556
 30
0.0
 10
136.1862988497
 20
102.5279620815
 30
0.0
 10
136.1879459742
 20
102.5587586586
 30
0.0
 10
136.1969980521
 20
102.5893400072
 30
0.0
 10
136.2078981452
 20
102.609046265
 30
0.0
  0
SPLINE
  5
4FB
100
AcDbEntity
  8
GEOM
100
AcDbSpline
 62
7
  6
CONTINUOUS
 70
0
 71
3
 72
9
 73
5
 74
0
 42
0.0000001
 43
0.0000001
 44
0.0000000001
 40
0.0
 40
0.0
 40
0.0
 40
0.0
 40
0.2553286067
 40
1.0
 40
1.0
 40
1.0
 40
1.0
 10
135.9480863637
 20
101.7378720355
 30
0.0
 10
135.9445744661
 20
101.7556022851
 30
0.0
 10
135.9323941752
 20
101.8253359688
 30
0.0
 10
135.9264910636
 20
101.8962424047
 30
0.0
 10
135.9264911613
 20
101.9489576892
 30
0.0
  0
SPLINE
  5
4FC
100
AcDbEntity
  8
GEOM
100
AcDbSpline
 62
7
  6
CONTINUOUS
 70
0
 71
3
 72
9
 73
5
 74
0
 42
0.0000001
 43
0.0000001
 44
0.0000000001
 40
0.0
 40
0.0
 40
0.0
 40
0.0
 40
0.2556973436
 40
1.0
 40
1.0
 40
1.0
 40
1.0
 10
136.2078930963
 20
101.788771696
 30
0.0
 10
136.2044991568
 20
101.79744621
 30
0.0
 10
136.1925212799
 20
101.8318356143
 30
0.0
 10
136.1862991778
 20
101.8684480728
 30
0.0
 10
136.1862987824
 20
101.8955623599
 30
0.0
  0
SPLINE
  5
4FD
100
AcDbEntity
  8
GEOM
100
AcDbSpline
 62
7
  6
CONTINUOUS
 70
0
 71
3
 72
9
 73
5
 74
0
 42
0.0000001
 43
0.0000001
 44
0.0000000001
 40
0.0
 40
0.0
 40
0.0
 40
0.0
 40
0.2427893574
 40
1.0
 40
1.0
 40
1.0
 40
1.0
 10
135.9264911613
 20
93.4768987713
 30
0.0
 10
135.9264911804
 20
93.4940872001
 30
0.0
 10
135.9284562626
 20
93.5648761476
 30
0.0
 10
135.9376710004
 20
93.6354062206
 30
0.0
 10
135.9480876351
 20
93.687991648
 30
0.0
  0
SPLINE
  5
4FE
100
AcDbEntity
  8
GEOM
100
AcDbSpline
 62
7
  6
CONTINUOUS
 70
0
 71
3
 72
9
 73
5
 74
0
 42
0.0000001
 43
0.0000001
 44
0.0000000001
 40
0.0
 40
0.0
 40
0.0
 40
0.0
 40
0.2431220703
 40
1.0
 40
1.0
 40
1.0
 40
1.0
 10
136.1862987824
 20
93.5302941006
 30
0.0
 10
136.1862989161
 20
93.5391537829
 30
0.0
 10
136.1883276028
 20
93.5755930142
 30
0.0
 10
136.1978448278
 20
93.6113986387
 30
0.0
 10
136.2078930989
 20
93.6370847718
 30
0.0
  0
SPLINE
  5
4FF
100
AcDbEntity
  8
GEOM
100
AcDbSpline
 62
7
  6
CONTINUOUS
 70
0
 71
3
 72
9
 73
5
 74
0
 42
0.0000001
 43
0.0000001
 44
0.0000000001
 40
0.0
 40
0.0
 40
0.0
 40
0.0
 40
0.2271065339
 40
1.0
 40
1.0
 40
1.0
 40
1.0
 10
135.9480856437
 20
92.6684636043
 30
0.0
 10
135.9444367398
 20
92.6814374746
 30
0.0
 10
135.9309112016
 20
92.7392777422
 30
0.0
 10
135.9264910897
 20
92.7989894558
 30
0.0
 10
135.9264911613
 20
92.8448554429
 30
0.0
  0
SPLINE
  5
500
100
AcDbEntity
  8
GEOM
100
AcDbSpline
 62
7
  6
CONTINUOUS
 70
0
 71
3
 72
9
 73
5
 74
0
 42
0.0000001
 43
0.0000001
 44
0.0000000001
 40
0.0
 40
0.0
 40
0.0
 40
0.0
 40
0.2327080048
 40
1.0
 40
1.0
 40
1.0
 40
1.0
 10
136.2078977964
 20
92.8168101936
 30
0.0
 10
136.2044228842
 20
92.8230919478
 30
0.0
 10
136.1912845055
 20
92.8510817811
 30
0.0
 10
136.1862989838
 20
92.8825474801
 30
0.0
 10
136.1862987824
 20
92.9062177049
 30
0.0
  0
SPLINE
  5
501
100
AcDbEntity
  8
GEOM
100
AcDbSpline
 62
7
  6
CONTINUOUS
 70
0
 71
3
 72
9
 73
5
 74
0
 42
0.0000001
 43
0.0000001
 44
0.0000000001
 40
0.0
 40
0.0
 40
0.0
 40
0.0
 40
0.4306324989
 40
1.0
 40
1.0
 40
1.0
 40
1.0
 10
135.9264911613
 20
86.8542051314
 30
0.0
 10
135.9264912066
 20
86.8720420717
 30
0.0
 10
135.9319280707
 20
86.9133662082
 30
0.0
 10
135.9417475006
 20
86.9536114504
 30
0.0
 10
135.9480855123
 20
86.9763272134
 30
0.0
  0
SPLINE
  5
502
100
AcDbEntity
  8
GEOM
100
AcDbSpline
 62
7
  6
CONTINUOUS
 70
0
 71
3
 72
9
 73
5
 74
0
 42
0.0000001
 43
0.0000001
 44
0.0000000001
 40
0.0
 40
0.0
 40
0.0
 40
0.0
 40
0.424275096
 40
1.0
 40
1.0
 40
1.0
 40
1.0
 10
136.1862987824
 20
86.9910797923
 30
0.0
 10
136.1862991032
 20
87.0003744566
 30
0.0
 10
136.1921379892
 20
87.0220329484
 30
0.0
 10
136.2017875163
 20
87.0416609086
 30
0.0
 10
136.2078930945
 20
87.0526970797
 30
0.0
  0
SPLINE
  5
503
100
AcDbEntity
  8
GEOM
100
AcDbSpline
 62
7
  6
CONTINUOUS
 70
0
 71
3
 72
11
 73
7
 74
0
 42
0.0000001
 43
0.0000001
 44
0.0000000001
 40
0.0
 40
0.0
 40
0.0
 40
0.0
 40
0.1948432082
 40
0.3949401226
 40
0.6543854195
 40
1.0
 40
1.0
 40
1.0
 40
1.0
 10
135.948085545
 20
86.5540300872
 30
0.0
 10
135.9448919898
 20
86.5539649566
 30
0.0
 10
135.9381038288
 20
86.5553446349
 30
0.0
 10
135.9307297032
 20
86.5639056858
 30
0.0
 10
135.9270904532
 20
86.5767946223
 30
0.0
 10
135.9264911697
 20
86.5867382789
 30
0.0
 10
135.9264911613
 20
86.5924042128
 30
0.0
  0
SPLINE
  5
504
100
AcDbEntity
  8
GEOM
100
AcDbSpline
 62
7
  6
CONTINUOUS
 70
0
 71
3
 72
10
 73
6
 74
0
 42
0.0000001
 43
0.0000001
 44
0.0000000001
 40
0.0
 40
0.0
 40
0.0
 40
0.0
 40
0.505376572
 40
0.7318812066
 40
1.0
 40
1.0
 40
1.0
 40
1.0
 10
136.2078930947
 20
86.7129282302
 30
0.0
 10
136.2023425141
 20
86.7129282191
 30
0.0
 10
136.1932874885
 20
86.7145052565
 30
0.0
 10
136.1869398408
 20
86.7240921342
 30
0.0
 10
136.1862988889
 20
86.7296341208
 30
0.0
 10
136.1862987824
 20
86.7325788853
 30
0.0
  0
SPLINE
  5
505
100
AcDbEntity
  8
0
100
AcDbSpline
 62
7
  6
CONTINUOUS
 70
0
 71
3
 72
43
 73
39
 74
0
 42
0.0000001
 43
0.0000001
 44
0.0000000001
 40
0.0
 40
0.0
 40
0.0
 40
0.0
 40
0.0008982598
 40
0.0017010478
 40
0.0027732929
 40
0.0041226332
 40
0.0057522959
 40
0.0098568785
 40
0.0150896749
 40
0.021443434
 40
0.0289042475
 40
0.0374569507
 40
0.0577623932
 40
0.0821735699
 40
0.1104679823
 40
0.142384149
 40
0.1776254803
 40
0.2158671185
 40
0.2567522087
 40
0.2999025921
 40
0.3913768666
 40
0.4868989767
 40
0.5829269761
 40
0.6759003624
 40
0.7623724695
 40
0.8021560673
 40
0.8391385936
 40
0.8729755648
 40
0.9033555611
 40
0.9299951978
 40
0.9526507131
 40
0.9711146639
 40
0.9787213684
 40
0.9852214117
 40
0.9906036266
 40
0.9948588949
 40
0.9979849006
 40
1.0
 40
1.0
 40
1.0
 40
1.0
 10
143.3310675825
 20
105.1879167893
 30
0.0
 10
143.3355485285
 20
105.1879206005
 30
0.0
 10
143.3418341313
 20
105.1793897088
 30
0.0
 10
143.3470721641
 20
105.1673702514
 30
0.0
 10
143.3522061203
 20
105.1518267111
 30
0.0
 10
143.3571859221
 20
105.1323334032
 30
0.0
 10
143.3645307601
 20
105.0977148643
 30
0.0
 10
143.3733091344
 20
105.0437203446
 30
0.0
 10
143.3833595988
 20
104.9660759041
 30
0.0
 10
143.3934515901
 20
104.8715937369
 30
0.0
 10
143.4035994745
 20
104.7604734077
 30
0.0
 10
143.4179970654
 20
104.5798675715
 30
0.0
 10
143.4355302383
 20
104.3147034444
 30
0.0
 10
143.4557098491
 20
103.9510458877
 30
0.0
 10
143.4759618299
 20
103.5293951937
 30
0.0
 10
143.4962743034
 20
103.0536676046
 30
0.0
 10
143.5166239414
 20
102.5282794153
 30
0.0
 10
143.5369981694
 20
101.9581203751
 30
0.0
 10
143.557392861
 20
101.3484845703
 30
0.0
 10
143.5851427111
 20
100.4733979379
 30
0.0
 10
143.6192867678
 20
99.3258232925
 30
0.0
 10
143.6595745871
 20
97.9145378971
 30
0.0
 10
143.6998648712
 20
96.4957711402
 30
0.0
 10
143.7401146299
 20
95.1221675598
 30
0.0
 10
143.7744340245
 20
94.0290851801
 30
0.0
 10
143.8023978979
 20
93.2152547763
 30
0.0
 10
143.822763294
 20
92.6638891122
 30
0.0
 10
143.8430982465
 20
92.1594662228
 30
0.0
 10
143.8633892054
 20
91.706682985
 30
0.0
 10
143.8836074291
 20
91.3097355928
 30
0.0
 10
143.9037370362
 20
90.9723177942
 30
0.0
 10
143.9212758681
 20
90.7298657486
 30
0.0
 10
143.9357596201
 20
90.5680333893
 30
0.0
 10
143.9458646669
 20
90.4713276401
 30
0.0
 10
143.9559236004
 20
90.3914687541
 30
0.0
 10
143.9658048089
 20
90.3285023337
 30
0.0
 10
143.9756184686
 20
90.2827486224
 30
0.0
 10
143.9832213827
 20
90.2580033752
 30
0.0
 10
143.9878669559
 20
90.2490889549
 30
0.0
  0
SPLINE
  5
506
100
AcDbEntity
  8
0
100
AcDbSpline
 62
7
  6
CONTINUOUS
 70
0
 71
3
 72
9
 73
5
 74
0
 42
0.0000001
 43
0.0000001
 44
0.0000000001
 40
0.0
 40
0.0
 40
0.0
 40
0.0
 40
0.5080597719
 40
1.0
 40
1.0
 40
1.0
 40
1.0
 10
141.3491408921
 20
106.3521842644
 30
0.0
 10
141.3292132768
 20
106.4658541191
 30
0.0
 10
141.2920281073
 20
106.6899384537
 30
0.0
 10
141.2525071721
 20
106.9136248986
 30
0.0
 10
141.2324136644
 20
107.0235453644
 30
0.0
  0
LINE
  5
507
100
AcDbEntity
  8
0
100
AcDbLine
 62
7
  6
CONTINUOUS
 10
141.2324136644
 20
86.7247171177
 11
141.2312476214
 21
86.7245378629
  0
SPLINE
  5
508
100
AcDbEntity
  8
0
100
AcDbSpline
 62
7
  6
CONTINUOUS
 70
0
 71
3
 72
42
 73
38
 74
0
 42
0.0000001
 43
0.0000001
 44
0.0000000001
 40
0.0
 40
0.0
 40
0.0
 40
0.0
 40
0.0008988196
 40
0.0017017835
 40
0.0027736558
 40
0.0057508811
 40
0.0098562756
 40
0.0150897431
 40
0.0214423836
 40
0.0289030958
 40
0.0374570273
 40
0.0577610255
 40
0.0821733739
 40
0.1104671885
 40
0.1423833358
 40
0.1776252812
 40
0.2158660132
 40
0.2567519057
 40
0.2999017534
 40
0.3913763017
 40
0.486898378
 40
0.5829263981
 40
0.6758999755
 40
0.7623720567
 40
0.8021553672
 40
0.839137615
 40
0.8729753718
 40
0.9033542126
 40
0.9299950822
 40
0.9526497836
 40
0.9711137613
 40
0.9787200185
 40
0.9852212073
 40
0.9906032935
 40
0.9948573762
 40
0.9979842353
 40
1.0
 40
1.0
 40
1.0
 40
1.0
 10
141.9942257203
 20
105.1879282302
 30
0.0
 10
141.9987094605
 20
105.1879282302
 30
0.0
 10
142.0049796959
 20
105.1793791084
 30
0.0
 10
142.0102277395
 20
105.1673589785
 30
0.0
 10
142.0179150374
 20
105.1439985222
 30
0.0
 10
142.0264995513
 20
105.1044292039
 30
0.0
 10
142.0365124028
 20
105.043691894
 30
0.0
 10
142.0465016733
 20
104.966084271
 30
0.0
 10
142.0566170239
 20
104.8715911706
 30
0.0
 10
142.0667561543
 20
104.760475337
 30
0.0
 10
142.0811533571
 20
104.5798688235
 30
0.0
 10
142.0986902234
 20
104.3147014881
 30
0.0
 10
142.1188666874
 20
103.9510475201
 30
0.0
 10
142.1391202101
 20
103.5293942928
 30
0.0
 10
142.1594323909
 20
103.0536666044
 30
0.0
 10
142.1797812729
 20
102.528279922
 30
0.0
 10
142.2001567242
 20
101.9581183288
 30
0.0
 10
142.2205501967
 20
101.3484856301
 30
0.0
 10
142.248301036
 20
100.4733962654
 30
0.0
 10
142.2824443315
 20
99.3258229845
 30
0.0
 10
142.3227323959
 20
97.9145361874
 30
0.0
 10
142.3630226231
 20
96.4957684313
 30
0.0
 10
142.4032722498
 20
95.1221638136
 30
0.0
 10
142.4375916162
 20
94.0290819598
 30
0.0
 10
142.4655554025
 20
93.2152544422
 30
0.0
 10
142.485921501
 20
92.6638876686
 30
0.0
 10
142.5062547484
 20
92.159467902
 30
0.0
 10
142.5265482148
 20
91.7066804423
 30
0.0
 10
142.5467635658
 20
91.3097365378
 30
0.0
 10
142.566895662
 20
90.9723166577
 30
0.0
 10
142.5844320961
 20
90.7298705552
 30
0.0
 10
142.5989187187
 20
90.5680348326
 30
0.0
 10
142.6090213027
 20
90.4713259495
 30
0.0
 10
142.6190791214
 20
90.3914678121
 30
0.0
 10
142.6289649599
 20
90.3285041396
 30
0.0
 10
142.6387781624
 20
90.2827495353
 30
0.0
 10
142.646376112
 20
90.2579939156
 30
0.0
 10
142.6510244488
 20
90.2490771922
 30
0.0
  0
SPLINE
  5
509
100
AcDbEntity
  8
0
100
AcDbSpline
 62
7
  6
CONTINUOUS
 70
0
 71
3
 72
11
 73
7
 74
0
 42
0.0000001
 43
0.0000001
 44
0.0000000001
 40
0.0
 40
0.0
 40
0.0
 40
0.0
 40
0.1952013997
 40
0.3975991406
 40
0.6579472801
 40
1.0
 40
1.0
 40
1.0
 40
1.0
 10
140.9310195903
 20
86.7267268998
 30
0.0
 10
140.9297128899
 20
86.7267363082
 30
0.0
 10
140.9269478218
 20
86.7274079176
 30
0.0
 10
140.9240091694
 20
86.7309781331
 30
0.0
 10
140.9225450485
 20
86.7362372679
 30
0.0
 10
140.922301223
 20
86.7402807429
 30
0.0
 10
140.922301223
 20
86.742570542
 30
0.0
  0
SPLINE
  5
50A
100
AcDbEntity
  8
GEOM
100
AcDbSpline
 62
7
  6
CONTINUOUS
 70
0
 71
3
 72
11
 73
7
 74
0
 42
0.0000001
 43
0.0000001
 44
0.0000000001
 40
0.0
 40
0.0
 40
0.0
 40
0.0
 40
0.2520169676
 40
0.5010759969
 40
0.7495424001
 40
1.0
 40
1.0
 40
1.0
 40
1.0
 10
135.9480858242
 20
108.4495280412
 30
0.0
 10
136.0782354328
 20
107.9830515837
 30
0.0
 10
136.2856382261
 20
107.0397222079
 30
0.0
 10
136.3961390519
 20
105.5983008289
 30
0.0
 10
136.2860949443
 20
104.1598067111
 30
0.0
 10
136.078400203
 20
103.2207103913
 30
0.0
 10
135.9480854721
 20
102.7573921313
 30
0.0
  0
SPLINE
  5
50B
100
AcDbEntity
  8
GEOM
100
AcDbSpline
 62
7
  6
CONTINUOUS
 70
0
 71
3
 72
11
 73
7
 74
0
 42
0.0000001
 43
0.0000001
 44
0.0000000001
 40
0.0
 40
0.0
 40
0.0
 40
0.0
 40
0.2500068463
 40
0.4999947465
 40
0.749989531
 40
1.0
 40
1.0
 40
1.0
 40
1.0
 10
135.9480863637
 20
101.7378720355
 30
0.0
 10
136.0792736665
 20
101.0755826308
 30
0.0
 10
136.2867659892
 20
99.73912931
 30
0.0
 10
136.3958703667
 20
97.7129560392
 30
0.0
 10
136.2867706063
 20
95.6867725641
 30
0.0
 10
136.0792766347
 20
94.3502906901
 30
0.0
 10
135.9480876351
 20
93.687991648
 30
0.0
  0
SPLINE
  5
50C
100
AcDbEntity
  8
GEOM
100
AcDbSpline
 62
7
  6
CONTINUOUS
 70
0
 71
3
 72
11
 73
7
 74
0
 42
0.0000001
 43
0.0000001
 44
0.0000000001
 40
0.0
 40
0.0
 40
0.0
 40
0.0
 40
0.2504607035
 40
0.498930335
 40
0.7479855444
 40
1.0
 40
1.0
 40
1.0
 40
1.0
 10
135.9480856437
 20
92.6684636043
 30
0.0
 10
136.0784019768
 20
92.2051395629
 30
0.0
 10
136.2860980736
 20
91.2660308594
 30
0.0
 10
136.3961382168
 20
89.827531402
 30
0.0
 10
136.2856354928
 20
88.3861162428
 30
0.0
 10
136.0782340548
 20
87.4427989935
 30
0.0
 10
135.9480855123
 20
86.9763272134
 30
0.0
  0
SPLINE
  5
50D
100
AcDbEntity
  8
0
100
AcDbSpline
 62
7
  6
CONTINUOUS
 70
0
 71
3
 72
43
 73
39
 74
0
 42
0.0000001
 43
0.0000001
 44
0.0000000001
 40
0.0
 40
0.0
 40
0.0
 40
0.0
 40
0.0003408679
 40
0.0008761241
 40
0.0016673837
 40
0.0027322818
 40
0.0057049495
 40
0.0098143606
 40
0.0150580808
 40
0.0214267759
 40
0.0289091756
 40
0.037488964
 40
0.0578577143
 40
0.0823494106
 40
0.1107362954
 40
0.1427552686
 40
0.1781100623
 40
0.2164693267
 40
0.2574766862
 40
0.3007491407
 40
0.3924603121
 40
0.4881935364
 40
0.584383561
 40
0.6774466336
 40
0.7639219779
 40
0.8036723997
 40
0.8405952302
 40
0.8743464079
 40
0.9046126989
 40
0.9311113112
 40
0.9535989244
 40
0.9718676493
 40
0.9793667865
 40
0.9857524265
 40
0.9910132604
 40
0.9951399153
 40
0.9981297727
 40
1.0
 40
1.0
 40
1.0
 40
1.0
 10
146.4498366144
 20
106.0429282302
 30
0.0
 10
146.4517312412
 20
106.0429282302
 30
0.0
 10
146.4563109842
 20
106.0400617051
 30
0.0
 10
146.460976355
 20
106.0320407881
 30
0.0
 10
146.4660202735
 20
106.0196927244
 30
0.0
 10
146.4734654542
 20
105.9938845759
 30
0.0
 10
146.4822406931
 20
105.9494012986
 30
0.0
 10
146.4921791332
 20
105.8816140539
 30
0.0
 10
146.5022175758
 20
105.7947932088
 30
0.0
 10
146.5123382682
 20
105.6891405978
 30
0.0
 10
146.5224984329
 20
105.5648753662
 30
0.0
 10
146.5369214548
 20
105.3628953153
 30
0.0
 10
146.5544897174
 20
105.0663721022
 30
0.0
 10
146.5747022313
 20
104.6597446891
 30
0.0
 10
146.594990818
 20
104.1882969036
 30
0.0
 10
146.6153405407
 20
103.656423671
 30
0.0
 10
146.6357251866
 20
103.0690863711
 30
0.0
 10
146.6561375137
 20
102.4317629907
 30
0.0
 10
146.676567782
 20
101.7504109455
 30
0.0
 10
146.7043652717
 20
100.7726048636
 30
0.0
 10
146.7385664726
 20
99.4906797415
 30
0.0
 10
146.7789253415
 20
97.9146871676
 30
0.0
 10
146.8192857509
 20
96.3311778709
 30
0.0
 10
146.8596039304
 20
94.7991421438
 30
0.0
 10
146.8939890484
 20
93.5807646208
 30
0.0
 10
146.922009725
 20
92.6743773138
 30
0.0
 10
146.9424110742
 20
92.0609498683
 30
0.0
 10
146.9627798477
 20
91.5002676579
 30
0.0
 10
146.9831042437
 20
90.9975664058
 30
0.0
 10
147.0033526518
 20
90.5575229737
 30
0.0
 10
147.0235104205
 20
90.1842450567
 30
0.0
 10
147.0410807573
 20
89.9165892094
 30
0.0
 10
147.0556033367
 20
89.7384636634
 30
0.0
 10
147.0657145099
 20
89.6325144926
 30
0.0
 10
147.0757872324
 20
89.5454437315
 30
0.0
 10
147.0856420771
 20
89.4772715959
 30
0.0
 10
147.0954750621
 20
89.4284164476
 30
0.0
 10
147.1030299652
 20
89.4021782928
 30
0.0
 10
147.1078296991
 20
89.3929575383
 30
0.0
  0
SPLINE
  5
50E
100
AcDbEntity
  8
0
100
AcDbSpline
 62
7
  6
CONTINUOUS
 70
0
 71
3
 72
9
 73
5
 74
0
 42
0.0000001
 43
0.0000001
 44
0.0000000001
 40
0.0
 40
0.0
 40
0.0
 40
0.0
 40
0.2464959071
 40
1.0
 40
1.0
 40
1.0
 40
1.0
 10
141.2312476213
 20
107.030360951
 30
0.0
 10
141.2245437155
 20
107.0311823484
 30
0.0
 10
141.1972615918
 20
107.0337890832
 30
0.0
 10
141.1697188908
 20
107.0335577558
 30
0.0
 10
141.1491408921
 20
107.0318813666
 30
0.0
  0
SPLINE
  5
50F
100
AcDbEntity
  8
0
100
AcDbSpline
 62
7
  6
CONTINUOUS
 70
0
 71
3
 72
9
 73
5
 74
0
 42
0.0000001
 43
0.0000001
 44
0.0000000001
 40
0.0
 40
0.0
 40
0.0
 40
0.0
 40
0.2489278946
 40
1.0
 40
1.0
 40
1.0
 40
1.0
 10
141.2312476213
 20
107.030360951
 30
0.0
 10
141.2132801909
 20
107.1433990849
 30
0.0
 10
141.1336721787
 20
107.5963064874
 30
0.0
 10
141.0254937954
 20
108.0440351025
 30
0.0
 10
140.9310195903
 20
108.376204758
 30
0.0
  0
SPLINE
  5
510
100
AcDbEntity
  8
0
100
AcDbSpline
 62
7
  6
CONTINUOUS
 70
0
 71
3
 72
9
 73
5
 74
0
 42
0.0000001
 43
0.0000001
 44
0.0000000001
 40
0.0
 40
0.0
 40
0.0
 40
0.0
 40
0.2446877481
 40
1.0
 40
1.0
 40
1.0
 40
1.0
 10
140.9310195903
 20
108.376204758
 30
0.0
 10
140.9238450747
 20
108.3767896695
 30
0.0
 10
140.894455688
 20
108.3782923451
 30
0.0
 10
140.8649121973
 20
108.3763549172
 30
0.0
 10
140.8429231094
 20
108.3731593807
 30
0.0
  0
SPLINE
  5
511
100
AcDbEntity
  8
0
100
AcDbSpline
 62
7
  6
CONTINUOUS
 70
0
 71
3
 72
9
 73
5
 74
0
 42
0.0000001
 43
0.0000001
 44
0.0000000001
 40
0.0
 40
0.0
 40
0.0
 40
0.0
 40
0.568998056
 40
1.0
 40
1.0
 40
1.0
 40
1.0
 10
140.9310195903
 20
108.376204758
 30
0.0
 10
140.9284413522
 20
108.3852697981
 30
0.0
 10
140.9244634174
 20
108.4013540138
 30
0.0
 10
140.922301223
 20
108.4178813681
 30
0.0
 10
140.922301223
 20
108.4250202364
 30
0.0
  0
SPLINE
  5
512
100
AcDbEntity
  8
0
100
AcDbSpline
 62
7
  6
CONTINUOUS
 70
0
 71
3
 72
42
 73
38
 74
0
 42
0.0000001
 43
0.0000001
 44
0.0000000001
 40
0.0
 40
0.0
 40
0.0
 40
0.0
 40
0.0021456315
 40
0.0054037695
 40
0.0097861487
 40
0.0152897733
 40
0.0219074121
 40
0.0296260068
 40
0.0482929684
 40
0.0711275856
 40
0.0979192662
 40
0.1284233985
 40
0.1623588298
 40
0.1994111358
 40
0.239239744
 40
0.3257260809
 40
0.4186252044
 40
0.5145063435
 40
0.6098279522
 40
0.7010694997
 40
0.7440983261
 40
0.7848618838
 40
0.8229838792
 40
0.8581121936
 40
0.8899209973
 40
0.9181191511
 40
0.9424447697
 40
0.9626773877
 40
0.9711995656
 40
0.9786343101
 40
0.9849644328
 40
0.9901777035
 40
0.994268345
 40
0.9972360782
 40
0.9983039479
 40
0.9991036516
 40
1.0
 40
1.0
 40
1.0
 40
1.0
 10
144.4808085129
 20
105.1741861493
 30
0.0
 10
144.4853606085
 20
105.1645012235
 30
0.0
 10
144.4929598892
 20
105.1384452453
 30
0.0
 10
144.5027669324
 20
105.0906864803
 30
0.0
 10
144.5126592872
 20
105.0258285898
 30
0.0
 10
144.5227074174
 20
104.9441387534
 30
0.0
 10
144.5327982423
 20
104.8456932496
 30
0.0
 10
144.547239194
 20
104.6817222312
 30
0.0
 10
144.5647472543
 20
104.4368459488
 30
0.0
 10
144.5848434709
 20
104.0968223199
 30
0.0
 10
144.6050284894
 20
103.6976764265
 30
0.0
 10
144.6252843342
 20
103.2431085296
 30
0.0
 10
144.645580764
 20
102.7373219432
 30
0.0
 10
144.6659097085
 20
102.1849968699
 30
0.0
 10
144.6938105842
 20
101.3706772237
 30
0.0
 10
144.7280604792
 20
100.2778782012
 30
0.0
 10
144.7682361118
 20
98.9055692976
 30
0.0
 10
144.8084513209
 20
97.4891773162
 30
0.0
 10
144.8486633162
 20
96.08105589
 30
0.0
 10
144.8827454951
 20
94.9364686142
 30
0.0
 10
144.910444378
 20
94.0639232394
 30
0.0
 10
144.9307991811
 20
93.4562136722
 30
0.0
 10
144.951135051
 20
92.8879307648
 30
0.0
 10
144.9714437135
 20
92.3643393802
 30
0.0
 10
144.9917185641
 20
91.890282507
 30
0.0
 10
145.0119299206
 20
91.4701552968
 30
0.0
 10
145.0320713432
 20
91.1078372678
 30
0.0
 10
145.0495692815
 20
90.8436675807
 30
0.0
 10
145.063942793
 20
90.663740137
 30
0.0
 10
145.0740616088
 20
90.5530457983
 30
0.0
 10
145.0841566241
 20
90.4589136764
 30
0.0
 10
145.0941293572
 20
90.3816073132
 30
0.0
 10
145.1041232413
 20
90.3211055747
 30
0.0
 10
145.1126808372
 20
90.2816788955
 30
0.0
 10
145.1203530161
 20
90.2584112623
 30
0.0
 10
145.1255935451
 20
90.2464329633
 30
0.0
 10
145.1318606608
 20
90.2379436048
 30
0.0
 10
145.1363312119
 20
90.2379404656
 30
0.0
  0
SPLINE
  5
513
100
AcDbEntity
  8
0
100
AcDbSpline
 62
7
  6
CONTINUOUS
 70
0
 71
3
 72
11
 73
7
 74
0
 42
0.0000001
 43
0.0000001
 44
0.0000000001
 40
0.0
 40
0.0
 40
0.0
 40
0.0
 40
0.3420524581
 40
0.6023980567
 40
0.8047973672
 40
1.0
 40
1.0
 40
1.0
 40
1.0
 10
140.922301223
 20
108.6832859185
 30
0.0
 10
140.922301223
 20
108.6855757141
 30
0.0
 10
140.9225450016
 20
108.6896191671
 30
0.0
 10
140.9240091444
 20
108.6948783004
 30
0.0
 10
140.9269478258
 20
108.69844846
 30
0.0
 10
140.9297128868
 20
108.6991201528
 30
0.0
 10
140.9310195944
 20
108.6991295607
 30
0.0
  0
SPLINE
  5
514
100
AcDbEntity
  8
0
100
AcDbSpline
 62
7
  6
CONTINUOUS
 70
0
 71
3
 72
42
 73
38
 74
0
 42
0.0000001
 43
0.0000001
 44
0.0000000001
 40
0.0
 40
0.0
 40
0.0
 40
0.0
 40
0.0020156928
 40
0.0051426596
 40
0.0093967716
 40
0.014778712
 40
0.0212799683
 40
0.0288863129
 40
0.047350159
 40
0.0700049339
 40
0.0966457857
 40
0.1270245507
 40
0.1608624095
 40
0.1978445541
 40
0.2376279304
 40
0.324099944
 40
0.417073506
 40
0.5131015136
 40
0.6086235602
 40
0.7000980843
 40
0.7432479499
 40
0.7841338612
 40
0.8223745159
 40
0.8576165548
 40
0.8895325767
 40
0.9178264694
 40
0.9422388079
 40
0.9625427382
 40
0.9710966621
 40
0.9785575118
 40
0.9849100753
 40
0.9901434616
 40
0.9942489665
 40
0.9972261155
 40
0.998297905
 40
0.9991008252
 40
1.0
 40
1.0
 40
1.0
 40
1.0
 10
143.142689586
 20
105.1767792186
 30
0.0
 10
143.1473384392
 20
105.1678631672
 30
0.0
 10
143.1549359627
 20
105.1431070031
 30
0.0
 10
143.1647489548
 20
105.0973521686
 30
0.0
 10
143.1746347283
 20
105.0343884611
 30
0.0
 10
143.184693026
 20
104.9545306376
 30
0.0
 10
143.1947953006
 20
104.857821645
 30
0.0
 10
143.2092818173
 20
104.6959857735
 30
0.0
 10
143.2268186015
 20
104.4535394998
 30
0.0
 10
143.2469504404
 20
104.1161199179
 30
0.0
 10
143.2671658848
 20
103.719176044
 30
0.0
 10
143.2874594494
 20
103.26638846
 30
0.0
 10
143.3077925458
 20
102.7619689754
 30
0.0
 10
143.3281588223
 20
102.2106017801
 30
0.0
 10
143.3561224819
 20
101.3967746262
 30
0.0
 10
143.3904419915
 20
100.3036926548
 30
0.0
 10
143.4306916084
 20
98.9300882508
 30
0.0
 10
143.4709818795
 20
97.5113205132
 30
0.0
 10
143.5112699852
 20
96.1000337788
 30
0.0
 10
143.5454133286
 20
94.95246046
 30
0.0
 10
143.5731641944
 20
94.0773708664
 30
0.0
 10
143.5935576362
 20
93.467738253
 30
0.0
 10
143.6139332572
 20
92.8975763823
 30
0.0
 10
143.6342819507
 20
92.3721901375
 30
0.0
 10
143.6545943044
 20
91.8964621348
 30
0.0
 10
143.6748478931
 20
91.4748091139
 30
0.0
 10
143.6950244674
 20
91.1111550864
 30
0.0
 10
143.7125605753
 20
90.8459880701
 30
0.0
 10
143.7269581988
 20
90.6653812492
 30
0.0
 10
143.7370980378
 20
90.5542651759
 30
0.0
 10
143.7472146166
 20
90.4597723345
 30
0.0
 10
143.7572043816
 20
90.3821648887
 30
0.0
 10
143.7672145591
 20
90.3214277602
 30
0.0
 10
143.7757948373
 20
90.2818570828
 30
0.0
 10
143.783480578
 20
90.2584980687
 30
0.0
 10
143.7887290239
 20
90.2464750582
 30
0.0
 10
143.7950034457
 20
90.237929969
 30
0.0
 10
143.7994889585
 20
90.2379284337
 30
0.0
  0
SPLINE
  5
515
100
AcDbEntity
  8
0
100
AcDbSpline
 62
7
  6
CONTINUOUS
 70
0
 71
3
 72
43
 73
39
 74
0
 42
0.0000001
 43
0.0000001
 44
0.0000000001
 40
0.0
 40
0.0
 40
0.0
 40
0.0
 40
0.0003408886
 40
0.0008761449
 40
0.0016673965
 40
0.0027322855
 40
0.0057049484
 40
0.0098143841
 40
0.0150581426
 40
0.0214268806
 40
0.0289093272
 40
0.0374891871
 40
0.0578580506
 40
0.082349852
 40
0.1107367552
 40
0.1427557057
 40
0.1781103661
 40
0.2164693631
 40
0.2574763729
 40
0.3007487454
 40
0.3924599754
 40
0.4881931258
 40
0.5843831002
 40
0.6774461747
 40
0.7639219834
 40
0.8036727229
 40
0.8405956933
 40
0.8743469231
 40
0.904613183
 40
0.9311117144
 40
0.953599215
 40
0.9718678045
 40
0.979366907
 40
0.9857525459
 40
0.9910133865
 40
0.9951400193
 40
0.9981298096
 40
1.0
 40
1.0
 40
1.0
 40
1.0
 10
147.3649305867
 20
89.3829282302
 30
0.0
 10
147.3630358452
 20
89.3829282302
 30
0.0
 10
147.3584558535
 20
89.3857944996
 30
0.0
 10
147.3537902373
 20
89.3938154691
 30
0.0
 10
147.3487463679
 20
89.4061634139
 30
0.0
 10
147.341301369
 20
89.4319715097
 30
0.0
 10
147.3325265341
 20
89.4764549063
 30
0.0
 10
147.3225882396
 20
89.5442424912
 30
0.0
 10
147.3125496902
 20
89.6310639042
 30
0.0
 10
147.3024287949
 20
89.7367172
 30
0.0
 10
147.2922684709
 20
89.8609833053
 30
0.0
 10
147.2778454245
 20
90.0629646234
 30
0.0
 10
147.2602771321
 20
90.359489416
 30
0.0
 10
147.2400646003
 20
90.7661181012
 30
0.0
 10
147.2197759689
 20
91.2375663949
 30
0.0
 10
147.1994263253
 20
91.7694388087
 30
0.0
 10
147.1790417494
 20
92.3567736935
 30
0.0
 10
147.1586295523
 20
92.9940928371
 30
0.0
 10
147.1381993726
 20
93.6754409241
 30
0.0
 10
147.1104019395
 20
94.6532448286
 30
0.0
 10
147.0762007031
 20
95.935169272
 30
0.0
 10
147.0358418301
 20
97.511161314
 30
0.0
 10
146.9954814185
 20
99.0946697615
 30
0.0
 10
146.9551631772
 20
100.6267076369
 30
0.0
 10
146.9207779275
 20
101.8450893846
 30
0.0
 10
146.8927570982
 20
102.7514817176
 30
0.0
 10
146.8723555929
 20
103.3649119271
 30
0.0
 10
146.8519868305
 20
103.925594973
 30
0.0
 10
146.8316624721
 20
104.4282958393
 30
0.0
 10
146.8114136735
 20
104.8683379593
 30
0.0
 10
146.7912563219
 20
105.241614016
 30
0.0
 10
146.7736871825
 20
105.509268356
 30
0.0
 10
146.7591631033
 20
105.687392807
 30
0.0
 10
146.749050134
 20
105.7933416506
 30
0.0
 10
146.7389768143
 20
105.8804121789
 30
0.0
 10
146.7291244965
 20
105.9485842805
 30
0.0
 10
146.7192978033
 20
105.997439548
 30
0.0
 10
146.7117465137
 20
106.0236787324
 30
0.0
 10
146.7069460921
 20
106.0328988961
 30
0.0
  0
SPLINE
  5
516
100
AcDbEntity
  8
GEOM
100
AcDbSpline
 62
7
  6
CONTINUOUS
 70
0
 71
3
 72
11
 73
7
 74
0
 42
0.0000001
 43
0.0000001
 44
0.0000000001
 40
0.0
 40
0.0
 40
0.0
 40
0.0
 40
0.2512100771
 40
0.5000038668
 40
0.7487931892
 40
1.0
 40
1.0
 40
1.0
 40
1.0
 10
136.2078930155
 20
108.373159379
 30
0.0
 10
136.3383648704
 20
107.9022008656
 30
0.0
 10
136.5458836184
 20
106.9488451024
 30
0.0
 10
136.6558436526
 20
105.4910887797
 30
0.0
 10
136.5458808629
 20
104.0333391681
 30
0.0
 10
136.3383634768
 20
103.0799985929
 30
0.0
 10
136.2078930949
 20
102.609046265
 30
0.0
  0
SPLINE
  5
517
100
AcDbEntity
  8
GEOM
100
AcDbSpline
 62
7
  6
CONTINUOUS
 70
0
 71
3
 72
9
 73
5
 74
0
 42
0.0000001
 43
0.0000001
 44
0.0000000001
 40
0.0
 40
0.0
 40
0.0
 40
0.0
 40
0.251355074
 40
1.0
 40
1.0
 40
1.0
 40
1.0
 10
140.8429231094
 20
108.3731593807
 30
0.0
 10
140.8751056231
 20
108.2624324148
 30
0.0
 10
140.99720075
 20
107.8202277404
 30
0.0
 10
141.093912292
 20
107.3708521989
 30
0.0
 10
141.1491408921
 20
107.0318813666
 30
0.0
  0
SPLINE
  5
518
100
AcDbEntity
  8
0
100
AcDbSpline
 62
7
  6
CONTINUOUS
 70
0
 71
3
 72
43
 73
39
 74
0
 42
0.0000001
 43
0.0000001
 44
0.0000000001
 40
0.0
 40
0.0
 40
0.0
 40
0.0
 40
0.0003410396
 40
0.000876345
 40
0.0016676078
 40
0.002732493
 40
0.0057051265
 40
0.009814515
 40
0.0150582229
 40
0.0214269017
 40
0.0289092693
 40
0.0374890027
 40
0.0578576559
 40
0.0823492605
 40
0.1107361223
 40
0.1427551027
 40
0.1781099821
 40
0.2164694537
 40
0.2574771146
 40
0.3007496825
 40
0.3924608351
 40
0.488194076
 40
0.5843840814
 40
0.6774471384
 40
0.7639222194
 40
0.8036723468
 40
0.8405950436
 40
0.874346163
 40
0.9046124608
 40
0.9311111308
 40
0.9535988247
 40
0.9718676581
 40
0.9793668323
 40
0.9857524966
 40
0.9910133423
 40
0.9951399881
 40
0.9981298033
 40
1.0
 40
1.0
 40
1.0
 40
1.0
 10
146.0280879303
 20
89.3829282302
 30
0.0
 10
146.026192349
 20
89.3829282302
 30
0.0
 10
146.0216105524
 20
89.3857934638
 30
0.0
 10
146.0169434416
 20
89.3938155505
 30
0.0
 10
146.0118998107
 20
89.406163736
 30
0.0
 10
146.0044561326
 20
89.4319722227
 30
0.0
 10
145.9956839821
 20
89.476455594
 30
0.0
 10
145.9857467512
 20
89.5442426351
 30
0.0
 10
145.9757080768
 20
89.6310631575
 30
0.0
 10
145.9655864971
 20
89.7367153583
 30
0.0
 10
145.9554258024
 20
89.8609799827
 30
0.0
 10
145.9410028176
 20
90.0629590294
 30
0.0
 10
145.9234351646
 20
90.3594809465
 30
0.0
 10
145.9032224711
 20
90.7661072053
 30
0.0
 10
145.8829338243
 20
91.2375544328
 30
0.0
 10
145.8625840907
 20
91.7694281003
 30
0.0
 10
145.8421993754
 20
92.3567671185
 30
0.0
 10
145.8217869182
 20
92.9940938555
 30
0.0
 10
145.801356556
 20
93.6754494163
 30
0.0
 10
145.773558989
 20
94.6532577838
 30
0.0
 10
145.7393577892
 20
95.9351836366
 30
0.0
 10
145.698998915
 20
97.5111762297
 30
0.0
 10
145.6586385098
 20
99.0946855633
 30
0.0
 10
145.6183203542
 20
100.6267197678
 30
0.0
 10
145.5839353434
 20
101.8450942123
 30
0.0
 10
145.5559147686
 20
102.7514777572
 30
0.0
 10
145.535513518
 20
103.3649025544
 30
0.0
 10
145.5151448278
 20
103.9255837869
 30
0.0
 10
145.4948204957
 20
104.42828512
 30
0.0
 10
145.474571888
 20
104.8683293914
 30
0.0
 10
145.4544142335
 20
105.241608715
 30
0.0
 10
145.4368444933
 20
105.5092658943
 30
0.0
 10
145.4223210037
 20
105.6873923292
 30
0.0
 10
145.4122087969
 20
105.7933418292
 30
0.0
 10
145.4021357136
 20
105.8804126725
 30
0.0
 10
145.39228227
 20
105.9485848349
 30
0.0
 10
145.3824527734
 20
105.9974399888
 30
0.0
 10
145.3748998693
 20
106.0236786315
 30
0.0
 10
145.370099763
 20
106.0328990015
 30
0.0
  0
SPLINE
  5
519
100
AcDbEntity
  8
GEOM
100
AcDbSpline
 62
7
  6
CONTINUOUS
 70
0
 71
3
 72
9
 73
5
 74
0
 42
0.0000001
 43
0.0000001
 44
0.0000000001
 40
0.0
 40
0.0
 40
0.0
 40
0.0
 40
0.2488271976
 40
1.0
 40
1.0
 40
1.0
 40
1.0
 10
141.1491408921
 20
103.95032428
 30
0.0
 10
141.1307841104
 20
103.8376578423
 30
0.0
 10
141.0494479127
 20
103.3861115349
 30
0.0
 10
140.9391025112
 20
102.9399608494
 30
0.0
 10
140.8429231094
 20
102.6090462659
 30
0.0
  0
SPLINE
  5
51A
100
AcDbEntity
  8
0
100
AcDbSpline
 62
7
  6
CONTINUOUS
 70
0
 71
3
 72
43
 73
39
 74
0
 42
0.0000001
 43
0.0000001
 44
0.0000000001
 40
0.0
 40
0.0
 40
0.0
 40
0.0
 40
0.0003408865
 40
0.0008761401
 40
0.0016673886
 40
0.002732275
 40
0.0057049381
 40
0.0098143845
 40
0.0150581579
 40
0.0214269109
 40
0.0289093715
 40
0.0374892529
 40
0.0578581485
 40
0.082349979
 40
0.1107368831
 40
0.1427558178
 40
0.1781104229
 40
0.2164693409
 40
0.2574762671
 40
0.3007486185
 40
0.3924598336
 40
0.4881929297
 40
0.5843828716
 40
0.677445948
 40
0.7639219165
 40
0.803672736
 40
0.8405957425
 40
0.8743469843
 40
0.9046132292
 40
0.9311117299
 40
0.9535991908
 40
0.9718677362
 40
0.979366822
 40
0.985752455
 40
0.9910133008
 40
0.995139955
 40
0.9981297875
 40
1.0
 40
1.0
 40
1.0
 40
1.0
 10
145.1129951014
 20
106.0429282302
 30
0.0
 10
145.1148898317
 20
106.0429282302
 30
0.0
 10
145.1194697999
 20
106.040061982
 30
0.0
 10
145.1241354072
 20
106.032041057
 30
0.0
 10
145.1291792726
 20
106.0196931603
 30
0.0
 10
145.1366242848
 20
105.9938850979
 30
0.0
 10
145.145399139
 20
105.9494016537
 30
0.0
 10
145.1553374422
 20
105.88161392
 30
0.0
 10
145.1653760116
 20
105.7947922756
 30
0.0
 10
145.1754969249
 20
105.6891387281
 30
0.0
 10
145.1856572691
 20
105.5648723337
 30
0.0
 10
145.2000803132
 20
105.3628906235
 30
0.0
 10
145.2176486269
 20
105.0663653497
 30
0.0
 10
145.2378611437
 20
104.6597362873
 30
0.0
 10
145.2581497715
 20
104.188287879
 30
0.0
 10
145.2784993764
 20
103.6564158143
 30
0.0
 10
145.298883918
 20
103.0690817188
 30
0.0
 10
145.3192960644
 20
102.4317637379
 30
0.0
 10
145.3397262104
 20
101.75041662
 30
0.0
 10
145.3675236106
 20
100.7726133068
 30
0.0
 10
145.4017248261
 20
99.4906892692
 30
0.0
 10
145.4420836635
 20
97.9146976745
 30
0.0
 10
145.482444042
 20
96.3311895794
 30
0.0
 10
145.5227622715
 20
94.7991508706
 30
0.0
 10
145.5571475408
 20
93.580767688
 30
0.0
 10
145.5851683926
 20
92.6743737538
 30
0.0
 10
145.6055698996
 20
92.0609427865
 30
0.0
 10
145.6259386887
 20
91.5002595157
 30
0.0
 10
145.646263072
 20
90.9975588001
 30
0.0
 10
145.6665116246
 20
90.5575171122
 30
0.0
 10
145.6866691111
 20
90.1842416649
 30
0.0
 10
145.7042388534
 20
89.9165879138
 30
0.0
 10
145.718762013
 20
89.738463747
 30
0.0
 10
145.7288739217
 20
89.632514902
 30
0.0
 10
145.738946882
 20
89.5454441743
 30
0.0
 10
145.7488006594
 20
89.4772719331
 30
0.0
 10
145.7586309942
 20
89.4284166626
 30
0.0
 10
145.7661843694
 20
89.4021780474
 30
0.0
 10
145.7709843937
 20
89.3929575374
 30
0.0
  0
LINE
  5
51B
100
AcDbEntity
  8
0
100
AcDbLine
 62
7
  6
CONTINUOUS
 10
141.2312476203
 20
108.7013185976
 11
141.2324136644
 21
108.7011393428
  0
SPLINE
  5
51C
100
AcDbEntity
  8
0
100
AcDbSpline
 62
7
  6
CONTINUOUS
 70
0
 71
3
 72
43
 73
39
 74
0
 42
0.0000001
 43
0.0000001
 44
0.0000000001
 40
0.0
 40
0.0
 40
0.0
 40
0.0
 40
0.0003409778
 40
0.0008762525
 40
0.001667497
 40
0.0027323739
 40
0.0057050375
 40
0.0098145452
 40
0.0150584287
 40
0.0214272906
 40
0.0289098347
 40
0.0374898521
 40
0.0578589409
 40
0.0823509332
 40
0.110737843
 40
0.1427566779
 40
0.1781108881
 40
0.2164694242
 40
0.2574761338
 40
0.3007484542
 40
0.3924595145
 40
0.4881922282
 40
0.584381778
 40
0.6774447641
 40
0.7639219155
 40
0.8036730975
 40
0.8405962679
 40
0.8743475545
 40
0.9046136934
 40
0.9311120219
 40
0.9535992714
 40
0.9718676286
 40
0.9793666652
 40
0.9857523253
 40
0.9910132364
 40
0.9951399442
 40
0.9981297928
 40
1.0
 40
1.0
 40
1.0
 40
1.0
 10
143.7761524341
 20
106.0429282302
 30
0.0
 10
143.7780476719
 20
106.0429282302
 30
0.0
 10
143.7826287364
 20
106.0400627593
 30
0.0
 10
143.7872953004
 20
106.0320412752
 30
0.0
 10
143.7923390008
 20
106.0196933957
 30
0.0
 10
143.799783227
 20
105.9938850907
 30
0.0
 10
143.8085564596
 20
105.9494010934
 30
0.0
 10
143.8184941898
 20
105.8816123027
 30
0.0
 10
143.8285330009
 20
105.7947891198
 30
0.0
 10
143.8386545495
 20
105.6891339319
 30
0.0
 10
143.8488153785
 20
105.5648657322
 30
0.0
 10
143.8632383966
 20
105.3628816994
 30
0.0
 10
143.8808065528
 20
105.0663536548
 30
0.0
 10
143.9010190918
 20
104.6597225476
 30
0.0
 10
143.9213077759
 20
104.1882737195
 30
0.0
 10
143.9416571442
 20
103.6564043153
 30
0.0
 10
143.9620415498
 20
103.0690750347
 30
0.0
 10
143.9824534937
 20
102.4317625104
 30
0.0
 10
144.0028835624
 20
101.750418825
 30
0.0
 10
144.0306809109
 20
100.7726176535
 30
0.0
 10
144.0648820818
 20
99.4906966512
 30
0.0
 10
144.1052408159
 20
97.91471007
 30
0.0
 10
144.1456010974
 20
96.3312066296
 30
0.0
 10
144.1859194444
 20
94.7991638826
 30
0.0
 10
144.2203049451
 20
93.5807724985
 30
0.0
 10
144.2483261009
 20
92.6743689812
 30
0.0
 10
144.2687277752
 20
92.0609347837
 30
0.0
 10
144.2890966052
 20
91.5002508894
 30
0.0
 10
144.3094210118
 20
90.9975514248
 30
0.0
 10
144.3296695075
 20
90.5575124164
 30
0.0
 10
144.3498268549
 20
90.1842401097
 30
0.0
 10
144.3673964174
 20
89.916588821
 30
0.0
 10
144.3819195323
 20
89.7384658059
 30
0.0
 10
144.3920314347
 20
89.6325167087
 30
0.0
 10
144.4021044337
 20
89.5454451606
 30
0.0
 10
144.4119583075
 20
89.4772721676
 30
0.0
 10
144.421788839
 20
89.4284165602
 30
0.0
 10
144.4293423328
 20
89.4021779205
 30
0.0
 10
144.4341423535
 20
89.3929574406
 30
0.0
  0
SPLINE
  5
51D
100
AcDbEntity
  8
0
100
AcDbSpline
 62
7
  6
CONTINUOUS
 70
0
 71
3
 72
43
 73
39
 74
0
 42
0.0000001
 43
0.0000001
 44
0.0000000001
 40
0.0
 40
0.0
 40
0.0
 40
0.0
 40
0.0003408476
 40
0.0008761017
 40
0.0016673667
 40
0.0027322728
 40
0.0057049538
 40
0.0098143719
 40
0.0150580928
 40
0.0214267577
 40
0.0289090703
 40
0.0374887174
 40
0.0578572113
 40
0.082348661
 40
0.1107354657
 40
0.1427544357
 40
0.1781094349
 40
0.2164691947
 40
0.2574772951
 40
0.3007501806
 40
0.3924614598
 40
0.4881946147
 40
0.5843845279
 40
0.6774475448
 40
0.7639223768
 40
0.8036720688
 40
0.8405945238
 40
0.8743455225
 40
0.9046118232
 40
0.9311105857
 40
0.953598405
 40
0.971867429
 40
0.9793666659
 40
0.985752389
 40
0.9910132909
 40
0.9951399824
 40
0.9981298137
 40
1.0
 40
1.0
 40
1.0
 40
1.0
 10
144.6912463892
 20
89.3829282302
 30
0.0
 10
144.6893518753
 20
89.3829282302
 30
0.0
 10
144.6847723746
 20
89.3857949668
 30
0.0
 10
144.6801072274
 20
89.3938158027
 30
0.0
 10
144.6750632609
 20
89.4061639456
 30
0.0
 10
144.6676178871
 20
89.4319721698
 30
0.0
 10
144.6588422345
 20
89.4764555389
 30
0.0
 10
144.6489036301
 20
89.544242874
 30
0.0
 10
144.6388652644
 20
89.6310635999
 30
0.0
 10
144.6287447511
 20
89.7367155706
 30
0.0
 10
144.6185847409
 20
89.8609793657
 30
0.0
 10
144.6041618208
 20
90.0629567108
 30
0.0
 10
144.5865937506
 20
90.3594763321
 30
0.0
 10
144.5663812602
 20
90.7661004796
 30
0.0
 10
144.5460927523
 20
91.2375464087
 30
0.0
 10
144.5257428971
 20
91.7694202879
 30
0.0
 10
144.5053581097
 20
92.3567614327
 30
0.0
 10
144.4849455085
 20
92.994092789
 30
0.0
 10
144.4645149882
 20
93.6754540618
 30
0.0
 10
144.4367172867
 20
94.6532672018
 30
0.0
 10
144.4025160737
 20
95.9351948658
 30
0.0
 10
144.3621572151
 20
97.5111869512
 30
0.0
 10
144.3217968477
 20
99.0946948499
 30
0.0
 10
144.2814787229
 20
100.6267267196
 30
0.0
 10
144.2470938372
 20
101.8450969685
 30
0.0
 10
144.2190733921
 20
102.7514752397
 30
0.0
 10
144.1986723214
 20
103.3648955196
 30
0.0
 10
144.178303707
 20
103.9255746757
 30
0.0
 10
144.1579794085
 20
104.4282757983
 30
0.0
 10
144.1377308941
 20
104.8683212403
 30
0.0
 10
144.1175730507
 20
105.2416027765
 30
0.0
 10
144.1000031185
 20
105.5092620128
 30
0.0
 10
144.0854797587
 20
105.6873901735
 30
0.0
 10
144.0753677676
 20
105.7933406686
 30
0.0
 10
144.0652946956
 20
105.8804124088
 30
0.0
 10
144.0554407919
 20
105.9485851486
 30
0.0
 10
144.0456101815
 20
105.9974404328
 30
0.0
 10
144.038056619
 20
106.0236788208
 30
0.0
 10
144.0332566288
 20
106.0328991841
 30
0.0
  0
SPLINE
  5
51E
100
AcDbEntity
  8
0
100
AcDbSpline
 62
7
  6
CONTINUOUS
 70
0
 71
3
 72
43
 73
39
 74
0
 42
0.0000001
 43
0.0000001
 44
0.0000000001
 40
0.0
 40
0.0
 40
0.0
 40
0.0
 40
0.0020158971
 40
0.0051425967
 40
0.0093984037
 40
0.0147813219
 40
0.0212820043
 40
0.0288891143
 40
0.0473542152
 40
0.0700104893
 40
0.0966509901
 40
0.1270315489
 40
0.160868969
 40
0.1978519171
 40
0.2376356477
 40
0.3241078407
 40
0.4170808556
 40
0.5131080994
 40
0.6086292015
 40
0.7001023152
 40
0.7432520096
 40
0.7841365383
 40
0.8223775631
 40
0.8576182794
 40
0.8895340058
 40
0.9178277928
 40
0.9422386499
 40
0.962543662
 40
0.9710963062
 40
0.9785568826
 40
0.9849104786
 40
0.9901433276
 40
0.9942477795
 40
0.995877352
 40
0.9972266296
 40
0.998298871
 40
0.9991017323
 40
1.0
 40
1.0
 40
1.0
 40
1.0
 10
141.8058476633
 20
105.1767562138
 30
0.0
 10
141.8104924776
 20
105.1678369192
 30
0.0
 10
141.8180974498
 20
105.1430852026
 30
0.0
 10
141.8279156928
 20
105.0973217655
 30
0.0
 10
141.8377991223
 20
105.0343460692
 30
0.0
 10
141.8478573256
 20
104.9544776233
 30
0.0
 10
141.8579610553
 20
104.8577630661
 30
0.0
 10
141.8724438064
 20
104.6959197366
 30
0.0
 10
141.8899824612
 20
104.4534562913
 30
0.0
 10
141.9101127755
 20
104.1160249111
 30
0.0
 10
141.9303302118
 20
103.7190668445
 30
0.0
 10
141.9506211091
 20
103.2662745616
 30
0.0
 10
141.9709559115
 20
102.7618448674
 30
0.0
 10
141.991320993
 20
102.2104745725
 30
0.0
 10
142.0192846363
 20
101.3966415399
 30
0.0
 10
142.0536035647
 20
100.3035606816
 30
0.0
 10
142.093852932
 20
98.9299632578
 30
0.0
 10
142.1341428017
 20
97.5112081474
 30
0.0
 10
142.1744302218
 20
96.099938333
 30
0.0
 10
142.208573875
 20
94.9523787501
 30
0.0
 10
142.2363235387
 20
94.0773047657
 30
0.0
 10
142.256717958
 20
93.467678687
 30
0.0
 10
142.2770919687
 20
92.8975289768
 30
0.0
 10
142.2974415003
 20
92.3721494867
 30
0.0
 10
142.3177535424
 20
91.896430606
 30
0.0
 10
142.3380056262
 20
91.4747871355
 30
0.0
 10
142.358184676
 20
91.1111366748
 30
0.0
 10
142.3757180563
 20
90.8459767969
 30
0.0
 10
142.3901151451
 20
90.6653746856
 30
0.0
 10
142.4002630704
 20
90.5542567355
 30
0.0
 10
142.4103552259
 20
90.4597764026
 30
0.0
 10
142.4204050907
 20
90.3821331523
 30
0.0
 10
142.4291834809
 20
90.3281395222
 30
0.0
 10
142.4365284053
 20
90.293522462
 30
0.0
 10
142.4415081698
 20
90.2740299917
 30
0.0
 10
142.4466423778
 20
90.2584864174
 30
0.0
 10
142.4518796512
 20
90.2464666374
 30
0.0
 10
142.4581654645
 20
90.2379343323
 30
0.0
 10
142.4626464463
 20
90.2379387206
 30
0.0
  0
SPLINE
  5
51F
100
AcDbEntity
  8
0
100
AcDbSpline
 62
7
  6
CONTINUOUS
 70
0
 71
3
 72
43
 73
39
 74
0
 42
0.0000001
 43
0.0000001
 44
0.0000000001
 40
0.0
 40
0.0
 40
0.0
 40
0.0
 40
0.0003408924
 40
0.0008761606
 40
0.0016674338
 40
0.0027323539
 40
0.0057051087
 40
0.0098147281
 40
0.0150588057
 40
0.0214278526
 40
0.0289105172
 40
0.0374907623
 40
0.0578602137
 40
0.082352564
 40
0.1107396511
 40
0.1427586261
 40
0.1781126197
 40
0.216471169
 40
0.2574783717
 40
0.3007510284
 40
0.3924621898
 40
0.4881941959
 40
0.5843822551
 40
0.6774440782
 40
0.7639213455
 40
0.8036725023
 40
0.8405957051
 40
0.8743470256
 40
0.9046132039
 40
0.9311115134
 40
0.9535987563
 40
0.971867284
 40
0.9793663775
 40
0.9857521134
 40
0.9910131068
 40
0.9951398762
 40
0.9981297723
 40
1.0
 40
1.0
 40
1.0
 40
1.0
 10
142.4393105485
 20
106.0429282302
 30
0.0
 10
142.4412053118
 20
106.0429282302
 30
0.0
 10
142.4457853626
 20
106.0400618398
 30
0.0
 10
142.4504509718
 20
106.0320406387
 30
0.0
 10
142.4554948795
 20
106.0196923167
 30
0.0
 10
142.4629399455
 20
105.9938834038
 30
0.0
 10
142.4717150353
 20
105.9493983153
 30
0.0
 10
142.4816536982
 20
105.8816074318
 30
0.0
 10
142.4916924319
 20
105.7947814862
 30
0.0
 10
142.501813609
 20
105.6891234812
 30
0.0
 10
142.5119743387
 20
105.5648523053
 30
0.0
 10
142.5263972404
 20
105.3628643129
 30
0.0
 10
142.543965914
 20
105.0663310324
 30
0.0
 10
142.5641782782
 20
104.6596949338
 30
0.0
 10
142.5844670008
 20
104.1882423701
 30
0.0
 10
142.6048161546
 20
103.6563724182
 30
0.0
 10
142.6252005115
 20
103.0690435121
 30
0.0
 10
142.6456123716
 20
102.4317293999
 30
0.0
 10
142.6660424682
 20
101.7503810576
 30
0.0
 10
142.6938399189
 20
100.7725747545
 30
0.0
 10
142.728040902
 20
99.490655301
 30
0.0
 10
142.7683992949
 20
97.9146804346
 30
0.0
 10
142.8087590621
 20
96.3311957332
 30
0.0
 10
142.8490770203
 20
94.7991671478
 30
0.0
 10
142.8834622814
 20
93.5807817686
 30
0.0
 10
142.9114834301
 20
92.6743776037
 30
0.0
 10
142.9318850375
 20
92.0609432005
 30
0.0
 10
142.9522538879
 20
91.5002587414
 30
0.0
 10
142.9725782816
 20
90.997558995
 30
0.0
 10
142.9928265071
 20
90.5575199156
 30
0.0
 10
143.0129840556
 20
90.1842468243
 30
0.0
 10
143.0305539188
 20
89.9165943425
 30
0.0
 10
143.0450765303
 20
89.7384696033
 30
0.0
 10
143.0551878087
 20
89.6325192582
 30
0.0
 10
143.0652606403
 20
89.5454464413
 30
0.0
 10
143.0751155957
 20
89.4772725584
 30
0.0
 10
143.0849486524
 20
89.4284165622
 30
0.0
 10
143.0925035677
 20
89.4021781699
 30
0.0
 10
143.0973033274
 20
89.3929574258
 30
0.0
  0
SPLINE
  5
520
100
AcDbEntity
  8
0
100
AcDbSpline
 62
7
  6
CONTINUOUS
 70
0
 71
3
 72
43
 73
39
 74
0
 42
0.0000001
 43
0.0000001
 44
0.0000000001
 40
0.0
 40
0.0
 40
0.0
 40
0.0
 40
0.0003408855
 40
0.0008761456
 40
0.0016674052
 40
0.0027323042
 40
0.0057049885
 40
0.009814453
 40
0.0150582369
 40
0.0214269288
 40
0.0289091915
 40
0.0374887491
 40
0.0578570384
 40
0.082348263
 40
0.1107349418
 40
0.1427538507
 40
0.1781089549
 40
0.2164689702
 40
0.257477512
 40
0.3007510268
 40
0.3924626664
 40
0.4881953515
 40
0.5843848968
 40
0.677447648
 40
0.7639223691
 40
0.8036717494
 40
0.8405937939
 40
0.8743445153
 40
0.9046107889
 40
0.9311096549
 40
0.9535976127
 40
0.9718669081
 40
0.9793662222
 40
0.9857520435
 40
0.9910130565
 40
0.9951398489
 40
0.9981297751
 40
1.0
 40
1.0
 40
1.0
 40
1.0
 10
143.3544041214
 20
89.3829282302
 30
0.0
 10
143.3525093961
 20
89.3829282302
 30
0.0
 10
143.3479294372
 20
89.3857945933
 30
0.0
 10
143.34326387
 20
89.3938156198
 30
0.0
 10
143.3382199736
 20
89.4061636962
 30
0.0
 10
143.3307749157
 20
89.4319720023
 30
0.0
 10
143.3219999394
 20
89.4764557263
 30
0.0
 10
143.3120615805
 20
89.5442437433
 30
0.0
 10
143.3020231033
 20
89.6310652303
 30
0.0
 10
143.2919023384
 20
89.7367174205
 30
0.0
 10
143.2817421837
 20
89.8609805996
 30
0.0
 10
143.2673193877
 20
90.0629560736
 30
0.0
 10
143.2497516661
 20
90.3594728765
 30
0.0
 10
143.2295391682
 20
90.7660940021
 30
0.0
 10
143.2092507108
 20
91.2375377239
 30
0.0
 10
143.1889008017
 20
91.7694112381
 30
0.0
 10
143.1685159313
 20
92.3567541479
 30
0.0
 10
143.1481031444
 20
92.99409007
 30
0.0
 10
143.1276723898
 20
93.6754588307
 30
0.0
 10
143.0998744583
 20
94.653280094
 30
0.0
 10
143.0656731519
 20
95.9352108719
 30
0.0
 10
143.0253143478
 20
97.5112005819
 30
0.0
 10
142.9849540989
 20
99.0947026272
 30
0.0
 10
142.9446360493
 20
100.6267306285
 30
0.0
 10
142.9102512374
 20
101.8450972658
 30
0.0
 10
142.8822309217
 20
102.7514710675
 30
0.0
 10
142.8618300912
 20
103.3648859046
 30
0.0
 10
142.8414615642
 20
103.9255611873
 30
0.0
 10
142.8211373091
 20
104.4282612822
 30
0.0
 10
142.8008892851
 20
104.8683080184
 30
0.0
 10
142.7807308717
 20
105.2415924579
 30
0.0
 10
142.7631599337
 20
105.509254372
 30
0.0
 10
142.7486380068
 20
105.6873851721
 30
0.0
 10
142.7385277129
 20
105.7933374296
 30
0.0
 10
142.728455116
 20
105.8804110369
 30
0.0
 10
142.7185985414
 20
105.9485850573
 30
0.0
 10
142.7087614739
 20
105.9974408067
 30
0.0
 10
142.7012042153
 20
106.0236783133
 30
0.0
 10
142.6964049012
 20
106.0328992727
 30
0.0
  0
SPLINE
  5
521
100
AcDbEntity
  8
0
100
AcDbSpline
 62
7
  6
CONTINUOUS
 70
0
 71
3
 72
43
 73
39
 74
0
 42
0.0000001
 43
0.0000001
 44
0.0000000001
 40
0.0
 40
0.0
 40
0.0
 40
0.0
 40
0.0003407617
 40
0.0008759883
 40
0.0016672499
 40
0.0027321652
 40
0.0057048967
 40
0.0098144239
 40
0.0150582928
 40
0.021427064
 40
0.028909387
 40
0.0374890415
 40
0.05785742
 40
0.0823486449
 40
0.1107353225
 40
0.1427543038
 40
0.1781094532
 40
0.2164694746
 40
0.2574780364
 40
0.3007516522
 40
0.3924626076
 40
0.4881937206
 40
0.5843823556
 40
0.6774450373
 40
0.7639204922
 40
0.8036701479
 40
0.8405920787
 40
0.8743426909
 40
0.9046091568
 40
0.9311083282
 40
0.9535965579
 40
0.9718663181
 40
0.979365757
 40
0.9857517696
 40
0.9910129732
 40
0.995139837
 40
0.9981297581
 40
1.0
 40
1.0
 40
1.0
 40
1.0
 10
142.0175615983
 20
89.3829282302
 30
0.0
 10
142.015667562
 20
89.3829282302
 30
0.0
 10
142.011089083
 20
89.3857955521
 30
0.0
 10
142.0064247818
 20
89.3938157752
 30
0.0
 10
142.0013806723
 20
89.4061638404
 30
0.0
 10
141.9939345109
 20
89.4319720855
 30
0.0
 10
141.985157231
 20
89.4764561471
 30
0.0
 10
141.9752178942
 20
89.5442450963
 30
0.0
 10
141.9651795329
 20
89.6310678565
 30
0.0
 10
141.955059349
 20
89.7367213244
 30
0.0
 10
141.9448995183
 20
89.8609858142
 30
0.0
 10
141.9304767822
 20
90.0629626095
 30
0.0
 10
141.9129086422
 20
90.3594803455
 30
0.0
 10
141.8926963561
 20
90.766101866
 30
0.0
 10
141.8724079843
 20
91.2375458617
 30
0.0
 10
141.8520580787
 20
91.7694198811
 30
0.0
 10
141.8316732266
 20
92.356763322
 30
0.0
 10
141.8112604746
 20
92.9940994702
 30
0.0
 10
141.7908297436
 20
93.6754687555
 30
0.0
 10
141.7630319486
 20
94.6532866287
 30
0.0
 10
141.7288309963
 20
95.9352050884
 30
0.0
 10
141.6884726869
 20
97.5111767818
 30
0.0
 10
141.6481128539
 20
99.0946642248
 30
0.0
 10
141.6077949478
 20
100.6266904517
 30
0.0
 10
141.5734101277
 20
101.8450619875
 30
0.0
 10
141.5453897675
 20
102.7514405242
 30
0.0
 10
141.524989068
 20
103.3648554928
 30
0.0
 10
141.5046206773
 20
103.9255304596
 30
0.0
 10
141.4842965599
 20
104.4282325856
 30
0.0
 10
141.4640482751
 20
104.8682834778
 30
0.0
 10
141.4438898914
 20
105.2415736049
 30
0.0
 10
141.4263202852
 20
105.509240351
 30
0.0
 10
141.4117964504
 20
105.6873753041
 30
0.0
 10
141.4016842289
 20
105.7933301953
 30
0.0
 10
141.3916110038
 20
105.8804061828
 30
0.0
 10
141.3817566916
 20
105.9485820268
 30
0.0
 10
141.3719256725
 20
105.9974390308
 30
0.0
 10
141.3643719916
 20
106.0236782058
 30
0.0
 10
141.3595719675
 20
106.0328988987
 30
0.0
  0
SPLINE
  5
522
100
AcDbEntity
  8
0
100
AcDbSpline
 62
7
  6
CONTINUOUS
 70
0
 71
3
 72
41
 73
37
 74
0
 42
0.0000001
 43
0.0000001
 44
0.0000000001
 40
0.0
 40
0.0
 40
0.0
 40
0.0
 40
0.0008988439
 40
0.0017018967
 40
0.0027738437
 40
0.0057509989
 40
0.0098560201
 40
0.0150898051
 40
0.0214428096
 40
0.0374564386
 40
0.0577612396
 40
0.082173063
 40
0.1104669454
 40
0.1423835015
 40
0.1776246348
 40
0.2158664877
 40
0.2567513683
 40
0.2999020859
 40
0.3913764194
 40
0.4868985287
 40
0.5829266985
 40
0.6759002553
 40
0.7623722074
 40
0.8021558899
 40
0.8391378574
 40
0.8729759033
 40
0.9033545763
 40
0.9299956811
 40
0.9526500634
 40
0.9711147138
 40
0.9787205958
 40
0.985221222
 40
0.9906039528
 40
0.9948584671
 40
0.9979844257
 40
1.0
 40
1.0
 40
1.0
 40
1.0
 10
108.7040560638
 20
90.2379282302
 30
0.0
 10
108.6995722069
 20
90.2379282302
 30
0.0
 10
108.6933033841
 20
90.2464802383
 30
0.0
 10
108.6880557293
 20
90.2585009173
 30
0.0
 10
108.6803689712
 20
90.2818622645
 30
0.0
 10
108.6717836968
 20
90.3214292458
 30
0.0
 10
108.6617688164
 20
90.3821655665
 30
0.0
 10
108.6517774079
 20
90.459774687
 30
0.0
 10
108.6371398084
 20
90.5967031384
 30
0.0
 10
108.6196302075
 20
90.808859409
 30
0.0
 10
108.5995761497
 20
91.1111549705
 30
0.0
 10
108.5794201076
 20
91.4748121413
 30
0.0
 10
108.5591596263
 20
91.8964640332
 30
0.0
 10
108.5388505485
 20
92.3721897663
 30
0.0
 10
108.5184995264
 20
92.8975793375
 30
0.0
 10
108.4981259789
 20
93.4677368783
 30
0.0
 10
108.4777308634
 20
94.0773737368
 30
0.0
 10
108.4499814722
 20
94.9524604134
 30
0.0
 10
108.415837191
 20
96.1000358429
 30
0.0
 10
108.3755494381
 20
97.5113209489
 30
0.0
 10
108.3352591752
 20
98.9300879628
 30
0.0
 10
108.2950096726
 20
100.3036910851
 30
0.0
 10
108.2606898691
 20
101.3967728393
 30
0.0
 10
108.2327266671
 20
102.210599302
 30
0.0
 10
108.2123600227
 20
102.7619673533
 30
0.0
 10
108.1920273269
 20
103.2663857979
 30
0.0
 10
108.171733268
 20
103.7191745138
 30
0.0
 10
108.1515187419
 20
104.1161167724
 30
0.0
 10
108.1313852893
 20
104.4535391433
 30
0.0
 10
108.1138503692
 20
104.6959849668
 30
0.0
 10
108.0993635023
 20
104.8578191945
 30
0.0
 10
108.0892592912
 20
104.954526284
 30
0.0
 10
108.079202501
 20
105.0343871289
 30
0.0
 10
108.069318788
 20
105.0973516607
 30
0.0
 10
108.0595043661
 20
105.1431034826
 30
0.0
 10
108.0519028286
 20
105.1678511861
 30
0.0
 10
108.0472573594
 20
105.17676832
 30
0.0
  0
SPLINE
  5
523
100
AcDbEntity
  8
0
100
AcDbSpline
 62
7
  6
CONTINUOUS
 70
0
 71
3
 72
9
 73
5
 74
0
 42
0.0000001
 43
0.0000001
 44
0.0000000001
 40
0.0
 40
0.0
 40
0.0
 40
0.0
 40
0.2173200058
 40
1.0
 40
1.0
 40
1.0
 40
1.0
 10
106.2187495413
 20
90.2490951632
 30
0.0
 10
106.2182193351
 20
90.2501121488
 30
0.0
 10
106.2159110877
 20
90.2548604382
 30
0.0
 10
106.214038879
 20
90.2598091477
 30
0.0
 10
106.2126980625
 20
90.2637160403
 30
0.0
  0
SPLINE
  5
524
100
AcDbEntity
  8
0
100
AcDbSpline
 62
7
  6
CONTINUOUS
 70
0
 71
3
 72
39
 73
35
 74
0
 42
0.0000001
 43
0.0000001
 44
0.0000000001
 40
0.0
 40
0.0
 40
0.0
 40
0.0
 40
0.0026390043
 40
0.0063844577
 40
0.0112392496
 40
0.0171965049
 40
0.0323766663
 40
0.0517984685
 40
0.0752921122
 40
0.1026434102
 40
0.1336079462
 40
0.1679009245
 40
0.245203014
 40
0.3317390084
 40
0.4243601771
 40
0.5196954603
 40
0.614274708
 40
0.704655396
 40
0.7472341727
 40
0.7875483991
 40
0.8252305924
 40
0.859938328
 40
0.8913540092
 40
0.9191947232
 40
0.9432047436
 40
0.9631717136
 40
0.9789143149
 40
0.98516033
 40
0.9903042152
 40
0.9943389315
 40
0.9972670725
 40
0.9983218927
 40
0.9991124237
 40
1.0
 40
1.0
 40
1.0
 40
1.0
 10
106.2126980625
 20
90.2637160403
 30
0.0
 10
106.2084292378
 20
90.2761546106
 30
0.0
 10
106.2008854496
 20
90.3071527049
 30
0.0
 10
106.1910807961
 20
90.3622857635
 30
0.0
 10
106.1811807225
 20
90.4341733656
 30
0.0
 10
106.166649647
 20
90.5628825526
 30
0.0
 10
106.1493032115
 20
90.7642824666
 30
0.0
 10
106.1294569297
 20
91.0531061113
 30
0.0
 10
106.1095033263
 20
91.4026982341
 30
0.0
 10
106.0894367658
 20
91.8098794512
 30
0.0
 10
106.0693189723
 20
92.2709314944
 30
0.0
 10
106.0413093353
 20
92.9807842088
 30
0.0
 10
106.0071100556
 20
93.9675241134
 30
0.0
 10
105.9673113233
 20
95.2448941555
 30
0.0
 10
105.9274199564
 20
96.6121649978
 30
0.0
 10
105.8874836594
 20
98.0195317403
 30
0.0
 10
105.8475562607
 20
99.4157294794
 30
0.0
 10
105.8137058134
 20
100.5490969956
 30
0.0
 10
105.7861976362
 20
101.4121173618
 30
0.0
 10
105.7659906272
 20
102.0126288024
 30
0.0
 10
105.7458022148
 20
102.5738943905
 30
0.0
 10
105.7256403704
 20
103.090786981
 30
0.0
 10
105.7055146612
 20
103.558598441
 30
0.0
 10
105.6854433281
 20
103.9730490008
 30
0.0
 10
105.6654687872
 20
104.3303780843
 30
0.0
 10
105.6456040207
 20
104.6273180768
 30
0.0
 10
105.6282475862
 20
104.8356826516
 30
0.0
 10
105.6137471486
 20
104.9701336327
 30
0.0
 10
105.6038466867
 20
105.0463305434
 30
0.0
 10
105.593923411
 20
105.1059545069
 30
0.0
 10
105.5854241146
 20
105.1448104014
 30
0.0
 10
105.5778096191
 20
105.1677418189
 30
0.0
 10
105.572608839
 20
105.1795720844
 30
0.0
 10
105.5663735014
 20
105.1879253572
 30
0.0
 10
105.5619505316
 20
105.1879188068
 30
0.0
  0
SPLINE
  5
525
100
AcDbEntity
  8
0
100
AcDbSpline
 62
7
  6
CONTINUOUS
 70
0
 71
3
 72
9
 73
5
 74
0
 42
0.0000001
 43
0.0000001
 44
0.0000000001
 40
0.0
 40
0.0
 40
0.0
 40
0.0
 40
0.1958829603
 40
1.0
 40
1.0
 40
1.0
 40
1.0
 10
103.5450657523
 20
90.2490902147
 30
0.0
 10
103.5440251883
 20
90.2510848095
 30
0.0
 10
103.5392696712
 20
90.2615555242
 30
0.0
 10
103.5360413512
 20
90.2726389498
 30
0.0
 10
103.5336856935
 20
90.2815687139
 30
0.0
  0
SPLINE
  5
526
100
AcDbEntity
  8
0
100
AcDbSpline
 62
7
  6
CONTINUOUS
 70
0
 71
3
 72
18
 73
14
 74
0
 42
0.0000001
 43
0.0000001
 44
0.0000000001
 40
0.0
 40
0.0
 40
0.0
 40
0.0
 40
0.0146000511
 40
0.0369803171
 40
0.0670436713
 40
0.1045894835
 40
0.1493738874
 40
0.2010819123
 40
0.3238059884
 40
0.469358248
 40
0.6336907609
 40
0.8122287981
 40
1.0
 40
1.0
 40
1.0
 40
1.0
 10
103.5336856935
 20
90.2815687139
 30
0.0
 10
103.5256101847
 20
90.3121811357
 30
0.0
 10
103.5126047285
 20
90.3915188539
 30
0.0
 10
103.4955484499
 20
90.5358284529
 30
0.0
 10
103.4784451936
 20
90.7302736957
 30
0.0
 10
103.4610043346
 20
90.9733603078
 30
0.0
 10
103.4435080644
 20
91.2635002805
 30
0.0
 10
103.4186238852
 20
91.7382121215
 30
0.0
 10
103.3884865036
 20
92.4314439926
 30
0.0
 10
103.3537283271
 20
93.3688976155
 30
0.0
 10
103.3188305509
 20
94.4274515265
 30
0.0
 10
103.2838253345
 20
95.5775961037
 30
0.0
 10
103.2608177042
 20
96.3715908348
 30
0.0
 10
103.249141204
 20
96.7785981739
 30
0.0
  0
SPLINE
  5
527
100
AcDbEntity
  8
0
100
AcDbSpline
 62
7
  6
CONTINUOUS
 70
0
 71
3
 72
9
 73
5
 74
0
 42
0.0000001
 43
0.0000001
 44
0.0000000001
 40
0.0
 40
0.0
 40
0.0
 40
0.0
 40
0.2026356799
 40
1.0
 40
1.0
 40
1.0
 40
1.0
 10
107.5555921831
 20
90.2490939746
 30
0.0
 10
107.5547305481
 20
90.2507472854
 30
0.0
 10
107.5508489963
 20
90.2590987933
 30
0.0
 10
107.5480516779
 20
90.267905807
 30
0.0
 10
107.5460313959
 20
90.2749583505
 30
0.0
  0
SPLINE
  5
528
100
AcDbEntity
  8
0
100
AcDbSpline
 62
7
  6
CONTINUOUS
 70
0
 71
3
 72
38
 73
34
 74
0
 42
0.0000001
 43
0.0000001
 44
0.0000000001
 40
0.0
 40
0.0
 40
0.0
 40
0.0
 40
0.003002063
 40
0.0071025432
 40
0.0185856379
 40
0.0343773306
 40
0.0543446561
 40
0.0783139331
 40
0.1060689784
 40
0.1373640462
 40
0.1719144563
 40
0.2495168946
 40
0.3360847722
 40
0.428501889
 40
0.5234406341
 40
0.6174823279
 40
0.7072407253
 40
0.7494948767
 40
0.7894844189
 40
0.8268497412
 40
0.861253812
 40
0.8923864499
 40
0.9199691244
 40
0.9437522692
 40
0.9635271886
 40
0.9791164455
 40
0.9853011004
 40
0.9903951011
 40
0.9943903442
 40
0.9972897729
 40
0.9983345751
 40
0.9991181182
 40
1.0
 40
1.0
 40
1.0
 40
1.0
 10
107.5460313959
 20
90.2749583505
 30
0.0
 10
107.5419149063
 20
90.2893284837
 30
0.0
 10
107.534431821
 20
90.3239492768
 30
0.0
 10
107.519672281
 20
90.4153105074
 30
0.0
 10
107.5026104791
 20
90.5706853616
 30
0.0
 10
107.4830325662
 20
90.8050911645
 30
0.0
 10
107.4633312773
 20
91.1018606666
 30
0.0
 10
107.4434386997
 20
91.4582795061
 30
0.0
 10
107.4234764918
 20
91.8711781226
 30
0.0
 10
107.4034558847
 20
92.3368124807
 30
0.0
 10
107.3756257487
 20
93.0505392467
 30
0.0
 10
107.3416191204
 20
94.0394453672
 30
0.0
 10
107.302018634
 20
95.3164534902
 30
0.0
 10
107.2623303783
 20
96.6798198669
 30
0.0
 10
107.2226011368
 20
98.080414166
 30
0.0
 10
107.1828826951
 20
99.4677649366
 30
0.0
 10
107.1492025577
 20
100.5928495832
 30
0.0
 10
107.1218352232
 20
101.448859429
 30
0.0
 10
107.1017362395
 20
102.044087583
 30
0.0
 10
107.0816567537
 20
102.6002050779
 30
0.0
 10
107.0616025526
 20
103.1121917022
 30
0.0
 10
107.0415856168
 20
103.575428733
 30
0.0
 10
107.021621446
 20
103.9857290421
 30
0.0
 10
107.0017547564
 20
104.339405933
 30
0.0
 10
106.98199621
 20
104.6332622099
 30
0.0
 10
106.9647335839
 20
104.8394373463
 30
0.0
 10
106.9503093232
 20
104.9724639414
 30
0.0
 10
106.940463361
 20
105.0478509591
 30
0.0
 10
106.9305940665
 20
105.106837514
 30
0.0
 10
106.9221381475
 20
105.1452769423
 30
0.0
 10
106.9145655346
 20
105.1679556436
 30
0.0
 10
106.9093864516
 20
105.1796736712
 30
0.0
 10
106.9031839332
 20
105.1879298891
 30
0.0
 10
106.8987927991
 20
105.1879239306
 30
0.0
  0
SPLINE
  5
529
100
AcDbEntity
  8
0
100
AcDbSpline
 62
7
  6
CONTINUOUS
 70
0
 71
3
 72
16
 73
12
 74
0
 42
0.0000001
 43
0.0000001
 44
0.0000000001
 40
0.0
 40
0.0
 40
0.0
 40
0.0
 40
0.0429064032
 40
0.0735481776
 40
0.1113476534
 40
0.2083782519
 40
0.3319494328
 40
0.4780593995
 40
0.6417825142
 40
0.8178342386
 40
1.0
 40
1.0
 40
1.0
 40
1.0
 10
117.0045730045
 20
115.3129282302
 30
0.0
 10
117.0167227063
 20
115.312927493
 30
0.0
 10
117.0363244332
 20
115.3002039652
 30
0.0
 10
117.0560907209
 20
115.2761995026
 30
0.0
 10
117.0810723281
 20
115.2361816849
 30
0.0
 10
117.1098784588
 20
115.1687115981
 30
0.0
 10
117.1405588518
 20
115.0693627559
 30
0.0
 10
117.1670537131
 20
114.949414893
 30
0.0
 10
117.1876431172
 20
114.8132827537
 30
0.0
 10
117.2006410409
 20
114.6659722554
 30
0.0
 10
117.2036143373
 20
114.5645116661
 30
0.0
 10
117.2036161195
 20
114.5129282302
 30
0.0
  0
SPLINE
  5
52A
100
AcDbEntity
  8
0
100
AcDbSpline
 62
7
  6
CONTINUOUS
 70
0
 71
3
 72
11
 73
7
 74
0
 42
0.0000001
 43
0.0000001
 44
0.0000000001
 40
0.0
 40
0.0
 40
0.0
 40
0.0
 40
0.2475768385
 40
0.4965800227
 40
0.7475865283
 40
1.0
 40
1.0
 40
1.0
 40
1.0
 10
116.6128627171
 20
114.9129282302
 30
0.0
 10
116.6638500936
 20
114.9129282302
 30
0.0
 10
116.7672691139
 20
114.9338989686
 30
0.0
 10
116.8974752623
 20
115.0232359681
 30
0.0
 10
116.9843343138
 20
115.1561652166
 30
0.0
 10
117.0045730045
 20
115.2609447701
 30
0.0
 10
117.0045730045
 20
115.3129282302
 30
0.0
  0
SPLINE
  5
52B
100
AcDbEntity
  8
0
100
AcDbSpline
 62
7
  6
CONTINUOUS
 70
0
 71
3
 72
12
 73
8
 74
0
 42
0.0000001
 43
0.0000001
 44
0.0000000001
 40
0.0
 40
0.0
 40
0.0
 40
0.0
 40
0.1524267434
 40
0.2541915024
 40
0.3739569013
 40
0.6631022524
 40
1.0
 40
1.0
 40
1.0
 40
1.0
 10
116.6128627171
 20
114.9129282302
 30
0.0
 10
116.6373215775
 20
114.9129275017
 30
0.0
 10
116.6766304252
 20
114.8912662812
 30
0.0
 10
116.71783314
 20
114.8483371594
 30
0.0
 10
116.764621617
 20
114.7803505195
 30
0.0
 10
116.8094550345
 20
114.6679165912
 30
0.0
 10
116.8225131494
 20
114.5669878701
 30
0.0
 10
116.822521465
 20
114.5129282302
 30
0.0
  0
SPLINE
  5
52C
100
AcDbEntity
  8
0
100
AcDbSpline
 62
7
  6
CONTINUOUS
 70
0
 71
3
 72
9
 73
5
 74
0
 42
0.0000001
 43
0.0000001
 44
0.0000000001
 40
0.0
 40
0.0
 40
0.0
 40
0.0
 40
0.5008060106
 40
1.0
 40
1.0
 40
1.0
 40
1.0
 10
117.2036161195
 20
113.1114563677
 30
0.0
 10
117.2036191253
 20
113.0317137978
 30
0.0
 10
117.2400274263
 20
112.8705559919
 30
0.0
 10
117.3397305253
 20
112.7402163342
 30
0.0
 10
117.3989458817
 20
112.687192299
 30
0.0
  0
SPLINE
  5
52D
100
AcDbEntity
  8
0
100
AcDbSpline
 62
7
  6
CONTINUOUS
 70
0
 71
3
 72
16
 73
12
 74
0
 42
0.0000001
 43
0.0000001
 44
0.0000000001
 40
0.0
 40
0.0
 40
0.0
 40
0.0
 40
0.0081200215
 40
0.0218974754
 40
0.071178667
 40
0.1509261509
 40
0.2612329336
 40
0.4018614323
 40
0.5723227931
 40
0.7719424983
 40
1.0
 40
1.0
 40
1.0
 40
1.0
 10
103.3566876995
 20
90.237944207
 30
0.0
 10
103.3541250269
 20
90.2379464815
 30
0.0
 10
103.3479169808
 20
90.2427139959
 30
0.0
 10
103.3382589979
 20
90.2627842168
 30
0.0
 10
103.3268471082
 20
90.3069306904
 30
0.0
 10
103.3143221193
 20
90.3812138212
 30
0.0
 10
103.301325798
 20
90.484886622
 30
0.0
 10
103.2882099682
 20
90.6171998351
 30
0.0
 10
103.2749817419
 20
90.7778549417
 30
0.0
 10
103.2616990881
 20
90.9661573099
 30
0.0
 10
103.253363474
 20
91.1008770518
 30
0.0
 10
103.2491402426
 20
91.1727278445
 30
0.0
  0
SPLINE
  5
52E
100
AcDbEntity
  8
0
100
AcDbSpline
 62
7
  6
CONTINUOUS
 70
0
 71
3
 72
9
 73
5
 74
0
 42
0.0000001
 43
0.0000001
 44
0.0000000001
 40
0.0
 40
0.0
 40
0.0
 40
0.0
 40
0.4998796216
 40
1.0
 40
1.0
 40
1.0
 40
1.0
 10
116.822521465
 20
113.1114563677
 30
0.0
 10
116.8225274488
 20
112.9802337948
 30
0.0
 10
116.8782525179
 20
112.7148452536
 30
0.0
 10
117.0353207473
 20
112.4947243393
 30
0.0
 10
117.1305486761
 20
112.4043495865
 30
0.0
  0
SPLINE
  5
52F
100
AcDbEntity
  8
0
100
AcDbSpline
 62
7
  6
CONTINUOUS
 70
0
 71
3
 72
9
 73
5
 74
0
 42
0.0000001
 43
0.0000001
 44
0.0000000001
 40
0.0
 40
0.0
 40
0.0
 40
0.0
 40
0.4982468894
 40
1.0
 40
1.0
 40
1.0
 40
1.0
 10
117.8185237524
 20
112.2886641615
 30
0.0
 10
117.8727798823
 20
112.233327842
 30
0.0
 10
117.9605244711
 20
112.0994897278
 30
0.0
 10
117.9907639798
 20
111.9424427787
 30
0.0
 10
117.9907646656
 20
111.8644000928
 30
0.0
  0
SPLINE
  5
530
100
AcDbEntity
  8
0
100
AcDbSpline
 62
7
  6
CONTINUOUS
 70
0
 71
3
 72
9
 73
5
 74
0
 42
0.0000001
 43
0.0000001
 44
0.0000000001
 40
0.0
 40
0.0
 40
0.0
 40
0.0
 40
0.1903238011
 40
1.0
 40
1.0
 40
1.0
 40
1.0
 10
108.8924341247
 20
90.2491052627
 30
0.0
 10
108.8912237911
 20
90.2514302465
 30
0.0
 10
108.8856329243
 20
90.2640410995
 30
0.0
 10
108.8820279008
 20
90.2774141799
 30
0.0
 10
108.8793647863
 20
90.2882424327
 30
0.0
  0
SPLINE
  5
531
100
AcDbEntity
  8
0
100
AcDbSpline
 62
7
  6
CONTINUOUS
 70
0
 71
3
 72
37
 73
33
 74
0
 42
0.0000001
 43
0.0000001
 44
0.0000000001
 40
0.0
 40
0.0
 40
0.0
 40
0.0
 40
0.0033643794
 40
0.0078173828
 40
0.0199659418
 40
0.0363622382
 40
0.0568682334
 40
0.0813065945
 40
0.1094593273
 40
0.1758824652
 40
0.2537782558
 40
0.3403745841
 40
0.432587798
 40
0.5271334293
 40
0.6206436884
 40
0.7097878197
 40
0.7517217522
 40
0.7913912119
 40
0.8284442371
 40
0.8625490899
 40
0.8934029904
 40
0.9207314159
 40
0.9442913449
 40
0.9638769076
 40
0.9793155383
 40
0.9854396669
 40
0.9904843697
 40
0.994441071
 40
0.9973122863
 40
0.9983471521
 40
0.9991236813
 40
1.0
 40
1.0
 40
1.0
 40
1.0
 10
108.8793647863
 20
90.2882424327
 30
0.0
 10
108.8753676295
 20
90.3044949158
 30
0.0
 10
108.8679557159
 20
90.3427081377
 30
0.0
 10
108.8533587701
 20
90.4409612095
 30
0.0
 10
108.8363182164
 20
90.6042910368
 30
0.0
 10
108.816811521
 20
90.847520526
 30
0.0
 10
108.7971749163
 20
91.152054034
 30
0.0
 10
108.7773718956
 20
91.5151525712
 30
0.0
 10
108.7493139328
 20
92.1065527121
 30
0.0
 10
108.7153404175
 20
92.9638853219
 30
0.0
 10
108.6761102455
 20
94.1119529766
 30
0.0
 10
108.6367253157
 20
95.3883807786
 30
0.0
 10
108.5972360727
 20
96.7476691819
 30
0.0
 10
108.5577158128
 20
98.1413655035
 30
0.0
 10
108.5182064605
 20
99.519788121
 30
0.0
 10
108.4846972653
 20
100.6365473883
 30
0.0
 10
108.4574710882
 20
101.4855300864
 30
0.0
 10
108.4374803404
 20
102.0754727338
 30
0.0
 10
108.4175099755
 20
102.6264450584
 30
0.0
 10
108.3975635096
 20
103.1335325861
 30
0.0
 10
108.377655735
 20
103.5922040551
 30
0.0
 10
108.3577985122
 20
103.9983653057
 30
0.0
 10
108.3380405004
 20
104.3483998734
 30
0.0
 10
108.3183874214
 20
104.6391837931
 30
0.0
 10
108.301219533
 20
104.8431769964
 30
0.0
 10
108.2868716264
 20
104.9747845224
 30
0.0
 10
108.2770791237
 20
105.0493645608
 30
0.0
 10
108.2672651335
 20
105.107716996
 30
0.0
 10
108.2588524027
 20
105.1457432772
 30
0.0
 10
108.2513221029
 20
105.1681689172
 30
0.0
 10
108.2461633057
 20
105.1797745935
 30
0.0
 10
108.2399947736
 20
105.1879304059
 30
0.0
 10
108.2356353463
 20
105.1879276404
 30
0.0
  0
SPLINE
  5
532
100
AcDbEntity
  8
0
100
AcDbSpline
 62
7
  6
CONTINUOUS
 70
0
 71
3
 72
9
 73
5
 74
0
 42
0.0000001
 43
0.0000001
 44
0.0000000001
 40
0.0
 40
0.0
 40
0.0
 40
0.0
 40
0.5001511602
 40
1.0
 40
1.0
 40
1.0
 40
1.0
 10
117.5518174436
 20
112.0058214491
 30
0.0
 10
117.5709529059
 20
111.9877780977
 30
0.0
 10
117.6026287397
 20
111.9438500401
 30
0.0
 10
117.6139722327
 20
111.890684926
 30
0.0
 10
117.6139720003
 20
111.8644000928
 30
0.0
  0
SPLINE
  5
533
100
AcDbEntity
  8
0
100
AcDbSpline
 62
7
  6
CONTINUOUS
 70
0
 71
3
 72
17
 73
13
 74
0
 42
0.0000001
 43
0.0000001
 44
0.0000000001
 40
0.0
 40
0.0
 40
0.0
 40
0.0
 40
0.1814458176
 40
0.3586493823
 40
0.5259951528
 40
0.6762806573
 40
0.8014233268
 40
0.8947036157
 40
0.9288478345
 40
0.955694902
 40
0.9779384902
 40
1.0
 40
1.0
 40
1.0
 40
1.0
 10
117.9907646656
 20
111.2011821918
 30
0.0
 10
117.9907645128
 20
111.1484634111
 30
0.0
 10
117.9881784508
 20
111.0442369055
 30
0.0
 10
117.9759616835
 20
110.8918057434
 30
0.0
 10
117.955360647
 20
110.7494237655
 30
0.0
 10
117.927177787
 20
110.6236589226
 30
0.0
 10
117.893104916
 20
110.5220364275
 30
0.0
 10
117.8595794501
 20
110.4558332655
 30
0.0
 10
117.8299033535
 20
110.4219103305
 30
0.0
 10
117.8095705328
 20
110.4079998689
 30
0.0
 10
117.7884185669
 20
110.4042195739
 30
0.0
 10
117.7757883118
 20
110.4088996657
 30
0.0
 10
117.7703171797
 20
110.4122394233
 30
0.0
  0
LINE
  5
534
100
AcDbEntity
  8
0
100
AcDbLine
 62
7
  6
CONTINUOUS
 10
104.8819080452
 20
90.2490937699
 11
104.8793647292
 21
90.2545028627
  0
SPLINE
  5
535
100
AcDbEntity
  8
0
100
AcDbSpline
 62
7
  6
CONTINUOUS
 70
0
 71
3
 72
40
 73
36
 74
0
 42
0.0000001
 43
0.0000001
 44
0.0000000001
 40
0.0
 40
0.0
 40
0.0
 40
0.0
 40
0.0022761046
 40
0.0056639618
 40
0.0101725059
 40
0.0157972167
 40
0.030358274
 40
0.049227076
 40
0.0722379675
 40
0.0991789588
 40
0.1298070666
 40
0.1638375451
 40
0.200960574
 40
0.2408318767
 40
0.3273323908
 40
0.4201578853
 40
0.5158935045
 40
0.6110169916
 40
0.7020286861
 40
0.7449368964
 40
0.7855807495
 40
0.8235848021
 40
0.8586009536
 40
0.8903043803
 40
0.918407152
 40
0.9426480585
 40
0.9628100062
 40
0.9787088397
 40
0.9850170452
 40
0.9902116838
 40
0.994286772
 40
0.997244067
 40
0.998308952
 40
0.9991064187
 40
1.0
 40
1.0
 40
1.0
 40
1.0
 10
104.8793647292
 20
90.2545028627
 30
0.0
 10
104.8748984084
 20
90.2649368915
 30
0.0
 10
104.8673080828
 20
90.2922990764
 30
0.0
 10
104.8575020027
 20
90.3420312654
 30
0.0
 10
104.84760211
 20
90.4087640708
 30
0.0
 10
104.8329333416
 20
90.5310216111
 30
0.0
 10
104.8155179604
 20
90.7250274836
 30
0.0
 10
104.7955946064
 20
91.0057619412
 30
0.0
 10
104.7755596553
 20
91.3483592893
 30
0.0
 10
104.7553968776
 20
91.7496655693
 30
0.0
 10
104.735181977
 20
92.2059801232
 30
0.0
 10
104.7149192864
 20
92.7131087845
 30
0.0
 10
104.6946302103
 20
93.2663609924
 30
0.0
 10
104.6667887027
 20
94.0811503206
 30
0.0
 10
104.6326098945
 20
95.1736412901
 30
0.0
 10
104.5925072184
 20
96.5446452043
 30
0.0
 10
104.5523666069
 20
97.9586640431
 30
0.0
 10
104.5122298081
 20
99.363634738
 30
0.0
 10
104.4782094782
 20
100.5052497492
 30
0.0
 10
104.4505606123
 20
101.3752700493
 30
0.0
 10
104.4302455715
 20
101.9810674127
 30
0.0
 10
104.4099483545
 20
102.5474883797
 30
0.0
 10
104.3896786884
 20
103.0692984539
 30
0.0
 10
104.3694445818
 20
103.5416969763
 30
0.0
 10
104.3492655239
 20
103.9603130306
 30
0.0
 10
104.3291839887
 20
104.3213075136
 30
0.0
 10
104.3092118826
 20
104.6213457164
 30
0.0
 10
104.2917628607
 20
104.8319088082
 30
0.0
 10
104.277185577
 20
104.9677913969
 30
0.0
 10
104.2672302721
 20
105.0448021923
 30
0.0
 10
104.2572540532
 20
105.1050678873
 30
0.0
 10
104.2487107194
 20
105.1443422843
 30
0.0
 10
104.2410552734
 20
105.1675261417
 30
0.0
 10
104.2358296458
 20
105.1794673053
 30
0.0
 10
104.2295648218
 20
105.1879192514
 30
0.0
 10
104.2251089969
 20
105.1879140707
 30
0.0
  0
SPLINE
  5
536
100
AcDbEntity
  8
0
100
AcDbSpline
 62
7
  6
CONTINUOUS
 70
0
 71
3
 72
16
 73
12
 74
0
 42
0.0000001
 43
0.0000001
 44
0.0000000001
 40
0.0
 40
0.0
 40
0.0
 40
0.0
 40
0.3401864768
 40
0.5028198963
 40
0.6514256658
 40
0.7743165301
 40
0.8231334712
 40
0.8633754874
 40
0.8974645171
 40
0.9293434923
 40
1.0
 40
1.0
 40
1.0
 40
1.0
 10
117.6139720003
 20
111.2011821918
 30
0.0
 10
117.6334668795
 20
111.1448692121
 30
0.0
 10
117.6583056182
 20
111.0600301675
 30
0.0
 10
117.6769658294
 20
110.9472590838
 30
0.0
 10
117.680880702
 20
110.8711905725
 30
0.0
 10
117.6743549787
 20
110.8147879398
 30
0.0
 10
117.6610270173
 20
110.7798946931
 30
0.0
 10
117.6486685035
 20
110.7618643225
 30
0.0
 10
117.6332602607
 20
110.7506123305
 30
0.0
 10
117.6091938693
 20
110.7454887165
 30
0.0
 10
117.591181779
 20
110.7524641667
 30
0.0
 10
117.5804609597
 20
110.7586495848
 30
0.0
  0
SPLINE
  5
537
100
AcDbEntity
  8
0
100
AcDbSpline
 62
7
  6
CONTINUOUS
 70
0
 71
3
 72
9
 73
5
 74
0
 42
0.0000001
 43
0.0000001
 44
0.0000000001
 40
0.0
 40
0.0
 40
0.0
 40
0.0
 40
0.4961921529
 40
1.0
 40
1.0
 40
1.0
 40
1.0
 10
117.5804609596
 20
110.7586495846
 30
0.0
 10
117.6391646725
 20
110.7247569815
 30
0.0
 10
117.7402303756
 20
110.6214424142
 30
0.0
 10
117.772306189
 20
110.4810362713
 30
0.0
 10
117.7703171849
 20
110.4122394233
 30
0.0
  0
SPLINE
  5
538
100
AcDbEntity
  8
0
100
AcDbSpline
 62
7
  6
CONTINUOUS
 70
0
 71
3
 72
42
 73
38
 74
0
 42
0.0000001
 43
0.0000001
 44
0.0000000001
 40
0.0
 40
0.0
 40
0.0
 40
0.0
 40
0.0008488782
 40
0.0016402147
 40
0.0027051707
 40
0.005677799
 40
0.0097871064
 40
0.0150312087
 40
0.0214001746
 40
0.0288822628
 40
0.0374624593
 40
0.0578317456
 40
0.0823242531
 40
0.1107111269
 40
0.1427318372
 40
0.1780868599
 40
0.216447387
 40
0.2574558487
 40
0.3007288624
 40
0.3924423462
 40
0.48817848
 40
0.5843712899
 40
0.6774369521
 40
0.7639149693
 40
0.8036657113
 40
0.840590409
 40
0.8743422107
 40
0.9046092964
 40
0.9311091308
 40
0.953596779
 40
0.971866752
 40
0.9793656674
 40
0.9857516586
 40
0.9910129678
 40
0.9951396233
 40
0.998129543
 40
1.0
 40
1.0
 40
1.0
 40
1.0
 10
104.2484451697
 20
89.3829282302
 30
0.0
 10
104.2437270278
 20
89.3829282302
 30
0.0
 10
104.2375797576
 20
89.3928428092
 30
0.0
 10
104.2323959126
 20
89.4059387046
 30
0.0
 10
104.2246914485
 20
89.4321828145
 30
0.0
 10
104.216106136
 20
89.4763482861
 30
0.0
 10
104.2060774117
 20
89.5442851381
 30
0.0
 10
104.1960741237
 20
89.6310487598
 30
0.0
 10
104.1859407741
 20
89.7367210562
 30
0.0
 10
104.1757836589
 20
89.8609777595
 30
0.0
 10
104.1613602301
 20
90.0629588142
 30
0.0
 10
104.1437924127
 20
90.3594817382
 30
0.0
 10
104.1235802357
 20
90.7661061028
 30
0.0
 10
104.1032904838
 20
91.2375546642
 30
0.0
 10
104.0829423298
 20
91.7694242101
 30
0.0
 10
104.0625564385
 20
92.3567631636
 30
0.0
 10
104.0421447193
 20
92.9940833864
 30
0.0
 10
104.0217145282
 20
93.6754328648
 30
0.0
 10
103.9939166976
 20
94.6532340206
 30
0.0
 10
103.9597158686
 20
95.935155884
 30
0.0
 10
103.9193569111
 20
97.511149442
 30
0.0
 10
103.8789964488
 20
99.0946610566
 30
0.0
 10
103.8386780448
 20
100.6266992012
 30
0.0
 10
103.8042939055
 20
101.8450741355
 30
0.0
 10
103.7762720079
 20
102.751463387
 30
0.0
 10
103.7558716942
 20
103.3648895489
 30
0.0
 10
103.7355023593
 20
103.9255745199
 30
0.0
 10
103.7151776651
 20
104.4282765426
 30
0.0
 10
103.6949307014
 20
104.8683192973
 30
0.0
 10
103.6747703801
 20
105.2416006701
 30
0.0
 10
103.6572029997
 20
105.509255209
 30
0.0
 10
103.6426792229
 20
105.6873833994
 30
0.0
 10
103.632567901
 20
105.7933329659
 30
0.0
 10
103.6224955899
 20
105.880405989
 30
0.0
 10
103.6126394852
 20
105.9485790185
 30
0.0
 10
103.6028066299
 20
105.9974344818
 30
0.0
 10
103.5952527101
 20
106.0236736853
 30
0.0
 10
103.5904533899
 20
106.0328957712
 30
0.0
  0
SPLINE
  5
539
100
AcDbEntity
  8
0
100
AcDbSpline
 62
7
  6
CONTINUOUS
 70
0
 71
3
 72
42
 73
38
 74
0
 42
0.0000001
 43
0.0000001
 44
0.0000000001
 40
0.0
 40
0.0
 40
0.0
 40
0.0
 40
0.0008488514
 40
0.0016401781
 40
0.0027051266
 40
0.0056777551
 40
0.0097870942
 40
0.0150312447
 40
0.0214002632
 40
0.0288823992
 40
0.0374626657
 40
0.0578320949
 40
0.0823246918
 40
0.1107115982
 40
0.1427322789
 40
0.1780871148
 40
0.2164473686
 40
0.2574555682
 40
0.3007284269
 40
0.3924419026
 40
0.4881779514
 40
0.5843707227
 40
0.6774362519
 40
0.7639149122
 40
0.8036659809
 40
0.8405908289
 40
0.8743426703
 40
0.9046097458
 40
0.9311094698
 40
0.9535969961
 40
0.9718668226
 40
0.9793657049
 40
0.9857516871
 40
0.991012996
 40
0.995139643
 40
0.9981295463
 40
1.0
 40
1.0
 40
1.0
 40
1.0
 10
103.3333511974
 20
106.0429282302
 30
0.0
 10
103.3380691899
 20
106.0429282302
 30
0.0
 10
103.3442161487
 20
106.0330137095
 30
0.0
 10
103.3494000168
 20
106.0199181249
 30
0.0
 10
103.3571045932
 20
105.9936741211
 30
0.0
 10
103.3656901995
 20
105.9495085918
 30
0.0
 10
103.3757190767
 20
105.8815712996
 30
0.0
 10
103.3857224423
 20
105.7948069545
 30
0.0
 10
103.3958558086
 20
105.6891338332
 30
0.0
 10
103.4060129622
 20
105.5648761893
 30
0.0
 10
103.4204364264
 20
105.3628936937
 30
0.0
 10
103.4380043372
 20
105.0663691066
 30
0.0
 10
103.4582165689
 20
104.6597432894
 30
0.0
 10
103.478506308
 20
104.1882942361
 30
0.0
 10
103.4988543906
 20
103.6564257354
 30
0.0
 10
103.5192402075
 20
103.0690895309
 30
0.0
 10
103.5396517939
 20
102.4317733501
 30
0.0
 10
103.5600818892
 20
101.7504277401
 30
0.0
 10
103.5878796789
 20
100.7726289944
 30
0.0
 10
103.6220805019
 20
99.4907085723
 30
0.0
 10
103.6624394647
 20
97.9147158223
 30
0.0
 10
103.7027999142
 20
96.3312057095
 30
0.0
 10
103.7431183798
 20
94.7991650174
 30
0.0
 10
103.7775026545
 20
93.5807854923
 30
0.0
 10
103.805524766
 20
92.6743900622
 30
0.0
 10
103.8259251885
 20
92.0609610602
 30
0.0
 10
103.8462945811
 20
91.5002751181
 30
0.0
 10
103.8666192875
 20
90.9975735695
 30
0.0
 10
103.8868663943
 20
90.5575321911
 30
0.0
 10
103.9070263532
 20
90.1842529289
 30
0.0
 10
103.9245934755
 20
89.9166000586
 30
0.0
 10
103.9391178247
 20
89.7384729759
 30
0.0
 10
103.9492295847
 20
89.6325236877
 30
0.0
 10
103.9593019161
 20
89.5454507909
 30
0.0
 10
103.9691570122
 20
89.4772777382
 30
0.0
 10
103.9789880323
 20
89.4284221875
 30
0.0
 10
103.9865410377
 20
89.4021826557
 30
0.0
 10
103.9913406286
 20
89.3929607324
 30
0.0
  0
SPLINE
  5
53A
100
AcDbEntity
  8
0
100
AcDbSpline
 62
7
  6
CONTINUOUS
 70
0
 71
3
 72
42
 73
38
 74
0
 42
0.0000001
 43
0.0000001
 44
0.0000000001
 40
0.0
 40
0.0
 40
0.0
 40
0.0
 40
0.0008489757
 40
0.0016403189
 40
0.0027052736
 40
0.0056778895
 40
0.0097871773
 40
0.0150312598
 40
0.0214002011
 40
0.0288822554
 40
0.0374623932
 40
0.0578315535
 40
0.0823239711
 40
0.1107108113
 40
0.1427315408
 40
0.17808669
 40
0.2164474278
 40
0.257456197
 40
0.3007294396
 40
0.3924428937
 40
0.4881790718
 40
0.584371845
 40
0.6774375555
 40
0.7639151613
 40
0.8036656414
 40
0.8405901655
 40
0.8743419053
 40
0.9046089844
 40
0.9311089053
 40
0.9535966471
 40
0.9718667508
 40
0.9793657064
 40
0.9857517289
 40
0.991013055
 40
0.9951397003
 40
0.9981295723
 40
1.0
 40
1.0
 40
1.0
 40
1.0
 10
104.6701938538
 20
106.0429282302
 30
0.0
 10
104.6749125375
 20
106.0429282302
 30
0.0
 10
104.6810615821
 20
106.0330144275
 30
0.0
 10
104.6862452502
 20
106.0199174655
 30
0.0
 10
104.6939492348
 20
105.9936734708
 30
0.0
 10
104.7025330656
 20
105.9495077318
 30
0.0
 10
104.7125610659
 20
105.8815711694
 30
0.0
 10
104.7225643132
 20
105.7948078708
 30
0.0
 10
104.7326979908
 20
105.689136057
 30
0.0
 10
104.7428554081
 20
105.5648800275
 30
0.0
 10
104.7572788973
 20
105.3629001974
 30
0.0
 10
104.7748464104
 20
105.0663787853
 30
0.0
 10
104.7950585534
 20
104.6597558132
 30
0.0
 10
104.815348387
 20
104.1883078394
 30
0.0
 10
104.8356965938
 20
103.6564376768
 30
0.0
 10
104.8560825476
 20
103.0690967485
 30
0.0
 10
104.8764944088
 20
102.4317729505
 30
0.0
 10
104.8969247159
 20
101.7504193268
 30
0.0
 10
104.9247226278
 20
100.7726153649
 30
0.0
 10
104.9589234802
 20
99.4906921601
 30
0.0
 10
104.9992824356
 20
97.9146987392
 30
0.0
 10
105.0396428994
 20
96.3311868272
 30
0.0
 10
105.0799612641
 20
94.7991509173
 30
0.0
 10
105.1143452969
 20
93.5807794655
 30
0.0
 10
105.1423670495
 20
92.6743949272
 30
0.0
 10
105.1627672713
 20
92.0609715343
 30
0.0
 10
105.1831364495
 20
91.5002879091
 30
0.0
 10
105.2034611914
 20
90.9975857924
 30
0.0
 10
105.2237083415
 20
90.5575420832
 30
0.0
 10
105.2438682855
 20
90.1842589719
 30
0.0
 10
105.2614352107
 20
89.916602917
 30
0.0
 10
105.2759604319
 20
89.7384737198
 30
0.0
 10
105.2860727733
 20
89.6325237462
 30
0.0
 10
105.2961451947
 20
89.5454505685
 30
0.0
 10
105.3059991256
 20
89.4772774068
 30
0.0
 10
105.3158280507
 20
89.4284219051
 30
0.0
 10
105.3233800167
 20
89.4021821948
 30
0.0
 10
105.3281798985
 20
89.3929605851
 30
0.0
  0
SPLINE
  5
53B
100
AcDbEntity
  8
0
100
AcDbSpline
 62
7
  6
CONTINUOUS
 70
0
 71
3
 72
42
 73
38
 74
0
 42
0.0000001
 43
0.0000001
 44
0.0000000001
 40
0.0
 40
0.0
 40
0.0
 40
0.0
 40
0.0008488372
 40
0.0016401615
 40
0.0027051087
 40
0.0056777386
 40
0.0097870863
 40
0.0150312488
 40
0.0214002799
 40
0.0288824267
 40
0.0374627087
 40
0.0578321694
 40
0.0823247847
 40
0.1107116963
 40
0.142732366
 40
0.1780871539
 40
0.2164473445
 40
0.2574555037
 40
0.3007283451
 40
0.3924417974
 40
0.4881778067
 40
0.584370565
 40
0.6774360909
 40
0.7639148944
 40
0.8036660283
 40
0.840590907
 40
0.8743427577
 40
0.9046098311
 40
0.9311095295
 40
0.953597026
 40
0.9718668182
 40
0.9793656922
 40
0.9857516738
 40
0.9910129859
 40
0.9951396372
 40
0.9981295454
 40
1.0
 40
1.0
 40
1.0
 40
1.0
 10
105.5852866827
 20
89.3829282302
 30
0.0
 10
105.5805687688
 20
89.3829282302
 30
0.0
 10
105.5744220332
 20
89.3928428117
 30
0.0
 10
105.569238146
 20
89.4059382395
 30
0.0
 10
105.5615335062
 20
89.4321822364
 30
0.0
 10
105.5529477106
 20
89.4763477588
 30
0.0
 10
105.5429187412
 20
89.544285174
 30
0.0
 10
105.5329153605
 20
89.631049699
 30
0.0
 10
105.5227820249
 20
89.7367230225
 30
0.0
 10
105.5126248969
 20
89.8609808849
 30
0.0
 10
105.4982014405
 20
90.0629637033
 30
0.0
 10
105.4806334981
 20
90.3594886527
 30
0.0
 10
105.4604212641
 20
90.7661147769
 30
0.0
 10
105.4401315467
 20
91.2375639018
 30
0.0
 10
105.4197834916
 20
91.7694321047
 30
0.0
 10
105.3993977041
 20
92.3567676314
 30
0.0
 10
105.3789861566
 20
92.9940829712
 30
0.0
 10
105.3585560912
 20
93.6754279103
 30
0.0
 10
105.3307583241
 20
94.6532262062
 30
0.0
 10
105.2965575297
 20
95.9351461852
 30
0.0
 10
105.2561985993
 20
97.5111385162
 30
0.0
 10
105.2158381821
 20
99.0946483219
 30
0.0
 10
105.1755197312
 20
100.626689721
 30
0.0
 10
105.141135449
 20
101.8450703874
 30
0.0
 10
105.1131133183
 20
102.7514671472
 30
0.0
 10
105.0927128915
 20
103.3648967347
 30
0.0
 10
105.0723434917
 20
103.9255828878
 30
0.0
 10
105.0520188107
 20
104.4282843355
 30
0.0
 10
105.0317717419
 20
104.868325396
 30
0.0
 10
105.0116117818
 20
105.2416041608
 30
0.0
 10
104.9940446392
 20
105.5092566257
 30
0.0
 10
104.9795204645
 20
105.6873834818
 30
0.0
 10
104.9694088245
 20
105.7933327481
 30
0.0
 10
104.9593365115
 20
105.8804056902
 30
0.0
 10
104.9494811821
 20
105.9485787738
 30
0.0
 10
104.9396497336
 20
105.9974343236
 30
0.0
 10
104.9320965187
 20
106.0236737863
 30
0.0
 10
104.9272969932
 20
106.0328957496
 30
0.0
  0
SPLINE
  5
53C
100
AcDbEntity
  8
0
100
AcDbSpline
 62
7
  6
CONTINUOUS
 70
0
 71
3
 72
42
 73
38
 74
0
 42
0.0000001
 43
0.0000001
 44
0.0000000001
 40
0.0
 40
0.0
 40
0.0
 40
0.0
 40
0.0008484771
 40
0.0016397935
 40
0.0027047661
 40
0.0056774806
 40
0.0097869321
 40
0.0150312247
 40
0.0214003838
 40
0.0288826198
 40
0.0374630335
 40
0.0578327736
 40
0.0823255241
 40
0.1107124728
 40
0.1427330527
 40
0.1780873705
 40
0.2164469846
 40
0.2574549984
 40
0.3007279277
 40
0.392441162
 40
0.4881768094
 40
0.5843691232
 40
0.6774347321
 40
0.763914772
 40
0.8036663729
 40
0.8405914615
 40
0.8743433401
 40
0.9046103515
 40
0.9311098408
 40
0.9535971041
 40
0.9718666673
 40
0.9793655051
 40
0.9857515335
 40
0.9910129225
 40
0.9951396281
 40
0.9981295511
 40
1.0
 40
1.0
 40
1.0
 40
1.0
 10
106.92212935
 20
89.3829282302
 30
0.0
 10
106.9174134386
 20
89.3829282302
 30
0.0
 10
106.9112735636
 20
89.3928461665
 30
0.0
 10
106.9060889424
 20
89.4059377194
 30
0.0
 10
106.8983824086
 20
89.4321826025
 30
0.0
 10
106.889790783
 20
89.4763475203
 30
0.0
 10
106.8797588532
 20
89.5442866854
 30
0.0
 10
106.8697552973
 20
89.6310530707
 30
0.0
 10
106.8596232333
 20
89.7367284813
 30
0.0
 10
106.8494673252
 20
89.8609883394
 30
0.0
 10
106.8350442416
 20
90.0629739272
 30
0.0
 10
106.8174753259
 20
90.3595017828
 30
0.0
 10
106.7972629609
 20
90.7661303231
 30
0.0
 10
106.7769736027
 20
91.2375798086
 30
0.0
 10
106.7566256899
 20
91.7694449826
 30
0.0
 10
106.7362400539
 20
92.356774055
 30
0.0
 10
106.7158287603
 20
92.9940826226
 30
0.0
 10
106.69539882
 20
93.6754238782
 30
0.0
 10
106.6676010412
 20
94.65322041
 30
0.0
 10
106.6334003251
 20
95.935137351
 30
0.0
 10
106.5930415076
 20
97.5111236143
 30
0.0
 10
106.5526811856
 20
99.0946290239
 30
0.0
 10
106.5123626225
 20
100.6266749205
 30
0.0
 10
106.4779780652
 20
101.8450652232
 30
0.0
 10
106.4499555813
 20
102.7514723962
 30
0.0
 10
106.4295550055
 20
103.364905753
 30
0.0
 10
106.4091855005
 20
103.9255927469
 30
0.0
 10
106.3888608566
 20
104.4282927238
 30
0.0
 10
106.3686137839
 20
104.8683308731
 30
0.0
 10
106.3484540756
 20
105.2416058252
 30
0.0
 10
106.3308870871
 20
105.5092554605
 30
0.0
 10
106.3163629619
 20
105.6873810601
 30
0.0
 10
106.3062513114
 20
105.7933307886
 30
0.0
 10
106.2961789491
 20
105.8804046993
 30
0.0
 10
106.2863235143
 20
105.948578573
 30
0.0
 10
106.2764919066
 20
105.9974344415
 30
0.0
 10
106.2689386057
 20
106.0236739219
 30
0.0
 10
106.2641390841
 20
106.0328958486
 30
0.0
  0
SPLINE
  5
53D
100
AcDbEntity
  8
0
100
AcDbSpline
 62
7
  6
CONTINUOUS
 70
0
 71
3
 72
42
 73
38
 74
0
 42
0.0000001
 43
0.0000001
 44
0.0000000001
 40
0.0
 40
0.0
 40
0.0
 40
0.0
 40
0.0008487884
 40
0.0016401315
 40
0.0027051027
 40
0.0056777577
 40
0.009787067
 40
0.015031156
 40
0.0214000835
 40
0.0288820926
 40
0.0374621476
 40
0.0578311268
 40
0.0823233978
 40
0.110710172
 40
0.1427308995
 40
0.1780861686
 40
0.2164471611
 40
0.2574564518
 40
0.3007301356
 40
0.3924435236
 40
0.4881796499
 40
0.5843722963
 40
0.6774379672
 40
0.7639152348
 40
0.8036653854
 40
0.8405895943
 40
0.8743412176
 40
0.9046082777
 40
0.9311083102
 40
0.9535961727
 40
0.9718664659
 40
0.9793654787
 40
0.9857515647
 40
0.9910129553
 40
0.995139662
 40
0.9981295747
 40
1.0
 40
1.0
 40
1.0
 40
1.0
 10
106.0070353949
 20
106.0429282302
 30
0.0
 10
106.0117530373
 20
106.0429282302
 30
0.0
 10
106.01789841
 20
106.0330125266
 30
0.0
 10
106.0230824728
 20
106.0199175791
 30
0.0
 10
106.0307874438
 20
105.9936730911
 30
0.0
 10
106.0393743485
 20
105.9495078776
 30
0.0
 10
106.0494038622
 20
105.8815709431
 30
0.0
 10
106.0594071033
 20
105.794807634
 30
0.0
 10
106.0695399891
 20
105.6891360152
 30
0.0
 10
106.0796966176
 20
105.5648807293
 30
0.0
 10
106.0941198321
 20
105.3629026103
 30
0.0
 10
106.1116877243
 20
105.0663835234
 30
0.0
 10
106.1318998032
 20
104.6597627549
 30
0.0
 10
106.152189464
 20
104.1883159906
 30
0.0
 10
106.1725377638
 20
103.6564455682
 30
0.0
 10
106.1929238064
 20
103.0691025983
 30
0.0
 10
106.2133358368
 20
102.4317738529
 30
0.0
 10
106.23376631
 20
101.7504134973
 30
0.0
 10
106.2615643676
 20
100.7726046011
 30
0.0
 10
106.2957652278
 20
99.49067966
 30
0.0
 10
106.3361241454
 20
97.9146876734
 30
0.0
 10
106.376484579
 20
96.3311770491
 30
0.0
 10
106.4168028794
 20
94.7991440159
 30
0.0
 10
106.4511868449
 20
93.5807765536
 30
0.0
 10
106.4792083926
 20
92.6743975178
 30
0.0
 10
106.4996084907
 20
92.0609783832
 30
0.0
 10
106.5199775793
 20
91.5002972876
 30
0.0
 10
106.5403022741
 20
90.9975953265
 30
0.0
 10
106.5605491477
 20
90.5575504392
 30
0.0
 10
106.5807096933
 20
90.1842650236
 30
0.0
 10
106.5982770187
 20
89.9166069745
 30
0.0
 10
106.612801141
 20
89.7384759655
 30
0.0
 10
106.6229126681
 20
89.6325248952
 30
0.0
 10
106.6329851119
 20
89.545450626
 30
0.0
 10
106.6428410688
 20
89.4772768649
 30
0.0
 10
106.6526736698
 20
89.4284213061
 30
0.0
 10
106.6602274808
 20
89.4021822562
 30
0.0
 10
106.6650268374
 20
89.3929603891
 30
0.0
  0
SPLINE
  5
53E
100
AcDbEntity
  8
0
100
AcDbSpline
 62
7
  6
CONTINUOUS
 70
0
 71
3
 72
42
 73
38
 74
0
 42
0.0000001
 43
0.0000001
 44
0.0000000001
 40
0.0
 40
0.0
 40
0.0
 40
0.0
 40
0.000848801
 40
0.0016401541
 40
0.0027051458
 40
0.0056778935
 40
0.0097874209
 40
0.0150319239
 40
0.0214013216
 40
0.0288837075
 40
0.0374643283
 40
0.0578345672
 40
0.0823276374
 40
0.1107147915
 40
0.1427354845
 40
0.1780896946
 40
0.2164493471
 40
0.2574576782
 40
0.3007310811
 40
0.3924443831
 40
0.4881792396
 40
0.58436967
 40
0.6774341564
 40
0.7639141997
 40
0.8036657904
 40
0.8405909002
 40
0.8743428269
 40
0.9046098392
 40
0.9311093405
 40
0.9535966193
 40
0.971866331
 40
0.9793652262
 40
0.9857513603
 40
0.9910128542
 40
0.9951396144
 40
0.9981295508
 40
1.0
 40
1.0
 40
1.0
 40
1.0
 10
108.2589712356
 20
89.3829282302
 30
0.0
 10
108.2542535234
 20
89.3829282302
 30
0.0
 10
108.2481079287
 20
89.3928439318
 30
0.0
 10
108.2429238854
 20
89.4059391678
 30
0.0
 10
108.2352188604
 20
89.4321843464
 30
0.0
 10
108.2266318834
 20
89.4763514213
 30
0.0
 10
108.2166019658
 20
89.5442923672
 30
0.0
 10
108.2065983971
 20
89.6310618006
 30
0.0
 10
108.196465045
 20
89.7367404086
 30
0.0
 10
108.1863077175
 20
89.861003511
 30
0.0
 10
108.1718842476
 20
90.0629938756
 30
0.0
 10
108.1543161718
 20
90.3595275501
 30
0.0
 10
108.1341036963
 20
90.7661618521
 30
0.0
 10
108.1138141548
 20
91.237614968
 30
0.0
 10
108.0934664876
 20
91.7694814203
 30
0.0
 10
108.0730809295
 20
92.3568108455
 30
0.0
 10
108.0526697461
 20
92.9941209116
 30
0.0
 10
108.0322397276
 20
93.6754669001
 30
0.0
 10
108.0044419338
 20
94.6532683835
 30
0.0
 10
107.9702413408
 20
95.9351841733
 30
0.0
 10
107.9298829525
 20
97.5111562419
 30
0.0
 10
107.8895232012
 20
99.094640844
 30
0.0
 10
107.8492050876
 20
100.626670337
 30
0.0
 10
107.8148207656
 20
101.8450545885
 30
0.0
 10
107.7867983178
 20
102.7514620078
 30
0.0
 10
107.7663977653
 20
103.3648958053
 30
0.0
 10
107.7460283201
 20
103.9255832938
 30
0.0
 10
107.725703675
 20
104.428283701
 30
0.0
 10
107.7054566779
 20
104.8683220931
 30
0.0
 10
107.6852970113
 20
105.2415980923
 30
0.0
 10
107.6677302756
 20
105.5092490307
 30
0.0
 10
107.6532057008
 20
105.6873763638
 30
0.0
 10
107.6430937636
 20
105.7933275824
 30
0.0
 10
107.6330213169
 20
105.8804029736
 30
0.0
 10
107.6231662372
 20
105.9485778948
 30
0.0
 10
107.6133353829
 20
105.9974342556
 30
0.0
 10
107.6057824669
 20
106.0236740151
 30
0.0
 10
107.600982814
 20
106.0328958775
 30
0.0
  0
SPLINE
  5
53F
100
AcDbEntity
  8
0
100
AcDbSpline
 62
7
  6
CONTINUOUS
 70
0
 71
3
 72
42
 73
38
 74
0
 42
0.0000001
 43
0.0000001
 44
0.0000000001
 40
0.0
 40
0.0
 40
0.0
 40
0.0
 40
0.0008487502
 40
0.0016400877
 40
0.002705058
 40
0.0056777298
 40
0.0097870928
 40
0.015031257
 40
0.0214002296
 40
0.0288822015
 40
0.0374621519
 40
0.0578308799
 40
0.0823229151
 40
0.1107095634
 40
0.1427302418
 40
0.1780856378
 40
0.2164469307
 40
0.2574568488
 40
0.3007311898
 40
0.3924449772
 40
0.4881806627
 40
0.5843729404
 40
0.6774383064
 40
0.7639156415
 40
0.8036654056
 40
0.8405889994
 40
0.8743403869
 40
0.9046073943
 40
0.9311075769
 40
0.9535955969
 40
0.9718661931
 40
0.9793653121
 40
0.9857515439
 40
0.991013057
 40
0.9951397863
 40
0.99812962
 40
1.0
 40
1.0
 40
1.0
 40
1.0
 10
107.3438776628
 20
106.0429282302
 30
0.0
 10
107.3485950921
 20
106.0429282302
 30
0.0
 10
107.3547398669
 20
106.0330123629
 30
0.0
 10
107.3599239929
 20
106.0199178256
 30
0.0
 10
107.3676291669
 20
105.9936732733
 30
0.0
 10
107.3762166358
 20
105.9495078384
 30
0.0
 10
107.3862464556
 20
105.8815701082
 30
0.0
 10
107.3962497492
 20
105.7948058601
 30
0.0
 10
107.4063825467
 20
105.6891337862
 30
0.0
 10
107.4165390686
 20
105.5648790568
 30
0.0
 10
107.4309621476
 20
105.3629031573
 30
0.0
 10
107.4485298697
 20
105.0663874127
 30
0.0
 10
107.4687418534
 20
104.6597701301
 30
0.0
 10
107.4890314453
 20
104.188325741
 30
0.0
 10
107.5093798257
 20
103.6564556939
 30
0.0
 10
107.5297659515
 20
103.069110739
 30
0.0
 10
107.5501782215
 20
102.4317762614
 30
0.0
 10
107.5706089382
 20
101.7504072331
 30
0.0
 10
107.5984072806
 20
100.7725891728
 30
0.0
 10
107.6326082098
 20
99.4906610607
 30
0.0
 10
107.6729670753
 20
97.9146716623
 30
0.0
 10
107.713327376
 20
96.3311675415
 30
0.0
 10
107.7536455966
 20
94.7991381766
 30
0.0
 10
107.7880295112
 20
93.5807744209
 30
0.0
 10
107.8160508722
 20
92.6744007511
 30
0.0
 10
107.8364507965
 20
92.0609886127
 30
0.0
 10
107.8568194618
 20
91.5003126371
 30
0.0
 10
107.8771442574
 20
90.997611549
 30
0.0
 10
107.8973915101
 20
90.5575653442
 30
0.0
 10
107.9175511028
 20
90.1842765715
 30
0.0
 10
107.9351173205
 20
89.9166153092
 30
0.0
 10
107.9496449399
 20
89.7384815278
 30
0.0
 10
107.9597588514
 20
89.6325285904
 30
0.0
 10
107.9698315494
 20
89.5454528425
 30
0.0
 10
107.9796825849
 20
89.4772779002
 30
0.0
 10
107.9895061767
 20
89.4284217112
 30
0.0
 10
107.9970555014
 20
89.4021811953
 30
0.0
 10
108.0018561816
 20
89.3929603031
 30
0.0
  0
SPLINE
  5
540
100
AcDbEntity
  8
0
100
AcDbSpline
 62
7
  6
CONTINUOUS
 70
0
 71
3
 72
41
 73
37
 74
0
 42
0.0000001
 43
0.0000001
 44
0.0000000001
 40
0.0
 40
0.0
 40
0.0
 40
0.0
 40
0.0008989688
 40
0.001701422
 40
0.0027728404
 40
0.0057505384
 40
0.0098565949
 40
0.0150893706
 40
0.0214416119
 40
0.0374567562
 40
0.0577604039
 40
0.0821729382
 40
0.1104666707
 40
0.1423829701
 40
0.1776247299
 40
0.2158657268
 40
0.2567514564
 40
0.2999013211
 40
0.3913758
 40
0.4868979867
 40
0.5829260339
 40
0.6758994063
 40
0.762371317
 40
0.8021556655
 40
0.839137145
 40
0.8729752469
 40
0.903354215
 40
0.9299944551
 40
0.9526500816
 40
0.9711131768
 40
0.9787199098
 40
0.9852214406
 40
0.9906029719
 40
0.9948570371
 40
0.9979842008
 40
1.0
 40
1.0
 40
1.0
 40
1.0
 10
104.6935299719
 20
90.2379401494
 30
0.0
 10
104.6890454947
 20
90.2379462793
 30
0.0
 10
104.6827712329
 20
90.2464782219
 30
0.0
 10
104.6775207577
 20
90.2584983075
 30
0.0
 10
104.6698334732
 20
90.2818538211
 30
0.0
 10
104.6612566781
 20
90.3214301725
 30
0.0
 10
104.6512470699
 20
90.3821690529
 30
0.0
 10
104.6412527883
 20
90.4597745026
 30
0.0
 10
104.6266128747
 20
90.5967013191
 30
0.0
 10
104.6091054523
 20
90.8088559722
 30
0.0
 10
104.5890482296
 20
91.1111567328
 30
0.0
 10
104.5688950378
 20
91.4748112761
 30
0.0
 10
104.5486333248
 20
91.8964647673
 30
0.0
 10
104.5283239806
 20
92.3721917747
 30
0.0
 10
104.5079739753
 20
92.8975791528
 30
0.0
 10
104.4875991061
 20
93.4677399532
 30
0.0
 10
104.4672052934
 20
94.0773727935
 30
0.0
 10
104.4394546198
 20
94.9524604635
 30
0.0
 10
104.4053111611
 20
96.1000332062
 30
0.0
 10
104.365023203
 20
97.5113193359
 30
0.0
 10
104.3247329099
 20
98.9300857364
 30
0.0
 10
104.2844834917
 20
100.3036876389
 30
0.0
 10
104.2501631185
 20
101.3967719813
 30
0.0
 10
104.2222007666
 20
102.2105994605
 30
0.0
 10
104.2018335704
 20
102.7619688687
 30
0.0
 10
104.1815007302
 20
103.2663868088
 30
0.0
 10
104.1612078668
 20
103.7191731944
 30
0.0
 10
104.1409907301
 20
104.1161188238
 30
0.0
 10
104.1208613317
 20
104.4535357008
 30
0.0
 10
104.1033223235
 20
104.6959840402
 30
0.0
 10
104.0888366289
 20
104.8578193809
 30
0.0
 10
104.078735234
 20
104.9545296672
 30
0.0
 10
104.0686757485
 20
105.0343863477
 30
0.0
 10
104.0587900155
 20
105.0973487165
 30
0.0
 10
104.0489772008
 20
105.1431047473
 30
0.0
 10
104.0413802069
 20
105.16786275
 30
0.0
 10
104.036731001
 20
105.176779206
 30
0.0
  0
LINE
  5
541
100
AcDbEntity
  8
0
100
AcDbLine
 62
7
  6
CONTINUOUS
 10
114.2491408921
 20
114.5129282302
 11
113.8491408921
 21
114.5129282302
  0
SPLINE
  5
542
100
AcDbEntity
  8
0
100
AcDbSpline
 62
7
  6
CONTINUOUS
 70
0
 71
3
 72
42
 73
38
 74
0
 42
0.0000001
 43
0.0000001
 44
0.0000000001
 40
0.0
 40
0.0
 40
0.0
 40
0.0
 40
0.0008487226
 40
0.0016400606
 40
0.0027050369
 40
0.0056777369
 40
0.0097871625
 40
0.0150314338
 40
0.0214005132
 40
0.0288825443
 40
0.0374625652
 40
0.0578314129
 40
0.0823234448
 40
0.1107100892
 40
0.1427308269
 40
0.1780862486
 40
0.2164475762
 40
0.25745748
 40
0.3007318375
 40
0.3924450538
 40
0.4881786924
 40
0.5843699667
 40
0.6774351661
 40
0.7639133248
 40
0.8036632225
 40
0.8405867237
 40
0.874338155
 40
0.9046052241
 40
0.9311057918
 40
0.9535941323
 40
0.9718652113
 40
0.9793644596
 40
0.9857509096
 40
0.9910126368
 40
0.9951395097
 40
0.998129514
 40
1.0
 40
1.0
 40
1.0
 40
1.0
 10
108.6807201858
 20
106.0429282302
 30
0.0
 10
108.685437462
 20
106.0429282302
 30
0.0
 10
108.6915817287
 20
106.0330121106
 30
0.0
 10
108.696765904
 20
106.0199178337
 30
0.0
 10
108.7044712413
 20
105.9936730576
 30
0.0
 10
108.7130591967
 20
105.9495072179
 30
0.0
 10
108.7230893429
 20
105.8815683817
 30
0.0
 10
108.7330927143
 20
105.7948025957
 30
0.0
 10
108.7432254946
 20
105.6891289799
 30
0.0
 10
108.7533820323
 20
105.5648729206
 30
0.0
 10
108.7678050589
 20
105.362895605
 30
0.0
 10
108.7853727679
 20
105.0663787865
 30
0.0
 10
108.8055847497
 20
104.6597608322
 30
0.0
 10
108.8258742602
 20
104.1883160966
 30
0.0
 10
108.8462225875
 20
103.6564455373
 30
0.0
 10
108.8666087241
 20
103.0690998518
 30
0.0
 10
108.8870209333
 20
102.4317650453
 30
0.0
 10
108.9074516399
 20
101.7503957359
 30
0.0
 10
108.9352498375
 20
100.7725807258
 30
0.0
 10
108.9694503623
 20
99.4906669245
 30
0.0
 10
109.0098086773
 20
97.9146974706
 30
0.0
 10
109.0501684927
 20
96.3312110462
 30
0.0
 10
109.0904865281
 20
94.799183432
 30
0.0
 10
109.1248704815
 20
93.5808151458
 30
0.0
 10
109.1528918084
 20
92.6744365661
 30
0.0
 10
109.1732916843
 20
92.0610238864
 30
0.0
 10
109.1936602269
 20
91.5003477721
 30
0.0
 10
109.2139849929
 20
90.9976438987
 30
0.0
 10
109.2342315335
 20
90.5575933435
 30
0.0
 10
109.2543925534
 20
90.1842979772
 30
0.0
 10
109.2719593993
 20
89.9166315616
 30
0.0
 10
109.2864845071
 20
89.7384929219
 30
0.0
 10
109.2965965404
 20
89.6325366819
 30
0.0
 10
109.3066691884
 20
89.5454576041
 30
0.0
 10
109.3165250574
 20
89.4772804831
 30
0.0
 10
109.3263569055
 20
89.42842304
 30
0.0
 10
109.3339102628
 20
89.4021828877
 30
0.0
 10
109.3387098198
 20
89.3929607452
 30
0.0
  0
SPLINE
  5
543
100
AcDbEntity
  8
0
100
AcDbSpline
 62
7
  6
CONTINUOUS
 70
0
 71
3
 72
41
 73
37
 74
0
 42
0.0000001
 43
0.0000001
 44
0.0000000001
 40
0.0
 40
0.0
 40
0.0
 40
0.0
 40
0.0008992058
 40
0.0017018617
 40
0.0027733725
 40
0.0057505537
 40
0.0098565434
 40
0.0150897624
 40
0.0214420623
 40
0.0374568601
 40
0.057760593
 40
0.0821731998
 40
0.1104666538
 40
0.1423833314
 40
0.1776246851
 40
0.2158660978
 40
0.2567514731
 40
0.2999016181
 40
0.3913759913
 40
0.4868981465
 40
0.5829262226
 40
0.6758996035
 40
0.7623714603
 40
0.8021557674
 40
0.8391371719
 40
0.872975543
 40
0.9033541003
 40
0.9299948476
 40
0.9526498648
 40
0.9711135389
 40
0.9787198482
 40
0.9852212393
 40
0.9906033665
 40
0.9948572673
 40
0.9979840046
 40
1.0
 40
1.0
 40
1.0
 40
1.0
 10
106.0303714983
 20
90.237935044
 30
0.0
 10
106.0258858391
 20
90.2379417
 30
0.0
 10
106.01961324
 20
90.2464793504
 30
0.0
 10
106.0143625782
 20
90.2585013859
 30
0.0
 10
106.0066763416
 20
90.2818563372
 30
0.0
 10
105.9980966897
 20
90.3214292845
 30
0.0
 10
105.9880883458
 20
90.3821679061
 30
0.0
 10
105.9780947242
 20
90.4597755342
 30
0.0
 10
105.9634545049
 20
90.5967031493
 30
0.0
 10
105.9459465772
 20
90.8088567454
 30
0.0
 10
105.9258897735
 20
91.1111566362
 30
0.0
 10
105.9057366643
 20
91.4748106111
 30
0.0
 10
105.8854744462
 20
91.8964649849
 30
0.0
 10
105.8651658119
 20
92.3721905418
 30
0.0
 10
105.8448150366
 20
92.897579881
 30
0.0
 10
105.8244408737
 20
93.4677390473
 30
0.0
 10
105.804046473
 20
94.0773736369
 30
0.0
 10
105.7762962892
 20
94.9524605179
 30
0.0
 10
105.7421524945
 20
96.1000340838
 30
0.0
 10
105.7018646318
 20
97.5113198238
 30
0.0
 10
105.6615743303
 20
98.9300864015
 30
0.0
 10
105.6213249508
 20
100.3036883665
 30
0.0
 10
105.5870045315
 20
101.396772388
 30
0.0
 10
105.5590422689
 20
102.2105991061
 30
0.0
 10
105.5386748113
 20
102.7619693238
 30
0.0
 10
105.5183426068
 20
103.2663862639
 30
0.0
 10
105.4980487078
 20
103.7191744711
 30
0.0
 10
105.4778330757
 20
104.1161176636
 30
0.0
 10
105.4577017561
 20
104.4535368385
 30
0.0
 10
105.4401646805
 20
104.6959830634
 30
0.0
 10
105.4256781038
 20
104.8578184485
 30
0.0
 10
105.4155757599
 20
104.9545287594
 30
0.0
 10
105.4055181761
 20
105.0343872395
 30
0.0
 10
105.3956319675
 20
105.0973493684
 30
0.0
 10
105.385818531
 20
105.1431038066
 30
0.0
 10
105.3782199247
 20
105.1678593468
 30
0.0
 10
105.3735725413
 20
105.1767778577
 30
0.0
  0
LINE
  5
544
100
AcDbEntity
  8
0
100
AcDbLine
 62
7
  6
CONTINUOUS
 10
114.2491408921
 20
113.1438683379
 11
113.8491408921
 21
113.1438683379
  0
LINE
  5
545
100
AcDbEntity
  8
0
100
AcDbLine
 62
7
  6
CONTINUOUS
 10
114.2491408921
 20
114.5129282302
 11
114.2491408921
 21
114.9129282302
  0
SPLINE
  5
546
100
AcDbEntity
  8
0
100
AcDbSpline
 62
7
  6
CONTINUOUS
 70
0
 71
3
 72
11
 73
7
 74
0
 42
0.0000001
 43
0.0000001
 44
0.0000000001
 40
0.0
 40
0.0
 40
0.0
 40
0.0
 40
0.2112942444
 40
0.4567767707
 40
0.7245216902
 40
1.0
 40
1.0
 40
1.0
 40
1.0
 10
127.4349273297
 20
106.9342876206
 30
0.0
 10
127.3912659627
 20
106.9817316704
 30
0.0
 10
127.307814127
 20
107.0943334269
 30
0.0
 10
127.2005281387
 20
107.2881119707
 30
0.0
 10
127.1072067399
 20
107.5104128157
 30
0.0
 10
127.0578144658
 20
107.6689535507
 30
0.0
 10
127.0367613377
 20
107.7503371558
 30
0.0
  0
SPLINE
  5
547
100
AcDbEntity
  8
0
100
AcDbSpline
 62
7
  6
CONTINUOUS
 70
0
 71
3
 72
9
 73
5
 74
0
 42
0.0000001
 43
0.0000001
 44
0.0000000001
 40
0.0
 40
0.0
 40
0.0
 40
0.0
 40
0.5120067601
 40
1.0
 40
1.0
 40
1.0
 40
1.0
 10
127.4349273297
 20
106.9342876496
 30
0.0
 10
127.5641592572
 20
106.9345162308
 30
0.0
 10
127.8181796556
 20
106.9740647847
 30
0.0
 10
128.0467760892
 20
107.0952196335
 30
0.0
 10
128.1420341109
 20
107.1733030162
 30
0.0
  0
LINE
  5
548
100
AcDbEntity
  8
0
100
AcDbLine
 62
7
  6
CONTINUOUS
 10
127.0367613377
 20
107.7503371558
 11
127.1362376663
 21
107.9251854916
  0
SPLINE
  5
549
100
AcDbEntity
  8
0
100
AcDbSpline
 62
7
  6
CONTINUOUS
 70
0
 71
3
 72
13
 73
9
 74
0
 42
0.0000001
 43
0.0000001
 44
0.0000000001
 40
0.0
 40
0.0
 40
0.0
 40
0.0
 40
0.0792219773
 40
0.1783649098
 40
0.2947937079
 40
0.4251856282
 40
0.7110682618
 40
1.0
 40
1.0
 40
1.0
 40
1.0
 10
128.1420341109
 20
107.1733030162
 30
0.0
 10
128.1090707113
 20
107.1771285202
 30
0.0
 10
128.0358061131
 20
107.1933789351
 30
0.0
 10
127.9186538189
 20
107.2326995241
 30
0.0
 10
127.7850392443
 20
107.2891365195
 30
0.0
 10
127.5848133442
 20
107.3878268542
 30
0.0
 10
127.3298018838
 20
107.5377204096
 30
0.0
 10
127.1324102465
 20
107.6761811247
 30
0.0
 10
127.0367613377
 20
107.7503371558
 30
0.0
  0
LINE
  5
54A
100
AcDbEntity
  8
0
100
AcDbLine
 62
7
  6
CONTINUOUS
 10
128.1420341109
 20
107.1733030162
 11
128.2562476733
 21
107.343500931
  0
SPLINE
  5
54B
100
AcDbEntity
  8
0
100
AcDbSpline
 62
7
  6
CONTINUOUS
 70
0
 71
3
 72
9
 73
5
 74
0
 42
0.0000001
 43
0.0000001
 44
0.0000000001
 40
0.0
 40
0.0
 40
0.0
 40
0.0
 40
0.5200724082
 40
1.0
 40
1.0
 40
1.0
 40
1.0
 10
127.1362376663
 20
107.9251854916
 30
0.0
 10
127.285488203
 20
108.1871813333
 30
0.0
 10
127.6373902954
 20
108.6573599654
 30
0.0
 10
128.1155920959
 20
109.0075320746
 30
0.0
 10
128.3679720593
 20
109.1246970151
 30
0.0
  0
SPLINE
  5
54C
100
AcDbEntity
  8
0
100
AcDbSpline
 62
7
  6
CONTINUOUS
 70
0
 71
3
 72
13
 73
9
 74
0
 42
0.0000001
 43
0.0000001
 44
0.0000000001
 40
0.0
 40
0.0
 40
0.0
 40
0.0
 40
0.0791207342
 40
0.1782680906
 40
0.2948214241
 40
0.4254142017
 40
0.7115816621
 40
1.0
 40
1.0
 40
1.0
 40
1.0
 10
128.2562477277
 20
107.3435008863
 30
0.0
 10
128.2228146129
 20
107.3466019918
 30
0.0
 10
128.1483235928
 20
107.3618156351
 30
0.0
 10
128.0291960475
 20
107.4003878498
 30
0.0
 10
127.8933177552
 20
107.456740953
 30
0.0
 10
127.68988977
 20
107.5561575979
 30
0.0
 10
127.4315857562
 20
107.7081648973
 30
0.0
 10
127.2323520822
 20
107.8494031336
 30
0.0
 10
127.1362376575
 20
107.9251854916
 30
0.0
  0
SPLINE
  5
54D
100
AcDbEntity
  8
0
100
AcDbSpline
 62
7
  6
CONTINUOUS
 70
0
 71
3
 72
10
 73
6
 74
0
 42
0.0000001
 43
0.0000001
 44
0.0000000001
 40
0.0
 40
0.0
 40
0.0
 40
0.0
 40
0.2719165307
 40
0.6552340679
 40
1.0
 40
1.0
 40
1.0
 40
1.0
 10
128.2562476733
 20
107.343500931
 30
0.0
 10
128.3004198399
 20
107.4386434683
 30
0.0
 10
128.4196766015
 20
107.6621954862
 30
0.0
 10
128.6498688377
 20
107.9742399295
 30
0.0
 10
128.8567571278
 20
108.1673333362
 30
0.0
 10
128.9633544544
 20
108.246868647
 30
0.0
  0
SPLINE
  5
54E
100
AcDbEntity
  8
0
100
AcDbSpline
 62
7
  6
CONTINUOUS
 70
0
 71
3
 72
27
 73
23
 74
0
 42
0.0000001
 43
0.0000001
 44
0.0000000001
 40
0.0
 40
0.0
 40
0.0
 40
0.0
 40
0.2068651772
 40
0.3970391203
 40
0.5674911039
 40
0.6443254018
 40
0.7149450011
 40
0.7788639235
 40
0.8355862879
 40
0.8846215837
 40
0.925501205
 40
0.9427457425
 40
0.9577970848
 40
0.9706093845
 40
0.9811452859
 40
0.9893753431
 40
0.9926165773
 40
0.9952712761
 40
0.9973381285
 40
0.9988159737
 40
0.9997036512
 40
1.0
 40
1.0
 40
1.0
 40
1.0
 10
128.3679720593
 20
109.1246970151
 30
0.0
 10
128.5657893707
 20
109.2165345868
 30
0.0
 10
128.9413606547
 20
109.4017521333
 30
0.0
 10
129.4672306978
 20
109.6873312772
 30
0.0
 10
129.8654813721
 20
109.920078677
 30
0.0
 10
130.1515754358
 20
110.094690491
 30
0.0
 10
130.3405204931
 20
110.2128555772
 30
0.0
 10
130.5104776061
 20
110.3213732002
 30
0.0
 10
130.6604616208
 20
110.4188741675
 30
0.0
 10
130.7895060855
 20
110.5040119939
 30
0.0
 10
130.8834528335
 20
110.5667651151
 30
0.0
 10
130.9474563593
 20
110.6098395875
 30
0.0
 10
130.9868563694
 20
110.6364724239
 30
0.0
 10
131.0203611546
 20
110.6591976785
 30
0.0
 10
131.047884925
 20
110.6779265684
 30
0.0
 10
131.0670609422
 20
110.6909927953
 30
0.0
 10
131.0793474238
 20
110.6994028349
 30
0.0
 10
131.0863036535
 20
110.7041168674
 30
0.0
 10
131.091634849
 20
110.7078635974
 30
0.0
 10
131.0956372015
 20
110.710371158
 30
0.0
 10
131.0976975056
 20
110.712186294
 30
0.0
 10
131.0989921251
 20
110.7126534837
 30
0.0
 10
131.0991408921
 20
110.7129282302
 30
0.0
  0
SPLINE
  5
54F
100
AcDbEntity
  8
0
100
AcDbSpline
 62
7
  6
CONTINUOUS
 70
0
 71
3
 72
11
 73
7
 74
0
 42
0.0000001
 43
0.0000001
 44
0.0000000001
 40
0.0
 40
0.0
 40
0.0
 40
0.0
 40
0.2173847626
 40
0.464650594
 40
0.7304843108
 40
1.0
 40
1.0
 40
1.0
 40
1.0
 10
128.9633544544
 20
108.2468686331
 30
0.0
 10
128.8950075995
 20
108.2856479309
 30
0.0
 10
128.7620768234
 20
108.3919389008
 30
0.0
 10
128.5950162576
 20
108.5982364627
 30
0.0
 10
128.4576671
 20
108.8470765885
 30
0.0
 10
128.3925768618
 20
109.0304284763
 30
0.0
 10
128.3679719912
 20
109.1246970151
 30
0.0
  0
SPLINE
  5
550
100
AcDbEntity
  8
0
100
AcDbSpline
 62
7
  6
CONTINUOUS
 70
0
 71
3
 72
26
 73
22
 74
0
 42
0.0000001
 43
0.0000001
 44
0.0000000001
 40
0.0
 40
0.0
 40
0.0
 40
0.0
 40
0.2055555842
 40
0.3951386091
 40
0.5655390716
 40
0.6424965067
 40
0.7133111649
 40
0.7774758252
 40
0.8344728745
 40
0.8837894052
 40
0.924936114
 40
0.9423021593
 40
0.9574640848
 40
0.9703740452
 40
0.9809923947
 40
0.9892883403
 40
0.9952323218
 40
0.997316126
 40
0.9988061405
 40
0.9997011652
 40
1.0
 40
1.0
 40
1.0
 40
1.0
 10
128.9633544544
 20
108.246868647
 30
0.0
 10
129.1857518894
 20
108.3298817815
 30
0.0
 10
129.6101478896
 20
108.4979241271
 30
0.0
 10
130.2090007094
 20
108.7587872132
 30
0.0
 10
130.6659261156
 20
108.9730236176
 30
0.0
 10
130.9959119433
 20
109.1346574447
 30
0.0
 10
131.214652609
 20
109.2444717066
 30
0.0
 10
131.411939496
 20
109.3456215586
 30
0.0
 10
131.5864600046
 20
109.4367451172
 30
0.0
 10
131.7369254138
 20
109.516498216
 30
0.0
 10
131.8466454165
 20
109.5753919295
 30
0.0
 10
131.9214827582
 20
109.6158701294
 30
0.0
 10
131.9675907367
 20
109.640921789
 30
0.0
 10
132.0068209752
 20
109.6623077131
 30
0.0
 10
132.0390628885
 20
109.6799514481
 30
0.0
 10
132.0642452136
 20
109.6937256564
 30
0.0
 10
132.0807473015
 20
109.7028578147
 30
0.0
 10
132.0904079109
 20
109.7080761119
 30
0.0
 10
132.0948829938
 20
109.7106896384
 30
0.0
 10
132.0976812844
 20
109.711960643
 30
0.0
 10
132.0988031915
 20
109.7128571089
 30
0.0
 10
132.0991408921
 20
109.7129282302
 30
0.0
  0
SPLINE
  5
551
100
AcDbEntity
  8
0
100
AcDbSpline
 62
7
  6
CONTINUOUS
 70
0
 71
3
 72
19
 73
15
 74
0
 42
0.0000001
 43
0.0000001
 44
0.0000000001
 40
0.0
 40
0.0
 40
0.0
 40
0.0
 40
0.0044363482
 40
0.0099536974
 40
0.0176538023
 40
0.0395528228
 40
0.0700005384
 40
0.1087193498
 40
0.1554083557
 40
0.2714294254
 40
0.4149004263
 40
0.5831135601
 40
0.7755950763
 40
1.0
 40
1.0
 40
1.0
 40
1.0
 10
117.5991408921
 20
108.7180409617
 30
0.0
 10
117.5991867178
 20
108.7176587884
 30
0.0
 10
117.6003461081
 20
108.7174584907
 30
0.0
 10
117.6014132369
 20
108.716495399
 30
0.0
 10
117.6041142379
 20
108.7149440438
 30
0.0
 10
117.6084413613
 20
108.7121294
 30
0.0
 10
117.6152273433
 20
108.7080355683
 30
0.0
 10
117.6238797761
 20
108.7029359484
 30
0.0
 10
117.6391532626
 20
108.6944306305
 30
0.0
 10
117.6628585691
 20
108.6824053395
 30
0.0
 10
117.6972678235
 20
108.6683553171
 30
0.0
 10
117.7395223222
 20
108.6565270109
 30
0.0
 10
117.7903682966
 20
108.6512743626
 30
0.0
 10
117.8267878454
 20
108.6580219928
 30
0.0
 10
117.8449567717
 20
108.6650200524
 30
0.0
  0
SPLINE
  5
552
100
AcDbEntity
  8
0
100
AcDbSpline
 62
7
  6
CONTINUOUS
 70
0
 71
3
 72
41
 73
37
 74
0
 42
0.0000001
 43
0.0000001
 44
0.0000000001
 40
0.0
 40
0.0
 40
0.0
 40
0.0
 40
0.0008993142
 40
0.0017021904
 40
0.0027738872
 40
0.0057508632
 40
0.0098564384
 40
0.015090025
 40
0.0214426157
 40
0.0374568536
 40
0.0577610322
 40
0.0821733472
 40
0.1104668426
 40
0.1423836179
 40
0.1776247248
 40
0.2158664598
 40
0.2567515184
 40
0.2999019759
 40
0.3913762901
 40
0.4868984013
 40
0.5829265148
 40
0.6758999507
 40
0.7623718119
 40
0.8021558575
 40
0.8391374528
 40
0.8729758029
 40
0.9033542518
 40
0.9299953394
 40
0.9526498773
 40
0.971114126
 40
0.9787201172
 40
0.9852211735
 40
0.990603771
 40
0.9948578097
 40
0.9979841113
 40
1.0
 40
1.0
 40
1.0
 40
1.0
 10
107.3672141698
 20
90.2379303599
 30
0.0
 10
107.3627279676
 20
90.2379352062
 30
0.0
 10
107.3564554308
 20
90.2464788188
 30
0.0
 10
107.3512055984
 20
90.258502437
 30
0.0
 10
107.343520124
 20
90.2818593197
 30
0.0
 10
107.3349391853
 20
90.3214292346
 30
0.0
 10
107.3249300256
 20
90.3821667362
 30
0.0
 10
107.3149377019
 20
90.4597756594
 30
0.0
 10
107.3002978184
 20
90.5967038263
 30
0.0
 10
107.2827882698
 20
90.8088581351
 30
0.0
 10
107.2627330897
 20
91.1111561114
 30
0.0
 10
107.2425789801
 20
91.4748109744
 30
0.0
 10
107.2223171221
 20
91.8964645898
 30
0.0
 10
107.2020085688
 20
92.3721895855
 30
0.0
 10
107.1816574173
 20
92.89757975
 30
0.0
 10
107.1612837439
 20
93.4677377013
 30
0.0
 10
107.1408888379
 20
94.0773738316
 30
0.0
 10
107.1131391136
 20
94.9524603684
 30
0.0
 10
107.0789949955
 20
96.1000349122
 30
0.0
 10
107.0387071744
 20
97.5113202563
 30
0.0
 10
106.9984168597
 20
98.9300870046
 30
0.0
 10
106.9581674116
 20
100.3036893825
 30
0.0
 10
106.9238471857
 20
101.3967723478
 30
0.0
 10
106.8958845677
 20
102.210598683
 30
0.0
 10
106.8755173087
 20
102.761968422
 30
0.0
 10
106.8551851374
 20
103.2663856469
 30
0.0
 10
106.8348907619
 20
103.7191748593
 30
0.0
 10
106.8146761125
 20
104.1161168525
 30
0.0
 10
106.7945432411
 20
104.4535380904
 30
0.0
 10
106.7770076667
 20
104.69598329
 30
0.0
 10
106.7625206547
 20
104.8578182571
 30
0.0
 10
106.7524171989
 20
104.9545275035
 30
0.0
 10
106.7423607375
 20
105.0343875328
 30
0.0
 10
106.7324751273
 20
105.0973505049
 30
0.0
 10
106.7226611383
 20
105.1431031423
 30
0.0
 10
106.7150609817
 20
105.1678549056
 30
0.0
 10
106.7104148376
 20
105.1767734612
 30
0.0
  0
SPLINE
  5
553
100
AcDbEntity
  8
0
100
AcDbSpline
 62
7
  6
CONTINUOUS
 70
0
 71
3
 72
14
 73
10
 74
0
 42
0.0000001
 43
0.0000001
 44
0.0000000001
 40
0.0
 40
0.0
 40
0.0
 40
0.0
 40
0.0194789285
 40
0.076529325
 40
0.2251248995
 40
0.4353398619
 40
0.5594141074
 40
0.6959792512
 40
1.0
 40
1.0
 40
1.0
 40
1.0
 10
116.7417815792
 20
107.7282664245
 30
0.0
 10
116.7476021517
 20
107.7277614917
 30
0.0
 10
116.7705284641
 20
107.7265392788
 30
0.0
 10
116.8379855007
 20
107.7234431561
 30
0.0
 10
116.9628743927
 20
107.7272163258
 30
0.0
 10
117.1067394166
 20
107.7478913622
 30
0.0
 10
117.2433106029
 20
107.7847289339
 30
0.0
 10
117.4014748834
 20
107.8458956052
 30
0.0
 10
117.5162980012
 20
107.9145230312
 30
0.0
 10
117.5884807203
 20
107.970242724
 30
0.0
  0
SPLINE
  5
554
100
AcDbEntity
  8
0
100
AcDbSpline
 62
7
  6
CONTINUOUS
 70
0
 71
3
 72
9
 73
5
 74
0
 42
0.0000001
 43
0.0000001
 44
0.0000000001
 40
0.0
 40
0.0
 40
0.0
 40
0.0
 40
0.496215918
 40
1.0
 40
1.0
 40
1.0
 40
1.0
 10
117.5884807204
 20
107.9702427239
 30
0.0
 10
117.6728591168
 20
108.0621709884
 30
0.0
 10
117.8070461407
 20
108.2834056271
 30
0.0
 10
117.8479987103
 20
108.5383715479
 30
0.0
 10
117.8449567724
 20
108.6650200524
 30
0.0
  0
SPLINE
  5
555
100
AcDbEntity
  8
0
100
AcDbSpline
 62
7
  6
CONTINUOUS
 70
0
 71
3
 72
11
 73
7
 74
0
 42
0.0000001
 43
0.0000001
 44
0.0000000001
 40
0.0
 40
0.0
 40
0.0
 40
0.0
 40
0.1992546388
 40
0.4279932047
 40
0.6941460296
 40
1.0
 40
1.0
 40
1.0
 40
1.0
 10
118.2119132
 20
108.8216249179
 30
0.0
 10
118.3085023855
 20
108.8667609242
 30
0.0
 10
118.5324953529
 20
108.9303759783
 30
0.0
 10
118.9076481568
 20
108.93070052
 30
0.0
 10
119.3279559897
 20
108.8325757452
 30
0.0
 10
119.6085039953
 20
108.7052972465
 30
0.0
 10
119.7515811913
 20
108.6258544609
 30
0.0
  0
SPLINE
  5
556
100
AcDbEntity
  8
0
100
AcDbSpline
 62
7
  6
CONTINUOUS
 70
0
 71
3
 72
9
 73
5
 74
0
 42
0.0000001
 43
0.0000001
 44
0.0000000001
 40
0.0
 40
0.0
 40
0.0
 40
0.0
 40
0.490074951
 40
1.0
 40
1.0
 40
1.0
 40
1.0
 10
118.0098010636
 20
108.1425798794
 30
0.0
 10
118.0836851608
 20
108.2343082442
 30
0.0
 10
118.1964177358
 20
108.4544618512
 30
0.0
 10
118.220537101
 20
108.699374491
 30
0.0
 10
118.211913203
 20
108.8216249179
 30
0.0
  0
SPLINE
  5
557
100
AcDbEntity
  8
0
100
AcDbSpline
 62
7
  6
CONTINUOUS
 70
0
 71
3
 72
11
 73
7
 74
0
 42
0.0000001
 43
0.0000001
 44
0.0000000001
 40
0.0
 40
0.0
 40
0.0
 40
0.0
 40
0.177149148
 40
0.39905182
 40
0.6725036916
 40
1.0
 40
1.0
 40
1.0
 40
1.0
 10
118.0098010638
 20
108.1425798792
 30
0.0
 10
118.0777533675
 20
108.1490054446
 30
0.0
 10
118.2330601521
 20
108.1402142371
 30
0.0
 10
118.4843919221
 20
108.0722477271
 30
0.0
 10
118.7738753261
 20
107.9399371109
 30
0.0
 10
118.9690458994
 20
107.8137069704
 30
0.0
 10
119.0704612356
 20
107.738624686
 30
0.0
  0
SPLINE
  5
558
100
AcDbEntity
  8
0
100
AcDbSpline
 62
7
  6
CONTINUOUS
 70
0
 71
3
 72
15
 73
11
 74
0
 42
0.0000001
 43
0.0000001
 44
0.0000000001
 40
0.0
 40
0.0
 40
0.0
 40
0.0
 40
0.1081929718
 40
0.2249085119
 40
0.3485942615
 40
0.4776542586
 40
0.6100307478
 40
0.7430323696
 40
0.8737996897
 40
1.0
 40
1.0
 40
1.0
 40
1.0
 10
119.7515811913
 20
108.6258544609
 30
0.0
 10
119.9908432274
 20
108.4929739932
 30
0.0
 10
120.4953350247
 20
108.2292616821
 30
0.0
 10
121.3019834088
 20
107.8711582343
 30
0.0
 10
122.1861595035
 20
107.5640785344
 30
0.0
 10
123.1374011144
 20
107.3435420106
 30
0.0
 10
124.1333130535
 20
107.2439393262
 30
0.0
 10
125.1379153593
 20
107.2844147327
 30
0.0
 10
126.1118337713
 20
107.4568292241
 30
0.0
 10
126.7357246225
 20
107.6440881955
 30
0.0
 10
127.0367613377
 20
107.7503371558
 30
0.0
  0
SPLINE
  5
559
100
AcDbEntity
  8
0
100
AcDbSpline
 62
7
  6
CONTINUOUS
 70
0
 71
3
 72
11
 73
7
 74
0
 42
0.0000001
 43
0.0000001
 44
0.0000000001
 40
0.0
 40
0.0
 40
0.0
 40
0.0
 40
0.2241314622
 40
0.4731806052
 40
0.7364613667
 40
1.0
 40
1.0
 40
1.0
 40
1.0
 10
119.0704612356
 20
107.7386246414
 30
0.0
 10
119.1491912124
 20
107.7732644282
 30
0.0
 10
119.3035537789
 20
107.8740580566
 30
0.0
 10
119.4981688084
 20
108.0817512104
 30
0.0
 10
119.6548756817
 20
108.3371104162
 30
0.0
 10
119.726195631
 20
108.5279556697
 30
0.0
 10
119.7515812315
 20
108.6258544609
 30
0.0
  0
SPLINE
  5
55A
100
AcDbEntity
  8
0
100
AcDbSpline
 62
7
  6
CONTINUOUS
 70
0
 71
3
 72
14
 73
10
 74
0
 42
0.0000001
 43
0.0000001
 44
0.0000000001
 40
0.0
 40
0.0
 40
0.0
 40
0.0
 40
0.2267439468
 40
0.3509439534
 40
0.4798800419
 40
0.6115404722
 40
0.7436407431
 40
0.8738306737
 40
1.0
 40
1.0
 40
1.0
 40
1.0
 10
119.0704612356
 20
107.738624686
 30
0.0
 10
119.6637550805
 20
107.4749710861
 30
0.0
 10
120.6031466784
 20
107.1099459764
 30
0.0
 10
121.9300937827
 20
106.7483038263
 30
0.0
 10
123.0162912975
 20
106.5534339091
 30
0.0
 10
124.1397119739
 20
106.4691169213
 30
0.0
 10
125.2693259101
 20
106.5083023509
 30
0.0
 10
126.3724137243
 20
106.6647921493
 30
0.0
 10
127.0872633906
 20
106.8361035751
 30
0.0
 10
127.4349273297
 20
106.9342876496
 30
0.0
  0
SPLINE
  5
55B
100
AcDbEntity
  8
0
100
AcDbSpline
 62
7
  6
CONTINUOUS
 70
0
 71
3
 72
11
 73
7
 74
0
 42
0.0000001
 43
0.0000001
 44
0.0000000001
 40
0.0
 40
0.0
 40
0.0
 40
0.0
 40
0.2860420694
 40
0.5543372616
 40
0.794063125
 40
1.0
 40
1.0
 40
1.0
 40
1.0
 10
111.5789702998
 20
89.8199288926
 30
0.0
 10
111.6222462633
 20
89.8165865755
 30
0.0
 10
111.7066980082
 20
89.8160141567
 30
0.0
 10
111.8264976083
 20
89.8332326874
 30
0.0
 10
111.9298849029
 20
89.8675542601
 30
0.0
 10
111.9884895345
 20
89.9033214316
 30
0.0
 10
112.0119830017
 20
89.9239268932
 30
0.0
  0
SPLINE
  5
55C
100
AcDbEntity
  8
0
100
AcDbSpline
 62
7
  6
CONTINUOUS
 70
0
 71
3
 72
11
 73
7
 74
0
 42
0.0000001
 43
0.0000001
 44
0.0000000001
 40
0.0
 40
0.0
 40
0.0
 40
0.0
 40
0.2496376068
 40
0.499202176
 40
0.7492025275
 40
1.0
 40
1.0
 40
1.0
 40
1.0
 10
112.0119830017
 20
89.9239268932
 30
0.0
 10
112.1410801625
 20
90.527453455
 30
0.0
 10
112.3449542396
 20
91.7470684499
 30
0.0
 10
112.4517678353
 20
93.6001677564
 30
0.0
 10
112.3446190961
 20
95.456096997
 30
0.0
 10
112.1409480043
 20
96.6797076162
 30
0.0
 10
112.0119830017
 20
97.2861943915
 30
0.0
  0
SPLINE
  5
55D
100
AcDbEntity
  8
0
100
AcDbSpline
 62
7
  6
CONTINUOUS
 70
0
 71
3
 72
10
 73
6
 74
0
 42
0.0000001
 43
0.0000001
 44
0.0000000001
 40
0.0
 40
0.0
 40
0.0
 40
0.0
 40
0.5705909475
 40
0.810284123
 40
1.0
 40
1.0
 40
1.0
 40
1.0
 10
111.5789702998
 20
97.1871353623
 30
0.0
 10
111.6632713692
 20
97.1959466397
 30
0.0
 10
111.7826555854
 20
97.2143927925
 30
0.0
 10
111.9263589759
 20
97.2522294139
 30
0.0
 10
111.9865285434
 20
97.2740991941
 30
0.0
 10
112.0119830017
 20
97.2861943915
 30
0.0
  0
SPLINE
  5
55E
100
AcDbEntity
  8
0
100
AcDbSpline
 62
7
  6
CONTINUOUS
 70
0
 71
3
 72
11
 73
7
 74
0
 42
0.0000001
 43
0.0000001
 44
0.0000000001
 40
0.0
 40
0.0
 40
0.0
 40
0.0
 40
0.2502390925
 40
0.5000003155
 40
0.7497615015
 40
1.0
 40
1.0
 40
1.0
 40
1.0
 10
111.5609532044
 20
89.820617597
 30
0.0
 10
111.6950614597
 20
90.4252713214
 30
0.0
 10
111.9080388205
 20
91.6468379699
 30
0.0
 10
112.0206180287
 20
93.5034127382
 30
0.0
 10
111.9080385138
 20
95.3599860149
 30
0.0
 10
111.6950612291
 20
96.5815510818
 30
0.0
 10
111.5609532044
 20
97.1862033515
 30
0.0
  0
SPLINE
  5
55F
100
AcDbEntity
  8
0
100
AcDbSpline
 62
7
  6
CONTINUOUS
 70
0
 71
3
 72
9
 73
5
 74
0
 42
0.0000001
 43
0.0000001
 44
0.0000000001
 40
0.0
 40
0.0
 40
0.0
 40
0.0
 40
0.5031496862
 40
1.0
 40
1.0
 40
1.0
 40
1.0
 10
111.5789702998
 20
86.0247486517
 30
0.0
 10
111.6654584083
 20
86.024341993
 30
0.0
 10
111.8407716885
 20
86.0693365841
 30
0.0
 10
111.9689726984
 20
86.1970972769
 30
0.0
 10
112.0119830017
 20
86.2708830361
 30
0.0
  0
SPLINE
  5
560
100
AcDbEntity
  8
0
100
AcDbSpline
 62
7
  6
CONTINUOUS
 70
0
 71
3
 72
13
 73
9
 74
0
 42
0.0000001
 43
0.0000001
 44
0.0000000001
 40
0.0
 40
0.0
 40
0.0
 40
0.0
 40
0.2533326458
 40
0.3751638959
 40
0.4957130636
 40
0.6168885234
 40
0.7405119685
 40
1.0
 40
1.0
 40
1.0
 40
1.0
 10
112.0119830017
 20
86.2708830361
 30
0.0
 10
112.1366561287
 20
86.5088452979
 30
0.0
 10
112.2911082846
 20
86.8800639252
 30
0.0
 10
112.3982633399
 20
87.3960316662
 30
0.0
 10
112.4250562093
 20
87.7818936509
 30
0.0
 10
112.3980047883
 20
88.1696185362
 30
0.0
 10
112.2903022724
 20
88.6947052127
 30
0.0
 10
112.1362505147
 20
89.0749209202
 30
0.0
 10
112.0119830017
 20
89.3204340818
 30
0.0
  0
SPLINE
  5
561
100
AcDbEntity
  8
0
100
AcDbSpline
 62
7
  6
CONTINUOUS
 70
0
 71
3
 72
9
 73
5
 74
0
 42
0.0000001
 43
0.0000001
 44
0.0000000001
 40
0.0
 40
0.0
 40
0.0
 40
0.0
 40
0.5136302406
 40
1.0
 40
1.0
 40
1.0
 40
1.0
 10
111.5789702998
 20
89.0763454881
 30
0.0
 10
111.6661095309
 20
89.0824960487
 30
0.0
 10
111.8350918979
 20
89.1322117688
 30
0.0
 10
111.9671193056
 20
89.2509373623
 30
0.0
 10
112.0119830017
 20
89.3204340818
 30
0.0
  0
SPLINE
  5
562
100
AcDbEntity
  8
0
100
AcDbSpline
 62
7
  6
CONTINUOUS
 70
0
 71
3
 72
13
 73
9
 74
0
 42
0.0000001
 43
0.0000001
 44
0.0000000001
 40
0.0
 40
0.0
 40
0.0
 40
0.0
 40
0.2569080022
 40
0.3794723613
 40
0.499999716
 40
0.6205270877
 40
0.743091448
 40
1.0
 40
1.0
 40
1.0
 40
1.0
 10
111.5609532044
 20
86.0247906155
 30
0.0
 10
111.6900700333
 20
86.2659246903
 30
0.0
 10
111.851220457
 20
86.6411073733
 30
0.0
 10
111.9641727717
 20
87.1627699714
 30
0.0
 10
111.9925072028
 20
87.5502524718
 30
0.0
 10
111.964173847
 20
87.9377351476
 30
0.0
 10
111.851220148
 20
88.4593980602
 30
0.0
 10
111.6900704889
 20
88.8345816348
 30
0.0
 10
111.5609532044
 20
89.0757161298
 30
0.0
  0
SPLINE
  5
563
100
AcDbEntity
  8
0
100
AcDbSpline
 62
7
  6
CONTINUOUS
 70
0
 71
3
 72
9
 73
5
 74
0
 42
0.0000001
 43
0.0000001
 44
0.0000000001
 40
0.0
 40
0.0
 40
0.0
 40
0.0
 40
0.5136302524
 40
1.0
 40
1.0
 40
1.0
 40
1.0
 10
111.5789702998
 20
106.349510972
 30
0.0
 10
111.6661095306
 20
106.3433604107
 30
0.0
 10
111.8350918794
 20
106.2936446628
 30
0.0
 10
111.9671193078
 20
106.174919103
 30
0.0
 10
112.0119830017
 20
106.105422387
 30
0.0
  0
SPLINE
  5
564
100
AcDbEntity
  8
0
100
AcDbSpline
 62
7
  6
CONTINUOUS
 70
0
 71
3
 72
13
 73
9
 74
0
 42
0.0000001
 43
0.0000001
 44
0.0000000001
 40
0.0
 40
0.0
 40
0.0
 40
0.0
 40
0.2594880308
 40
0.3831114765
 40
0.5042869363
 40
0.6248361042
 40
0.746667355
 40
1.0
 40
1.0
 40
1.0
 40
1.0
 10
112.0119830017
 20
106.105422387
 30
0.0
 10
112.1362504859
 20
106.3509355616
 30
0.0
 10
112.2903022881
 20
106.7311512473
 30
0.0
 10
112.3980047851
 20
107.2562379289
 30
0.0
 10
112.4250562097
 20
107.6439628128
 30
0.0
 10
112.3982633412
 20
108.0298247984
 30
0.0
 10
112.2911082769
 20
108.5457925351
 30
0.0
 10
112.1366561416
 20
108.9170111713
 30
0.0
 10
112.0119830017
 20
109.1549734246
 30
0.0
  0
SPLINE
  5
565
100
AcDbEntity
  8
0
100
AcDbSpline
 62
7
  6
CONTINUOUS
 70
0
 71
3
 72
9
 73
5
 74
0
 42
0.0000001
 43
0.0000001
 44
0.0000000001
 40
0.0
 40
0.0
 40
0.0
 40
0.0
 40
0.5031496945
 40
1.0
 40
1.0
 40
1.0
 40
1.0
 10
111.5789702998
 20
109.4011078088
 30
0.0
 10
111.6654584096
 20
109.4015144674
 30
0.0
 10
111.8407716891
 20
109.3565198738
 30
0.0
 10
111.9689726988
 20
109.2287591824
 30
0.0
 10
112.0119830017
 20
109.1549734246
 30
0.0
  0
SPLINE
  5
566
100
AcDbEntity
  8
0
100
AcDbSpline
 62
7
  6
CONTINUOUS
 70
0
 71
3
 72
13
 73
9
 74
0
 42
0.0000001
 43
0.0000001
 44
0.0000000001
 40
0.0
 40
0.0
 40
0.0
 40
0.0
 40
0.2569085527
 40
0.3794729125
 40
0.5000002842
 40
0.6205276389
 40
0.7430919981
 40
1.0
 40
1.0
 40
1.0
 40
1.0
 10
111.5609532044
 20
106.3501403307
 30
0.0
 10
111.6900704393
 20
106.591274853
 30
0.0
 10
111.8512201712
 20
106.9664583916
 30
0.0
 10
111.9641738409
 20
107.4881213151
 30
0.0
 10
111.9925072033
 20
107.8756039879
 30
0.0
 10
111.9641727757
 20
108.2630864905
 30
0.0
 10
111.8512204417
 20
108.7847490812
 30
0.0
 10
111.6900700664
 20
109.1599317883
 30
0.0
 10
111.5609532044
 20
109.401065845
 30
0.0
  0
SPLINE
  5
567
100
AcDbEntity
  8
0
100
AcDbSpline
 62
7
  6
CONTINUOUS
 70
0
 71
3
 72
10
 73
6
 74
0
 42
0.0000001
 43
0.0000001
 44
0.0000000001
 40
0.0
 40
0.0
 40
0.0
 40
0.0
 40
0.5705909539
 40
0.8102841322
 40
1.0
 40
1.0
 40
1.0
 40
1.0
 10
111.5789702998
 20
98.2387210979
 30
0.0
 10
111.6632713689
 20
98.2299098198
 30
0.0
 10
111.782655585
 20
98.2114636563
 30
0.0
 10
111.926358967
 20
98.1736270212
 30
0.0
 10
111.9865285448
 20
98.1517572727
 30
0.0
 10
112.0119830017
 20
98.1396620764
 30
0.0
  0
SPLINE
  5
568
100
AcDbEntity
  8
0
100
AcDbSpline
 62
7
  6
CONTINUOUS
 70
0
 71
3
 72
11
 73
7
 74
0
 42
0.0000001
 43
0.0000001
 44
0.0000000001
 40
0.0
 40
0.0
 40
0.0
 40
0.0
 40
0.2507974724
 40
0.5007978241
 40
0.7503623934
 40
1.0
 40
1.0
 40
1.0
 40
1.0
 10
112.0119830017
 20
98.1396620764
 30
0.0
 10
112.1409479848
 20
98.7461488558
 30
0.0
 10
112.3446191086
 20
99.9697594683
 30
0.0
 10
112.4517678375
 20
101.8256887141
 30
0.0
 10
112.3449542187
 20
103.6787880156
 30
0.0
 10
112.1410801934
 20
104.8984030215
 30
0.0
 10
112.0119830017
 20
105.5019295763
 30
0.0
  0
SPLINE
  5
569
100
AcDbEntity
  8
0
100
AcDbSpline
 62
7
  6
CONTINUOUS
 70
0
 71
3
 72
11
 73
7
 74
0
 42
0.0000001
 43
0.0000001
 44
0.0000000001
 40
0.0
 40
0.0
 40
0.0
 40
0.0
 40
0.2860420795
 40
0.5543372957
 40
0.7940631642
 40
1.0
 40
1.0
 40
1.0
 40
1.0
 10
111.5789702998
 20
105.6059275675
 30
0.0
 10
111.6222462637
 20
105.6092698842
 30
0.0
 10
111.706698012
 20
105.6098423105
 30
0.0
 10
111.8264976118
 20
105.592623747
 30
0.0
 10
111.9298848956
 20
105.5583021735
 30
0.0
 10
111.9884895391
 20
105.5225350329
 30
0.0
 10
112.0119830017
 20
105.5019295763
 30
0.0
  0
SPLINE
  5
56A
100
AcDbEntity
  8
0
100
AcDbSpline
 62
7
  6
CONTINUOUS
 70
0
 71
3
 72
11
 73
7
 74
0
 42
0.0000001
 43
0.0000001
 44
0.0000000001
 40
0.0
 40
0.0
 40
0.0
 40
0.0
 40
0.2502384985
 40
0.4999996845
 40
0.7497609075
 40
1.0
 40
1.0
 40
1.0
 40
1.0
 10
111.5609532044
 20
98.239653109
 30
0.0
 10
111.6950611893
 20
98.8443053876
 30
0.0
 10
111.9080385356
 20
100.06587044
 30
0.0
 10
112.0206180332
 20
101.9224437253
 30
0.0
 10
111.9080387805
 20
103.7790184819
 30
0.0
 10
111.6950615266
 20
105.0005851539
 30
0.0
 10
111.5609532044
 20
105.6052388635
 30
0.0
  0
SPLINE
  5
56B
100
AcDbEntity
  8
0
100
AcDbSpline
 62
7
  6
CONTINUOUS
 70
0
 71
3
 72
10
 73
6
 74
0
 42
0.0000001
 43
0.0000001
 44
0.0000000001
 40
0.0
 40
0.0
 40
0.0
 40
0.0
 40
0.2417313424
 40
0.4872014138
 40
1.0
 40
1.0
 40
1.0
 40
1.0
 10
109.3491408921
 20
107.8756030109
 30
0.0
 10
109.3491408956
 20
107.7473816426
 30
0.0
 10
109.3671506654
 20
107.4885923085
 30
0.0
 10
109.4746950249
 20
106.9679502007
 30
0.0
 10
109.6289376794
 20
106.5920562268
 30
0.0
 10
109.7532860805
 20
106.3501403307
 30
0.0
  0
SPLINE
  5
56C
100
AcDbEntity
  8
0
100
AcDbSpline
 62
7
  6
CONTINUOUS
 70
0
 71
3
 72
10
 73
6
 74
0
 42
0.0000001
 43
0.0000001
 44
0.0000000001
 40
0.0
 40
0.0
 40
0.0
 40
0.0
 40
0.5127936282
 40
0.758270103
 40
1.0
 40
1.0
 40
1.0
 40
1.0
 10
109.7532860805
 20
109.401065845
 30
0.0
 10
109.6289391082
 20
109.1591527286
 30
0.0
 10
109.4747038247
 20
108.7832548896
 30
0.0
 10
109.3671654702
 20
108.2626139548
 30
0.0
 10
109.3491408885
 20
108.0038233789
 30
0.0
 10
109.3491408921
 20
107.8756030109
 30
0.0
  0
SPLINE
  5
56D
100
AcDbEntity
  8
0
100
AcDbSpline
 62
7
  6
CONTINUOUS
 70
0
 71
3
 72
9
 73
5
 74
0
 42
0.0000001
 43
0.0000001
 44
0.0000000001
 40
0.0
 40
0.0
 40
0.0
 40
0.0
 40
0.4995610182
 40
1.0
 40
1.0
 40
1.0
 40
1.0
 10
109.3491408921
 20
101.9224457173
 30
0.0
 10
109.3491409023
 20
101.3046405465
 30
0.0
 10
109.4205956284
 20
100.0669805548
 30
0.0
 10
109.6244055781
 20
98.8449760127
 30
0.0
 10
109.7532860805
 20
98.239653109
 30
0.0
  0
SPLINE
  5
56E
100
AcDbEntity
  8
0
100
AcDbSpline
 62
7
  6
CONTINUOUS
 70
0
 71
3
 72
9
 73
5
 74
0
 42
0.0000001
 43
0.0000001
 44
0.0000000001
 40
0.0
 40
0.0
 40
0.0
 40
0.0
 40
0.5004350576
 40
1.0
 40
1.0
 40
1.0
 40
1.0
 10
109.7532860805
 20
105.6052388635
 30
0.0
 10
109.6244066074
 20
104.9999207942
 30
0.0
 10
109.4206163145
 20
103.7779138158
 30
0.0
 10
109.3491408819
 20
102.5402556514
 30
0.0
 10
109.3491408921
 20
101.9224457173
 30
0.0
  0
SPLINE
  5
56F
100
AcDbEntity
  8
0
100
AcDbSpline
 62
7
  6
CONTINUOUS
 70
0
 71
3
 72
9
 73
5
 74
0
 42
0.0000001
 43
0.0000001
 44
0.0000000001
 40
0.0
 40
0.0
 40
0.0
 40
0.0
 40
0.4995610182
 40
1.0
 40
1.0
 40
1.0
 40
1.0
 10
109.3491408921
 20
93.5034102916
 30
0.0
 10
109.349140899
 20
92.8856051065
 30
0.0
 10
109.4205956219
 20
91.6479450855
 30
0.0
 10
109.6244055751
 20
90.4259405148
 30
0.0
 10
109.7532860805
 20
89.820617597
 30
0.0
  0
SPLINE
  5
570
100
AcDbEntity
  8
0
100
AcDbSpline
 62
7
  6
CONTINUOUS
 70
0
 71
3
 72
9
 73
5
 74
0
 42
0.0000001
 43
0.0000001
 44
0.0000000001
 40
0.0
 40
0.0
 40
0.0
 40
0.0
 40
0.5004350576
 40
1.0
 40
1.0
 40
1.0
 40
1.0
 10
109.7532860805
 20
97.1862033515
 30
0.0
 10
109.6244066104
 20
96.5808852963
 30
0.0
 10
109.420616321
 20
95.3588783466
 30
0.0
 10
109.3491408851
 20
94.1212202113
 30
0.0
 10
109.3491408921
 20
93.5034102916
 30
0.0
  0
SPLINE
  5
571
100
AcDbEntity
  8
0
100
AcDbSpline
 62
7
  6
CONTINUOUS
 70
0
 71
3
 72
10
 73
6
 74
0
 42
0.0000001
 43
0.0000001
 44
0.0000000001
 40
0.0
 40
0.0
 40
0.0
 40
0.0
 40
0.2417313426
 40
0.4872014137
 40
1.0
 40
1.0
 40
1.0
 40
1.0
 10
109.3491408921
 20
87.5502533722
 30
0.0
 10
109.3491408921
 20
87.4220319977
 30
0.0
 10
109.3671506565
 20
87.1632426507
 30
0.0
 10
109.4746950129
 20
86.642600516
 30
0.0
 10
109.6289376734
 20
86.2667065232
 30
0.0
 10
109.7532860805
 20
86.0247906155
 30
0.0
  0
SPLINE
  5
572
100
AcDbEntity
  8
0
100
AcDbSpline
 62
7
  6
CONTINUOUS
 70
0
 71
3
 72
10
 73
6
 74
0
 42
0.0000001
 43
0.0000001
 44
0.0000000001
 40
0.0
 40
0.0
 40
0.0
 40
0.0
 40
0.5127936281
 40
0.7582701031
 40
1.0
 40
1.0
 40
1.0
 40
1.0
 10
109.7532860805
 20
89.0757161298
 30
0.0
 10
109.6289391142
 20
88.833803025
 30
0.0
 10
109.4747038366
 20
88.457905205
 30
0.0
 10
109.3671654791
 20
87.937264297
 30
0.0
 10
109.349140892
 20
87.678473734
 30
0.0
 10
109.3491408921
 20
87.5502533722
 30
0.0
  0
SPLINE
  5
573
100
AcDbEntity
  8
0
100
AcDbSpline
 62
7
  6
CONTINUOUS
 70
0
 71
3
 72
9
 73
5
 74
0
 42
0.0000001
 43
0.0000001
 44
0.0000000001
 40
0.0
 40
0.0
 40
0.0
 40
0.0
 40
0.501287748
 40
1.0
 40
1.0
 40
1.0
 40
1.0
 10
134.0060866863
 20
121.6129282302
 30
0.0
 10
134.4698237791
 20
121.6129282302
 30
0.0
 10
135.4038434208
 20
121.7929328742
 30
0.0
 10
136.1997767905
 20
122.3149869196
 30
0.0
 10
136.5291327332
 20
122.6380544961
 30
0.0
  0
SPLINE
  5
574
100
AcDbEntity
  8
0
100
AcDbSpline
 62
7
  6
CONTINUOUS
 70
0
 71
3
 72
9
 73
5
 74
0
 42
0.0000001
 43
0.0000001
 44
0.0000000001
 40
0.0
 40
0.0
 40
0.0
 40
0.0
 40
0.5012723639
 40
1.0
 40
1.0
 40
1.0
 40
1.0
 10
134.0060866863
 20
124.1129282302
 30
0.0
 10
134.138516047
 20
124.1129282302
 30
0.0
 10
134.4047080259
 20
124.1661559247
 30
0.0
 10
134.6328970499
 20
124.3135573922
 30
0.0
 10
134.7269569854
 20
124.4058214491
 30
0.0
  0
SPLINE
  5
575
100
AcDbEntity
  8
0
100
AcDbSpline
 62
7
  6
CONTINUOUS
 70
0
 71
3
 72
9
 73
5
 74
0
 42
0.0000001
 43
0.0000001
 44
0.0000000001
 40
0.0
 40
0.0
 40
0.0
 40
0.0
 40
0.4987276361
 40
1.0
 40
1.0
 40
1.0
 40
1.0
 10
146.9093009551
 20
132.8200350114
 30
0.0
 10
147.0033608906
 20
132.9122990682
 30
0.0
 10
147.2315499145
 20
133.0597005358
 30
0.0
 10
147.4977418934
 20
133.1129282302
 30
0.0
 10
147.6301712542
 20
133.1129282302
 30
0.0
  0
SPLINE
  5
576
100
AcDbEntity
  8
0
100
AcDbSpline
 62
7
  6
CONTINUOUS
 70
0
 71
3
 72
9
 73
5
 74
0
 42
0.0000001
 43
0.0000001
 44
0.0000000001
 40
0.0
 40
0.0
 40
0.0
 40
0.0
 40
0.498712252
 40
1.0
 40
1.0
 40
1.0
 40
1.0
 10
145.1071252073
 20
134.5878019644
 30
0.0
 10
145.43648115
 20
134.9108695409
 30
0.0
 10
146.2324145197
 20
135.4329235863
 30
0.0
 10
147.1664341613
 20
135.6129282302
 30
0.0
 10
147.6301712542
 20
135.6129282302
 30
0.0
  0
SPLINE
  5
577
100
AcDbEntity
  8
0
100
AcDbSpline
 62
7
  6
CONTINUOUS
 70
0
 71
3
 72
13
 73
9
 74
0
 42
0.0000001
 43
0.0000001
 44
0.0000000001
 40
0.0
 40
0.0
 40
0.0
 40
0.0
 40
0.2564290775
 40
0.4978189796
 40
0.6171952764
 40
0.7388494034
 40
0.8657480684
 40
1.0
 40
1.0
 40
1.0
 40
1.0
 10
122.3505021063
 20
121.6129282302
 30
0.0
 10
122.2112496884
 20
121.724068327
 30
0.0
 10
121.9163273487
 20
121.9126466159
 30
0.0
 10
121.4911288914
 20
122.0235899587
 30
0.0
 10
121.1539820542
 20
122.0032744687
 30
0.0
 10
120.906470759
 20
121.9306920784
 30
0.0
 10
120.6729491872
 20
121.7993637565
 30
0.0
 10
120.5344350387
 20
121.6801313387
 30
0.0
 10
120.4697469681
 20
121.6129282302
 30
0.0
  0
SPLINE
  5
578
100
AcDbEntity
  8
0
100
AcDbSpline
 62
7
  6
CONTINUOUS
 70
0
 71
3
 72
17
 73
13
 74
0
 42
0.0000001
 43
0.0000001
 44
0.0000000001
 40
0.0
 40
0.0
 40
0.0
 40
0.0
 40
0.176101754
 40
0.3461697883
 40
0.5044850994
 40
0.6459813555
 40
0.766659343
 40
0.8642330558
 40
0.9045006786
 40
0.9397143028
 40
0.9709681836
 40
1.0
 40
1.0
 40
1.0
 40
1.0
 10
131.891026085
 20
121.6129282302
 30
0.0
 10
131.946839749
 20
121.7756081282
 30
0.0
 10
132.0565444796
 20
122.0953965265
 30
0.0
 10
132.2219193647
 20
122.5595487896
 30
0.0
 10
132.3869824667
 20
122.9877994656
 30
0.0
 10
132.5515762712
 20
123.3643583466
 30
0.0
 10
132.7156116538
 20
123.6753389677
 30
0.0
 10
132.8602773196
 20
123.8841368569
 30
0.0
 10
132.9799738491
 20
124.0041590344
 30
0.0
 10
133.0647383197
 20
124.0658347511
 30
0.0
 10
133.1507753744
 20
124.103997919
 30
0.0
 10
133.2099279689
 20
124.1128329569
 30
0.0
 10
133.2382816195
 20
124.1128329569
 30
0.0
  0
SPLINE
  5
579
100
AcDbEntity
  8
0
100
AcDbSpline
 62
7
  6
CONTINUOUS
 70
0
 71
3
 72
10
 73
6
 74
0
 42
0.0000001
 43
0.0000001
 44
0.0000000001
 40
0.0
 40
0.0
 40
0.0
 40
0.0
 40
0.2516089409
 40
0.502075501
 40
1.0
 40
1.0
 40
1.0
 40
1.0
 10
116.3495079275
 20
121.6129282302
 30
0.0
 10
116.3439146447
 20
121.6218039503
 30
0.0
 10
116.3303490213
 20
121.637862006
 30
0.0
 10
116.3051909418
 20
121.6710732377
 30
0.0
 10
116.2855791032
 20
121.6953722713
 30
0.0
 10
116.2723242199
 20
121.7113518694
 30
0.0
  0
SPLINE
  5
57A
100
AcDbEntity
  8
0
100
AcDbSpline
 62
7
  6
CONTINUOUS
 70
0
 71
3
 72
14
 73
10
 74
0
 42
0.0000001
 43
0.0000001
 44
0.0000000001
 40
0.0
 40
0.0
 40
0.0
 40
0.0
 40
0.1353783272
 40
0.2614994732
 40
0.3813196021
 40
0.4990683185
 40
0.6182558861
 40
0.7410116374
 40
1.0
 40
1.0
 40
1.0
 40
1.0
 10
116.2723242199
 20
121.7113518694
 30
0.0
 10
116.1931650124
 20
121.8067832885
 30
0.0
 10
116.0222651313
 20
121.977727954
 30
0.0
 10
115.7196368357
 20
122.1598287191
 30
0.0
 10
115.3943849613
 20
122.2491670063
 30
0.0
 10
115.0643002371
 20
122.2503986912
 30
0.0
 10
114.7408318517
 20
122.1762149281
 30
0.0
 10
114.3192142027
 20
121.9903271594
 30
0.0
 10
114.03679809
 20
121.7751221481
 30
0.0
 10
113.863716903
 20
121.6129282302
 30
0.0
  0
ENDSEC
  0
SECTION
  2
OBJECTS
  0
DICTIONARY
  5
57B
100
AcDbDictionary
  3
ACAD_GROUP
350
57C
  3
ACAD_MLINESTYLE
350
57D
  0
DICTIONARY
  5
57C
102
{ACAD_REACTORS
330
57B
102
}
100
AcDbDictionary
  0
DICTIONARY
  5
57D
102
{ACAD_REACTORS
330
57B
102
}
100
AcDbDictionary
  3
STANDARD
350
57E
  0
MLINESTYLE
  5
57E
102
{ACAD_REACTORS
330
57D
102
}
100
AcDbMlineStyle
  2
STANDARD
 70
0
  3

 62
256
 51
90.0
 52
90.0
 71
2
 49
0.5
 62
256
  6
BYLAYER
 49
-0.5
 62
256
  6
BYLAYER
  0
ENDSEC
  0
EOF
