999
DXF file: C:\Users\64ciro\Desktop\FILE 3D-2D\ARMATEC\h36nll040_3080.dxf
999
Pro/ENGINEER 2017260 by Parametric Technology Corporation
  0
SECTION
  2
HEADER
  9
$ACADVER
  1
AC1014
  9
$DWGCODEPAGE
  3
ANSI_1252
  9
$EXTMAX
 10
297.0
 20
210.0
 30
0.0
  9
$EXTMIN
 10
0.0
 20
0.0
 30
0.0
  9
$LIMMIN
 10
0.0
 20
0.0
  9
$LIMMAX
 10
297.0
 20
210.0
  9
$VIEWCTR
 10
148.5
 20
105.0
  9
$VIEWSIZE
 40
210.0
  9
$CLAYER
  8
0
  9
$LTSCALE
 40
16.335
  9
$CELTYPE
  6
BYLAYER
  9
$DIMSCALE
 40
1.0
  9
$DIMASZ
 40
2.5
  9
$DIMEXO
 40
0.0625
  9
$DIMDLI
 40
11.286
  9
$DIMEXE
 40
0.125
  9
$DIMCEN
 40
2.673
  9
$DIMLFAC
 40
1.0
  9
$DIMBLK
  1
_CLOSED
  9
$DIMALT
 70
0
  9
$DIMALTF
 40
25.4
  9
$DIMTXT
 40
2.0
  9
$DIMTOL
 70
1
  9
$DIMLIM
 70
0
  9
$DIMTFAC
 40
1.0
  9
$DIMTP
 40
0.01
  9
$DIMTM
 40
0.01
  9
$DIMGAP
 40
0.625
  9
$AUNITS
 70
0
  9
$PDMODE
 70
3
  9
$PDSIZE
 40
0.3125
  9
$HANDSEED
  5
506
  9
$TILEMODE
 70
1
  9
$MEASUREMENT
 70
1
  0
ENDSEC
  0
SECTION
  2
CLASSES
  0
ENDSEC
  0
SECTION
  2
TABLES
  0
TABLE
  2
VPORT
  5
8
100
AcDbSymbolTable
 70
2
  0
VPORT
  5
1F4
100
AcDbSymbolTableRecord
100
AcDbViewportTableRecord
  2
*ACTIVE
 70
0
 10
0.0
 20
0.0
 11
1.0
 21
1.0
 12
148.5
 22
105.0
 13
0.0
 23
0.0
 14
1.0
 24
1.0
 15
0.0
 25
0.0
 16
0.0
 26
0.0
 36
1.0
 17
0.0
 27
0.0
 37
0.0
 40
210.0
 41
1.4142857143
 42
50.0
 43
0.0
 44
0.0
 50
0.0
 51
0.0
 71
0
 72
100
 73
1
 74
1
 75
0
 76
0
 77
0
 78
0
  0
ENDTAB
  0
TABLE
  2
LTYPE
  5
5
100
AcDbSymbolTable
 70
6
  0
LTYPE
  5
14
100
AcDbSymbolTableRecord
100
AcDbLinetypeTableRecord
  2
BYBLOCK
 70
0
  3

 72
65
 73
0
 40
0.0
  0
LTYPE
  5
15
100
AcDbSymbolTableRecord
100
AcDbLinetypeTableRecord
  2
BYLAYER
 70
0
  3

 72
65
 73
0
 40
0.0
  0
LTYPE
  5
16
100
AcDbSymbolTableRecord
100
AcDbLinetypeTableRecord
  2
CONTINUOUS
 70
64
  3
Solid line
 72
65
 73
0
 40
0.0
  0
LTYPE
  5
1F5
100
AcDbSymbolTableRecord
100
AcDbLinetypeTableRecord
  2
CENTER
 70
64
  3
____ _ ____ _ ____ _ ____ _ ____ _ ____ _ ____
 72
65
 73
4
 40
0.6
 49
0.375
 74
0
 49
-0.075
 74
0
 49
0.075
 74
0
 49
-0.075
 74
0
  0
LTYPE
  5
1F6
100
AcDbSymbolTableRecord
100
AcDbLinetypeTableRecord
  2
HIDDEN
 70
64
  3
- - - - - - - - - - - - - - - - - - - -
 72
65
 73
2
 40
0.2
 49
0.1
 74
0
 49
-0.1
 74
0
  0
LTYPE
  5
1F7
100
AcDbSymbolTableRecord
100
AcDbLinetypeTableRecord
  2
PHANTOM
 70
64
  3
_____ _ _ _____ _ _ _____ _ _ _____
 72
65
 73
6
 40
0.8
 49
0.45
 74
0
 49
-0.05
 74
0
 49
0.1
 74
0
 49
-0.05
 74
0
 49
0.1
 74
0
 49
-0.05
 74
0
  0
LTYPE
  5
1F8
100
AcDbSymbolTableRecord
100
AcDbLinetypeTableRecord
  2
DOT
 70
64
  3
. . . . . . . . . . . . . . . . . . . .
 72
65
 73
2
 40
0.2
 49
0.1
 74
0
 49
-0.1
 74
0
  0
LTYPE
  5
1F9
100
AcDbSymbolTableRecord
100
AcDbLinetypeTableRecord
  2
DASHED
 70
64
  3
- - - - - - - - - - - - - - - - - - - -
 72
65
 73
2
 40
0.2
 49
0.1
 74
0
 49
-0.1
 74
0
  0
ENDTAB
  0
TABLE
  2
LAYER
  5
2
100
AcDbSymbolTable
 70
36
  0
LAYER
  5
10
100
AcDbSymbolTableRecord
100
AcDbLayerTableRecord
  2
0
 70
0
 62
7
  6
CONTINUOUS
  0
LAYER
  5
1FA
100
AcDbSymbolTableRecord
100
AcDbLayerTableRecord
  2
DEFAULT_1
 70
0
 62
7
  6
CENTER
  0
LAYER
  5
1FB
100
AcDbSymbolTableRecord
100
AcDbLayerTableRecord
  2
DEFAULT_2
 70
0
 62
8
  6
HIDDEN
  0
LAYER
  5
1FC
100
AcDbSymbolTableRecord
100
AcDbLayerTableRecord
  2
DEFAULT_3
 70
0
 62
7
  6
PHANTOM
  0
LAYER
  5
1FD
100
AcDbSymbolTableRecord
100
AcDbLayerTableRecord
  2
ASSI
 70
0
 62
7
  6
CONTINUOUS
  0
LAYER
  5
1FE
100
AcDbSymbolTableRecord
100
AcDbLayerTableRecord
  2
COSMETICA
 70
0
 62
7
  6
CONTINUOUS
  0
LAYER
  5
1FF
100
AcDbSymbolTableRecord
100
AcDbLayerTableRecord
  2
CSYS
 70
0
 62
7
  6
CONTINUOUS
  0
LAYER
  5
200
100
AcDbSymbolTableRecord
100
AcDbLayerTableRecord
  2
DETTAGLI
 70
0
 62
7
  6
CONTINUOUS
  0
LAYER
  5
201
100
AcDbSymbolTableRecord
100
AcDbLayerTableRecord
  2
FILETTI
 70
0
 62
7
  6
CONTINUOUS
  0
LAYER
  5
202
100
AcDbSymbolTableRecord
100
AcDbLayerTableRecord
  2
GEOM
 70
0
 62
7
  6
CONTINUOUS
  0
LAYER
  5
203
100
AcDbSymbolTableRecord
100
AcDbLayerTableRecord
  2
GEOMETRIA_SOLIDA
 70
0
 62
7
  6
CONTINUOUS
  0
LAYER
  5
204
100
AcDbSymbolTableRecord
100
AcDbLayerTableRecord
  2
NOGEOM
 70
0
 62
7
  6
CONTINUOUS
  0
LAYER
  5
205
100
AcDbSymbolTableRecord
100
AcDbLayerTableRecord
  2
PIANI
 70
0
 62
7
  6
CONTINUOUS
  0
LAYER
  5
206
100
AcDbSymbolTableRecord
100
AcDbLayerTableRecord
  2
QUOTE
 70
0
 62
7
  6
CONTINUOUS
  0
LAYER
  5
207
100
AcDbSymbolTableRecord
100
AcDbLayerTableRecord
  2
RACCORDI
 70
0
 62
7
  6
CONTINUOUS
  0
LAYER
  5
208
100
AcDbSymbolTableRecord
100
AcDbLayerTableRecord
  2
TABELLE
 70
0
 62
7
  6
CONTINUOUS
  0
ENDTAB
  0
TABLE
  2
STYLE
  5
3
100
AcDbSymbolTable
 70
1
  0
STYLE
  5
11
100
AcDbSymbolTableRecord
100
AcDbTextStyleTableRecord
  2
STANDARD
 70
0
 40
0.0
 41
0.8
 50
0.0
 71
0
 42
0.2
  3
txt
  4

  0
STYLE
  5
209
100
AcDbSymbolTableRecord
100
AcDbTextStyleTableRecord
  2
TEXTSTYLE_1
 70
0
 40
0.0
 41
0.8
 50
0.0
 71
0
 42
0.2
  3
gdt
  4

  0
ENDTAB
  0
TABLE
  2
VIEW
  5
6
100
AcDbSymbolTable
 70
0
  0
ENDTAB
  0
TABLE
  2
UCS
  5
7
100
AcDbSymbolTable
 70
0
  0
ENDTAB
  0
TABLE
  2
APPID
  5
9
100
AcDbSymbolTable
 70
1
  0
APPID
  5
20A
100
AcDbSymbolTableRecord
100
AcDbRegAppTableRecord
  2
ACAD
 70
0
  0
ENDTAB
  0
TABLE
  2
BLOCK_RECORD
  5
1
100
AcDbSymbolTable
 70
0
  0
BLOCK_RECORD
  5
1F
100
AcDbSymbolTableRecord
100
AcDbBlockTableRecord
  2
*MODEL_SPACE
  0
BLOCK_RECORD
  5
1B
100
AcDbSymbolTableRecord
100
AcDbBlockTableRecord
  2
*PAPER_SPACE
  0
ENDTAB
  0
TABLE
  2
DIMSTYLE
  5
A
100
AcDbSymbolTable
 70
1
  0
DIMSTYLE
105
20B
100
AcDbSymbolTableRecord
100
AcDbDimStyleTableRecord
  2
STANDARD
 70
0
  3

  4

  5
_CLOSED
  6
_CLOSED
  7
_CLOSED
 40
1.0
 41
2.5
 42
0.0625
 43
0.38
 44
0.125
 45
0.0
 46
0.0
 47
0.01
 48
0.01
140
2.0
141
0.09
142
0.0
143
25.4
144
1.0
145
0.0
146
1.0
147
0.625
 71
1.0
 72
0.0
 73
0
 74
0
 75
0
 76
0
 77
1
 78
8
 79
2
170
0
171
1
172
0
173
0
174
0
175
0
176
0
177
0
178
0
270
2
179
2
271
2
272
2
273
2
274
2
275
0
280
0
281
0
282
0
283
1
284
8
285
0
286
0
287
3
288
0
340
11
  0
ENDTAB
  0
ENDSEC
  0
SECTION
  2
BLOCKS
  0
BLOCK
  5
20
100
AcDbEntity
  8
0
100
AcDbBlockBegin
  2
*MODEL_SPACE
 70
0
 10
0.0
 20
0.0
 30
0.0
  3
*MODEL_SPACE
  1

  0
ENDBLK
  5
21
100
AcDbEntity
  8
0
100
AcDbBlockEnd
  0
BLOCK
  5
1C
100
AcDbEntity
  8
0
100
AcDbBlockBegin
  2
*PAPER_SPACE
 70
0
 10
0.0
 20
0.0
 30
0.0
  3
*PAPER_SPACE
  1

  0
ENDBLK
  5
1D
100
AcDbEntity
  8
0
100
AcDbBlockEnd
  0
ENDSEC
  0
SECTION
  2
ENTITIES
  0
LINE
  5
20C
100
AcDbEntity
  8
0
100
AcDbLine
 62
7
  6
CONTINUOUS
 10
0.0
 20
0.0
 11
0.0
 21
210.0
  0
LINE
  5
20D
100
AcDbEntity
  8
0
100
AcDbLine
 62
7
  6
CONTINUOUS
 10
0.0
 20
0.0
 11
297.0
 21
0.0
  0
LINE
  5
20E
100
AcDbEntity
  8
0
100
AcDbLine
 62
7
  6
CONTINUOUS
 10
0.0
 20
210.0
 11
297.0
 21
210.0
  0
LINE
  5
20F
100
AcDbEntity
  8
0
100
AcDbLine
 62
7
  6
CONTINUOUS
 10
297.0
 20
0.0
 11
297.0
 21
210.0
  0
LINE
  5
210
100
AcDbEntity
  8
0
100
AcDbLine
 62
7
  6
CONTINUOUS
 10
66.5869344701
 20
36.4494699238
 11
66.5933151994
 21
36.4439449758
  0
LINE
  5
211
100
AcDbEntity
  8
0
100
AcDbLine
 62
7
  6
CONTINUOUS
 10
64.8927600904
 20
36.4439449758
 11
63.6927600904
 21
37.6439449758
  0
LINE
  5
212
100
AcDbEntity
  8
0
100
AcDbLine
 62
7
  6
CONTINUOUS
 10
65.7610292225
 20
37.8796766144
 11
66.5869344701
 21
36.4494699238
  0
LINE
  5
213
100
AcDbEntity
  8
0
100
AcDbLine
 62
7
  6
CONTINUOUS
 10
68.5869352081
 20
36.4494699203
 11
68.5933159333
 21
36.4439449758
  0
LINE
  5
214
100
AcDbEntity
  8
0
100
AcDbLine
 62
7
  6
CONTINUOUS
 10
70.5869343077
 20
36.4494699169
 11
70.5933150291
 21
36.4439449758
  0
LINE
  5
215
100
AcDbEntity
  8
0
100
AcDbLine
 62
7
  6
CONTINUOUS
 10
79.4498668715
 20
36.2368381946
 11
78.0356533092
 21
37.651051757
  0
LINE
  5
216
100
AcDbEntity
  8
0
100
AcDbLine
 62
7
  6
CONTINUOUS
 10
67.7610299463
 20
37.8796766343
 11
68.5869352081
 21
36.4494699203
  0
LINE
  5
217
100
AcDbEntity
  8
0
100
AcDbLine
 62
7
  6
CONTINUOUS
 10
69.7610290818
 20
37.8796765723
 11
70.5869343077
 21
36.4494699169
  0
LINE
  5
218
100
AcDbEntity
  8
0
100
AcDbLine
 62
7
  6
CONTINUOUS
 10
71.7610295453
 20
37.8796766349
 11
72.5073479117
 21
36.5872906329
  0
LINE
  5
219
100
AcDbEntity
  8
0
100
AcDbLine
 62
7
  6
CONTINUOUS
 10
72.5114120661
 20
36.585802033
 11
72.5073479117
 21
36.5872906329
  0
LINE
  5
21A
100
AcDbEntity
  8
0
100
AcDbLine
 62
7
  6
CONTINUOUS
 10
73.7944264072
 20
37.8218517437
 11
73.7995043276
 21
37.8188667675
  0
LINE
  5
21B
100
AcDbEntity
  8
0
100
AcDbLine
 62
7
  6
CONTINUOUS
 10
90.5105270433
 20
30.1761780228
 11
85.4749931374
 21
35.2117119288
  0
LINE
  5
21C
100
AcDbEntity
  8
0
100
AcDbLine
 62
7
  6
CONTINUOUS
 10
63.6927600904
 20
90.2439449758
 11
63.6927600904
 21
37.6439449758
  0
LINE
  5
21D
100
AcDbEntity
  8
0
100
AcDbLine
 62
7
  6
CONTINUOUS
 10
64.8927600904
 20
36.7750472577
 11
64.8927600904
 21
36.4439449758
  0
LINE
  5
21E
100
AcDbEntity
  8
0
100
AcDbLine
 62
7
  6
CONTINUOUS
 10
88.7427600904
 20
172.3678456546
 11
89.0163899105
 21
172.6939449758
  0
LINE
  5
21F
100
AcDbEntity
  8
0
100
AcDbLine
 62
7
  6
CONTINUOUS
 10
64.7744902304
 20
90.0082133715
 11
64.294267041
 21
90.8398041423
  0
LINE
  5
220
100
AcDbEntity
  8
0
100
AcDbLine
 62
7
  6
CONTINUOUS
 10
72.3695550096
 20
42.9633890231
 11
72.3695550096
 21
70.166116171
  0
LINE
  5
221
100
AcDbEntity
  8
0
100
AcDbLine
 62
7
  6
CONTINUOUS
 10
73.5766617908
 20
37.651051757
 11
73.5766617908
 21
38.1557259842
  0
LINE
  5
222
100
AcDbEntity
  8
0
100
AcDbLine
 62
7
  6
CONTINUOUS
 10
73.5766617908
 20
49.8367306761
 11
73.5766617908
 21
90.2368381946
  0
LINE
  5
223
100
AcDbEntity
  8
GEOM
100
AcDbLine
 62
7
  6
CONTINUOUS
 10
74.283768572
 20
37.9439449758
 11
74.283768572
 21
89.9439449758
  0
LINE
  5
224
100
AcDbEntity
  8
0
100
AcDbLine
 62
7
  6
CONTINUOUS
 10
101.2427600904
 20
172.6939449758
 11
100.8427600904
 21
172.2939449758
  0
LINE
  5
225
100
AcDbEntity
  8
0
100
AcDbLine
 62
7
  6
CONTINUOUS
 10
101.9692573985
 20
181.9473629884
 11
102.7427600904
 21
182.3939449758
  0
LINE
  5
226
100
AcDbEntity
  8
0
100
AcDbLine
 62
7
  6
CONTINUOUS
 10
101.9692573985
 20
178.6020635268
 11
101.0427600904
 21
178.0671500565
  0
LINE
  5
227
100
AcDbEntity
  8
0
100
AcDbLine
 62
7
  6
CONTINUOUS
 10
129.8182633293
 20
28.4439449758
 11
128.6927600904
 21
28.4439449758
  0
LINE
  5
228
100
AcDbEntity
  8
0
100
AcDbLine
 62
7
  6
CONTINUOUS
 10
128.4927600904
 20
28.4439449758
 11
119.2398163652
 21
28.4439449758
  0
LINE
  5
229
100
AcDbEntity
  8
0
100
AcDbLine
 62
7
  6
CONTINUOUS
 10
117.2457038155
 20
29.4439449758
 11
92.2782939963
 21
29.4439449758
  0
LINE
  5
22A
100
AcDbEntity
  8
0
100
AcDbLine
 62
7
  6
CONTINUOUS
 10
118.3912882278
 20
28.7954168384
 11
118.0942319529
 21
29.0924731132
  0
LINE
  5
22B
100
AcDbEntity
  8
0
100
AcDbLine
 62
7
  6
CONTINUOUS
 10
68.1922047404
 20
83.3893814584
 11
69.0177600904
 21
82.3782867775
  0
LINE
  5
22C
100
AcDbEntity
  8
0
100
AcDbLine
 62
7
  6
CONTINUOUS
 10
66.774490858
 20
90.0082133125
 11
65.9485855954
 21
91.4384200275
  0
LINE
  5
22D
100
AcDbEntity
  8
0
100
AcDbLine
 62
7
  6
CONTINUOUS
 10
68.7744908725
 20
90.0082133718
 11
67.9485856394
 21
91.438420039
  0
LINE
  5
22E
100
AcDbEntity
  8
0
100
AcDbLine
 62
7
  6
CONTINUOUS
 10
70.7744903371
 20
90.0082133456
 11
69.9485850939
 21
91.438420029
  0
LINE
  5
22F
100
AcDbEntity
  8
0
100
AcDbLine
 62
7
  6
CONTINUOUS
 10
72.7744911049
 20
90.0082133123
 11
71.9485858409
 21
91.4384200298
  0
LINE
  5
230
100
AcDbEntity
  8
0
100
AcDbLine
 62
7
  6
CONTINUOUS
 10
77.328546528
 20
37.9439449758
 11
77.328546528
 21
89.9439449758
  0
LINE
  5
231
100
AcDbEntity
  8
0
100
AcDbLine
 62
7
  6
CONTINUOUS
 10
78.0356533092
 20
37.651051757
 11
78.0356533092
 21
90.2368381946
  0
LINE
  5
232
100
AcDbEntity
  8
0
100
AcDbLine
 62
7
  6
CONTINUOUS
 10
79.4498668715
 20
91.651051757
 11
79.4498668715
 21
36.2368381946
  0
LINE
  5
233
100
AcDbEntity
  8
0
100
AcDbLine
 62
7
  6
CONTINUOUS
 10
80.1569736527
 20
91.9439449758
 11
80.1569736527
 21
35.9439449758
  0
LINE
  5
234
100
AcDbEntity
  8
0
100
AcDbLine
 62
7
  6
CONTINUOUS
 10
93.9927600904
 20
164.8939449758
 11
94.2927600904
 21
165.1939449758
  0
LINE
  5
235
100
AcDbEntity
  8
0
100
AcDbLine
 62
7
  6
CONTINUOUS
 10
97.7427600904
 20
166.4439449758
 11
97.0500192499
 21
165.7512041353
  0
LINE
  5
236
100
AcDbEntity
  8
0
100
AcDbLine
 62
7
  6
CONTINUOUS
 10
97.5509439536
 20
165.3032209736
 11
97.3411915915
 21
165.1939449758
  0
LINE
  5
237
100
AcDbEntity
  8
GEOM
100
AcDbLine
 62
7
  6
CONTINUOUS
 10
132.0876817998
 20
35.4439449758
 11
138.0021611671
 21
35.4439449758
  0
LINE
  5
238
100
AcDbEntity
  8
0
100
AcDbLine
 62
7
  6
CONTINUOUS
 10
83.7072261844
 20
35.9439449758
 11
80.1569736527
 21
35.9439449758
  0
LINE
  5
239
100
AcDbEntity
  8
GEOM
100
AcDbLine
 62
7
  6
CONTINUOUS
 10
132.0876837145
 20
36.02978144
 11
136.804337636
 21
36.0297314135
  0
LINE
  5
23A
100
AcDbEntity
  8
0
100
AcDbLine
 62
7
  6
CONTINUOUS
 10
70.9422047586
 20
36.4439449758
 11
70.5933150291
 21
36.4439449758
  0
LINE
  5
23B
100
AcDbEntity
  8
0
100
AcDbLine
 62
7
  6
CONTINUOUS
 10
68.9422043189
 20
36.4439449758
 11
68.5933159333
 21
36.4439449758
  0
LINE
  5
23C
100
AcDbEntity
  8
0
100
AcDbLine
 62
7
  6
CONTINUOUS
 10
66.9422051522
 20
36.4439449758
 11
66.5933151994
 21
36.4439449758
  0
LINE
  5
23D
100
AcDbEntity
  8
0
100
AcDbLine
 62
7
  6
CONTINUOUS
 10
64.9422044468
 20
36.4439449758
 11
64.8927600904
 21
36.4439449758
  0
LINE
  5
23E
100
AcDbEntity
  8
0
100
AcDbLine
 62
7
  6
CONTINUOUS
 10
145.4433152985
 20
36.4439449758
 11
145.7922053262
 21
36.4439449758
  0
LINE
  5
23F
100
AcDbEntity
  8
0
100
AcDbLine
 62
7
  6
CONTINUOUS
 10
147.4433160574
 20
36.4439449758
 11
147.7922041744
 21
36.4439449758
  0
LINE
  5
240
100
AcDbEntity
  8
0
100
AcDbLine
 62
7
  6
CONTINUOUS
 10
149.4433149577
 20
36.4439449758
 11
149.7922046175
 21
36.4439449758
  0
LINE
  5
241
100
AcDbEntity
  8
0
100
AcDbLine
 62
7
  6
CONTINUOUS
 10
151.4433154275
 20
36.4439449758
 11
151.7922053157
 21
36.4439449758
  0
LINE
  5
242
100
AcDbEntity
  8
0
100
AcDbLine
 62
7
  6
CONTINUOUS
 10
146.5427606919
 20
37.7439450016
 11
146.6927606919
 21
37.7439450016
  0
LINE
  5
243
100
AcDbEntity
  8
0
100
AcDbLine
 62
7
  6
CONTINUOUS
 10
152.5427606765
 20
37.7439449932
 11
152.6927606765
 21
37.7439449932
  0
LINE
  5
244
100
AcDbEntity
  8
0
100
AcDbLine
 62
7
  6
CONTINUOUS
 10
144.54275989
 20
37.7439450727
 11
144.69275989
 21
37.7439450727
  0
LINE
  5
245
100
AcDbEntity
  8
0
100
AcDbLine
 62
7
  6
CONTINUOUS
 10
148.5427595658
 20
37.7439450446
 11
148.6927595658
 21
37.7439450446
  0
LINE
  5
246
100
AcDbEntity
  8
0
100
AcDbLine
 62
7
  6
CONTINUOUS
 10
150.5427600226
 20
37.7439450666
 11
150.6927600226
 21
37.7439450666
  0
LINE
  5
247
100
AcDbEntity
  8
0
100
AcDbLine
 62
7
  6
CONTINUOUS
 10
142.9856533092
 20
37.9439449758
 11
139.1927600904
 21
37.9439449758
  0
LINE
  5
248
100
AcDbEntity
  8
0
100
AcDbLine
 62
7
  6
CONTINUOUS
 10
77.328546528
 20
37.9439449758
 11
74.283768572
 21
37.9439449758
  0
LINE
  5
249
100
AcDbEntity
  8
0
100
AcDbLine
 62
7
  6
CONTINUOUS
 10
65.9485855954
 20
91.4384200275
 11
65.9422048659
 21
91.4439449758
  0
LINE
  5
24A
100
AcDbEntity
  8
0
100
AcDbLine
 62
7
  6
CONTINUOUS
 10
73.5766617908
 20
90.2368381946
 11
73.1453883249
 21
90.6681116605
  0
LINE
  5
24B
100
AcDbEntity
  8
0
100
AcDbLine
 62
7
  6
CONTINUOUS
 10
98.6318276077
 20
61.104762073
 11
96.2527600904
 21
65.7739449758
  0
LINE
  5
24C
100
AcDbEntity
  8
0
100
AcDbLine
 62
7
  6
CONTINUOUS
 10
83.7072261844
 20
35.9439449758
 11
83.7072261844
 21
91.9439449758
  0
LINE
  5
24D
100
AcDbEntity
  8
0
100
AcDbLine
 62
7
  6
CONTINUOUS
 10
85.4749931374
 20
35.2117119288
 11
85.4749931374
 21
92.6761780228
  0
LINE
  5
24E
100
AcDbEntity
  8
0
100
AcDbLine
 62
7
  6
CONTINUOUS
 10
88.7427600904
 20
155.6939449758
 11
88.7427600904
 21
172.6939449758
  0
LINE
  5
24F
100
AcDbEntity
  8
0
100
AcDbLine
 62
7
  6
CONTINUOUS
 10
89.7427600904
 20
159.1439449758
 11
89.7427600904
 21
155.9326201104
  0
LINE
  5
250
100
AcDbEntity
  8
0
100
AcDbLine
 62
7
  6
CONTINUOUS
 10
90.2427600904
 20
155.9326201104
 11
90.2427600904
 21
159.6439449758
  0
LINE
  5
251
100
AcDbEntity
  8
0
100
AcDbLine
 62
7
  6
CONTINUOUS
 10
90.5105270433
 20
97.7117119288
 11
90.5105270433
 21
30.1761780228
  0
LINE
  5
252
100
AcDbEntity
  8
0
100
AcDbLine
 62
7
  6
CONTINUOUS
 10
107.7427600904
 20
176.8939449758
 11
107.6825469954
 21
176.6939449758
  0
LINE
  5
253
100
AcDbEntity
  8
0
100
AcDbLine
 62
7
  6
CONTINUOUS
 10
109.905879051
 20
176.8939449758
 11
109.8176301069
 21
176.6939449758
  0
LINE
  5
254
100
AcDbEntity
  8
0
100
AcDbLine
 62
7
  6
CONTINUOUS
 10
114.7427600904
 20
176.8939449758
 11
114.6424973595
 21
176.6939449758
  0
LINE
  5
255
100
AcDbEntity
  8
0
100
AcDbLine
 62
7
  6
CONTINUOUS
 10
111.8572568564
 20
176.8939449758
 11
111.7496104848
 21
176.6939449758
  0
LINE
  5
256
100
AcDbEntity
  8
0
100
AcDbLine
 62
7
  6
CONTINUOUS
 10
114.4001557044
 20
176.8939449758
 11
114.2861933113
 21
176.6939449758
  0
LINE
  5
257
100
AcDbEntity
  8
0
100
AcDbLine
 62
7
  6
CONTINUOUS
 10
65.586934271
 20
91.4384200327
 11
64.7610290414
 21
90.0082133716
  0
LINE
  5
258
100
AcDbEntity
  8
0
100
AcDbLine
 62
7
  6
CONTINUOUS
 10
67.5869349182
 20
91.4384200273
 11
66.7610296557
 21
90.0082133124
  0
LINE
  5
259
100
AcDbEntity
  8
0
100
AcDbLine
 62
7
  6
CONTINUOUS
 10
113.405879051
 20
176.8939449758
 11
113.2893724286
 21
176.6939449758
  0
LINE
  5
25A
100
AcDbEntity
  8
0
100
AcDbLine
 62
7
  6
CONTINUOUS
 10
142.1925075587
 20
192.2294788817
 11
126.9498668715
 21
176.9868381946
  0
LINE
  5
25B
100
AcDbEntity
  8
0
100
AcDbLine
 62
7
  6
CONTINUOUS
 10
67.9485856394
 20
91.438420039
 11
67.9422049231
 21
91.4439449758
  0
LINE
  5
25C
100
AcDbEntity
  8
0
100
AcDbLine
 62
7
  6
CONTINUOUS
 10
69.9485850939
 20
91.438420029
 11
69.942204366
 21
91.4439449758
  0
LINE
  5
25D
100
AcDbEntity
  8
0
100
AcDbLine
 62
7
  6
CONTINUOUS
 10
99.2659419319
 20
62.3492815075
 11
97.5209887389
 21
65.7739449758
  0
LINE
  5
25E
100
AcDbEntity
  8
0
100
AcDbLine
 62
7
  6
CONTINUOUS
 10
92.2782939963
 20
98.4439449758
 11
92.2782939963
 21
29.4439449758
  0
LINE
  5
25F
100
AcDbEntity
  8
0
100
AcDbLine
 62
7
  6
CONTINUOUS
 10
92.7427600904
 20
159.6439449758
 11
92.7427600904
 21
172.1939449758
  0
LINE
  5
260
100
AcDbEntity
  8
0
100
AcDbLine
 62
7
  6
CONTINUOUS
 10
93.5427600904
 20
57.2339449758
 11
93.5427600904
 21
70.7339449758
  0
LINE
  5
261
100
AcDbEntity
  8
0
100
AcDbLine
 62
7
  6
CONTINUOUS
 10
93.9927600904
 20
160.9939449758
 11
93.9927600904
 21
164.8939449758
  0
LINE
  5
262
100
AcDbEntity
  8
0
100
AcDbLine
 62
7
  6
CONTINUOUS
 10
94.2427600904
 20
160.5782595508
 11
94.2427600904
 21
159.9439449758
  0
LINE
  5
263
100
AcDbEntity
  8
0
100
AcDbLine
 62
7
  6
CONTINUOUS
 10
94.4762609289
 20
159.1439449758
 11
94.4762609289
 21
153.4884072616
  0
LINE
  5
264
100
AcDbEntity
  8
0
100
AcDbLine
 62
7
  6
CONTINUOUS
 10
94.6727600904
 20
58.3639449758
 11
94.6727600904
 21
69.6039449758
  0
LINE
  5
265
100
AcDbEntity
  8
0
100
AcDbLine
 62
7
  6
CONTINUOUS
 10
94.7427600904
 20
152.0782595508
 11
94.7427600904
 21
99.6439449758
  0
LINE
  5
266
100
AcDbEntity
  8
0
100
AcDbLine
 62
7
  6
CONTINUOUS
 10
94.7646630846
 20
159.1439449758
 11
94.7646630846
 21
153.4884072616
  0
LINE
  5
267
100
AcDbEntity
  8
0
100
AcDbLine
 62
7
  6
CONTINUOUS
 10
97.5427630608
 20
165.4946978667
 11
97.5427630608
 21
165.2989588674
  0
LINE
  5
268
100
AcDbEntity
  8
0
100
AcDbLine
 62
7
  6
CONTINUOUS
 10
98.7427600904
 20
166.4439449758
 11
98.7427600904
 21
169.9439449758
  0
LINE
  5
269
100
AcDbEntity
  8
0
100
AcDbLine
 62
7
  6
CONTINUOUS
 10
99.4678428727
 20
166.4439449758
 11
99.4678428727
 21
169.3665947066
  0
LINE
  5
26A
100
AcDbEntity
  8
0
100
AcDbLine
 62
7
  6
CONTINUOUS
 10
105.5796411297
 20
176.8939449758
 11
105.5533579612
 21
176.6939449758
  0
LINE
  5
26B
100
AcDbEntity
  8
0
100
AcDbLine
 62
7
  6
CONTINUOUS
 10
102.088593428
 20
147.4399618738
 11
101.9427600904
 21
146.6952806943
  0
LINE
  5
26C
100
AcDbEntity
  8
0
100
AcDbLine
 62
7
  6
CONTINUOUS
 10
102.9635933889
 20
147.2910253041
 11
102.8177600904
 21
146.6952806943
  0
LINE
  5
26D
100
AcDbEntity
  8
0
100
AcDbLine
 62
7
  6
CONTINUOUS
 10
106.7552600904
 20
143.865493589
 11
106.6094268961
 21
143.4186851316
  0
LINE
  5
26E
100
AcDbEntity
  8
0
100
AcDbLine
 62
7
  6
CONTINUOUS
 10
102.3802600904
 20
148.0357064836
 11
102.088593428
 21
147.4399618738
  0
LINE
  5
26F
100
AcDbEntity
  8
0
100
AcDbLine
 62
7
  6
CONTINUOUS
 10
69.586934933
 20
91.4384200398
 11
68.7610296994
 21
90.0082133717
  0
LINE
  5
270
100
AcDbEntity
  8
0
100
AcDbLine
 62
7
  6
CONTINUOUS
 10
71.5869343811
 20
91.4384200286
 11
70.7610291381
 21
90.0082133457
  0
LINE
  5
271
100
AcDbEntity
  8
0
100
AcDbLine
 62
7
  6
CONTINUOUS
 10
73.1412263491
 20
90.6665892791
 11
72.7610299086
 21
90.0082133122
  0
LINE
  5
272
100
AcDbEntity
  8
0
100
AcDbLine
 62
7
  6
CONTINUOUS
 10
103.2552600904
 20
147.7378341787
 11
102.9635933889
 21
147.2910253041
  0
LINE
  5
273
100
AcDbEntity
  8
0
100
AcDbLine
 62
7
  6
CONTINUOUS
 10
102.9635933889
 20
148.6314510935
 11
102.3802600904
 21
148.0357064836
  0
LINE
  5
274
100
AcDbEntity
  8
0
100
AcDbLine
 62
7
  6
CONTINUOUS
 10
129.7782939963
 20
174.1584110699
 11
144.7280414646
 21
189.1081585382
  0
LINE
  5
275
100
AcDbEntity
  8
0
100
AcDbLine
 62
7
  6
CONTINUOUS
 10
121.4927600904
 20
160.9939449758
 11
121.3599173779
 21
160.8611022633
  0
LINE
  5
276
100
AcDbEntity
  8
0
100
AcDbLine
 62
7
  6
CONTINUOUS
 10
103.6927600904
 20
148.0357064836
 11
103.2552600904
 21
147.7378341787
  0
LINE
  5
277
100
AcDbEntity
  8
0
100
AcDbLine
 62
7
  6
CONTINUOUS
 10
103.5469267918
 20
148.9293233984
 11
102.9635933889
 21
148.6314510935
  0
LINE
  5
278
100
AcDbEntity
  8
GEOM
100
AcDbLine
 62
7
  6
CONTINUOUS
 10
132.087683952
 20
51.5530184879
 11
136.8043486068
 21
51.5530329645
  0
LINE
  5
279
100
AcDbEntity
  8
GEOM
100
AcDbLine
 62
7
  6
CONTINUOUS
 10
132.0876817998
 20
52.9672855729
 11
136.8043376359
 21
52.9672855729
  0
LINE
  5
27A
100
AcDbEntity
  8
GEOM
100
AcDbLine
 62
7
  6
CONTINUOUS
 10
132.0876817998
 20
52.9672855729
 11
131.5895844508
 21
52.9827119691
  0
LINE
  5
27B
100
AcDbEntity
  8
GEOM
100
AcDbLine
 62
7
  6
CONTINUOUS
 10
136.8043376359
 20
52.9672855729
 11
137.2373503378
 21
52.8760405845
  0
LINE
  5
27C
100
AcDbEntity
  8
0
100
AcDbLine
 62
7
  6
CONTINUOUS
 10
145.4369345676
 20
36.4494699255
 11
145.4433152985
 21
36.4439449758
  0
LINE
  5
27D
100
AcDbEntity
  8
0
100
AcDbLine
 62
7
  6
CONTINUOUS
 10
147.4369353328
 20
36.44946992
 11
147.4433160574
 21
36.4439449758
  0
LINE
  5
27E
100
AcDbEntity
  8
0
100
AcDbLine
 62
7
  6
CONTINUOUS
 10
149.4369342371
 20
36.4494699165
 11
149.4433149577
 21
36.4439449758
  0
LINE
  5
27F
100
AcDbEntity
  8
0
100
AcDbLine
 62
7
  6
CONTINUOUS
 10
151.4433155902
 20
36.4439449758
 11
151.4369346963
 21
36.4494699257
  0
LINE
  5
280
100
AcDbEntity
  8
0
100
AcDbLine
 62
7
  6
CONTINUOUS
 10
144.1218307125
 20
37.0148743537
 11
143.3392066998
 21
37.7974983664
  0
LINE
  5
281
100
AcDbEntity
  8
0
100
AcDbLine
 62
7
  6
CONTINUOUS
 10
103.6282633243
 20
176.8939449758
 11
103.6384828618
 21
176.6939449758
  0
LINE
  5
282
100
AcDbEntity
  8
0
100
AcDbLine
 62
7
  6
CONTINUOUS
 10
99.5427600904
 20
124.0782595508
 11
99.5427600904
 21
130.0782595508
  0
LINE
  5
283
100
AcDbEntity
  8
0
100
AcDbLine
 62
7
  6
CONTINUOUS
 10
100.2177600904
 20
129.4399617546
 11
100.2177600904
 21
127.5250680082
  0
LINE
  5
284
100
AcDbEntity
  8
0
100
AcDbLine
 62
7
  6
CONTINUOUS
 10
100.2177600904
 20
126.7591106527
 11
100.2177600904
 21
124.0782595508
  0
LINE
  5
285
100
AcDbEntity
  8
0
100
AcDbLine
 62
7
  6
CONTINUOUS
 10
100.7427600904
 20
177.5475348143
 11
100.7427600904
 21
176.8939449758
  0
LINE
  5
286
100
AcDbEntity
  8
0
100
AcDbLine
 62
7
  6
CONTINUOUS
 10
100.7427600904
 20
114.3335787886
 11
100.7427600904
 21
113.056982898
  0
LINE
  5
287
100
AcDbEntity
  8
0
100
AcDbLine
 62
7
  6
CONTINUOUS
 10
100.8427600904
 20
172.2939449758
 11
100.8427600904
 21
169.9439449758
  0
LINE
  5
288
100
AcDbEntity
  8
0
100
AcDbLine
 62
7
  6
CONTINUOUS
 10
101.9427600904
 20
146.6952806943
 11
101.9427600904
 21
144.4612381988
  0
LINE
  5
289
100
AcDbEntity
  8
0
100
AcDbLine
 62
7
  6
CONTINUOUS
 10
101.9692573985
 20
178.6020635268
 11
101.9692573985
 21
181.9473629884
  0
LINE
  5
28A
100
AcDbEntity
  8
0
100
AcDbLine
 62
7
  6
CONTINUOUS
 10
102.8177600904
 20
146.6952806943
 11
102.8177600904
 21
144.4612381988
  0
LINE
  5
28B
100
AcDbEntity
  8
0
100
AcDbLine
 62
7
  6
CONTINUOUS
 10
103.0302599831
 20
128.6740043991
 11
103.0302599831
 21
128.2910253637
  0
LINE
  5
28C
100
AcDbEntity
  8
0
100
AcDbLine
 62
7
  6
CONTINUOUS
 10
103.1253935987
 20
172.6939449758
 11
103.1253935987
 21
172.3678456546
  0
LINE
  5
28D
100
AcDbEntity
  8
0
100
AcDbLine
 62
7
  6
CONTINUOUS
 10
103.7052599831
 20
128.6740043991
 11
103.7052599831
 21
128.1633658045
  0
LINE
  5
28E
100
AcDbEntity
  8
0
100
AcDbLine
 62
7
  6
CONTINUOUS
 10
104.6052600904
 20
130.0782595508
 11
104.6052600904
 21
124.0782595508
  0
LINE
  5
28F
100
AcDbEntity
  8
0
100
AcDbLine
 62
7
  6
CONTINUOUS
 10
104.7427600904
 20
118.3761320942
 11
104.7427600904
 21
114.3335787886
  0
LINE
  5
290
100
AcDbEntity
  8
0
100
AcDbLine
 62
7
  6
CONTINUOUS
 10
104.7427600904
 20
113.056982898
 11
104.7427600904
 21
110.0782595508
  0
LINE
  5
291
100
AcDbEntity
  8
0
100
AcDbLine
 62
7
  6
CONTINUOUS
 10
104.8560087444
 20
178.6020635268
 11
104.8560087444
 21
181.9473629884
  0
LINE
  5
292
100
AcDbEntity
  8
0
100
AcDbLine
 62
7
  6
CONTINUOUS
 10
104.8692173874
 20
60.0539449758
 11
104.8692173874
 21
65.7739449758
  0
LINE
  5
293
100
AcDbEntity
  8
0
100
AcDbLine
 62
7
  6
CONTINUOUS
 10
104.8692173874
 20
66.9039449758
 11
104.8692173874
 21
68.0339449758
  0
LINE
  5
294
100
AcDbEntity
  8
0
100
AcDbLine
 62
7
  6
CONTINUOUS
 10
105.2802600904
 20
129.3123021953
 11
105.2802600904
 21
124.0782595508
  0
LINE
  5
295
100
AcDbEntity
  8
0
100
AcDbLine
 62
7
  6
CONTINUOUS
 10
105.7427600904
 20
120.0782595508
 11
105.7427600904
 21
114.3335787886
  0
LINE
  5
296
100
AcDbEntity
  8
0
100
AcDbLine
 62
7
  6
CONTINUOUS
 10
105.7427600904
 20
113.056982898
 11
105.7427600904
 21
110.0782595508
  0
LINE
  5
297
100
AcDbEntity
  8
0
100
AcDbLine
 62
7
  6
CONTINUOUS
 10
105.9992173874
 20
60.0539449758
 11
105.9992173874
 21
65.7739449758
  0
LINE
  5
298
100
AcDbEntity
  8
0
100
AcDbLine
 62
7
  6
CONTINUOUS
 10
105.9992173874
 20
66.9039449758
 11
105.9992173874
 21
68.0339449758
  0
LINE
  5
299
100
AcDbEntity
  8
0
100
AcDbLine
 62
7
  6
CONTINUOUS
 10
107.017677308
 20
166.4439449758
 11
107.017677308
 21
167.7292025607
  0
LINE
  5
29A
100
AcDbEntity
  8
0
100
AcDbLine
 62
7
  6
CONTINUOUS
 10
107.4094265981
 20
114.3335787886
 11
107.4094265981
 21
113.056982898
  0
LINE
  5
29B
100
AcDbEntity
  8
0
100
AcDbLine
 62
7
  6
CONTINUOUS
 10
107.5792173874
 20
60.0539449758
 11
107.5792173874
 21
60.3439449758
  0
LINE
  5
29C
100
AcDbEntity
  8
0
100
AcDbLine
 62
7
  6
CONTINUOUS
 10
107.5792173874
 20
63.6508148502
 11
107.5792173874
 21
65.7739449758
  0
LINE
  5
29D
100
AcDbEntity
  8
0
100
AcDbLine
 62
7
  6
CONTINUOUS
 10
107.7427600904
 20
149.0782595508
 11
107.7427600904
 21
142.0782595508
  0
LINE
  5
29E
100
AcDbEntity
  8
0
100
AcDbLine
 62
7
  6
CONTINUOUS
 10
107.6302600904
 20
143.865493589
 11
107.4844268961
 21
143.1208127224
  0
LINE
  5
29F
100
AcDbEntity
  8
0
100
AcDbLine
 62
7
  6
CONTINUOUS
 10
103.0302599831
 20
128.2910253637
 11
102.9177600904
 21
127.908046686
  0
LINE
  5
2A0
100
AcDbEntity
  8
0
100
AcDbLine
 62
7
  6
CONTINUOUS
 10
103.7052599831
 20
128.1633658045
 11
103.5927600904
 21
127.7803871267
  0
LINE
  5
2A1
100
AcDbEntity
  8
0
100
AcDbLine
 62
7
  6
CONTINUOUS
 10
112.2635932846
 20
146.9931529992
 11
112.1177600904
 21
146.5463445418
  0
LINE
  5
2A2
100
AcDbEntity
  8
0
100
AcDbLine
 62
7
  6
CONTINUOUS
 10
113.1385932846
 20
146.8442168467
 11
112.9927600904
 21
146.3974083894
  0
LINE
  5
2A3
100
AcDbEntity
  8
0
100
AcDbLine
 62
7
  6
CONTINUOUS
 10
121.6239579368
 20
165.2432284758
 11
123.9333590136
 21
171.5882557866
  0
LINE
  5
2A4
100
AcDbEntity
  8
0
100
AcDbLine
 62
7
  6
CONTINUOUS
 10
118.7427600904
 20
155.6939449758
 11
123.2883352608
 21
168.1828101151
  0
LINE
  5
2A5
100
AcDbEntity
  8
0
100
AcDbLine
 62
7
  6
CONTINUOUS
 10
103.5927600904
 20
127.7803871267
 11
103.2552600904
 21
127.2697488897
  0
LINE
  5
2A6
100
AcDbEntity
  8
0
100
AcDbLine
 62
7
  6
CONTINUOUS
 10
112.9927600904
 20
146.3974083894
 11
112.5552600904
 21
145.8016637795
  0
LINE
  5
2A7
100
AcDbEntity
  8
0
100
AcDbLine
 62
7
  6
CONTINUOUS
 10
69.0177600904
 20
82.3782867775
 11
69.8433154403
 21
83.3893814584
  0
LINE
  5
2A8
100
AcDbEntity
  8
0
100
AcDbLine
 62
7
  6
CONTINUOUS
 10
102.9177600904
 20
127.908046686
 11
102.6927599831
 21
127.6527275675
  0
LINE
  5
2A9
100
AcDbEntity
  8
0
100
AcDbLine
 62
7
  6
CONTINUOUS
 10
107.4844268961
 20
143.1208127224
 11
106.9010932846
 21
142.5250680604
  0
LINE
  5
2AA
100
AcDbEntity
  8
0
100
AcDbLine
 62
7
  6
CONTINUOUS
 10
112.1177600904
 20
146.5463445418
 11
111.8260932846
 21
146.2484722369
  0
LINE
  5
2AB
100
AcDbEntity
  8
0
100
AcDbLine
 62
7
  6
CONTINUOUS
 10
121.1256028028
 20
152.6267876883
 11
120.8599173779
 21
152.3611022633
  0
LINE
  5
2AC
100
AcDbEntity
  8
0
100
AcDbLine
 62
7
  6
CONTINUOUS
 10
64.2901318528
 20
90.8413167382
 11
63.6927600904
 21
90.2439449758
  0
LINE
  5
2AD
100
AcDbEntity
  8
0
100
AcDbLine
 62
7
  6
CONTINUOUS
 10
106.6094268961
 20
143.4186851316
 11
106.1719268961
 21
143.1208127224
  0
LINE
  5
2AE
100
AcDbEntity
  8
0
100
AcDbLine
 62
7
  6
CONTINUOUS
 10
112.5552600904
 20
145.8016637795
 11
111.9719268961
 21
145.5037914746
  0
LINE
  5
2AF
100
AcDbEntity
  8
0
100
AcDbLine
 62
7
  6
CONTINUOUS
 10
106.9010932846
 20
142.5250680604
 11
106.3177600904
 21
142.2271957163
  0
LINE
  5
2B0
100
AcDbEntity
  8
0
100
AcDbLine
 62
7
  6
CONTINUOUS
 10
116.0427600904
 20
57.2339449758
 11
93.5427600904
 21
57.2339449758
  0
LINE
  5
2B1
100
AcDbEntity
  8
0
100
AcDbLine
 62
7
  6
CONTINUOUS
 10
114.9127600904
 20
58.3639449758
 11
94.6727600904
 21
58.3639449758
  0
LINE
  5
2B2
100
AcDbEntity
  8
0
100
AcDbLine
 62
7
  6
CONTINUOUS
 10
108.6992173874
 20
60.0539449758
 11
107.5792173874
 21
60.0539449758
  0
LINE
  5
2B3
100
AcDbEntity
  8
0
100
AcDbLine
 62
7
  6
CONTINUOUS
 10
105.9992173874
 20
60.0539449758
 11
104.8692173874
 21
60.0539449758
  0
LINE
  5
2B4
100
AcDbEntity
  8
0
100
AcDbLine
 62
7
  6
CONTINUOUS
 10
100.3747318163
 20
60.0539449758
 11
99.1065031678
 21
60.0539449758
  0
LINE
  5
2B5
100
AcDbEntity
  8
0
100
AcDbLine
 62
7
  6
CONTINUOUS
 10
64.294267041
 20
90.8398041423
 11
64.2901318528
 21
90.8413167382
  0
LINE
  5
2B6
100
AcDbEntity
  8
0
100
AcDbLine
 62
7
  6
CONTINUOUS
 10
108.4302603049
 20
130.0782595508
 11
108.4302603049
 21
124.971876555
  0
LINE
  5
2B7
100
AcDbEntity
  8
0
100
AcDbLine
 62
7
  6
CONTINUOUS
 10
108.6177600904
 20
148.3335787886
 11
108.6177600904
 21
146.0995360844
  0
LINE
  5
2B8
100
AcDbEntity
  8
0
100
AcDbLine
 62
7
  6
CONTINUOUS
 10
108.6177600904
 20
145.2059191697
 11
108.6177600904
 21
142.0782595508
  0
LINE
  5
2B9
100
AcDbEntity
  8
0
100
AcDbLine
 62
7
  6
CONTINUOUS
 10
108.7092173874
 20
64.6439449758
 11
108.7092173874
 21
65.7739449758
  0
LINE
  5
2BA
100
AcDbEntity
  8
0
100
AcDbLine
 62
7
  6
CONTINUOUS
 10
108.7427600904
 20
116.0357062452
 11
108.7427600904
 21
114.1208128565
  0
LINE
  5
2BB
100
AcDbEntity
  8
0
100
AcDbLine
 62
7
  6
CONTINUOUS
 10
109.1052603049
 20
130.0782595508
 11
109.1052603049
 21
124.0782595508
  0
LINE
  5
2BC
100
AcDbEntity
  8
0
100
AcDbLine
 62
7
  6
CONTINUOUS
 10
109.5760931058
 20
115.8229403131
 11
109.5760931058
 21
114.3335787886
  0
LINE
  5
2BD
100
AcDbEntity
  8
0
100
AcDbLine
 62
7
  6
CONTINUOUS
 10
110.0052600904
 20
129.1846426361
 11
110.0052600904
 21
128.1633658045
  0
LINE
  5
2BE
100
AcDbEntity
  8
0
100
AcDbLine
 62
7
  6
CONTINUOUS
 10
110.6295114363
 20
178.6020635268
 11
110.6295114363
 21
181.9473629884
  0
LINE
  5
2BF
100
AcDbEntity
  8
0
100
AcDbLine
 62
7
  6
CONTINUOUS
 10
110.6802600904
 20
129.0569830768
 11
110.6802600904
 21
124.0782595508
  0
LINE
  5
2C0
100
AcDbEntity
  8
0
100
AcDbLine
 62
7
  6
CONTINUOUS
 10
111.2427600904
 20
155.6939449758
 11
111.2427600904
 21
162.6939449758
  0
LINE
  5
2C1
100
AcDbEntity
  8
0
100
AcDbLine
 62
7
  6
CONTINUOUS
 10
111.3552600904
 20
130.0782595508
 11
111.3552600904
 21
124.0782595508
  0
LINE
  5
2C2
100
AcDbEntity
  8
0
100
AcDbLine
 62
7
  6
CONTINUOUS
 10
111.8492173874
 20
63.9439449758
 11
111.8492173874
 21
65.0939449758
  0
LINE
  5
2C3
100
AcDbEntity
  8
0
100
AcDbLine
 62
7
  6
CONTINUOUS
 10
112.2552605195
 20
127.5250680082
 11
112.2552605195
 21
126.6314510935
  0
LINE
  5
2C4
100
AcDbEntity
  8
0
100
AcDbLine
 62
7
  6
CONTINUOUS
 10
112.2635932846
 20
147.4399618738
 11
112.2635932846
 21
146.9931529992
  0
LINE
  5
2C5
100
AcDbEntity
  8
0
100
AcDbLine
 62
7
  6
CONTINUOUS
 10
112.8177596612
 20
127.5250680082
 11
112.8177596612
 21
127.2697488897
  0
LINE
  5
2C6
100
AcDbEntity
  8
0
100
AcDbLine
 62
7
  6
CONTINUOUS
 10
112.9302605195
 20
126.2484722369
 11
112.9302605195
 21
125.8654935592
  0
LINE
  5
2C7
100
AcDbEntity
  8
0
100
AcDbLine
 62
7
  6
CONTINUOUS
 10
112.9792173874
 20
63.6132707546
 11
112.9792173874
 21
65.0939449758
  0
LINE
  5
2C8
100
AcDbEntity
  8
0
100
AcDbLine
 62
7
  6
CONTINUOUS
 10
113.1385932846
 20
147.4399618738
 11
113.1385932846
 21
146.8442168467
  0
LINE
  5
2C9
100
AcDbEntity
  8
0
100
AcDbLine
 62
7
  6
CONTINUOUS
 10
113.5162627823
 20
178.6020635268
 11
113.5162627823
 21
181.9473629884
  0
LINE
  5
2CA
100
AcDbEntity
  8
0
100
AcDbLine
 62
7
  6
CONTINUOUS
 10
113.9094270749
 20
115.8229403131
 11
113.9094270749
 21
114.3335787886
  0
LINE
  5
2CB
100
AcDbEntity
  8
0
100
AcDbLine
 62
7
  6
CONTINUOUS
 10
114.7427600904
 20
177.5475348143
 11
114.7427600904
 21
176.8939449758
  0
LINE
  5
2CC
100
AcDbEntity
  8
0
100
AcDbLine
 62
7
  6
CONTINUOUS
 10
114.7427600904
 20
116.0357062452
 11
114.7427600904
 21
114.1208128565
  0
LINE
  5
2CD
100
AcDbEntity
  8
0
100
AcDbLine
 62
7
  6
CONTINUOUS
 10
114.9127600904
 20
58.3639449758
 11
114.9127600904
 21
69.6039449758
  0
LINE
  5
2CE
100
AcDbEntity
  8
0
100
AcDbLine
 62
7
  6
CONTINUOUS
 10
115.7427600904
 20
126.2484722369
 11
115.7427600904
 21
125.8654935592
  0
LINE
  5
2CF
100
AcDbEntity
  8
0
100
AcDbLine
 62
7
  6
CONTINUOUS
 10
116.0427600904
 20
57.2339449758
 11
116.0427600904
 21
70.7339449758
  0
LINE
  5
2D0
100
AcDbEntity
  8
0
100
AcDbLine
 62
7
  6
CONTINUOUS
 10
112.3677600904
 20
128.418684923
 11
112.2552605195
 21
127.5250680082
  0
LINE
  5
2D1
100
AcDbEntity
  8
0
100
AcDbLine
 62
7
  6
CONTINUOUS
 10
109.7427600904
 20
117.0995359056
 11
109.5760931058
 21
115.8229403131
  0
LINE
  5
2D2
100
AcDbEntity
  8
0
100
AcDbLine
 62
7
  6
CONTINUOUS
 10
113.9094270749
 20
114.3335787886
 11
113.7427600904
 21
113.056982898
  0
LINE
  5
2D3
100
AcDbEntity
  8
0
100
AcDbLine
 62
7
  6
CONTINUOUS
 10
112.9302605195
 20
128.2910253637
 11
112.8177596612
 21
127.5250680082
  0
LINE
  5
2D4
100
AcDbEntity
  8
0
100
AcDbLine
 62
7
  6
CONTINUOUS
 10
108.9094270749
 20
117.0995359056
 11
108.7427600904
 21
116.0357062452
  0
LINE
  5
2D5
100
AcDbEntity
  8
0
100
AcDbLine
 62
7
  6
CONTINUOUS
 10
114.7427600904
 20
114.1208128565
 11
114.5760931058
 21
113.056982898
  0
LINE
  5
2D6
100
AcDbEntity
  8
0
100
AcDbLine
 62
7
  6
CONTINUOUS
 10
109.0760931058
 20
117.7378342979
 11
108.9094270749
 21
117.0995359056
  0
LINE
  5
2D7
100
AcDbEntity
  8
0
100
AcDbLine
 62
7
  6
CONTINUOUS
 10
114.5760931058
 20
113.056982898
 11
114.4094270749
 21
112.4186851018
  0
LINE
  5
2D8
100
AcDbEntity
  8
0
100
AcDbLine
 62
7
  6
CONTINUOUS
 10
113.0427600904
 20
128.6740043991
 11
112.9302605195
 21
128.2910253637
  0
LINE
  5
2D9
100
AcDbEntity
  8
0
100
AcDbLine
 62
7
  6
CONTINUOUS
 10
113.0427600904
 20
126.6314510935
 11
112.9302605195
 21
126.2484722369
  0
LINE
  5
2DA
100
AcDbEntity
  8
0
100
AcDbLine
 62
7
  6
CONTINUOUS
 10
115.7427600904
 20
125.8654935592
 11
115.6302605195
 21
125.4825148814
  0
LINE
  5
2DB
100
AcDbEntity
  8
0
100
AcDbLine
 62
7
  6
CONTINUOUS
 10
112.5927605195
 20
129.0569830768
 11
112.3677600904
 21
128.418684923
  0
LINE
  5
2DC
100
AcDbEntity
  8
0
100
AcDbLine
 62
7
  6
CONTINUOUS
 10
116.3052605195
 20
125.7378339999
 11
116.0802600904
 21
125.0995361142
  0
LINE
  5
2DD
100
AcDbEntity
  8
0
100
AcDbLine
 62
7
  6
CONTINUOUS
 10
109.4094270749
 20
118.5888980263
 11
109.0760931058
 21
117.7378342979
  0
LINE
  5
2DE
100
AcDbEntity
  8
0
100
AcDbLine
 62
7
  6
CONTINUOUS
 10
110.4094270749
 20
118.3761320942
 11
109.7427600904
 21
117.0995359056
  0
LINE
  5
2DF
100
AcDbEntity
  8
0
100
AcDbLine
 62
7
  6
CONTINUOUS
 10
64.9485851756
 20
36.4494699234
 11
65.7744904235
 21
37.8796766144
  0
LINE
  5
2E0
100
AcDbEntity
  8
0
100
AcDbLine
 62
7
  6
CONTINUOUS
 10
113.2677605195
 20
129.0569830768
 11
113.0427600904
 21
128.6740043991
  0
LINE
  5
2E1
100
AcDbEntity
  8
0
100
AcDbLine
 62
7
  6
CONTINUOUS
 10
115.6302605195
 20
125.4825148814
 11
115.4052600904
 21
125.0995361142
  0
LINE
  5
2E2
100
AcDbEntity
  8
0
100
AcDbLine
 62
7
  6
CONTINUOUS
 10
112.9302605195
 20
129.5676213138
 11
112.5927605195
 21
129.0569830768
  0
LINE
  5
2E3
100
AcDbEntity
  8
0
100
AcDbLine
 62
7
  6
CONTINUOUS
 10
116.0802600904
 20
125.0995361142
 11
115.7427600904
 21
124.5888978325
  0
LINE
  5
2E4
100
AcDbEntity
  8
0
100
AcDbLine
 62
7
  6
CONTINUOUS
 10
104.7427600904
 20
120.0782595508
 11
100.7427600904
 21
114.3335787886
  0
LINE
  5
2E5
100
AcDbEntity
  8
0
100
AcDbLine
 62
7
  6
CONTINUOUS
 10
104.7427600904
 20
118.3761320942
 11
101.9094267173
 21
114.3335787886
  0
LINE
  5
2E6
100
AcDbEntity
  8
0
100
AcDbLine
 62
7
  6
CONTINUOUS
 10
110.6802600904
 20
130.0782595508
 11
110.0052600904
 21
129.1846426361
  0
LINE
  5
2E7
100
AcDbEntity
  8
0
100
AcDbLine
 62
7
  6
CONTINUOUS
 10
110.6802600904
 20
129.0569830768
 11
110.0052600904
 21
128.1633658045
  0
LINE
  5
2E8
100
AcDbEntity
  8
0
100
AcDbLine
 62
7
  6
CONTINUOUS
 10
109.9094270749
 20
119.2271958225
 11
109.4094270749
 21
118.5888980263
  0
LINE
  5
2E9
100
AcDbEntity
  8
0
100
AcDbLine
 62
7
  6
CONTINUOUS
 10
113.2677605195
 20
126.886770212
 11
113.0427600904
 21
126.6314510935
  0
LINE
  5
2EA
100
AcDbEntity
  8
0
100
AcDbLine
 62
7
  6
CONTINUOUS
 10
103.2552600904
 20
127.2697488897
 11
102.8052601976
 21
126.886770212
  0
LINE
  5
2EB
100
AcDbEntity
  8
0
100
AcDbLine
 62
7
  6
CONTINUOUS
 10
111.8260932846
 20
146.2484722369
 11
111.3885932846
 21
146.0995360844
  0
LINE
  5
2EC
100
AcDbEntity
  8
0
100
AcDbLine
 62
7
  6
CONTINUOUS
 10
111.8492173874
 20
63.9439449758
 11
111.1792173874
 21
63.9439449758
  0
LINE
  5
2ED
100
AcDbEntity
  8
0
100
AcDbLine
 62
7
  6
CONTINUOUS
 10
112.9792173874
 20
65.0939449758
 11
111.8492173874
 21
65.0939449758
  0
LINE
  5
2EE
100
AcDbEntity
  8
0
100
AcDbLine
 62
7
  6
CONTINUOUS
 10
108.7092173874
 20
65.7739449758
 11
107.5792173874
 21
65.7739449758
  0
LINE
  5
2EF
100
AcDbEntity
  8
0
100
AcDbLine
 62
7
  6
CONTINUOUS
 10
105.9992173874
 20
65.7739449758
 11
104.8692173874
 21
65.7739449758
  0
LINE
  5
2F0
100
AcDbEntity
  8
0
100
AcDbLine
 62
7
  6
CONTINUOUS
 10
103.2892173874
 20
65.7739449758
 11
102.0209887389
 21
65.7739449758
  0
LINE
  5
2F1
100
AcDbEntity
  8
0
100
AcDbLine
 62
7
  6
CONTINUOUS
 10
97.5209887389
 20
65.7739449758
 11
96.2527600904
 21
65.7739449758
  0
LINE
  5
2F2
100
AcDbEntity
  8
0
100
AcDbLine
 62
7
  6
CONTINUOUS
 10
105.9992173874
 20
66.9039449758
 11
104.8692173874
 21
66.9039449758
  0
LINE
  5
2F3
100
AcDbEntity
  8
0
100
AcDbLine
 62
7
  6
CONTINUOUS
 10
105.9992173874
 20
68.0339449758
 11
104.8692173874
 21
68.0339449758
  0
LINE
  5
2F4
100
AcDbEntity
  8
0
100
AcDbLine
 62
7
  6
CONTINUOUS
 10
114.9127600904
 20
69.6039449758
 11
94.6727600904
 21
69.6039449758
  0
LINE
  5
2F5
100
AcDbEntity
  8
0
100
AcDbLine
 62
7
  6
CONTINUOUS
 10
116.0427600904
 20
70.7339449758
 11
93.5427600904
 21
70.7339449758
  0
LINE
  5
2F6
100
AcDbEntity
  8
0
100
AcDbLine
 62
7
  6
CONTINUOUS
 10
144.6860626489
 20
37.7497439836
 11
145.4369345676
 21
36.4494699255
  0
LINE
  5
2F7
100
AcDbEntity
  8
0
100
AcDbLine
 62
7
  6
CONTINUOUS
 10
146.6860634574
 20
37.7497439068
 11
147.4369353328
 21
36.44946992
  0
LINE
  5
2F8
100
AcDbEntity
  8
0
100
AcDbLine
 62
7
  6
CONTINUOUS
 10
148.6860623363
 20
37.7497439454
 11
149.4369342371
 21
36.4494699165
  0
LINE
  5
2F9
100
AcDbEntity
  8
0
100
AcDbLine
 62
7
  6
CONTINUOUS
 10
150.6860627812
 20
37.7497439778
 11
151.4369346963
 21
36.4494699257
  0
LINE
  5
2FA
100
AcDbEntity
  8
0
100
AcDbLine
 62
7
  6
CONTINUOUS
 10
152.6860634443
 20
37.7497438965
 11
152.9814161731
 21
37.2382890235
  0
LINE
  5
2FB
100
AcDbEntity
  8
0
100
AcDbLine
 62
7
  6
CONTINUOUS
 10
110.4094270749
 20
111.7803871565
 11
109.7427600904
 21
113.056982898
  0
LINE
  5
2FC
100
AcDbEntity
  8
0
100
AcDbLine
 62
7
  6
CONTINUOUS
 10
109.4094270749
 20
111.5676212244
 11
109.0760931058
 21
112.4186851018
  0
LINE
  5
2FD
100
AcDbEntity
  8
0
100
AcDbLine
 62
7
  6
CONTINUOUS
 10
103.0302599831
 20
128.6740043991
 11
102.9177600904
 21
129.0569830768
  0
LINE
  5
2FE
100
AcDbEntity
  8
0
100
AcDbLine
 62
7
  6
CONTINUOUS
 10
103.7052599831
 20
128.6740043991
 11
103.5927600904
 21
129.0569830768
  0
LINE
  5
2FF
100
AcDbEntity
  8
0
100
AcDbLine
 62
7
  6
CONTINUOUS
 10
109.0760931058
 20
112.4186851018
 11
108.9094270749
 21
113.056982898
  0
LINE
  5
300
100
AcDbEntity
  8
0
100
AcDbLine
 62
7
  6
CONTINUOUS
 10
102.9635933889
 20
143.865493589
 11
102.8177600904
 21
144.4612381988
  0
LINE
  5
301
100
AcDbEntity
  8
0
100
AcDbLine
 62
7
  6
CONTINUOUS
 10
102.088593428
 20
143.7165574365
 11
101.9427600904
 21
144.4612381988
  0
LINE
  5
302
100
AcDbEntity
  8
0
100
AcDbLine
 62
7
  6
CONTINUOUS
 10
107.6302600904
 20
147.2910253041
 11
107.4844268961
 21
148.0357064836
  0
LINE
  5
303
100
AcDbEntity
  8
0
100
AcDbLine
 62
7
  6
CONTINUOUS
 10
108.9094270749
 20
113.056982898
 11
108.7427600904
 21
114.1208128565
  0
LINE
  5
304
100
AcDbEntity
  8
0
100
AcDbLine
 62
7
  6
CONTINUOUS
 10
114.7427600904
 20
116.0357062452
 11
114.5760931058
 21
117.0995359056
  0
LINE
  5
305
100
AcDbEntity
  8
0
100
AcDbLine
 62
7
  6
CONTINUOUS
 10
109.7427600904
 20
113.056982898
 11
109.5760931058
 21
114.3335787886
  0
LINE
  5
306
100
AcDbEntity
  8
0
100
AcDbLine
 62
7
  6
CONTINUOUS
 10
113.9094270749
 20
115.8229403131
 11
113.7427600904
 21
117.0995359056
  0
LINE
  5
307
100
AcDbEntity
  8
0
100
AcDbLine
 62
7
  6
CONTINUOUS
 10
112.3677600904
 20
125.7378339999
 11
112.2552605195
 21
126.6314510935
  0
LINE
  5
308
100
AcDbEntity
  8
0
100
AcDbLine
 62
7
  6
CONTINUOUS
 10
116.3052605195
 20
126.376131975
 11
116.3052605195
 21
125.7378339999
  0
LINE
  5
309
100
AcDbEntity
  8
0
100
AcDbLine
 62
7
  6
CONTINUOUS
 10
117.2457038155
 20
29.4439449758
 11
117.2457038155
 21
96.902628048
  0
LINE
  5
30A
100
AcDbEntity
  8
0
100
AcDbLine
 62
7
  6
CONTINUOUS
 10
118.0942319529
 20
97.2383976053
 11
118.0942319529
 21
29.0924731132
  0
LINE
  5
30B
100
AcDbEntity
  8
0
100
AcDbLine
 62
7
  6
CONTINUOUS
 10
118.3912882278
 20
28.7954168384
 11
118.3912882278
 21
97.6298291529
  0
LINE
  5
30C
100
AcDbEntity
  8
0
100
AcDbLine
 62
7
  6
CONTINUOUS
 10
119.2398163652
 20
98.516480845
 11
119.2398163652
 21
28.4439449758
  0
LINE
  5
30D
100
AcDbEntity
  8
0
100
AcDbLine
 62
7
  6
CONTINUOUS
 10
120.7427600904
 20
152.0782595508
 11
120.7427600904
 21
100.6439449758
  0
LINE
  5
30E
100
AcDbEntity
  8
0
100
AcDbLine
 62
7
  6
CONTINUOUS
 10
121.2427600904
 20
160.5782595508
 11
121.2427600904
 21
152.9096304007
  0
LINE
  5
30F
100
AcDbEntity
  8
0
100
AcDbLine
 62
7
  6
CONTINUOUS
 10
121.4927600904
 20
160.9939449758
 11
121.4927600904
 21
163.2495078793
  0
LINE
  5
310
100
AcDbEntity
  8
0
100
AcDbLine
 62
7
  6
CONTINUOUS
 10
121.6239579368
 20
172.6939449758
 11
121.6239579368
 21
165.2432284758
  0
LINE
  5
311
100
AcDbEntity
  8
0
100
AcDbLine
 62
7
  6
CONTINUOUS
 10
123.9333590136
 20
171.5882557866
 11
123.9333590136
 21
171.6939449758
  0
LINE
  5
312
100
AcDbEntity
  8
0
100
AcDbLine
 62
7
  6
CONTINUOUS
 10
114.4094270749
 20
112.4186851018
 11
114.0760931058
 21
111.5676212244
  0
LINE
  5
313
100
AcDbEntity
  8
0
100
AcDbLine
 62
7
  6
CONTINUOUS
 10
113.7427600904
 20
113.056982898
 11
113.0760931058
 21
111.7803871565
  0
LINE
  5
314
100
AcDbEntity
  8
0
100
AcDbLine
 62
7
  6
CONTINUOUS
 10
66.9485858776
 20
36.4494699204
 11
67.7744911393
 21
37.8796766342
  0
LINE
  5
315
100
AcDbEntity
  8
0
100
AcDbLine
 62
7
  6
CONTINUOUS
 10
68.94858504
 20
36.4494699167
 11
69.7744902661
 21
37.8796765724
  0
LINE
  5
316
100
AcDbEntity
  8
0
100
AcDbLine
 62
7
  6
CONTINUOUS
 10
70.9485854884
 20
36.4494699243
 11
71.7744907483
 21
37.8796766349
  0
LINE
  5
317
100
AcDbEntity
  8
0
100
AcDbLine
 62
7
  6
CONTINUOUS
 10
73.710742328
 20
37.769285218
 11
73.7744910121
 21
37.8796765991
  0
LINE
  5
318
100
AcDbEntity
  8
0
100
AcDbLine
 62
7
  6
CONTINUOUS
 10
114.0760931058
 20
111.5676212244
 11
113.5760931058
 21
110.9293233537
  0
LINE
  5
319
100
AcDbEntity
  8
0
100
AcDbLine
 62
7
  6
CONTINUOUS
 10
79.4498668715
 20
91.651051757
 11
78.0356533092
 21
90.2368381946
  0
LINE
  5
31A
100
AcDbEntity
  8
0
100
AcDbLine
 62
7
  6
CONTINUOUS
 10
90.5105270433
 20
97.7117119288
 11
85.4749931374
 21
92.6761780228
  0
LINE
  5
31B
100
AcDbEntity
  8
0
100
AcDbLine
 62
7
  6
CONTINUOUS
 10
71.5933151814
 20
91.4439449758
 11
71.5869343811
 21
91.4384200286
  0
LINE
  5
31C
100
AcDbEntity
  8
0
100
AcDbLine
 62
7
  6
CONTINUOUS
 10
110.9094270749
 20
118.8016639583
 11
110.4094270749
 21
118.3761320942
  0
LINE
  5
31D
100
AcDbEntity
  8
0
100
AcDbLine
 62
7
  6
CONTINUOUS
 10
110.7427600904
 20
119.8654936188
 11
109.9094270749
 21
119.2271958225
  0
LINE
  5
31E
100
AcDbEntity
  8
0
100
AcDbLine
 62
7
  6
CONTINUOUS
 10
113.6052605195
 20
129.3123021953
 11
113.2677605195
 21
129.0569830768
  0
LINE
  5
31F
100
AcDbEntity
  8
0
100
AcDbLine
 62
7
  6
CONTINUOUS
 10
113.4927596612
 20
127.7803871267
 11
112.8177596612
 21
127.2697488897
  0
LINE
  5
320
100
AcDbEntity
  8
0
100
AcDbLine
 62
7
  6
CONTINUOUS
 10
113.6052605195
 20
127.1420893305
 11
113.2677605195
 21
126.886770212
  0
LINE
  5
321
100
AcDbEntity
  8
0
100
AcDbLine
 62
7
  6
CONTINUOUS
 10
115.4052600904
 20
125.0995361142
 11
115.0677600904
 21
124.8442169957
  0
LINE
  5
322
100
AcDbEntity
  8
0
100
AcDbLine
 62
7
  6
CONTINUOUS
 10
113.4927596612
 20
129.9505999916
 11
112.9302605195
 21
129.5676213138
  0
LINE
  5
323
100
AcDbEntity
  8
0
100
AcDbLine
 62
7
  6
CONTINUOUS
 10
115.7427600904
 20
124.5888978325
 11
115.1802596612
 21
124.2059191213
  0
LINE
  5
324
100
AcDbEntity
  8
0
100
AcDbLine
 62
7
  6
CONTINUOUS
 10
102.6927599831
 20
127.6527275675
 11
102.3552599831
 21
127.5250680082
  0
LINE
  5
325
100
AcDbEntity
  8
GEOM
100
AcDbLine
 62
7
  6
CONTINUOUS
 10
132.0876820413
 20
74.9206043866
 11
131.5895844508
 21
74.9051779825
  0
LINE
  5
326
100
AcDbEntity
  8
GEOM
100
AcDbLine
 62
7
  6
CONTINUOUS
 10
132.0876817998
 20
74.9206043787
 11
136.8043376359
 21
74.9206043787
  0
LINE
  5
327
100
AcDbEntity
  8
GEOM
100
AcDbLine
 62
7
  6
CONTINUOUS
 10
132.0876817998
 20
76.3348179411
 11
136.8043376359
 21
76.3348179411
  0
LINE
  5
328
100
AcDbEntity
  8
0
100
AcDbLine
 62
7
  6
CONTINUOUS
 10
109.9094270749
 20
110.9293233537
 11
109.4094270749
 21
111.5676212244
  0
LINE
  5
329
100
AcDbEntity
  8
0
100
AcDbLine
 62
7
  6
CONTINUOUS
 10
103.5927600904
 20
129.0569830768
 11
103.2552600904
 21
129.5676213138
  0
LINE
  5
32A
100
AcDbEntity
  8
0
100
AcDbLine
 62
7
  6
CONTINUOUS
 10
105.6177600904
 20
130.0782595508
 11
108.4302603049
 21
124.971876555
  0
LINE
  5
32B
100
AcDbEntity
  8
0
100
AcDbLine
 62
7
  6
CONTINUOUS
 10
108.0927603049
 20
124.0782595508
 11
105.2802600904
 21
129.3123021953
  0
LINE
  5
32C
100
AcDbEntity
  8
0
100
AcDbLine
 62
7
  6
CONTINUOUS
 10
113.7427600904
 20
117.0995359056
 11
113.0760931058
 21
118.3761320942
  0
LINE
  5
32D
100
AcDbEntity
  8
0
100
AcDbLine
 62
7
  6
CONTINUOUS
 10
102.3802600904
 20
143.1208127224
 11
102.088593428
 21
143.7165574365
  0
LINE
  5
32E
100
AcDbEntity
  8
0
100
AcDbLine
 62
7
  6
CONTINUOUS
 10
114.4094270749
 20
117.7378342979
 11
114.0760931058
 21
118.5888980263
  0
LINE
  5
32F
100
AcDbEntity
  8
0
100
AcDbLine
 62
7
  6
CONTINUOUS
 10
112.5927605195
 20
125.0995361142
 11
112.3677600904
 21
125.7378339999
  0
LINE
  5
330
100
AcDbEntity
  8
0
100
AcDbLine
 62
7
  6
CONTINUOUS
 10
116.3052605195
 20
126.376131975
 11
116.0802600904
 21
127.0144297712
  0
LINE
  5
331
100
AcDbEntity
  8
0
100
AcDbLine
 62
7
  6
CONTINUOUS
 10
106.7552600904
 20
147.2910253041
 11
106.6094268961
 21
147.7378341787
  0
LINE
  5
332
100
AcDbEntity
  8
0
100
AcDbLine
 62
7
  6
CONTINUOUS
 10
113.0427600904
 20
125.4825148814
 11
112.9302605195
 21
125.8654935592
  0
LINE
  5
333
100
AcDbEntity
  8
0
100
AcDbLine
 62
7
  6
CONTINUOUS
 10
115.7427600904
 20
126.2484722369
 11
115.6302605195
 21
126.6314510935
  0
LINE
  5
334
100
AcDbEntity
  8
0
100
AcDbLine
 62
7
  6
CONTINUOUS
 10
116.0802600904
 20
128.6740043991
 11
115.9677605195
 21
129.0569830768
  0
LINE
  5
335
100
AcDbEntity
  8
0
100
AcDbLine
 62
7
  6
CONTINUOUS
 10
114.5760931058
 20
117.0995359056
 11
114.4094270749
 21
117.7378342979
  0
LINE
  5
336
100
AcDbEntity
  8
0
100
AcDbLine
 62
7
  6
CONTINUOUS
 10
102.0796411297
 20
176.8939449758
 11
102.1253630137
 21
176.6939449758
  0
LINE
  5
337
100
AcDbEntity
  8
0
100
AcDbLine
 62
7
  6
CONTINUOUS
 10
131.765248973
 20
92.9003671044
 11
131.3125553765
 21
98.0746785899
  0
LINE
  5
338
100
AcDbEntity
  8
0
100
AcDbLine
 62
7
  6
CONTINUOUS
 10
126.2427600904
 20
172.6939449758
 11
126.2427600904
 21
176.6939449758
  0
LINE
  5
339
100
AcDbEntity
  8
0
100
AcDbLine
 62
7
  6
CONTINUOUS
 10
128.4927600904
 20
28.4439449758
 11
128.4927600904
 21
99.4439449758
  0
LINE
  5
33A
100
AcDbEntity
  8
0
100
AcDbLine
 62
7
  6
CONTINUOUS
 10
128.6927600904
 20
28.4439449758
 11
128.6927600904
 21
99.4439449758
  0
LINE
  5
33B
100
AcDbEntity
  8
0
100
AcDbLine
 62
7
  6
CONTINUOUS
 10
129.8182633293
 20
99.4439449758
 11
129.8182633293
 21
28.4439449758
  0
LINE
  5
33C
100
AcDbEntity
  8
0
100
AcDbLine
 62
7
  6
CONTINUOUS
 10
131.3125553765
 20
98.0746785899
 11
131.3125553765
 21
29.8132113617
  0
LINE
  5
33D
100
AcDbEntity
  8
0
100
AcDbLine
 62
7
  6
CONTINUOUS
 10
98.6318276077
 20
61.104762073
 11
99.2659419319
 21
62.3492815075
  0
LINE
  5
33E
100
AcDbEntity
  8
0
100
AcDbLine
 62
7
  6
CONTINUOUS
 10
99.1065031678
 20
60.0539449758
 11
102.0209887389
 21
65.7739449758
  0
LINE
  5
33F
100
AcDbEntity
  8
0
100
AcDbLine
 62
7
  6
CONTINUOUS
 10
100.3747318163
 20
60.0539449758
 11
103.2892173874
 21
65.7739449758
  0
LINE
  5
340
100
AcDbEntity
  8
0
100
AcDbLine
 62
7
  6
CONTINUOUS
 10
113.0760931058
 20
111.7803871565
 11
112.5760931058
 21
111.3548552924
  0
LINE
  5
341
100
AcDbEntity
  8
0
100
AcDbLine
 62
7
  6
CONTINUOUS
 10
113.5760931058
 20
110.9293233537
 11
112.7427600904
 21
110.2910255016
  0
LINE
  5
342
100
AcDbEntity
  8
0
100
AcDbLine
 62
7
  6
CONTINUOUS
 10
113.9427605195
 20
129.4399617546
 11
113.6052605195
 21
129.3123021953
  0
LINE
  5
343
100
AcDbEntity
  8
0
100
AcDbLine
 62
7
  6
CONTINUOUS
 10
113.9427605195
 20
127.2697488897
 11
113.6052605195
 21
127.1420893305
  0
LINE
  5
344
100
AcDbEntity
  8
0
100
AcDbLine
 62
7
  6
CONTINUOUS
 10
115.0677600904
 20
124.8442169957
 11
114.7302600904
 21
124.7165574365
  0
LINE
  5
345
100
AcDbEntity
  8
GEOM
100
AcDbLine
 62
7
  6
CONTINUOUS
 10
136.8043389947
 20
74.9206046656
 11
137.2373503378
 21
75.0118493671
  0
LINE
  5
346
100
AcDbEntity
  8
0
100
AcDbLine
 62
7
  6
CONTINUOUS
 10
147.9427600904
 20
82.4701426429
 11
147.7927600904
 21
82.4701426429
  0
LINE
  5
347
100
AcDbEntity
  8
0
100
AcDbLine
 62
7
  6
CONTINUOUS
 10
110.7427600904
 20
110.2910255016
 11
109.9094270749
 21
110.9293233537
  0
LWPOLYLINE
  5
348
100
AcDbEntity
  8
GEOM
100
AcDbPolyline
 62
7
  6
CONTINUOUS
 90
9
 70
0
 10
131.9828106475
 20
92.5300612538
 10
131.9351940863
 20
92.5666969007
 10
131.8923149457
 20
92.6087797661
 10
131.8547924858
 20
92.6557024339
 10
131.8231688953
 20
92.7067871529
 10
131.7979008527
 20
92.7612963649
 10
131.7793532775
 20
92.8184430522
 10
131.7677941201
 20
92.8774016428
 10
131.765248973
 20
92.9003671044
  0
LINE
  5
349
100
AcDbEntity
  8
0
100
AcDbLine
 62
7
  6
CONTINUOUS
 10
110.9094270749
 20
111.3548552924
 11
110.4094270749
 21
111.7803871565
  0
LINE
  5
34A
100
AcDbEntity
  8
0
100
AcDbLine
 62
7
  6
CONTINUOUS
 10
128.6927600904
 20
99.2439449758
 11
128.4927600904
 21
99.4439449758
  0
LINE
  5
34B
100
AcDbEntity
  8
0
100
AcDbLine
 62
7
  6
CONTINUOUS
 10
102.9177600904
 20
129.0569830768
 11
102.6927599831
 21
129.3123021953
  0
LINE
  5
34C
100
AcDbEntity
  8
0
100
AcDbLine
 62
7
  6
CONTINUOUS
 10
147.7927600904
 20
82.4701426429
 11
147.0422047404
 21
83.3893814584
  0
LINE
  5
34D
100
AcDbEntity
  8
0
100
AcDbLine
 62
7
  6
CONTINUOUS
 10
114.0760931058
 20
118.5888980263
 11
113.5760931058
 21
119.2271958225
  0
LINE
  5
34E
100
AcDbEntity
  8
0
100
AcDbLine
 62
7
  6
CONTINUOUS
 10
112.9302605195
 20
124.5888978325
 11
112.5927605195
 21
125.0995361142
  0
LINE
  5
34F
100
AcDbEntity
  8
0
100
AcDbLine
 62
7
  6
CONTINUOUS
 10
115.9677605195
 20
129.0569830768
 11
115.6302605195
 21
129.5676213138
  0
LINE
  5
350
100
AcDbEntity
  8
0
100
AcDbLine
 62
7
  6
CONTINUOUS
 10
103.2552600904
 20
143.4186851316
 11
102.9635933889
 21
143.865493589
  0
LINE
  5
351
100
AcDbEntity
  8
0
100
AcDbLine
 62
7
  6
CONTINUOUS
 10
113.2677605195
 20
125.0995361142
 11
113.0427600904
 21
125.4825148814
  0
LINE
  5
352
100
AcDbEntity
  8
0
100
AcDbLine
 62
7
  6
CONTINUOUS
 10
115.5177596612
 20
128.6740043991
 11
115.2927605195
 21
129.0569830768
  0
LINE
  5
353
100
AcDbEntity
  8
0
100
AcDbLine
 62
7
  6
CONTINUOUS
 10
138.435173869
 20
92.1939449758
 11
138.6257727922
 21
91.8638179569
  0
LINE
  5
354
100
AcDbEntity
  8
0
100
AcDbLine
 62
7
  6
CONTINUOUS
 10
97.052475603
 20
165.7458596281
 11
97.0500192499
 21
165.7512041353
  0
LINE
  5
355
100
AcDbEntity
  8
0
100
AcDbLine
 62
7
  6
CONTINUOUS
 10
101.0853644763
 20
176.8939449758
 11
101.1621131302
 21
176.6939449758
  0
LINE
  5
356
100
AcDbEntity
  8
0
100
AcDbLine
 62
7
  6
CONTINUOUS
 10
113.2844268961
 20
142.0782595508
 11
111.9719268961
 21
145.5037914746
  0
LINE
  5
357
100
AcDbEntity
  8
0
100
AcDbLine
 62
7
  6
CONTINUOUS
 10
112.2635932846
 20
142.0782595508
 11
111.0969266875
 21
145.2059191697
  0
LINE
  5
358
100
AcDbEntity
  8
0
100
AcDbLine
 62
7
  6
CONTINUOUS
 10
112.2635932846
 20
147.4399618738
 11
112.1177600904
 21
147.8867703312
  0
LINE
  5
359
100
AcDbEntity
  8
0
100
AcDbLine
 62
7
  6
CONTINUOUS
 10
113.1385932846
 20
147.4399618738
 11
112.9927600904
 21
147.8867703312
  0
LINE
  5
35A
100
AcDbEntity
  8
GEOM
100
AcDbLine
 62
7
  6
CONTINUOUS
 10
138.6257727922
 20
91.8638179569
 11
138.6257727922
 21
36.0240719947
  0
LINE
  5
35B
100
AcDbEntity
  8
GEOM
100
AcDbLine
 62
7
  6
CONTINUOUS
 10
138.6927600904
 20
91.6138179569
 11
138.6927600904
 21
36.2740719947
  0
LINE
  5
35C
100
AcDbEntity
  8
0
100
AcDbLine
 62
7
  6
CONTINUOUS
 10
139.1927600904
 20
37.9439449758
 11
139.1927600904
 21
89.9439449758
  0
LINE
  5
35D
100
AcDbEntity
  8
0
100
AcDbLine
 62
7
  6
CONTINUOUS
 10
131.765248973
 20
34.9875228472
 11
131.3125553765
 21
29.8132113617
  0
LWPOLYLINE
  5
35E
100
AcDbEntity
  8
GEOM
100
AcDbPolyline
 62
7
  6
CONTINUOUS
 90
13
 70
0
 10
131.765248973
 20
34.9875228472
 10
131.7677941201
 20
35.0104883087
 10
131.7793532775
 20
35.0694468994
 10
131.7979008527
 20
35.1265935867
 10
131.8231688953
 20
35.1811027987
 10
131.8547924858
 20
35.2321875176
 10
131.8923149457
 20
35.2791101855
 10
131.9351940863
 20
35.3211930509
 10
131.9828106475
 20
35.3578286978
 10
132.0344769724
 20
35.3884883604
 10
132.0894464938
 20
35.4127294142
 10
132.1469252614
 20
35.4302022499
 10
132.2060835159
 20
35.4406551237
  0
LINE
  5
35F
100
AcDbEntity
  8
0
100
AcDbLine
 62
7
  6
CONTINUOUS
 10
73.7001039009
 20
37.7559410672
 11
73.7114351729
 21
37.769768673
  0
LINE
  5
360
100
AcDbEntity
  8
0
100
AcDbLine
 62
7
  6
CONTINUOUS
 10
142.9856533092
 20
89.9439449758
 11
139.1927600904
 21
89.9439449758
  0
LINE
  5
361
100
AcDbEntity
  8
0
100
AcDbLine
 62
7
  6
CONTINUOUS
 10
77.328546528
 20
89.9439449758
 11
74.283768572
 21
89.9439449758
  0
LINE
  5
362
100
AcDbEntity
  8
0
100
AcDbLine
 62
7
  6
CONTINUOUS
 10
151.6927605223
 20
90.1439449208
 11
151.5427605223
 21
90.1439449208
  0
LINE
  5
363
100
AcDbEntity
  8
0
100
AcDbLine
 62
7
  6
CONTINUOUS
 10
149.6927595722
 20
90.1439448731
 11
149.5427595722
 21
90.1439448731
  0
LINE
  5
364
100
AcDbEntity
  8
0
100
AcDbLine
 62
7
  6
CONTINUOUS
 10
147.6927603279
 20
90.1439449745
 11
147.5427603279
 21
90.1439449745
  0
LINE
  5
365
100
AcDbEntity
  8
0
100
AcDbLine
 62
7
  6
CONTINUOUS
 10
145.6927604144
 20
90.1439449108
 11
145.5427604144
 21
90.1439449108
  0
LINE
  5
366
100
AcDbEntity
  8
0
100
AcDbLine
 62
7
  6
CONTINUOUS
 10
143.6927595135
 20
90.1439448764
 11
143.5427595135
 21
90.1439448764
  0
LINE
  5
367
100
AcDbEntity
  8
0
100
AcDbLine
 62
7
  6
CONTINUOUS
 10
71.9422051139
 20
91.4439449758
 11
71.5933151095
 21
91.4439449758
  0
LINE
  5
368
100
AcDbEntity
  8
0
100
AcDbLine
 62
7
  6
CONTINUOUS
 10
69.942204366
 20
91.4439449758
 11
69.5933156483
 21
91.4439449758
  0
LINE
  5
369
100
AcDbEntity
  8
0
100
AcDbLine
 62
7
  6
CONTINUOUS
 10
67.9422049231
 20
91.4439449758
 11
67.593315648
 21
91.4439449758
  0
LINE
  5
36A
100
AcDbEntity
  8
0
100
AcDbLine
 62
7
  6
CONTINUOUS
 10
65.9422048659
 20
91.4439449758
 11
65.5933149945
 21
91.4439449758
  0
LINE
  5
36B
100
AcDbEntity
  8
0
100
AcDbLine
 62
7
  6
CONTINUOUS
 10
144.6927600904
 20
91.4439449758
 11
144.7922050248
 21
91.4439449758
  0
LINE
  5
36C
100
AcDbEntity
  8
0
100
AcDbLine
 62
7
  6
CONTINUOUS
 10
146.4433158035
 20
91.4439449758
 11
146.7922049771
 21
91.4439449758
  0
LINE
  5
36D
100
AcDbEntity
  8
0
100
AcDbLine
 62
7
  6
CONTINUOUS
 10
148.4433156786
 20
91.4439449758
 11
148.79220416
 21
91.4439449758
  0
LINE
  5
36E
100
AcDbEntity
  8
0
100
AcDbLine
 62
7
  6
CONTINUOUS
 10
150.4433149844
 20
91.4439449758
 11
150.7922051389
 21
91.4439449758
  0
LINE
  5
36F
100
AcDbEntity
  8
GEOM
100
AcDbLine
 62
7
  6
CONTINUOUS
 10
132.087683475
 20
91.8581158975
 11
136.8043481055
 21
91.8581194922
  0
LINE
  5
370
100
AcDbEntity
  8
0
100
AcDbLine
 62
7
  6
CONTINUOUS
 10
83.7072261844
 20
91.9439449758
 11
80.1569736527
 21
91.9439449758
  0
LINE
  5
371
100
AcDbEntity
  8
GEOM
100
AcDbLine
 62
7
  6
CONTINUOUS
 10
132.0876817998
 20
92.4439449758
 11
138.0021611671
 21
92.4439449758
  0
LWPOLYLINE
  5
372
100
AcDbEntity
  8
GEOM
100
AcDbPolyline
 62
7
  6
CONTINUOUS
 90
6
 70
0
 10
132.2633434698
 20
92.4439449758
 10
132.2060835159
 20
92.4472348279
 10
132.1469252614
 20
92.4576877017
 10
132.0894464938
 20
92.4751605374
 10
132.0344769724
 20
92.4994015912
 10
131.9828106475
 20
92.5300612538
  0
LINE
  5
373
100
AcDbEntity
  8
0
100
AcDbLine
 62
7
  6
CONTINUOUS
 10
113.6052605195
 20
124.8442169957
 11
113.2677605195
 21
125.0995361142
  0
LINE
  5
374
100
AcDbEntity
  8
0
100
AcDbLine
 62
7
  6
CONTINUOUS
 10
113.5760931058
 20
119.2271958225
 11
112.7427600904
 21
119.8654936188
  0
LINE
  5
375
100
AcDbEntity
  8
0
100
AcDbLine
 62
7
  6
CONTINUOUS
 10
113.0760931058
 20
118.3761320942
 11
112.5760931058
 21
118.8016639583
  0
LINE
  5
376
100
AcDbEntity
  8
0
100
AcDbLine
 62
7
  6
CONTINUOUS
 10
103.2552600904
 20
129.5676213138
 11
102.8052601976
 21
129.9505999916
  0
LINE
  5
377
100
AcDbEntity
  8
0
100
AcDbLine
 62
7
  6
CONTINUOUS
 10
144.7922041213
 20
91.4439449757
 11
144.7985857556
 21
91.4384200262
  0
LINE
  5
378
100
AcDbEntity
  8
0
100
AcDbLine
 62
7
  6
CONTINUOUS
 10
146.7985856913
 20
91.4384200406
 11
146.7922049771
 21
91.4439449758
  0
LINE
  5
379
100
AcDbEntity
  8
0
100
AcDbLine
 62
7
  6
CONTINUOUS
 10
148.7985848883
 20
91.4384200284
 11
148.79220416
 21
91.4439449758
  0
LINE
  5
37A
100
AcDbEntity
  8
0
100
AcDbLine
 62
7
  6
CONTINUOUS
 10
150.7922051389
 20
91.4439449758
 11
150.7985858687
 21
91.4384200271
  0
LINE
  5
37B
100
AcDbEntity
  8
0
100
AcDbLine
 62
7
  6
CONTINUOUS
 10
152.3516061119
 20
91.2850989542
 11
153.6927600904
 21
89.9439449758
  0
LINE
  5
37C
100
AcDbEntity
  8
0
100
AcDbLine
 62
7
  6
CONTINUOUS
 10
102.9635933889
 20
142.5250680604
 11
102.3802600904
 21
143.1208127224
  0
LINE
  5
37D
100
AcDbEntity
  8
0
100
AcDbLine
 62
7
  6
CONTINUOUS
 10
115.6302605195
 20
126.6314510935
 11
115.4052600904
 21
126.886770212
  0
LINE
  5
37E
100
AcDbEntity
  8
0
100
AcDbLine
 62
7
  6
CONTINUOUS
 10
115.7427600904
 20
127.397408449
 11
116.0802600904
 21
127.0144297712
  0
LINE
  5
37F
100
AcDbEntity
  8
0
100
AcDbLine
 62
7
  6
CONTINUOUS
 10
143.54945675
 20
90.1381459695
 11
143.4920857245
 21
90.2374935896
  0
LINE
  5
380
100
AcDbEntity
  8
0
100
AcDbLine
 62
7
  6
CONTINUOUS
 10
145.5494576548
 20
90.1381460005
 11
144.7985857556
 21
91.4384200262
  0
LINE
  5
381
100
AcDbEntity
  8
0
100
AcDbLine
 62
7
  6
CONTINUOUS
 10
147.5494575511
 20
90.1381460791
 11
146.7985856913
 21
91.4384200406
  0
LINE
  5
382
100
AcDbEntity
  8
0
100
AcDbLine
 62
7
  6
CONTINUOUS
 10
149.5494568103
 20
90.1381459647
 11
148.7985848883
 21
91.4384200284
  0
LINE
  5
383
100
AcDbEntity
  8
0
100
AcDbLine
 62
7
  6
CONTINUOUS
 10
100.7427600904
 20
176.8939449758
 11
100.8430228212
 21
176.6939449758
  0
LINE
  5
384
100
AcDbEntity
  8
0
100
AcDbLine
 62
7
  6
CONTINUOUS
 10
142.9856533092
 20
37.9439449758
 11
142.9856533092
 21
89.9439449758
  0
LINE
  5
385
100
AcDbEntity
  8
0
100
AcDbLine
 62
7
  6
CONTINUOUS
 10
143.3392066998
 20
37.7974983664
 11
143.3392066998
 21
90.0903915852
  0
LINE
  5
386
100
AcDbEntity
  8
0
100
AcDbLine
 62
7
  6
CONTINUOUS
 10
144.6927600904
 20
91.4439449757
 11
144.6927600904
 21
83.4232501617
  0
LINE
  5
387
100
AcDbEntity
  8
0
100
AcDbLine
 62
7
  6
CONTINUOUS
 10
93.5427600904
 20
98.4439449758
 11
92.2782939963
 21
98.4439449758
  0
LINE
  5
388
100
AcDbEntity
  8
0
100
AcDbLine
 62
7
  6
CONTINUOUS
 10
129.8182633293
 20
99.4439449758
 11
128.6927600904
 21
99.4439449758
  0
LINE
  5
389
100
AcDbEntity
  8
0
100
AcDbLine
 62
7
  6
CONTINUOUS
 10
128.4927600904
 20
99.4439449758
 11
121.9427600904
 21
99.4439449758
  0
LINE
  5
38A
100
AcDbEntity
  8
0
100
AcDbLine
 62
7
  6
CONTINUOUS
 10
111.7427600904
 20
110.0782595508
 11
110.7427600904
 21
110.2910255016
  0
LINE
  5
38B
100
AcDbEntity
  8
0
100
AcDbLine
 62
7
  6
CONTINUOUS
 10
111.7427600904
 20
111.1420893603
 11
110.9094270749
 21
111.3548552924
  0
LINE
  5
38C
100
AcDbEntity
  8
0
100
AcDbLine
 62
7
  6
CONTINUOUS
 10
113.4927596612
 20
124.2059191213
 11
112.9302605195
 21
124.5888978325
  0
LINE
  5
38D
100
AcDbEntity
  8
0
100
AcDbLine
 62
7
  6
CONTINUOUS
 10
115.7427600904
 20
127.397408449
 11
115.1802596612
 21
127.7803871267
  0
LINE
  5
38E
100
AcDbEntity
  8
0
100
AcDbLine
 62
7
  6
CONTINUOUS
 10
115.6302605195
 20
129.5676213138
 11
115.0677600904
 21
129.9505999916
  0
LINE
  5
38F
100
AcDbEntity
  8
0
100
AcDbLine
 62
7
  6
CONTINUOUS
 10
115.4052600904
 20
126.886770212
 11
115.0677600904
 21
127.1420893305
  0
LINE
  5
390
100
AcDbEntity
  8
0
100
AcDbLine
 62
7
  6
CONTINUOUS
 10
115.2927605195
 20
129.0569830768
 11
114.9552605195
 21
129.3123021953
  0
LINE
  5
391
100
AcDbEntity
  8
0
100
AcDbLine
 62
7
  6
CONTINUOUS
 10
94.3599173779
 20
152.6267876883
 11
94.6256028028
 21
152.3611022633
  0
LINE
  5
392
100
AcDbEntity
  8
0
100
AcDbLine
 62
7
  6
CONTINUOUS
 10
93.9927600904
 20
160.9939449758
 11
94.1256028028
 21
160.8611022633
  0
LINE
  5
393
100
AcDbEntity
  8
0
100
AcDbLine
 62
7
  6
CONTINUOUS
 10
107.4844268961
 20
148.0357064836
 11
106.9010932846
 21
148.6314510935
  0
LINE
  5
394
100
AcDbEntity
  8
0
100
AcDbLine
 62
7
  6
CONTINUOUS
 10
112.9927600904
 20
147.8867703312
 11
112.5552600904
 21
148.482514941
  0
LINE
  5
395
100
AcDbEntity
  8
0
100
AcDbLine
 62
7
  6
CONTINUOUS
 10
151.5494577617
 20
90.1381460113
 11
150.7985858687
 21
91.4384200271
  0
LINE
  5
396
100
AcDbEntity
  8
0
100
AcDbLine
 62
7
  6
CONTINUOUS
 10
149.7427600904
 20
188.9939449758
 11
149.7427600904
 21
194.3939449758
  0
LINE
  5
397
100
AcDbEntity
  8
0
100
AcDbLine
 62
7
  6
CONTINUOUS
 10
150.5427600904
 20
188.1939449758
 11
150.5427600904
 21
195.1939449758
  0
LINE
  5
398
100
AcDbEntity
  8
0
100
AcDbLine
 62
7
  6
CONTINUOUS
 10
153.6927600904
 20
89.9439449758
 11
153.6927600904
 21
37.9439449758
  0
LINE
  5
399
100
AcDbEntity
  8
0
100
AcDbLine
 62
7
  6
CONTINUOUS
 10
144.0871296515
 20
90.8326652522
 11
143.6860622771
 21
90.1381459695
  0
LINE
  5
39A
100
AcDbEntity
  8
0
100
AcDbLine
 62
7
  6
CONTINUOUS
 10
73.5766617908
 20
37.651051757
 11
72.5114134983
 21
36.5858034645
  0
LINE
  5
39B
100
AcDbEntity
  8
0
100
AcDbLine
 62
7
  6
CONTINUOUS
 10
105.7427600904
 20
110.0782595508
 11
104.7427600904
 21
110.0782595508
  0
LINE
  5
39C
100
AcDbEntity
  8
0
100
AcDbLine
 62
7
  6
CONTINUOUS
 10
112.7427600904
 20
119.8654936188
 11
111.7427600904
 21
120.0782595508
  0
LINE
  5
39D
100
AcDbEntity
  8
0
100
AcDbLine
 62
7
  6
CONTINUOUS
 10
112.5760931058
 20
118.8016639583
 11
111.7427600904
 21
119.0144298904
  0
LINE
  5
39E
100
AcDbEntity
  8
0
100
AcDbLine
 62
7
  6
CONTINUOUS
 10
113.9427605195
 20
124.7165574365
 11
113.6052605195
 21
124.8442169957
  0
LINE
  5
39F
100
AcDbEntity
  8
0
100
AcDbLine
 62
7
  6
CONTINUOUS
 10
102.6927599831
 20
129.3123021953
 11
102.3552599831
 21
129.4399617546
  0
LINE
  5
3A0
100
AcDbEntity
  8
0
100
AcDbLine
 62
7
  6
CONTINUOUS
 10
115.0677600904
 20
127.1420893305
 11
114.7302600904
 21
127.2697488897
  0
LWPOLYLINE
  5
3A1
100
AcDbEntity
  8
0
100
AcDbPolyline
 62
7
  6
CONTINUOUS
 90
9
 70
0
 10
94.0937684816
 20
153.1318894849
 10
94.1262080978
 20
153.1102324583
 10
94.1558047747
 20
153.0843092245
 10
94.1817565536
 20
153.0547330317
 10
94.203616336
 20
153.0220111846
 10
94.2210063914
 20
152.9867064537
 10
94.2336257108
 20
152.9494278352
 10
94.2412566194
 20
152.9108167291
 10
94.2433358537
 20
152.8881740826
  0
LINE
  5
3A2
100
AcDbEntity
  8
0
100
AcDbLine
 62
7
  6
CONTINUOUS
 10
103.6927600904
 20
143.1208127224
 11
103.2552600904
 21
143.4186851316
  0
LINE
  5
3A3
100
AcDbEntity
  8
0
100
AcDbLine
 62
7
  6
CONTINUOUS
 10
112.1177600904
 20
147.8867703312
 11
111.8260932846
 21
148.1846426361
  0
LINE
  5
3A4
100
AcDbEntity
  8
0
100
AcDbLine
 62
7
  6
CONTINUOUS
 10
111.2427600904
 20
162.6939449758
 11
102.8517637786
 21
172.6939449758
  0
LINE
  5
3A5
100
AcDbEntity
  8
0
100
AcDbLine
 62
7
  6
CONTINUOUS
 10
146.4369350733
 20
91.4384200267
 11
145.6860631739
 21
90.1381460004
  0
LINE
  5
3A6
100
AcDbEntity
  8
0
100
AcDbLine
 62
7
  6
CONTINUOUS
 10
148.4369349644
 20
91.4384200406
 11
147.6860631046
 21
90.138146079
  0
LINE
  5
3A7
100
AcDbEntity
  8
0
100
AcDbLine
 62
7
  6
CONTINUOUS
 10
150.4369342561
 20
91.4384200284
 11
149.6860623341
 21
90.1381459648
  0
LINE
  5
3A8
100
AcDbEntity
  8
0
100
AcDbLine
 62
7
  6
CONTINUOUS
 10
152.3475380013
 20
91.2836108636
 11
151.6860632828
 21
90.1381460112
  0
LINE
  5
3A9
100
AcDbEntity
  8
0
100
AcDbLine
 62
7
  6
CONTINUOUS
 10
144.1025801887
 20
90.8537650697
 11
144.0871296515
 21
90.8326652522
  0
LINE
  5
3AA
100
AcDbEntity
  8
0
100
AcDbLine
 62
7
  6
CONTINUOUS
 10
144.6927600904
 20
91.4439449758
 11
144.1025664866
 21
90.8537513721
  0
LINE
  5
3AB
100
AcDbEntity
  8
0
100
AcDbLine
 62
7
  6
CONTINUOUS
 10
143.4878558776
 20
90.2390407631
 11
143.3392066998
 21
90.0903915852
  0
LINE
  5
3AC
100
AcDbEntity
  8
0
100
AcDbLine
 62
7
  6
CONTINUOUS
 10
112.7427600904
 20
110.2910255016
 11
111.7427600904
 21
110.0782595508
  0
LINE
  5
3AD
100
AcDbEntity
  8
0
100
AcDbLine
 62
7
  6
CONTINUOUS
 10
107.4094265981
 20
113.056982898
 11
105.7427600904
 21
113.056982898
  0
LINE
  5
3AE
100
AcDbEntity
  8
0
100
AcDbLine
 62
7
  6
CONTINUOUS
 10
104.7427600904
 20
113.056982898
 11
100.7427600904
 21
113.056982898
  0
LINE
  5
3AF
100
AcDbEntity
  8
0
100
AcDbLine
 62
7
  6
CONTINUOUS
 10
107.4094265981
 20
114.3335787886
 11
105.7427600904
 21
114.3335787886
  0
LINE
  5
3B0
100
AcDbEntity
  8
0
100
AcDbLine
 62
7
  6
CONTINUOUS
 10
104.7427600904
 20
114.3335787886
 11
101.9094267173
 21
114.3335787886
  0
LINE
  5
3B1
100
AcDbEntity
  8
0
100
AcDbLine
 62
7
  6
CONTINUOUS
 10
105.7427600904
 20
120.0782595508
 11
104.7427600904
 21
120.0782595508
  0
LINE
  5
3B2
100
AcDbEntity
  8
0
100
AcDbLine
 62
7
  6
CONTINUOUS
 10
114.0552600904
 20
124.0782595508
 11
113.4927596612
 21
124.2059191213
  0
LINE
  5
3B3
100
AcDbEntity
  8
0
100
AcDbLine
 62
7
  6
CONTINUOUS
 10
102.8052601976
 20
129.9505999916
 11
102.2427600904
 21
130.0782595508
  0
LINE
  5
3B4
100
AcDbEntity
  8
0
100
AcDbLine
 62
7
  6
CONTINUOUS
 10
114.6177605195
 20
127.908046686
 11
115.1802596612
 21
127.7803871267
  0
LINE
  5
3B5
100
AcDbEntity
  8
0
100
AcDbLine
 62
7
  6
CONTINUOUS
 10
115.0677600904
 20
129.9505999916
 11
114.5052596612
 21
130.0782595508
  0
LINE
  5
3B6
100
AcDbEntity
  8
0
100
AcDbLine
 62
7
  6
CONTINUOUS
 10
114.9552605195
 20
129.3123021953
 11
114.6177605195
 21
129.4399617546
  0
LINE
  5
3B7
100
AcDbEntity
  8
0
100
AcDbLine
 62
7
  6
CONTINUOUS
 10
103.5469267918
 20
142.2271957163
 11
102.9635933889
 21
142.5250680604
  0
LINE
  5
3B8
100
AcDbEntity
  8
0
100
AcDbLine
 62
7
  6
CONTINUOUS
 10
89.9927600904
 20
155.4996074085
 11
94.472579993
 21
152.9131821818
  0
LINE
  5
3B9
100
AcDbEntity
  8
0
100
AcDbLine
 62
7
  6
CONTINUOUS
 10
90.2427600904
 20
155.9326201104
 11
94.4762609289
 21
153.4884072616
  0
LINE
  5
3BA
100
AcDbEntity
  8
0
100
AcDbLine
 62
7
  6
CONTINUOUS
 10
106.6094268961
 20
147.7378341787
 11
106.1719268961
 21
148.0357064836
  0
LINE
  5
3BB
100
AcDbEntity
  8
0
100
AcDbLine
 62
7
  6
CONTINUOUS
 10
112.5552600904
 20
148.482514941
 11
111.9719268961
 21
148.9293233984
  0
LINE
  5
3BC
100
AcDbEntity
  8
0
100
AcDbLine
 62
7
  6
CONTINUOUS
 10
148.6933154403
 20
83.3893814584
 11
147.9427600904
 21
82.4701426429
  0
LINE
  5
3BD
100
AcDbEntity
  8
0
100
AcDbLine
 62
7
  6
CONTINUOUS
 10
112.5760931058
 20
111.3548552924
 11
111.7427600904
 21
111.1420893603
  0
LINE
  5
3BE
100
AcDbEntity
  8
0
100
AcDbLine
 62
7
  6
CONTINUOUS
 10
111.7427600904
 20
120.0782595508
 11
110.7427600904
 21
119.8654936188
  0
LINE
  5
3BF
100
AcDbEntity
  8
0
100
AcDbLine
 62
7
  6
CONTINUOUS
 10
114.6177605195
 20
124.0782595508
 11
114.0552600904
 21
124.0782595508
  0
LINE
  5
3C0
100
AcDbEntity
  8
0
100
AcDbLine
 62
7
  6
CONTINUOUS
 10
111.3552600904
 20
124.0782595508
 11
110.6802600904
 21
124.0782595508
  0
LINE
  5
3C1
100
AcDbEntity
  8
0
100
AcDbLine
 62
7
  6
CONTINUOUS
 10
109.1052603049
 20
124.0782595508
 11
108.0927603049
 21
124.0782595508
  0
LINE
  5
3C2
100
AcDbEntity
  8
0
100
AcDbLine
 62
7
  6
CONTINUOUS
 10
105.2802600904
 20
124.0782595508
 11
104.6052600904
 21
124.0782595508
  0
LINE
  5
3C3
100
AcDbEntity
  8
0
100
AcDbLine
 62
7
  6
CONTINUOUS
 10
100.2177600904
 20
124.0782595508
 11
99.5427600904
 21
124.0782595508
  0
LINE
  5
3C4
100
AcDbEntity
  8
0
100
AcDbLine
 62
7
  6
CONTINUOUS
 10
114.7302600904
 20
124.7165574365
 11
113.9427605195
 21
124.7165574365
  0
LINE
  5
3C5
100
AcDbEntity
  8
0
100
AcDbLine
 62
7
  6
CONTINUOUS
 10
102.2427600904
 20
126.7591106527
 11
100.2177600904
 21
126.7591106527
  0
LINE
  5
3C6
100
AcDbEntity
  8
0
100
AcDbLine
 62
7
  6
CONTINUOUS
 10
114.7302600904
 20
127.2697488897
 11
113.9427605195
 21
127.2697488897
  0
LINE
  5
3C7
100
AcDbEntity
  8
0
100
AcDbLine
 62
7
  6
CONTINUOUS
 10
102.3552599831
 20
127.5250680082
 11
100.2177600904
 21
127.5250680082
  0
LINE
  5
3C8
100
AcDbEntity
  8
0
100
AcDbLine
 62
7
  6
CONTINUOUS
 10
114.6177605195
 20
127.908046686
 11
114.0552600904
 21
127.908046686
  0
LINE
  5
3C9
100
AcDbEntity
  8
0
100
AcDbLine
 62
7
  6
CONTINUOUS
 10
116.0802600904
 20
128.6740043991
 11
115.5177596612
 21
128.6740043991
  0
LINE
  5
3CA
100
AcDbEntity
  8
0
100
AcDbLine
 62
7
  6
CONTINUOUS
 10
114.6177605195
 20
129.4399617546
 11
113.9427605195
 21
129.4399617546
  0
LINE
  5
3CB
100
AcDbEntity
  8
0
100
AcDbLine
 62
7
  6
CONTINUOUS
 10
102.3552599831
 20
129.4399617546
 11
100.2177600904
 21
129.4399617546
  0
LINE
  5
3CC
100
AcDbEntity
  8
0
100
AcDbLine
 62
7
  6
CONTINUOUS
 10
104.2760934932
 20
142.9718765699
 11
103.6927600904
 21
143.1208127224
  0
LINE
  5
3CD
100
AcDbEntity
  8
0
100
AcDbLine
 62
7
  6
CONTINUOUS
 10
106.9010932846
 20
148.6314510935
 11
106.3177600904
 21
148.9293233984
  0
LINE
  5
3CE
100
AcDbEntity
  8
0
100
AcDbLine
 62
7
  6
CONTINUOUS
 10
138.435173869
 20
35.6939449758
 11
138.6257727922
 21
36.0240719947
  0
LINE
  5
3CF
100
AcDbEntity
  8
0
100
AcDbLine
 62
7
  6
CONTINUOUS
 10
111.7427600904
 20
119.0144298904
 11
110.9094270749
 21
118.8016639583
  0
LINE
  5
3D0
100
AcDbEntity
  8
0
100
AcDbLine
 62
7
  6
CONTINUOUS
 10
115.1802596612
 20
124.2059191213
 11
114.6177605195
 21
124.0782595508
  0
LINE
  5
3D1
100
AcDbEntity
  8
0
100
AcDbLine
 62
7
  6
CONTINUOUS
 10
114.0552600904
 20
127.908046686
 11
113.4927596612
 21
127.7803871267
  0
LINE
  5
3D2
100
AcDbEntity
  8
0
100
AcDbLine
 62
7
  6
CONTINUOUS
 10
114.5052596612
 20
130.0782595508
 11
114.0552600904
 21
130.0782595508
  0
LINE
  5
3D3
100
AcDbEntity
  8
0
100
AcDbLine
 62
7
  6
CONTINUOUS
 10
111.3552600904
 20
130.0782595508
 11
110.6802600904
 21
130.0782595508
  0
LINE
  5
3D4
100
AcDbEntity
  8
0
100
AcDbLine
 62
7
  6
CONTINUOUS
 10
109.1052603049
 20
130.0782595508
 11
108.4302603049
 21
130.0782595508
  0
LINE
  5
3D5
100
AcDbEntity
  8
0
100
AcDbLine
 62
7
  6
CONTINUOUS
 10
105.6177600904
 20
130.0782595508
 11
104.6052600904
 21
130.0782595508
  0
LINE
  5
3D6
100
AcDbEntity
  8
0
100
AcDbLine
 62
7
  6
CONTINUOUS
 10
102.2427600904
 20
130.0782595508
 11
99.5427600904
 21
130.0782595508
  0
LINE
  5
3D7
100
AcDbEntity
  8
0
100
AcDbLine
 62
7
  6
CONTINUOUS
 10
104.2760934932
 20
142.0782595508
 11
103.5469267918
 21
142.2271957163
  0
LINE
  5
3D8
100
AcDbEntity
  8
0
100
AcDbLine
 62
7
  6
CONTINUOUS
 10
106.1719268961
 20
148.0357064836
 11
105.5885932846
 21
148.1846426361
  0
LINE
  5
3D9
100
AcDbEntity
  8
0
100
AcDbLine
 62
7
  6
CONTINUOUS
 10
111.8260932846
 20
148.1846426361
 11
111.3885932846
 21
148.3335787886
  0
LINE
  5
3DA
100
AcDbEntity
  8
0
100
AcDbLine
 62
7
  6
CONTINUOUS
 10
97.052475603
 20
165.7458596281
 11
97.5410170579
 21
165.4913465054
  0
LINE
  5
3DB
100
AcDbEntity
  8
0
100
AcDbLine
 62
7
  6
CONTINUOUS
 10
114.4001557044
 20
176.8939449758
 11
114.6403956327
 21
176.6939449758
  0
LINE
  5
3DC
100
AcDbEntity
  8
0
100
AcDbLine
 62
7
  6
CONTINUOUS
 10
144.1259610408
 20
37.0163851741
 11
144.5494571311
 21
37.7497439836
  0
LINE
  5
3DD
100
AcDbEntity
  8
0
100
AcDbLine
 62
7
  6
CONTINUOUS
 10
145.7985860513
 20
36.4494699204
 11
146.5494579264
 21
37.7497439067
  0
LINE
  5
3DE
100
AcDbEntity
  8
0
100
AcDbLine
 62
7
  6
CONTINUOUS
 10
147.7985848941
 20
36.4494699157
 11
148.5494567954
 21
37.7497439455
  0
LINE
  5
3DF
100
AcDbEntity
  8
0
100
AcDbLine
 62
7
  6
CONTINUOUS
 10
149.7985853492
 20
36.4494699261
 11
150.549457264
 21
37.7497439778
  0
LINE
  5
3E0
100
AcDbEntity
  8
0
100
AcDbLine
 62
7
  6
CONTINUOUS
 10
151.7985860387
 20
36.4494699185
 11
152.5494579086
 21
37.7497438964
  0
LINE
  5
3E1
100
AcDbEntity
  8
0
100
AcDbLine
 62
7
  6
CONTINUOUS
 10
102.8052601976
 20
126.886770212
 11
102.2427600904
 21
126.7591106527
  0
LINE
  5
3E2
100
AcDbEntity
  8
0
100
AcDbLine
 62
7
  6
CONTINUOUS
 10
114.0552600904
 20
130.0782595508
 11
113.4927596612
 21
129.9505999916
  0
LINE
  5
3E3
100
AcDbEntity
  8
0
100
AcDbLine
 62
7
  6
CONTINUOUS
 10
113.2844268961
 20
142.0782595508
 11
112.2635932846
 21
142.0782595508
  0
LINE
  5
3E4
100
AcDbEntity
  8
0
100
AcDbLine
 62
7
  6
CONTINUOUS
 10
108.6177600904
 20
142.0782595508
 11
107.7427600904
 21
142.0782595508
  0
LINE
  5
3E5
100
AcDbEntity
  8
0
100
AcDbLine
 62
7
  6
CONTINUOUS
 10
105.5885932846
 20
142.0782595508
 11
104.2760934932
 21
142.0782595508
  0
LINE
  5
3E6
100
AcDbEntity
  8
0
100
AcDbLine
 62
7
  6
CONTINUOUS
 10
105.5885932846
 20
142.9718765699
 11
104.2760934932
 21
142.9718765699
  0
LINE
  5
3E7
100
AcDbEntity
  8
0
100
AcDbLine
 62
7
  6
CONTINUOUS
 10
107.6302600904
 20
143.865493589
 11
106.7552600904
 21
143.865493589
  0
LINE
  5
3E8
100
AcDbEntity
  8
0
100
AcDbLine
 62
7
  6
CONTINUOUS
 10
111.0969266875
 20
145.2059191697
 11
108.6177600904
 21
145.2059191697
  0
LINE
  5
3E9
100
AcDbEntity
  8
0
100
AcDbLine
 62
7
  6
CONTINUOUS
 10
111.3885932846
 20
146.0995360844
 11
108.6177600904
 21
146.0995360844
  0
LINE
  5
3EA
100
AcDbEntity
  8
0
100
AcDbLine
 62
7
  6
CONTINUOUS
 10
106.3177600904
 20
148.9293233984
 11
105.5885932846
 21
149.0782595508
  0
LINE
  5
3EB
100
AcDbEntity
  8
0
100
AcDbLine
 62
7
  6
CONTINUOUS
 10
111.9719268961
 20
148.9293233984
 11
111.2427600904
 21
149.0782595508
  0
LINE
  5
3EC
100
AcDbEntity
  8
0
100
AcDbLine
 62
7
  6
CONTINUOUS
 10
100.7427600904
 20
176.8939449758
 11
101.1269039198
 21
176.6939449758
  0
LINE
  5
3ED
100
AcDbEntity
  8
0
100
AcDbLine
 62
7
  6
CONTINUOUS
 10
128.6927600904
 20
28.6439449758
 11
128.4927600904
 21
28.4439449758
  0
LINE
  5
3EE
100
AcDbEntity
  8
0
100
AcDbLine
 62
7
  6
CONTINUOUS
 10
106.3177600904
 20
142.2271957163
 11
105.5885932846
 21
142.0782595508
  0
LINE
  5
3EF
100
AcDbEntity
  8
0
100
AcDbLine
 62
7
  6
CONTINUOUS
 10
107.6302600904
 20
147.2910253041
 11
106.7552600904
 21
147.2910253041
  0
LINE
  5
3F0
100
AcDbEntity
  8
0
100
AcDbLine
 62
7
  6
CONTINUOUS
 10
105.5885932846
 20
148.1846426361
 11
104.2760934932
 21
148.1846426361
  0
LINE
  5
3F1
100
AcDbEntity
  8
0
100
AcDbLine
 62
7
  6
CONTINUOUS
 10
111.3885932846
 20
148.3335787886
 11
108.6177600904
 21
148.3335787886
  0
LINE
  5
3F2
100
AcDbEntity
  8
0
100
AcDbLine
 62
7
  6
CONTINUOUS
 10
111.2427600904
 20
149.0782595508
 11
107.7427600904
 21
149.0782595508
  0
LINE
  5
3F3
100
AcDbEntity
  8
0
100
AcDbLine
 62
7
  6
CONTINUOUS
 10
105.5885932846
 20
149.0782595508
 11
104.2760934932
 21
149.0782595508
  0
LINE
  5
3F4
100
AcDbEntity
  8
0
100
AcDbLine
 62
7
  6
CONTINUOUS
 10
120.7427600904
 20
152.0782595508
 11
94.7427600904
 21
152.0782595508
  0
LINE
  5
3F5
100
AcDbEntity
  8
0
100
AcDbLine
 62
7
  6
CONTINUOUS
 10
120.8599173779
 20
152.3611022633
 11
94.6256028028
 21
152.3611022633
  0
LINE
  5
3F6
100
AcDbEntity
  8
0
100
AcDbLine
 62
7
  6
CONTINUOUS
 10
94.3599173779
 20
152.6267876883
 11
121.1256028028
 21
152.6267876883
  0
LINE
  5
3F7
100
AcDbEntity
  8
0
100
AcDbLine
 62
7
  6
CONTINUOUS
 10
94.710232387
 20
152.9096304007
 11
121.2427600904
 21
152.9096304007
  0
LINE
  5
3F8
100
AcDbEntity
  8
0
100
AcDbLine
 62
7
  6
CONTINUOUS
 10
94.4762609289
 20
153.4884072616
 11
94.7646630846
 21
153.4884072616
  0
LINE
  5
3F9
100
AcDbEntity
  8
0
100
AcDbLine
 62
7
  6
CONTINUOUS
 10
113.5162627823
 20
178.6020635268
 11
114.4427600904
 21
178.0671500565
  0
LINE
  5
3FA
100
AcDbEntity
  8
0
100
AcDbLine
 62
7
  6
CONTINUOUS
 10
113.5162627823
 20
181.9473629884
 11
112.7427600904
 21
182.3939449758
  0
LINE
  5
3FB
100
AcDbEntity
  8
0
100
AcDbLine
 62
7
  6
CONTINUOUS
 10
152.9855807914
 20
37.2367656768
 11
153.6927600904
 21
37.9439449758
  0
LINE
  5
3FC
100
AcDbEntity
  8
0
100
AcDbLine
 62
7
  6
CONTINUOUS
 10
106.1719268961
 20
143.1208127224
 11
105.5885932846
 21
142.9718765699
  0
LINE
  5
3FD
100
AcDbEntity
  8
0
100
AcDbLine
 62
7
  6
CONTINUOUS
 10
104.2760934932
 20
148.1846426361
 11
103.6927600904
 21
148.0357064836
  0
LINE
  5
3FE
100
AcDbEntity
  8
0
100
AcDbLine
 62
7
  6
CONTINUOUS
 10
104.2760934932
 20
149.0782595508
 11
103.5469267918
 21
148.9293233984
  0
LINE
  5
3FF
100
AcDbEntity
  8
0
100
AcDbLine
 62
7
  6
CONTINUOUS
 10
88.7427600904
 20
155.6939449758
 11
89.8041857597
 21
155.6939449758
  0
LINE
  5
400
100
AcDbEntity
  8
0
100
AcDbLine
 62
7
  6
CONTINUOUS
 10
111.2427600904
 20
155.6939449758
 11
118.7427600904
 21
155.6939449758
  0
LINE
  5
401
100
AcDbEntity
  8
0
100
AcDbLine
 62
7
  6
CONTINUOUS
 10
89.7427600904
 20
159.1439449758
 11
94.7646630846
 21
159.1439449758
  0
LINE
  5
402
100
AcDbEntity
  8
0
100
AcDbLine
 62
7
  6
CONTINUOUS
 10
94.272793498
 20
159.6439449758
 11
90.2427600904
 21
159.6439449758
  0
LINE
  5
403
100
AcDbEntity
  8
0
100
AcDbLine
 62
7
  6
CONTINUOUS
 10
94.2427600904
 20
159.9439449758
 11
94.5656188587
 21
159.9439449758
  0
LINE
  5
404
100
AcDbEntity
  8
0
100
AcDbLine
 62
7
  6
CONTINUOUS
 10
121.2427600904
 20
160.5782595508
 11
120.5205052105
 21
160.5782595508
  0
LINE
  5
405
100
AcDbEntity
  8
0
100
AcDbLine
 62
7
  6
CONTINUOUS
 10
111.2427600904
 20
160.5782595508
 11
94.2427600904
 21
160.5782595508
  0
LINE
  5
406
100
AcDbEntity
  8
0
100
AcDbLine
 62
7
  6
CONTINUOUS
 10
111.2427600904
 20
160.8611022398
 11
94.1256028028
 21
160.8611022633
  0
LINE
  5
407
100
AcDbEntity
  8
0
100
AcDbLine
 62
7
  6
CONTINUOUS
 10
121.3599173779
 20
160.8611022633
 11
120.6234513124
 21
160.8611016413
  0
LINE
  5
408
100
AcDbEntity
  8
0
100
AcDbLine
 62
7
  6
CONTINUOUS
 10
93.9927600904
 20
160.9939449758
 11
111.2427600904
 21
160.9939449758
  0
LINE
  5
409
100
AcDbEntity
  8
0
100
AcDbLine
 62
7
  6
CONTINUOUS
 10
120.671802332
 20
160.9939449758
 11
121.4927600904
 21
160.9939449758
  0
LINE
  5
40A
100
AcDbEntity
  8
0
100
AcDbLine
 62
7
  6
CONTINUOUS
 10
88.7427600904
 20
162.6939449758
 11
92.7427600904
 21
162.6939449758
  0
LINE
  5
40B
100
AcDbEntity
  8
0
100
AcDbLine
 62
7
  6
CONTINUOUS
 10
109.3967409018
 20
164.8939449758
 11
93.9927600904
 21
164.8939449758
  0
LINE
  5
40C
100
AcDbEntity
  8
0
100
AcDbLine
 62
7
  6
CONTINUOUS
 10
109.1450110124
 20
165.1939449758
 11
94.2927600904
 21
165.1939449758
  0
LINE
  5
40D
100
AcDbEntity
  8
0
100
AcDbLine
 62
7
  6
CONTINUOUS
 10
97.7427600904
 20
166.4439449758
 11
108.0961364734
 21
166.4439449758
  0
LINE
  5
40E
100
AcDbEntity
  8
0
100
AcDbLine
 62
7
  6
CONTINUOUS
 10
98.7427600904
 20
169.3665947066
 11
99.4678428727
 21
169.3665947066
  0
LINE
  5
40F
100
AcDbEntity
  8
0
100
AcDbLine
 62
7
  6
CONTINUOUS
 10
98.7427600904
 20
169.9439449758
 11
105.1592877643
 21
169.9439449758
  0
LINE
  5
410
100
AcDbEntity
  8
0
100
AcDbLine
 62
7
  6
CONTINUOUS
 10
103.6282633243
 20
176.8939449758
 11
105.4394927616
 21
176.6939449758
  0
LINE
  5
411
100
AcDbEntity
  8
0
100
AcDbLine
 62
7
  6
CONTINUOUS
 10
109.905879051
 20
176.8939449758
 11
111.6509631251
 21
176.6939449758
  0
LINE
  5
412
100
AcDbEntity
  8
0
100
AcDbLine
 62
7
  6
CONTINUOUS
 10
102.0796411297
 20
176.8939449758
 11
103.5423062302
 21
176.6939449758
  0
LINE
  5
413
100
AcDbEntity
  8
0
100
AcDbLine
 62
7
  6
CONTINUOUS
 10
111.8572568564
 20
176.8939449758
 11
113.2168981384
 21
176.6939449758
  0
LINE
  5
414
100
AcDbEntity
  8
0
100
AcDbLine
 62
7
  6
CONTINUOUS
 10
101.0853644763
 20
176.8939449758
 11
102.0562893889
 21
176.6939449758
  0
LINE
  5
415
100
AcDbEntity
  8
0
100
AcDbLine
 62
7
  6
CONTINUOUS
 10
113.405879051
 20
176.8939449758
 11
114.2469863789
 21
176.6939449758
  0
LINE
  5
416
100
AcDbEntity
  8
0
100
AcDbLine
 62
7
  6
CONTINUOUS
 10
100.8427600904
 20
172.2939449758
 11
103.1874036311
 21
172.2939449758
  0
LINE
  5
417
100
AcDbEntity
  8
0
100
AcDbLine
 62
7
  6
CONTINUOUS
 10
89.0163899105
 20
172.6939449758
 11
102.8517637786
 21
172.6939449758
  0
LINE
  5
418
100
AcDbEntity
  8
0
100
AcDbLine
 62
7
  6
CONTINUOUS
 10
103.1253935987
 20
172.6939449758
 11
121.6239579368
 21
172.6939449758
  0
LINE
  5
419
100
AcDbEntity
  8
0
100
AcDbLine
 62
7
  6
CONTINUOUS
 10
124.5107092828
 20
172.6939449758
 11
126.2427600904
 21
172.6939449758
  0
LINE
  5
41A
100
AcDbEntity
  8
0
100
AcDbLine
 62
7
  6
CONTINUOUS
 10
92.7427600904
 20
176.6939449758
 11
126.2427600904
 21
176.6939449758
  0
LINE
  5
41B
100
AcDbEntity
  8
0
100
AcDbLine
 62
7
  6
CONTINUOUS
 10
114.7427600904
 20
176.8939449758
 11
100.7427600904
 21
176.8939449758
  0
LINE
  5
41C
100
AcDbEntity
  8
0
100
AcDbLine
 62
7
  6
CONTINUOUS
 10
100.7427600904
 20
177.5475348143
 11
114.7427600904
 21
177.5475348143
  0
LINE
  5
41D
100
AcDbEntity
  8
0
100
AcDbLine
 62
7
  6
CONTINUOUS
 10
101.0427600904
 20
178.0671500565
 11
114.4427600904
 21
178.0671500565
  0
LINE
  5
41E
100
AcDbEntity
  8
0
100
AcDbLine
 62
7
  6
CONTINUOUS
 10
105.5796411297
 20
176.8939449758
 11
107.562139147
 21
176.6939449758
  0
LINE
  5
41F
100
AcDbEntity
  8
0
100
AcDbLine
 62
7
  6
CONTINUOUS
 10
107.7427600904
 20
176.8939449758
 11
109.7024659688
 21
176.6939449758
  0
LINE
  5
420
100
AcDbEntity
  8
0
100
AcDbLine
 62
7
  6
CONTINUOUS
 10
102.7428189498
 20
182.3939449758
 11
112.742701231
 21
182.3939449758
  0
LINE
  5
421
100
AcDbEntity
  8
0
100
AcDbLine
 62
7
  6
CONTINUOUS
 10
236.7427600904
 20
188.1939449758
 11
236.7427600904
 21
195.1939449758
  0
LINE
  5
422
100
AcDbEntity
  8
0
100
AcDbLine
 62
7
  6
CONTINUOUS
 10
150.5427600904
 20
188.1939449758
 11
246.5427600904
 21
188.1939449758
  0
LINE
  5
423
100
AcDbEntity
  8
0
100
AcDbLine
 62
7
  6
CONTINUOUS
 10
146.142255027
 20
189.6939449758
 11
149.7427600904
 21
189.6939449758
  0
LINE
  5
424
100
AcDbEntity
  8
0
100
AcDbLine
 62
7
  6
CONTINUOUS
 10
149.7427600904
 20
191.3939449758
 11
249.7427600904
 21
191.3939449758
  0
LINE
  5
425
100
AcDbEntity
  8
0
100
AcDbLine
 62
7
  6
CONTINUOUS
 10
149.7427600904
 20
191.9939449758
 11
249.7427600904
 21
191.9939449758
  0
LINE
  5
426
100
AcDbEntity
  8
0
100
AcDbLine
 62
7
  6
CONTINUOUS
 10
149.7427600904
 20
193.6939449758
 11
145.7280414646
 21
193.6939449758
  0
LINE
  5
427
100
AcDbEntity
  8
0
100
AcDbLine
 62
7
  6
CONTINUOUS
 10
150.5427600904
 20
195.1939449758
 11
246.5427600904
 21
195.1939449758
  0
LINE
  5
428
100
AcDbEntity
  8
0
100
AcDbLine
 62
7
  6
CONTINUOUS
 10
249.7427600904
 20
191.3939449758
 11
249.7427600904
 21
191.9939449758
  0
ARC
  5
429
100
AcDbEntity
  8
GEOM
100
AcDbCircle
 62
7
  6
CONTINUOUS
 10
-210.7718071225
 20
63.9439449758
 40
343.0351530029
100
AcDbArc
 50
358.1662997892
 51
1.8337002108
  0
ARC
  5
42A
100
AcDbEntity
  8
GEOM
100
AcDbCircle
 62
7
  6
CONTINUOUS
 10
-210.3066432784
 20
63.9439449758
 40
342.0718918071
100
AcDbArc
 50
358.1637195832
 51
1.8362804168
  0
ARC
  5
42B
100
AcDbEntity
  8
0
100
AcDbCircle
 62
7
  6
CONTINUOUS
 10
83.7072261844
 20
33.4439449758
 40
2.5
100
AcDbArc
 50
45.0
 51
90.0
  0
ARC
  5
42C
100
AcDbEntity
  8
0
100
AcDbCircle
 62
7
  6
CONTINUOUS
 10
92.2782939963
 20
31.9439449758
 40
2.5
100
AcDbArc
 50
225.0
 51
270.0
  0
ARC
  5
42D
100
AcDbEntity
  8
GEOM
100
AcDbCircle
 62
7
  6
CONTINUOUS
 10
74.283768572
 20
36.9439449758
 40
1.0
100
AcDbArc
 50
90.0
 51
118.964278946
  0
ARC
  5
42E
100
AcDbEntity
  8
GEOM
100
AcDbCircle
 62
7
  6
CONTINUOUS
 10
74.283768572
 20
36.9439449758
 40
1.0
100
AcDbArc
 50
125.8478733136
 51
135.0
  0
ARC
  5
42F
100
AcDbEntity
  8
0
100
AcDbCircle
 62
7
  6
CONTINUOUS
 10
77.328546528
 20
36.9439449758
 40
1.0
100
AcDbArc
 50
44.9999999999
 51
90.0
  0
ARC
  5
430
100
AcDbEntity
  8
0
100
AcDbCircle
 62
7
  6
CONTINUOUS
 10
80.1569736527
 20
36.9439449758
 40
1.0
100
AcDbArc
 50
224.9999999999
 51
270.0
  0
ARC
  5
431
100
AcDbEntity
  8
0
100
AcDbCircle
 62
7
  6
CONTINUOUS
 10
83.7072261844
 20
94.4439449758
 40
2.5
100
AcDbArc
 50
270.0
 51
315.0
  0
ARC
  5
432
100
AcDbEntity
  8
0
100
AcDbCircle
 62
7
  6
CONTINUOUS
 10
92.2782939963
 20
95.9439449758
 40
2.5
100
AcDbArc
 50
90.0
 51
135.0
  0
ARC
  5
433
100
AcDbEntity
  8
0
100
AcDbCircle
 62
7
  6
CONTINUOUS
 10
93.5427623212
 20
99.643943959
 40
1.1999998141
100
AcDbArc
 50
269.9998957398
 51
0.0000528902
  0
ARC
  5
434
100
AcDbEntity
  8
GEOM
100
AcDbCircle
 62
7
  6
CONTINUOUS
 10
74.283768572
 20
90.9439449758
 40
1.0
100
AcDbArc
 50
224.9999999993
 51
270.0
  0
ARC
  5
435
100
AcDbEntity
  8
0
100
AcDbCircle
 62
7
  6
CONTINUOUS
 10
77.328546528
 20
90.9439449758
 40
1.0
100
AcDbArc
 50
270.0
 51
315.0000000001
  0
ARC
  5
436
100
AcDbEntity
  8
0
100
AcDbCircle
 62
7
  6
CONTINUOUS
 10
80.1569736527
 20
90.9439449758
 40
1.0
100
AcDbArc
 50
90.0
 51
135.0000000001
  0
ARC
  5
437
100
AcDbEntity
  8
0
100
AcDbCircle
 62
7
  6
CONTINUOUS
 10
112.3192173874
 20
60.0539449758
 40
3.62
100
AcDbArc
 50
79.4950517452
 51
180.0
  0
ARC
  5
438
100
AcDbEntity
  8
0
100
AcDbCircle
 62
7
  6
CONTINUOUS
 10
111.1792173874
 20
60.3439449758
 40
3.6
100
AcDbArc
 50
90.0
 51
180.0
  0
ARC
  5
439
100
AcDbEntity
  8
0
100
AcDbCircle
 62
7
  6
CONTINUOUS
 10
109.6209227938
 20
62.4671599033
 40
2.36
100
AcDbArc
 50
112.725454172
 51
149.8974854105
  0
ARC
  5
43A
100
AcDbEntity
  8
0
100
AcDbCircle
 62
7
  6
CONTINUOUS
 10
129.8182633293
 20
29.9439449758
 40
1.5
100
AcDbArc
 50
270.0
 51
355.0
  0
ARC
  5
43B
100
AcDbEntity
  8
0
100
AcDbCircle
 62
7
  6
CONTINUOUS
 10
117.2457038155
 20
28.2439449758
 40
1.2
100
AcDbArc
 50
45.0
 51
90.0
  0
ARC
  5
43C
100
AcDbEntity
  8
0
100
AcDbCircle
 62
7
  6
CONTINUOUS
 10
119.2398163652
 20
29.6439449758
 40
1.2
100
AcDbArc
 50
225.0
 51
270.0
  0
ARC
  5
43D
100
AcDbEntity
  8
0
100
AcDbCircle
 62
7
  6
CONTINUOUS
 10
139.1927600904
 20
37.4439449758
 40
0.5
100
AcDbArc
 50
90.0
 51
180.0
  0
ARC
  5
43E
100
AcDbEntity
  8
0
100
AcDbCircle
 62
7
  6
CONTINUOUS
 10
142.9856533092
 20
37.4439449758
 40
0.5
100
AcDbArc
 50
44.9999999997
 51
90.0
  0
ARC
  5
43F
100
AcDbEntity
  8
GEOM
100
AcDbCircle
 62
7
  6
CONTINUOUS
 10
138.0021611671
 20
35.9439449758
 40
0.5
100
AcDbArc
 50
270.0
 51
330.0
  0
ARC
  5
440
100
AcDbEntity
  8
GEOM
100
AcDbCircle
 62
7
  6
CONTINUOUS
 10
138.1927600904
 20
36.2740719947
 40
0.5
100
AcDbArc
 50
330.0000000005
 51
360.0
  0
ARC
  5
441
100
AcDbEntity
  8
GEOM
100
AcDbCircle
 62
7
  6
CONTINUOUS
 10
132.0877957052
 20
34.9440959843
 40
0.4998561055
100
AcDbArc
 50
90.0130288676
 51
175.3405955056
  0
ARC
  5
442
100
AcDbEntity
  8
0
100
AcDbCircle
 62
7
  6
CONTINUOUS
 10
129.8182633293
 20
97.9439449758
 40
1.5
100
AcDbArc
 50
5.0
 51
90.0
  0
ARC
  5
443
100
AcDbEntity
  8
0
100
AcDbCircle
 62
7
  6
CONTINUOUS
 10
121.9427583675
 20
100.6439442322
 40
1.1999998558
100
AcDbArc
 50
179.9999623697
 51
270.0000865625
  0
ARC
  5
444
100
AcDbEntity
  8
0
100
AcDbCircle
 62
7
  6
CONTINUOUS
 10
139.1927600904
 20
90.4439449758
 40
0.5
100
AcDbArc
 50
180.0
 51
270.0
  0
ARC
  5
445
100
AcDbEntity
  8
0
100
AcDbCircle
 62
7
  6
CONTINUOUS
 10
142.9856533092
 20
90.4439449758
 40
0.5
100
AcDbArc
 50
270.0
 51
315.0000000024
  0
ARC
  5
446
100
AcDbEntity
  8
GEOM
100
AcDbCircle
 62
7
  6
CONTINUOUS
 10
138.1927600904
 20
91.6138179569
 40
0.5
100
AcDbArc
 50
0.0
 51
29.9999999998
  0
ARC
  5
447
100
AcDbEntity
  8
GEOM
100
AcDbCircle
 62
7
  6
CONTINUOUS
 10
138.0021611671
 20
91.9439449758
 40
0.5
100
AcDbArc
 50
30.0
 51
90.0
  0
ARC
  5
448
100
AcDbEntity
  8
GEOM
100
AcDbCircle
 62
7
  6
CONTINUOUS
 10
132.0877957044
 20
92.9437939672
 40
0.4998561051
100
AcDbArc
 50
184.6594044923
 51
269.9869435501
  0
ARC
  5
449
100
AcDbEntity
  8
0
100
AcDbCircle
 62
7
  6
CONTINUOUS
 10
53.6551818261
 20
183.8721891225
 40
54.5358782259
100
AcDbArc
 50
352.4365383188
 51
352.6484523501
  0
ARC
  5
44A
100
AcDbEntity
  8
0
100
AcDbCircle
 62
7
  6
CONTINUOUS
 10
90.2281142908
 20
140.9906144437
 40
12.5564203928
100
AcDbArc
 50
69.6481938971
 51
70.1853064844
  0
ARC
  5
44B
100
AcDbEntity
  8
0
100
AcDbCircle
 62
7
  6
CONTINUOUS
 10
145.7280414646
 20
188.6939449758
 40
5.0
100
AcDbArc
 50
90.0
 51
135.0
  0
ARC
  5
44C
100
AcDbEntity
  8
0
100
AcDbCircle
 62
7
  6
CONTINUOUS
 10
126.2427600904
 20
177.6939449758
 40
5.0
100
AcDbArc
 50
270.0
 51
315.0
  0
ARC
  5
44D
100
AcDbEntity
  8
0
100
AcDbCircle
 62
7
  6
CONTINUOUS
 10
92.7427600904
 20
172.6939449758
 40
4.0
100
AcDbArc
 50
90.0
 51
180.0
  0
ARC
  5
44E
100
AcDbEntity
  8
0
100
AcDbCircle
 62
7
  6
CONTINUOUS
 10
246.5427600904
 20
191.3939449758
 40
3.2
100
AcDbArc
 50
270.0
 51
360.0
  0
ARC
  5
44F
100
AcDbEntity
  8
0
100
AcDbCircle
 62
7
  6
CONTINUOUS
 10
246.5427600904
 20
191.9939449758
 40
3.2
100
AcDbArc
 50
0.0
 51
90.0
  0
ARC
  5
450
100
AcDbEntity
  8
0
100
AcDbCircle
 62
7
  6
CONTINUOUS
 10
146.142255027
 20
187.6939449758
 40
2.0
100
AcDbArc
 50
90.0
 51
135.0
  0
ARC
  5
451
100
AcDbEntity
  8
0
100
AcDbCircle
 62
7
  6
CONTINUOUS
 10
126.2427600904
 20
177.6939449758
 40
1.0
100
AcDbArc
 50
270.0
 51
315.0
  0
ARC
  5
452
100
AcDbEntity
  8
0
100
AcDbCircle
 62
7
  6
CONTINUOUS
 10
150.5427600904
 20
194.3939449758
 40
0.8
100
AcDbArc
 50
90.0
 51
180.0
  0
ARC
  5
453
100
AcDbEntity
  8
0
100
AcDbCircle
 62
7
  6
CONTINUOUS
 10
150.5427600904
 20
188.9939449758
 40
0.8
100
AcDbArc
 50
180.0
 51
270.0
  0
ARC
  5
454
100
AcDbEntity
  8
0
100
AcDbCircle
 62
7
  6
CONTINUOUS
 10
114.1427600904
 20
177.5475348143
 40
0.6
100
AcDbArc
 50
0.0
 51
60.0
  0
ARC
  5
455
100
AcDbEntity
  8
0
100
AcDbCircle
 62
7
  6
CONTINUOUS
 10
101.3427600904
 20
177.5475348143
 40
0.6
100
AcDbArc
 50
120.0
 51
180.0
  0
ARC
  5
456
100
AcDbEntity
  8
0
100
AcDbCircle
 62
7
  6
CONTINUOUS
 10
93.2427600904
 20
172.1939449758
 40
0.5
100
AcDbArc
 50
90.0
 51
180.0
  0
ARC
  5
457
100
AcDbEntity
  8
0
100
AcDbCircle
 62
7
  6
CONTINUOUS
 10
90.2427600904
 20
159.1439449758
 40
0.5
100
AcDbArc
 50
90.0
 51
180.0
  0
ARC
  5
458
100
AcDbEntity
  8
0
100
AcDbCircle
 62
7
  6
CONTINUOUS
 10
90.2427600904
 20
155.9326201104
 40
0.5
100
AcDbArc
 50
180.0
 51
240.0
  0
ARC
  5
459
100
AcDbEntity
  8
0
100
AcDbCircle
 62
7
  6
CONTINUOUS
 10
121.1427600904
 20
152.0782595508
 40
0.4
100
AcDbArc
 50
134.9999999998
 51
180.0
  0
ARC
  5
45A
100
AcDbEntity
  8
0
100
AcDbCircle
 62
7
  6
CONTINUOUS
 10
94.3427600904
 20
152.0782595508
 40
0.4
100
AcDbArc
 50
0.0
 51
45.0000000003
  0
ARC
  5
45B
100
AcDbEntity
  8
0
100
AcDbCircle
 62
7
  6
CONTINUOUS
 10
120.8427600904
 20
152.9096304007
 40
0.4
100
AcDbArc
 50
314.9999999996
 51
360.0
  0
ARC
  5
45C
100
AcDbEntity
  8
0
100
AcDbCircle
 62
7
  6
CONTINUOUS
 10
94.6427600904
 20
152.9096304007
 40
0.4
100
AcDbArc
 50
183.0748677775
 51
225.0000000003
  0
ARC
  5
45D
100
AcDbEntity
  8
0
100
AcDbCircle
 62
7
  6
CONTINUOUS
 10
121.6427600904
 20
160.5782595508
 40
0.4
100
AcDbArc
 50
134.9999999998
 51
180.0
  0
ARC
  5
45E
100
AcDbEntity
  8
0
100
AcDbCircle
 62
7
  6
CONTINUOUS
 10
93.8427600904
 20
160.5782595508
 40
0.4
100
AcDbArc
 50
0.0
 51
45.0000000003
  0
ARC
  5
45F
100
AcDbEntity
  8
0
100
AcDbCircle
 62
7
  6
CONTINUOUS
 10
93.9427600904
 20
159.9439449758
 40
0.3
100
AcDbArc
 50
270.0
 51
360.0
  0
SPLINE
  5
460
100
AcDbEntity
  8
0
100
AcDbSpline
 62
7
  6
CONTINUOUS
 70
0
 71
3
 72
11
 73
7
 74
0
 42
0.0000001
 43
0.0000001
 44
0.0000000001
 40
0.0
 40
0.0
 40
0.0
 40
0.0
 40
0.2404052701
 40
0.4855029998
 40
0.7383572369
 40
1.0
 40
1.0
 40
1.0
 40
1.0
 10
103.4126330716
 20
182.3939449758
 30
0.0
 10
103.5350496146
 20
182.3939449758
 30
0.0
 10
103.7827307535
 20
182.3726022367
 30
0.0
 10
104.1485814799
 20
182.2804092736
 30
0.0
 10
104.5085033948
 20
182.136314912
 30
0.0
 10
104.740627429
 20
182.0139784219
 30
0.0
 10
104.8560087444
 20
181.9473629884
 30
0.0
  0
SPLINE
  5
461
100
AcDbEntity
  8
0
100
AcDbSpline
 62
7
  6
CONTINUOUS
 70
0
 71
3
 72
15
 73
11
 74
0
 42
0.0000001
 43
0.0000001
 44
0.0000000001
 40
0.0
 40
0.0
 40
0.0
 40
0.0
 40
0.1308200694
 40
0.2572467302
 40
0.3797970158
 40
0.500000022
 40
0.6202030249
 40
0.7427533028
 40
0.8691799416
 40
1.0
 40
1.0
 40
1.0
 40
1.0
 10
104.8560087444
 20
178.6020635268
 30
0.0
 10
104.7406286884
 20
178.6686782332
 30
0.0
 10
104.5085011844
 20
178.7910135726
 30
0.0
 10
104.1486034217
 20
178.9351098258
 30
0.0
 10
103.7826706218
 20
179.0272991562
 30
0.0
 10
103.4126330086
 20
179.0592020728
 30
0.0
 10
103.042595408
 20
179.0272991168
 30
0.0
 10
102.6766626444
 20
178.9351097856
 30
0.0
 10
102.3167649179
 20
178.7910135539
 30
0.0
 10
102.0846374447
 20
178.6686782276
 30
0.0
 10
101.9692573985
 20
178.6020635268
 30
0.0
  0
LINE
  5
462
100
AcDbEntity
  8
0
100
AcDbLine
 62
7
  6
CONTINUOUS
 10
106.7908461211
 20
176.6939449758
 11
106.8004745959
 21
176.7707837955
  0
SPLINE
  5
463
100
AcDbEntity
  8
0
100
AcDbSpline
 62
7
  6
CONTINUOUS
 70
0
 71
3
 72
9
 73
5
 74
0
 42
0.0000001
 43
0.0000001
 44
0.0000000001
 40
0.0
 40
0.0
 40
0.0
 40
0.0
 40
0.2530923568
 40
1.0
 40
1.0
 40
1.0
 40
1.0
 10
107.7427600904
 20
176.8939449758
 30
0.0
 10
107.8145874752
 20
176.8768406508
 30
0.0
 10
108.0985967854
 20
176.8101476754
 30
0.0
 10
108.3829872605
 20
176.7450596571
 30
0.0
 10
108.5948061245
 20
176.6939449758
 30
0.0
  0
SPLINE
  5
464
100
AcDbEntity
  8
0
100
AcDbSpline
 62
7
  6
CONTINUOUS
 70
0
 71
3
 72
11
 73
7
 74
0
 42
0.0000001
 43
0.0000001
 44
0.0000000001
 40
0.0
 40
0.0
 40
0.0
 40
0.0
 40
0.2616352191
 40
0.5144887546
 40
0.7595898472
 40
1.0
 40
1.0
 40
1.0
 40
1.0
 10
101.9692573985
 20
181.9473629884
 30
0.0
 10
102.0846354526
 20
182.013976539
 30
0.0
 10
102.3167553189
 20
182.1363120848
 30
0.0
 10
102.676673699
 20
182.2804090128
 30
0.0
 10
103.0425282334
 20
182.3726048822
 30
0.0
 10
103.2902139727
 20
182.3939449758
 30
0.0
 10
103.4126330716
 20
182.3939449758
 30
0.0
  0
SPLINE
  5
465
100
AcDbEntity
  8
0
100
AcDbSpline
 62
7
  6
CONTINUOUS
 70
0
 71
3
 72
11
 73
7
 74
0
 42
0.0000001
 43
0.0000001
 44
0.0000000001
 40
0.0
 40
0.0
 40
0.0
 40
0.0
 40
0.250004133
 40
0.5000063387
 40
0.7500033535
 40
1.0
 40
1.0
 40
1.0
 40
1.0
 10
104.8560087444
 20
181.9473629884
 30
0.0
 10
105.0906288337
 20
182.0150919743
 30
0.0
 10
105.5632831207
 20
182.1391776265
 30
0.0
 10
106.2823098208
 20
182.2822576654
 30
0.0
 10
107.0099418032
 20
182.3731139243
 30
0.0
 10
107.498567072
 20
182.3939449758
 30
0.0
 10
107.7427600907
 20
182.3939449758
 30
0.0
  0
SPLINE
  5
466
100
AcDbEntity
  8
0
100
AcDbSpline
 62
7
  6
CONTINUOUS
 70
0
 71
3
 72
11
 73
7
 74
0
 42
0.0000001
 43
0.0000001
 44
0.0000000001
 40
0.0
 40
0.0
 40
0.0
 40
0.0
 40
0.2499913856
 40
0.4999850118
 40
0.7499883992
 40
1.0
 40
1.0
 40
1.0
 40
1.0
 10
107.7427600907
 20
182.3939449758
 30
0.0
 10
107.9869479309
 20
182.3939449758
 30
0.0
 10
108.4755645445
 20
182.3731112798
 30
0.0
 10
109.203189212
 20
182.2822577332
 30
0.0
 10
109.9222216125
 20
182.1391805105
 30
0.0
 10
110.3948843768
 20
182.0150939864
 30
0.0
 10
110.6295114363
 20
181.9473629884
 30
0.0
  0
SPLINE
  5
467
100
AcDbEntity
  8
0
100
AcDbSpline
 62
7
  6
CONTINUOUS
 70
0
 71
3
 72
11
 73
7
 74
0
 42
0.0000001
 43
0.0000001
 44
0.0000000001
 40
0.0
 40
0.0
 40
0.0
 40
0.0
 40
0.2500114279
 40
0.5000145929
 40
0.7500082953
 40
1.0
 40
1.0
 40
1.0
 40
1.0
 10
110.6295114363
 20
178.6020635268
 30
0.0
 10
110.3948845386
 20
178.669794478
 30
0.0
 10
109.9222221535
 20
178.7938809293
 30
0.0
 10
109.2031900683
 20
178.9369581303
 30
0.0
 10
108.4755652484
 20
179.0278118517
 30
0.0
 10
107.9869482428
 20
179.0486455142
 30
0.0
 10
107.7427600904
 20
179.0486455142
 30
0.0
  0
SPLINE
  5
468
100
AcDbEntity
  8
0
100
AcDbSpline
 62
7
  6
CONTINUOUS
 70
0
 71
3
 72
11
 73
7
 74
0
 42
0.0000001
 43
0.0000001
 44
0.0000000001
 40
0.0
 40
0.0
 40
0.0
 40
0.0
 40
0.2499921102
 40
0.4999859297
 40
0.7499889485
 40
1.0
 40
1.0
 40
1.0
 40
1.0
 10
107.7427600904
 20
179.0486455142
 30
0.0
 10
107.4985715413
 20
179.0486455142
 30
0.0
 10
107.0099540166
 20
179.0278119081
 30
0.0
 10
106.2823288567
 20
178.9369579038
 30
0.0
 10
105.5632971701
 20
178.7938807428
 30
0.0
 10
105.0906352893
 20
178.6697943762
 30
0.0
 10
104.8560087444
 20
178.6020635268
 30
0.0
  0
SPLINE
  5
469
100
AcDbEntity
  8
0
100
AcDbSpline
 62
7
  6
CONTINUOUS
 70
0
 71
3
 72
11
 73
7
 74
0
 42
0.0000001
 43
0.0000001
 44
0.0000000001
 40
0.0
 40
0.0
 40
0.0
 40
0.0
 40
0.2616352191
 40
0.5144887546
 40
0.7595898472
 40
1.0
 40
1.0
 40
1.0
 40
1.0
 10
110.6295114363
 20
181.9473629884
 30
0.0
 10
110.7448894904
 20
182.013976539
 30
0.0
 10
110.9770093568
 20
182.1363120848
 30
0.0
 10
111.3369277368
 20
182.2804090128
 30
0.0
 10
111.7027822712
 20
182.3726048822
 30
0.0
 10
111.9504680105
 20
182.3939449758
 30
0.0
 10
112.0728871094
 20
182.3939449758
 30
0.0
  0
SPLINE
  5
46A
100
AcDbEntity
  8
0
100
AcDbSpline
 62
7
  6
CONTINUOUS
 70
0
 71
3
 72
11
 73
7
 74
0
 42
0.0000001
 43
0.0000001
 44
0.0000000001
 40
0.0
 40
0.0
 40
0.0
 40
0.0
 40
0.2404052701
 40
0.4855029998
 40
0.7383572369
 40
1.0
 40
1.0
 40
1.0
 40
1.0
 10
112.0728871094
 20
182.3939449758
 30
0.0
 10
112.1953036524
 20
182.3939449758
 30
0.0
 10
112.4429847913
 20
182.3726022367
 30
0.0
 10
112.8088355177
 20
182.2804092736
 30
0.0
 10
113.1687574327
 20
182.136314912
 30
0.0
 10
113.4008814669
 20
182.0139784219
 30
0.0
 10
113.5162627823
 20
181.9473629884
 30
0.0
  0
SPLINE
  5
46B
100
AcDbEntity
  8
0
100
AcDbSpline
 62
7
  6
CONTINUOUS
 70
0
 71
3
 72
15
 73
11
 74
0
 42
0.0000001
 43
0.0000001
 44
0.0000000001
 40
0.0
 40
0.0
 40
0.0
 40
0.0
 40
0.1308200694
 40
0.2572467302
 40
0.3797970158
 40
0.500000022
 40
0.6202030249
 40
0.7427533028
 40
0.8691799416
 40
1.0
 40
1.0
 40
1.0
 40
1.0
 10
113.5162627823
 20
178.6020635268
 30
0.0
 10
113.4008827262
 20
178.6686782332
 30
0.0
 10
113.1687552222
 20
178.7910135726
 30
0.0
 10
112.8088574596
 20
178.9351098258
 30
0.0
 10
112.4429246597
 20
179.0272991562
 30
0.0
 10
112.0728870465
 20
179.0592020728
 30
0.0
 10
111.7028494458
 20
179.0272991168
 30
0.0
 10
111.3369166822
 20
178.9351097856
 30
0.0
 10
110.9770189558
 20
178.7910135539
 30
0.0
 10
110.7448914826
 20
178.6686782276
 30
0.0
 10
110.6295114363
 20
178.6020635268
 30
0.0
  0
LINE
  5
46C
100
AcDbEntity
  8
0
100
AcDbLine
 62
7
  6
CONTINUOUS
 10
97.5509447432
 20
165.3032209689
 11
97.5556983769
 21
165.305415601
  0
SPLINE
  5
46D
100
AcDbEntity
  8
0
100
AcDbSpline
 62
7
  6
CONTINUOUS
 70
0
 71
3
 72
26
 73
22
 74
0
 42
0.0000001
 43
0.0000001
 44
0.0000000001
 40
0.0
 40
0.0
 40
0.0
 40
0.0
 40
0.0015283205
 40
0.0036167628
 40
0.0094982421
 40
0.0176622807
 40
0.0280998255
 40
0.0407860479
 40
0.055692418
 40
0.0727830517
 40
0.0920128364
 40
0.1366957433
 40
0.1892856468
 40
0.2492465963
 40
0.3159665405
 40
0.3887613185
 40
0.4668856499
 40
0.5495404583
 40
0.635878618
 40
0.8160377947
 40
1.0
 40
1.0
 40
1.0
 40
1.0
 10
97.5556983769
 20
165.305415601
 30
0.0
 10
97.5609765012
 20
165.3076026997
 30
0.0
 10
97.5739365357
 20
165.311600536
 30
0.0
 10
97.6085596158
 20
165.3194861382
 30
0.0
 10
97.6682461693
 20
165.3285975478
 30
0.0
 10
97.7591659085
 20
165.3390391416
 30
0.0
 10
97.8756716828
 20
165.3495422132
 30
0.0
 10
98.0174436956
 20
165.3601539854
 30
0.0
 10
98.1841467638
 20
165.3708000795
 30
0.0
 10
98.3753509169
 20
165.3814795401
 30
0.0
 10
98.6777939307
 20
165.3965078837
 30
0.0
 10
99.1129322544
 20
165.4148929239
 30
0.0
 10
99.700337304
 20
165.4361246058
 30
0.0
 10
100.370168226
 20
165.4574196521
 30
0.0
 10
101.1155630125
 20
165.478765242
 30
0.0
 10
101.9288823414
 20
165.500142644
 30
0.0
 10
102.8017893099
 20
165.5215429372
 30
0.0
 10
103.7253393476
 20
165.5429594064
 30
0.0
 10
105.0302525132
 20
165.5719399942
 30
0.0
 10
106.7138274336
 20
165.6075892262
 30
0.0
 10
108.0747284883
 20
165.6358382923
 30
0.0
 10
108.7622829325
 20
165.6502541726
 30
0.0
  0
SPLINE
  5
46E
100
AcDbEntity
  8
0
100
AcDbSpline
 62
7
  6
CONTINUOUS
 70
0
 71
3
 72
30
 73
26
 74
0
 42
0.0000001
 43
0.0000001
 44
0.0000000001
 40
0.0
 40
0.0
 40
0.0
 40
0.0
 40
0.0005850009
 40
0.0010432629
 40
0.0016366046
 40
0.0032534965
 40
0.005462966
 40
0.0116865027
 40
0.0203207856
 40
0.0313532222
 40
0.0447609718
 40
0.0605079725
 40
0.0785553753
 40
0.0988564327
 40
0.1213554435
 40
0.17270909
 40
0.232069183
 40
0.2988036595
 40
0.3722019002
 40
0.4514797327
 40
0.5357902945
 40
0.6242339835
 40
0.7158664991
 40
0.8097085365
 40
1.0
 40
1.0
 40
1.0
 40
1.0
 10
97.5427692789
 20
165.4946978768
 30
0.0
 10
97.5427716123
 20
165.4968560112
 30
0.0
 10
97.5457416176
 20
165.5002516605
 30
0.0
 10
97.5508004921
 20
165.5032600959
 30
0.0
 10
97.5598580063
 20
165.5073433653
 30
0.0
 10
97.5754824961
 20
165.5119953001
 30
0.0
 10
97.6116971108
 20
165.5200887076
 30
0.0
 10
97.6740188536
 20
165.5293573178
 30
0.0
 10
97.7689338566
 20
165.5400340402
 30
0.0
 10
97.8904891165
 20
165.5507555947
 30
0.0
 10
98.0383496851
 20
165.5615900035
 30
0.0
 10
98.212147236
 20
165.5724608769
 30
0.0
 10
98.41141478
 20
165.5833649967
 30
0.0
 10
98.635623282
 20
165.5942885023
 30
0.0
 10
98.9826324498
 20
165.6095556818
 30
0.0
 10
99.4737157971
 20
165.628299205
 30
0.0
 10
100.1279839181
 20
165.6500156057
 30
0.0
 10
100.8636150862
 20
165.6717849774
 30
0.0
 10
101.6727526043
 20
165.6935960437
 30
0.0
 10
102.5467512423
 20
165.7154339313
 30
0.0
 10
103.4762699154
 20
165.737291333
 30
0.0
 10
104.4513780462
 20
165.7591619741
 30
0.0
 10
105.4616571564
 20
165.7810416839
 30
0.0
 10
106.8475912841
 20
165.8103576421
 30
0.0
 10
107.8955668551
 20
165.8321064958
 30
0.0
 10
108.5974201879
 20
165.8468001488
 30
0.0
  0
LINE
  5
46F
100
AcDbEntity
  8
0
100
AcDbLine
 62
7
  6
CONTINUOUS
 10
109.1075138889
 20
165.2389629219
 11
106.7851003479
 21
165.1939449714
  0
SPLINE
  5
470
100
AcDbEntity
  8
0
100
AcDbSpline
 62
7
  6
CONTINUOUS
 70
0
 71
3
 72
9
 73
5
 74
0
 42
0.0000001
 43
0.0000001
 44
0.0000000001
 40
0.0
 40
0.0
 40
0.0
 40
0.0
 40
0.3590117574
 40
1.0
 40
1.0
 40
1.0
 40
1.0
 10
97.0500192499
 20
165.7512041353
 30
0.0
 10
97.0516877004
 20
165.7528725858
 30
0.0
 10
97.0581236986
 20
165.755278521
 30
0.0
 10
97.0643683526
 20
165.7569010943
 30
0.0
 10
97.0684849036
 20
165.7577964153
 30
0.0
  0
SPLINE
  5
471
100
AcDbEntity
  8
0
100
AcDbSpline
 62
7
  6
CONTINUOUS
 70
0
 71
3
 72
23
 73
19
 74
0
 42
0.0000001
 43
0.0000001
 44
0.0000000001
 40
0.0
 40
0.0
 40
0.0
 40
0.0
 40
0.0039588722
 40
0.0101637894
 40
0.0186122978
 40
0.0292859591
 40
0.042162557
 40
0.0572147954
 40
0.0936937049
 40
0.1383800795
 40
0.1908462695
 40
0.2505845998
 40
0.3170152036
 40
0.3894879359
 40
0.4672880827
 40
0.6357525284
 40
0.8157241733
 40
1.0
 40
1.0
 40
1.0
 40
1.0
 10
97.0684849036
 20
165.7577964153
 30
0.0
 10
97.0832102982
 20
165.7609990854
 30
0.0
 10
97.1216475392
 20
165.7660233425
 30
0.0
 10
97.1921568424
 20
165.7726584243
 30
0.0
 10
97.2883591034
 20
165.7792913601
 30
0.0
 10
97.4099703682
 20
165.7860789491
 30
0.0
 10
97.5567586682
 20
165.7928906935
 30
0.0
 10
97.8017354266
 20
165.8026612999
 30
0.0
 10
98.1678055481
 20
165.8145089567
 30
0.0
 10
98.6762991663
 20
165.8281260817
 30
0.0
 10
99.2733566789
 20
165.8418196567
 30
0.0
 10
99.9532016378
 20
165.8555815348
 30
0.0
 10
100.7092156348
 20
165.8693889403
 30
0.0
 10
101.5339925327
 20
165.8832356045
 30
0.0
 10
102.7471337182
 20
165.9022471858
 30
0.0
 10
104.3694559857
 20
165.9256168247
 30
0.0
 10
106.3970647019
 20
165.9531190166
 30
0.0
 10
107.7834689363
 20
165.9715446692
 30
0.0
 10
108.4848611407
 20
165.9809583847
 30
0.0
  0
SPLINE
  5
472
100
AcDbEntity
  8
0
100
AcDbSpline
 62
7
  6
CONTINUOUS
 70
0
 71
3
 72
10
 73
6
 74
0
 42
0.0000001
 43
0.0000001
 44
0.0000000001
 40
0.0
 40
0.0
 40
0.0
 40
0.0
 40
0.5011988852
 40
0.7507952752
 40
1.0
 40
1.0
 40
1.0
 40
1.0
 10
99.4678428727
 20
169.3665947066
 30
0.0
 10
100.0823032287
 20
169.5451527464
 30
0.0
 10
101.0190396336
 20
169.7641322631
 30
0.0
 10
102.287459526
 20
169.9177651226
 30
0.0
 10
102.9246014678
 20
169.9439449806
 30
0.0
 10
103.2427600905
 20
169.9439449758
 30
0.0
  0
SPLINE
  5
473
100
AcDbEntity
  8
0
100
AcDbSpline
 62
7
  6
CONTINUOUS
 70
0
 71
3
 72
9
 73
5
 74
0
 42
0.0000001
 43
0.0000001
 44
0.0000000001
 40
0.0
 40
0.0
 40
0.0
 40
0.0
 40
0.4995383551
 40
1.0
 40
1.0
 40
1.0
 40
1.0
 10
103.2427600905
 20
169.9439449758
 30
0.0
 10
103.5886957416
 20
169.9439449706
 30
0.0
 10
104.2815443233
 20
169.9129683138
 30
0.0
 10
104.9689928554
 20
169.8225796202
 30
0.0
 10
105.3106124246
 20
169.7641816095
 30
0.0
  0
SPLINE
  5
474
100
AcDbEntity
  8
0
100
AcDbSpline
 62
7
  6
CONTINUOUS
 70
0
 71
3
 72
32
 73
28
 74
0
 42
0.0000001
 43
0.0000001
 44
0.0000000001
 40
0.0
 40
0.0
 40
0.0
 40
0.0
 40
0.0003473776
 40
0.0008802645
 40
0.0025181352
 40
0.0049263481
 40
0.008104384
 40
0.0120485876
 40
0.0167546343
 40
0.0222176993
 40
0.0284304224
 40
0.0430689178
 40
0.0605953686
 40
0.0809149931
 40
0.103921676
 40
0.1294917327
 40
0.1574903792
 40
0.1877678214
 40
0.2201636122
 40
0.2906094699
 40
0.3673305761
 40
0.4486960072
 40
0.5329760115
 40
0.6183788745
 40
0.703088864
 40
0.8632797685
 40
1.0
 40
1.0
 40
1.0
 40
1.0
 10
148.6860623321
 20
37.7497786051
 30
0.0
 10
148.6834726288
 20
37.7542641924
 30
0.0
 10
148.679139416
 20
37.7667992923
 30
0.0
 10
148.6704664963
 20
37.8032741258
 30
0.0
 10
148.6608551171
 20
37.8710282052
 30
0.0
 10
148.649636266
 20
37.9781018794
 30
0.0
 10
148.6383998811
 20
38.1197954396
 30
0.0
 10
148.6269794852
 20
38.2957808943
 30
0.0
 10
148.6155248418
 20
38.5059083879
 30
0.0
 10
148.6040228079
 20
38.7498948563
 30
0.0
 10
148.5877548007
 20
39.1419119047
 30
0.0
 10
148.5678798665
 20
39.7137922515
 30
0.0
 10
148.5449995318
 20
40.4960175854
 30
0.0
 10
148.5220393356
 20
41.4030582509
 30
0.0
 10
148.4990209492
 20
42.4300628294
 30
0.0
 10
148.4759623378
 20
43.5715882662
 30
0.0
 10
148.4528774331
 20
44.8215419454
 30
0.0
 10
148.4297701116
 20
46.1732845026
 30
0.0
 10
148.3980492045
 20
48.1578692388
 30
0.0
 10
148.3589173868
 20
50.8349085757
 30
0.0
 10
148.3130620156
 20
54.2420738189
 30
0.0
 10
148.2671467437
 20
57.8555262196
 30
0.0
 10
148.221193884
 20
61.598435179
 30
0.0
 10
148.1752301681
 20
65.3912157878
 30
0.0
 10
148.1150654541
 20
70.3157576383
 30
0.0
 10
148.0425753407
 20
76.0053582702
 30
0.0
 10
147.9777801399
 20
80.4319116755
 30
0.0
 10
147.9427600904
 20
82.4701426429
 30
0.0
  0
LINE
  5
475
100
AcDbEntity
  8
GEOM
100
AcDbLine
 62
7
  6
CONTINUOUS
 10
131.5895844508
 20
92.9031889066
 11
131.765248973
 21
92.9003671044
  0
SPLINE
  5
476
100
AcDbEntity
  8
GEOM
100
AcDbSpline
 62
7
  6
CONTINUOUS
 70
0
 71
3
 72
16
 73
12
 74
0
 42
0.0000001
 43
0.0000001
 44
0.0000000001
 40
0.0
 40
0.0
 40
0.0
 40
0.0
 40
0.2242317902
 40
0.4233133594
 40
0.5950053988
 40
0.7377428706
 40
0.8502196704
 40
0.9314101378
 40
0.9807302026
 40
0.9936793641
 40
1.0
 40
1.0
 40
1.0
 40
1.0
 10
131.5895844508
 20
92.1719849265
 30
0.0
 10
131.5871825
 20
92.2267979535
 30
0.0
 10
131.5829487267
 20
92.3302919539
 30
0.0
 10
131.578068277
 20
92.4757904815
 30
0.0
 10
131.575081188
 20
92.6014306279
 30
0.0
 10
131.573896157
 20
92.7058108484
 30
0.0
 10
131.5747094124
 20
92.7883217856
 30
0.0
 10
131.5768140605
 20
92.8472999936
 30
0.0
 10
131.5809103293
 20
92.883030151
 30
0.0
 10
131.5845575791
 20
92.8986183546
 30
0.0
 10
131.5880380275
 20
92.903208702
 30
0.0
 10
131.5895844508
 20
92.9031889066
 30
0.0
  0
SPLINE
  5
477
100
AcDbEntity
  8
GEOM
100
AcDbSpline
 62
7
  6
CONTINUOUS
 70
0
 71
3
 72
9
 73
5
 74
0
 42
0.0000001
 43
0.0000001
 44
0.0000000001
 40
0.0
 40
0.0
 40
0.0
 40
0.0
 40
0.4998713116
 40
1.0
 40
1.0
 40
1.0
 40
1.0
 10
131.5895844508
 20
76.6704605481
 30
0.0
 10
131.7028263082
 20
79.2515633086
 30
0.0
 10
131.8276920251
 20
84.420558512
 30
0.0
 10
131.7027791563
 20
89.5895485672
 30
0.0
 10
131.5895844508
 20
92.1719849265
 30
0.0
  0
SPLINE
  5
478
100
AcDbEntity
  8
GEOM
100
AcDbSpline
 62
7
  6
CONTINUOUS
 70
0
 71
3
 72
11
 73
7
 74
0
 42
0.0000001
 43
0.0000001
 44
0.0000000001
 40
0.0
 40
0.0
 40
0.0
 40
0.0
 40
0.286618734
 40
0.5532602784
 40
0.7894581993
 40
1.0
 40
1.0
 40
1.0
 40
1.0
 10
132.0876817998
 20
36.0297314134
 30
0.0
 10
132.0267248459
 20
36.0310663349
 30
0.0
 10
131.9080526177
 20
36.0185500816
 30
0.0
 10
131.7500027962
 20
35.9549329447
 30
0.0
 10
131.6329076649
 20
35.852565383
 30
0.0
 10
131.5947407887
 20
35.7603951606
 30
0.0
 10
131.5895844508
 20
35.7159050251
 30
0.0
  0
SPLINE
  5
479
100
AcDbEntity
  8
GEOM
100
AcDbSpline
 62
7
  6
CONTINUOUS
 70
0
 71
3
 72
11
 73
7
 74
0
 42
0.0000001
 43
0.0000001
 44
0.0000000001
 40
0.0
 40
0.0
 40
0.0
 40
0.0
 40
0.2841869416
 40
0.5513459295
 40
0.789350015
 40
1.0
 40
1.0
 40
1.0
 40
1.0
 10
132.0876820704
 20
51.5530720144
 30
0.0
 10
132.0263747594
 20
51.5517294289
 30
0.0
 10
131.9071296668
 20
51.533752249
 30
0.0
 10
131.7495773118
 20
51.4631442451
 30
0.0
 10
131.6332938205
 20
51.3563292301
 30
0.0
 10
131.5947914075
 20
51.2625843454
 30
0.0
 10
131.5895844508
 20
51.217429403
 30
0.0
  0
SPLINE
  5
47A
100
AcDbEntity
  8
GEOM
100
AcDbSpline
 62
7
  6
CONTINUOUS
 70
0
 71
3
 72
11
 73
7
 74
0
 42
0.0000001
 43
0.0000001
 44
0.0000000001
 40
0.0
 40
0.0
 40
0.0
 40
0.0
 40
0.2841870217
 40
0.5513460506
 40
0.7893500771
 40
1.0
 40
1.0
 40
1.0
 40
1.0
 10
132.0876817998
 20
76.3348179411
 30
0.0
 10
132.0263744958
 20
76.3361605436
 30
0.0
 10
131.9071294283
 20
76.354137758
 30
0.0
 10
131.7495771459
 20
76.4247457955
 30
0.0
 10
131.6332937561
 20
76.5315608061
 30
0.0
 10
131.5947914028
 20
76.6253056364
 30
0.0
 10
131.5895844508
 20
76.6704605481
 30
0.0
  0
SPLINE
  5
47B
100
AcDbEntity
  8
GEOM
100
AcDbSpline
 62
7
  6
CONTINUOUS
 70
0
 71
3
 72
11
 73
7
 74
0
 42
0.0000001
 43
0.0000001
 44
0.0000000001
 40
0.0
 40
0.0
 40
0.0
 40
0.0
 40
0.2866186912
 40
0.5532602104
 40
0.7894581518
 40
1.0
 40
1.0
 40
1.0
 40
1.0
 10
132.0876820413
 20
91.8581585437
 30
0.0
 10
132.0267250723
 20
91.8568235901
 30
0.0
 10
131.908052803
 20
91.8693397932
 30
0.0
 10
131.7500029036
 20
91.9329569001
 30
0.0
 10
131.6329076948
 20
92.035324488
 30
0.0
 10
131.5947407912
 20
92.1274947628
 30
0.0
 10
131.5895844508
 20
92.1719849265
 30
0.0
  0
SPLINE
  5
47C
100
AcDbEntity
  8
0
100
AcDbSpline
 62
7
  6
CONTINUOUS
 70
0
 71
3
 72
25
 73
21
 74
0
 42
0.0000001
 43
0.0000001
 44
0.0000000001
 40
0.0
 40
0.0
 40
0.0
 40
0.0
 40
0.0014122216
 40
0.0046428041
 40
0.0098660297
 40
0.0171110484
 40
0.0263858004
 40
0.0376918499
 40
0.0510246114
 40
0.0663759234
 40
0.103098484
 40
0.1477835138
 40
0.2003240331
 40
0.2605934388
 40
0.3284552832
 40
0.4037368282
 40
0.4862559008
 40
0.5758200338
 40
0.7752420785
 40
1.0
 40
1.0
 40
1.0
 40
1.0
 10
148.4433156786
 20
91.4439449758
 30
0.0
 10
148.4471117453
 20
91.4439449758
 30
0.0
 10
148.4543984988
 20
91.4298384466
 30
0.0
 10
148.460213371
 20
91.4065570486
 30
0.0
 10
148.4681414043
 20
91.3636962926
 30
0.0
 10
148.4754228767
 20
91.3062862503
 30
0.0
 10
148.4831613658
 20
91.2316594655
 30
0.0
 10
148.4908164363
 20
91.1408990402
 30
0.0
 10
148.4985530377
 20
91.0336544947
 30
0.0
 10
148.5095415374
 20
90.858194271
 30
0.0
 10
148.5229344153
 20
90.5984365518
 30
0.0
 10
148.5383118135
 20
90.2387116769
 30
0.0
 10
148.5537489213
 20
89.8156418723
 30
0.0
 10
148.5692344694
 20
89.3302403308
 30
0.0
 10
148.5847455022
 20
88.7836836122
 30
0.0
 10
148.6002789084
 20
88.1772988604
 30
0.0
 10
148.6158278429
 20
87.5125611351
 30
0.0
 10
148.6373529899
 20
86.5141826303
 30
0.0
 10
148.6639107535
 20
85.1334866711
 30
0.0
 10
148.6834271573
 20
83.9934528241
 30
0.0
 10
148.6933154305
 20
83.3893820566
 30
0.0
  0
SPLINE
  5
47D
100
AcDbEntity
  8
0
100
AcDbSpline
 62
7
  6
CONTINUOUS
 70
0
 71
3
 72
54
 73
50
 74
0
 42
0.0000001
 43
0.0000001
 44
0.0000000001
 40
0.0
 40
0.0
 40
0.0
 40
0.0
 40
0.0002050792
 40
0.0006729456
 40
0.0014290662
 40
0.0024776841
 40
0.0038199316
 40
0.0054560521
 40
0.0073856866
 40
0.0096076445
 40
0.014922909
 40
0.0213902756
 40
0.028995874
 40
0.0377204993
 40
0.0475439748
 40
0.0584439264
 40
0.0703932232
 40
0.0833640556
 40
0.1122455292
 40
0.1448137511
 40
0.1807585584
 40
0.2197390001
 40
0.261384729
 40
0.3052992677
 40
0.3510654159
 40
0.3982480799
 40
0.4950610121
 40
0.592065193
 40
0.6855780997
 40
0.7299083779
 40
0.7720543461
 40
0.8116140755
 40
0.848212031
 40
0.881500863
 40
0.9111635615
 40
0.9369189291
 40
0.948253813
 40
0.9585230807
 40
0.9677019961
 40
0.97577013
 40
0.9827075708
 40
0.9884979941
 40
0.9931294138
 40
0.9950070018
 40
0.9965909521
 40
0.9978810436
 40
0.9988776189
 40
0.9995820987
 40
1.0
 40
1.0
 40
1.0
 40
1.0
 10
146.4433158035
 20
91.4439449758
 30
0.0
 10
146.4470765385
 20
91.4439449758
 30
0.0
 10
146.4543353945
 20
91.4300482617
 30
0.0
 10
146.4601090064
 20
91.4070201085
 30
0.0
 10
146.4679893823
 20
91.3647163782
 30
0.0
 10
146.4752204509
 20
91.3080272973
 30
0.0
 10
146.4829075309
 20
91.234355415
 30
0.0
 10
146.4905125851
 20
91.1447500945
 30
0.0
 10
146.4981989532
 20
91.0388651936
 30
0.0
 10
146.5091171768
 20
90.8656155
 30
0.0
 10
146.5224254899
 20
90.6091313339
 30
0.0
 10
146.537708187
 20
90.2539198271
 30
0.0
 10
146.553044934
 20
89.8361367131
 30
0.0
 10
146.5684307707
 20
89.3567772126
 30
0.0
 10
146.5838446024
 20
88.8169790054
 30
0.0
 10
146.5992772777
 20
88.218026099
 30
0.0
 10
146.6147277908
 20
87.5613401418
 30
0.0
 10
146.6361165615
 20
86.5749599026
 30
0.0
 10
146.6625071902
 20
85.2104926255
 30
0.0
 10
146.6932360783
 20
83.4247395943
 30
0.0
 10
146.7240177479
 20
81.4537682514
 30
0.0
 10
146.7548396064
 20
79.3163160915
 30
0.0
 10
146.7856888757
 20
77.0327015882
 30
0.0
 10
146.8165585804
 20
74.6246406639
 30
0.0
 10
146.8474423745
 20
72.1150358709
 30
0.0
 10
146.8889882926
 20
68.6354404385
 30
0.0
 10
146.9401807702
 20
64.2162924486
 30
0.0
 10
147.0011123439
 20
58.9475982366
 30
0.0
 10
147.0526843747
 20
54.6412848795
 30
0.0
 10
147.0945962861
 20
51.3409168143
 30
0.0
 10
147.1254512346
 20
49.0298798061
 30
0.0
 10
147.1562795412
 20
46.8606507673
 30
0.0
 10
147.1870720883
 20
44.8538605514
 30
0.0
 10
147.2178084183
 20
43.0285837904
 30
0.0
 10
147.2484754503
 20
41.4021680739
 30
0.0
 10
147.2749269127
 20
40.1783381591
 30
0.0
 10
147.2964424688
 20
39.3101269697
 30
0.0
 10
147.311865779
 20
38.7458383237
 30
0.0
 10
147.3272638559
 20
38.2414789651
 30
0.0
 10
147.3426258255
 20
37.798249669
 30
0.0
 10
147.3579249675
 20
37.4171966951
 30
0.0
 10
147.3731584711
 20
37.0992264929
 30
0.0
 10
147.3864561894
 20
36.8740577998
 30
0.0
 10
147.3974709208
 20
36.7260619901
 30
0.0
 10
147.4050933374
 20
36.6392433027
 30
0.0
 10
147.412702242
 20
36.5687046695
 30
0.0
 10
147.4200756928
 20
36.514245154
 30
0.0
 10
147.4275101246
 20
36.4762750198
 30
0.0
 10
147.4331028024
 20
36.4561231137
 30
0.0
 10
147.4369304707
 20
36.4494840223
 30
0.0
  0
SPLINE
  5
47E
100
AcDbEntity
  8
GEOM
100
AcDbSpline
 62
7
  6
CONTINUOUS
 70
0
 71
3
 72
9
 73
5
 74
0
 42
0.0000001
 43
0.0000001
 44
0.0000000001
 40
0.0
 40
0.0
 40
0.0
 40
0.0
 40
0.5410839361
 40
1.0
 40
1.0
 40
1.0
 40
1.0
 10
131.5895844508
 20
74.9051779825
 30
0.0
 10
131.5797180829
 20
75.2234622972
 30
0.0
 10
131.5698202887
 20
75.811954319
 30
0.0
 10
131.5777511889
 20
76.4006399093
 30
0.0
 10
131.5895844508
 20
76.6704605481
 30
0.0
  0
SPLINE
  5
47F
100
AcDbEntity
  8
GEOM
100
AcDbSpline
 62
7
  6
CONTINUOUS
 70
0
 71
3
 72
9
 73
5
 74
0
 42
0.0000001
 43
0.0000001
 44
0.0000000001
 40
0.0
 40
0.0
 40
0.0
 40
0.0
 40
0.4589185143
 40
1.0
 40
1.0
 40
1.0
 40
1.0
 10
131.5895844508
 20
51.2174294035
 30
0.0
 10
131.5777515093
 20
51.4872514999
 30
0.0
 10
131.5698199123
 20
52.075937071
 30
0.0
 10
131.5797184701
 20
52.6644290852
 30
0.0
 10
131.5895844508
 20
52.9827119691
 30
0.0
  0
SPLINE
  5
480
100
AcDbEntity
  8
GEOM
100
AcDbSpline
 62
7
  6
CONTINUOUS
 70
0
 71
3
 72
15
 73
11
 74
0
 42
0.0000001
 43
0.0000001
 44
0.0000000001
 40
0.0
 40
0.0
 40
0.0
 40
0.0
 40
0.2165337558
 40
0.4084417956
 40
0.5733571168
 40
0.7098914025
 40
0.8174891847
 40
0.8971364937
 40
0.9534591535
 40
1.0
 40
1.0
 40
1.0
 40
1.0
 10
136.8043458466
 20
91.8581194916
 30
0.0
 10
136.7946229201
 20
91.9016501102
 30
0.0
 10
136.7774130772
 20
91.9840233685
 30
0.0
 10
136.7574449402
 20
92.1004552794
 30
0.0
 10
136.7450797164
 20
92.2013924173
 30
0.0
 10
136.7403421366
 20
92.2855603282
 30
0.0
 10
136.7432552351
 20
92.3524724748
 30
0.0
 10
136.753520025
 20
92.4016512705
 30
0.0
 10
136.7728994685
 20
92.4359377133
 30
0.0
 10
136.7947524666
 20
92.4439431003
 30
0.0
 10
136.8043393
 20
92.4439449758
 30
0.0
  0
SPLINE
  5
481
100
AcDbEntity
  8
GEOM
100
AcDbSpline
 62
7
  6
CONTINUOUS
 70
0
 71
3
 72
15
 73
11
 74
0
 42
0.0000001
 43
0.0000001
 44
0.0000000001
 40
0.0
 40
0.0
 40
0.0
 40
0.0
 40
0.2239580076
 40
0.4227939555
 40
0.5942775517
 40
0.7368539288
 40
0.8492390149
 40
0.9304588192
 40
0.980067776
 40
1.0
 40
1.0
 40
1.0
 40
1.0
 10
132.0876838569
 20
91.8581158968
 30
0.0
 10
132.085281987
 20
91.9019998727
 30
0.0
 10
132.0810441028
 20
91.984850882
 30
0.0
 10
132.0761777036
 20
92.1014162987
 30
0.0
 10
132.0731462092
 20
92.2018967889
 30
0.0
 10
132.0720845815
 20
92.2859437402
 30
0.0
 10
132.0725741722
 20
92.3509717494
 30
0.0
 10
132.0754269231
 20
92.4008465031
 30
0.0
 10
132.0783741212
 20
92.426254814
 30
0.0
 10
132.0837705302
 20
92.4439413743
 30
0.0
 10
132.0876820404
 20
92.4439449758
 30
0.0
  0
SPLINE
  5
482
100
AcDbEntity
  8
GEOM
100
AcDbSpline
 62
7
  6
CONTINUOUS
 70
0
 71
3
 72
9
 73
5
 74
0
 42
0.0000001
 43
0.0000001
 44
0.0000000001
 40
0.0
 40
0.0
 40
0.0
 40
0.0
 40
0.5001288939
 40
1.0
 40
1.0
 40
1.0
 40
1.0
 10
131.5895844508
 20
35.7159050251
 30
0.0
 10
131.7027792719
 20
38.2983424524
 30
0.0
 10
131.8276946348
 20
43.4673325061
 30
0.0
 10
131.7028262323
 20
48.6363276929
 30
0.0
 10
131.5895844508
 20
51.2174294035
 30
0.0
  0
SPLINE
  5
483
100
AcDbEntity
  8
0
100
AcDbSpline
 62
7
  6
CONTINUOUS
 70
0
 71
3
 72
55
 73
51
 74
0
 42
0.0000001
 43
0.0000001
 44
0.0000000001
 40
0.0
 40
0.0
 40
0.0
 40
0.0
 40
0.0000932841
 40
0.0002549388
 40
0.0007934008
 40
0.001622539
 40
0.0027432118
 40
0.004155414
 40
0.0058588685
 40
0.0078530945
 40
0.0101368947
 40
0.015567102
 40
0.0221371369
 40
0.0298338532
 40
0.0386388606
 40
0.0485312348
 40
0.059489661
 40
0.0714884553
 40
0.0844989994
 40
0.1134360811
 40
0.1460315125
 40
0.1819831419
 40
0.2209547033
 40
0.2625809381
 40
0.3064723313
 40
0.3522149896
 40
0.399377587
 40
0.4961710971
 40
0.593190332
 40
0.6867477809
 40
0.7311045619
 40
0.773274047
 40
0.8128502612
 40
0.8494500743
 40
0.8827204587
 40
0.9123384373
 40
0.9380157458
 40
0.9492977752
 40
0.9595031693
 40
0.9686075023
 40
0.9765892506
 40
0.9834273403
 40
0.98910545
 40
0.9936105839
 40
0.9954193313
 40
0.9969304848
 40
0.9981436444
 40
0.9990587211
 40
0.9996762852
 40
1.0
 40
1.0
 40
1.0
 40
1.0
 10
152.3516061119
 20
91.2850989542
 30
0.0
 10
152.3527946242
 20
91.2839104419
 30
0.0
 10
152.3546050989
 20
91.2794923721
 30
0.0
 10
152.3582998114
 20
91.2658227835
 30
0.0
 10
152.362217008
 20
91.2383508989
 30
0.0
 10
152.3669251739
 20
91.1938579351
 30
0.0
 10
152.3715986491
 20
91.1334140974
 30
0.0
 10
152.3763852305
 20
91.0572481248
 30
0.0
 10
152.3811803489
 20
90.9652951412
 30
0.0
 10
152.3860015372
 20
90.8576288937
 30
0.0
 10
152.3928435248
 20
90.6828364462
 30
0.0
 10
152.4011922996
 20
90.4255974196
 30
0.0
 10
152.4107939471
 20
90.0708227392
 30
0.0
 10
152.4204305779
 20
89.655222418
 30
0.0
 10
152.4300993429
 20
89.1797464552
 30
0.0
 10
152.439789652
 20
88.6454901059
 30
0.0
 10
152.4494943756
 20
88.0536793007
 30
0.0
 10
152.4592118733
 20
87.4056780812
 30
0.0
 10
152.4726649537
 20
86.4337543337
 30
0.0
 10
152.4892761157
 20
85.0907256368
 30
0.0
 10
152.5086379814
 20
83.3343445268
 30
0.0
 10
152.5280444938
 20
81.3971508439
 30
0.0
 10
152.5474900695
 20
79.2972314027
 30
0.0
 10
152.5669668937
 20
77.0542463909
 30
0.0
 10
152.5864694882
 20
74.6892543815
 30
0.0
 10
152.6059952046
 20
72.2245041071
 30
0.0
 10
152.6322825341
 20
68.806577362
 30
0.0
 10
152.664708704
 20
64.4647596684
 30
0.0
 10
152.7033539719
 20
59.2870140529
 30
0.0
 10
152.7361063845
 20
55.054065515
 30
0.0
 10
152.76275538
 20
51.8093928466
 30
0.0
 10
152.7823893904
 20
49.5373395358
 30
0.0
 10
152.8020194792
 20
47.4050581851
 30
0.0
 10
152.8216413384
 20
45.4331296842
 30
0.0
 10
152.8412404715
 20
43.6406398659
 30
0.0
 10
152.8608071044
 20
42.04496649
 30
0.0
 10
152.8777023213
 20
40.8454817574
 30
0.0
 10
152.891457082
 20
39.9957697856
 30
0.0
 10
152.9013159169
 20
39.4446496987
 30
0.0
 10
152.9111602563
 20
38.9530047025
 30
0.0
 10
152.9209838054
 20
38.5220462708
 30
0.0
 10
152.9307658882
 20
38.1528373276
 30
0.0
 10
152.9405101074
 20
37.8463008296
 30
0.0
 10
152.949015082
 20
37.6303815227
 30
0.0
 10
152.956101863
 20
37.4895775023
 30
0.0
 10
152.9609521128
 20
37.4080160877
 30
0.0
 10
152.9658808438
 20
37.3426929567
 30
0.0
 10
152.9704001041
 20
37.2932524821
 30
0.0
 10
152.9754046252
 20
37.2604890649
 30
0.0
 10
152.978508177
 20
37.2433613815
 30
0.0
 10
152.9814165256
 20
37.2383054417
 30
0.0
  0
SPLINE
  5
484
100
AcDbEntity
  8
GEOM
100
AcDbSpline
 62
7
  6
CONTINUOUS
 70
0
 71
3
 72
13
 73
9
 74
0
 42
0.0000001
 43
0.0000001
 44
0.0000000001
 40
0.0
 40
0.0
 40
0.0
 40
0.0
 40
0.2513009732
 40
0.3758385825
 40
0.4999889752
 40
0.6241412895
 40
0.7486840476
 40
1.0
 40
1.0
 40
1.0
 40
1.0
 10
136.8043376359
 20
76.3348179411
 30
0.0
 10
137.18125503
 20
77.599620743
 30
0.0
 10
137.6355420697
 20
79.5284856109
 30
0.0
 10
137.949157745
 20
82.1376583913
 30
0.0
 10
138.0286131404
 20
84.0963035636
 30
0.0
 10
137.9491841324
 20
86.0549769991
 30
0.0
 10
137.6355852099
 20
88.6642686126
 30
0.0
 10
137.1812866086
 20
90.5932408949
 30
0.0
 10
136.8043481055
 20
91.8581194922
 30
0.0
  0
SPLINE
  5
485
100
AcDbEntity
  8
0
100
AcDbSpline
 62
7
  6
CONTINUOUS
 70
0
 71
3
 72
32
 73
28
 74
0
 42
0.0000001
 43
0.0000001
 44
0.0000000001
 40
0.0
 40
0.0
 40
0.0
 40
0.0
 40
0.1367838213
 40
0.2970524015
 40
0.3818019228
 40
0.467240791
 40
0.5515498892
 40
0.6329366382
 40
0.709670066
 40
0.7801165975
 40
0.8125076538
 40
0.8427782733
 40
0.8707653478
 40
0.8963217097
 40
0.9193095564
 40
0.9396086563
 40
0.9571092259
 40
0.9717205452
 40
0.9779172862
 40
0.9833633801
 40
0.9880527244
 40
0.9919794156
 40
0.9951379008
 40
0.997525208
 40
0.9991421893
 40
0.9996641827
 40
1.0
 40
1.0
 40
1.0
 40
1.0
 10
148.6933154305
 20
83.3893820566
 30
0.0
 10
148.7283520499
 20
81.2490087539
 30
0.0
 10
148.7931736342
 20
76.6005951758
 30
0.0
 10
148.8656929759
 20
70.6258550719
 30
0.0
 10
148.9258832982
 20
65.4545698307
 30
0.0
 10
148.971866046
 20
61.4719622162
 30
0.0
 10
149.0178375938
 20
57.5419851458
 30
0.0
 10
149.0637711376
 20
53.7482568229
 30
0.0
 10
149.1096449376
 20
50.1714929183
 30
0.0
 10
149.1487927909
 20
47.3614869976
 30
0.0
 10
149.1805294526
 20
45.2785915938
 30
0.0
 10
149.2036445619
 20
43.8601311272
 30
0.0
 10
149.2267407497
 20
42.5486481865
 30
0.0
 10
149.2498059022
 20
41.3511587924
 30
0.0
 10
149.2728359983
 20
40.2740096181
 30
0.0
 10
149.295800574
 20
39.3229634426
 30
0.0
 10
149.3186943732
 20
38.5030514779
 30
0.0
 10
149.3385741658
 20
37.903847998
 30
0.0
 10
149.3548515587
 20
37.4932922208
 30
0.0
 10
149.366358515
 20
37.2379534689
 30
0.0
 10
149.3778142149
 20
37.0181733641
 30
0.0
 10
149.3892375634
 20
36.8342653755
 30
0.0
 10
149.4004715784
 20
36.6864078746
 30
0.0
 10
149.4117078321
 20
36.5749362406
 30
0.0
 10
149.4212939732
 20
36.5045804878
 30
0.0
 10
149.4299892283
 20
36.4669068403
 30
0.0
 10
149.434311474
 20
36.4540389776
 30
0.0
 10
149.4369348829
 20
36.4494850493
 30
0.0
  0
SPLINE
  5
486
100
AcDbEntity
  8
0
100
AcDbSpline
 62
7
  6
CONTINUOUS
 70
0
 71
3
 72
54
 73
50
 74
0
 42
0.0000001
 43
0.0000001
 44
0.0000000001
 40
0.0
 40
0.0
 40
0.0
 40
0.0
 40
0.0002050142
 40
0.0006728562
 40
0.001428958
 40
0.0024775589
 40
0.0038197922
 40
0.0054559036
 40
0.0073855192
 40
0.0096074476
 40
0.0149226683
 40
0.0213900871
 40
0.028995832
 40
0.0377206479
 40
0.0475443374
 40
0.0584445735
 40
0.070394145
 40
0.083365112
 40
0.1122467825
 40
0.1448151676
 40
0.1807603656
 40
0.2197413075
 40
0.261386944
 40
0.3053011536
 40
0.3510672293
 40
0.3982501514
 40
0.4950620427
 40
0.5920641142
 40
0.6855762797
 40
0.7299062368
 40
0.7720521678
 40
0.8116124728
 40
0.8482112321
 40
0.8815007087
 40
0.9111635003
 40
0.9369188728
 40
0.9482538136
 40
0.9585231557
 40
0.967702137
 40
0.9757703263
 40
0.982707803
 40
0.9884981681
 40
0.9931294967
 40
0.9950070552
 40
0.9965909901
 40
0.997881072
 40
0.9988776414
 40
0.9995821154
 40
1.0
 40
1.0
 40
1.0
 40
1.0
 10
149.7922046175
 20
36.4439449758
 30
0.0
 10
149.7884450753
 20
36.4439449758
 30
0.0
 10
149.7811920704
 20
36.4578443978
 30
0.0
 10
149.7754176174
 20
36.4808676293
 30
0.0
 10
149.7675375465
 20
36.5231718283
 30
0.0
 10
149.7603040522
 20
36.5798589546
 30
0.0
 10
149.7526147438
 20
36.6535301443
 30
0.0
 10
149.7450076759
 20
36.7431344138
 30
0.0
 10
149.7373203578
 20
36.8490182221
 30
0.0
 10
149.7264017134
 20
37.022266174
 30
0.0
 10
149.7130943128
 20
37.2787500015
 30
0.0
 10
149.6978128418
 20
37.6339643778
 30
0.0
 10
149.6824760525
 20
38.0517546107
 30
0.0
 10
149.6670895898
 20
38.5311241779
 30
0.0
 10
149.6516749975
 20
39.0709349776
 30
0.0
 10
149.6362420452
 20
39.6699020291
 30
0.0
 10
149.6207914677
 20
40.3266006767
 30
0.0
 10
149.5994025503
 20
41.3129919815
 30
0.0
 10
149.5730119711
 20
42.6774682638
 30
0.0
 10
149.5422828944
 20
44.4632349694
 30
0.0
 10
149.5115010555
 20
46.4342255388
 30
0.0
 10
149.4806791685
 20
48.5716922292
 30
0.0
 10
149.4498298946
 20
50.8553080552
 30
0.0
 10
149.4189604009
 20
53.263359797
 30
0.0
 10
149.3880766885
 20
55.7729618278
 30
0.0
 10
149.3465309888
 20
59.2525413958
 30
0.0
 10
149.2953391298
 20
63.6716361217
 30
0.0
 10
149.2344083552
 20
68.9402587037
 30
0.0
 10
149.1828370615
 20
73.2465136797
 30
0.0
 10
149.1409254747
 20
76.5468614125
 30
0.0
 10
149.1100705311
 20
78.8579022835
 30
0.0
 10
149.0792420218
 20
81.0271558221
 30
0.0
 10
149.0484489061
 20
83.0339830443
 30
0.0
 10
149.0177122274
 20
84.859287977
 30
0.0
 10
148.9870448415
 20
86.4857172219
 30
0.0
 10
148.9605934828
 20
87.7095499179
 30
0.0
 10
148.9390779406
 20
88.5777635601
 30
0.0
 10
148.923654301
 20
89.1420557839
 30
0.0
 10
148.9082556465
 20
89.6464186882
 30
0.0
 10
148.8928933756
 20
90.0896508345
 30
0.0
 10
148.8775951172
 20
90.4707044305
 30
0.0
 10
148.8623630894
 20
90.7886726041
 30
0.0
 10
148.8490656086
 20
91.0138380236
 30
0.0
 10
148.8380493439
 20
91.1618312247
 30
0.0
 10
148.8304248378
 20
91.2486487126
 30
0.0
 10
148.8228135613
 20
91.3191865625
 30
0.0
 10
148.8154383078
 20
91.3736453245
 30
0.0
 10
148.8080033471
 20
91.4116150315
 30
0.0
 10
148.8024117918
 20
91.4317663769
 30
0.0
 10
148.798585602
 20
91.4384059679
 30
0.0
  0
SPLINE
  5
487
100
AcDbEntity
  8
0
100
AcDbSpline
 62
7
  6
CONTINUOUS
 70
0
 71
3
 72
36
 73
32
 74
0
 42
0.0000001
 43
0.0000001
 44
0.0000000001
 40
0.0
 40
0.0
 40
0.0
 40
0.0
 40
0.0001594307
 40
0.0004823656
 40
0.0009939437
 40
0.0016991926
 40
0.0036959986
 40
0.0064771191
 40
0.010041665
 40
0.014384828
 40
0.0195006665
 40
0.0253830433
 40
0.0320250804
 40
0.0394170798
 40
0.0564089955
 40
0.0762698118
 40
0.0988898066
 40
0.1241490917
 40
0.1519087454
 40
0.1820206568
 40
0.2143195213
 40
0.2486321546
 40
0.2847711597
 40
0.3617398643
 40
0.4435588764
 40
0.5284579447
 40
0.6146009245
 40
0.7001222741
 40
0.7831694256
 40
0.8619467635
 40
1.0
 40
1.0
 40
1.0
 40
1.0
 10
147.7922041744
 20
36.4439449758
 30
0.0
 10
147.7897086397
 20
36.4439449758
 30
0.0
 10
147.7840520056
 20
36.4510502186
 30
0.0
 10
147.7795553696
 20
36.4650974444
 30
0.0
 10
147.7736124737
 20
36.4889121016
 30
0.0
 10
147.7652911458
 20
36.538299813
 30
0.0
 10
147.7551991164
 20
36.6237408305
 30
0.0
 10
147.7439312453
 20
36.7537586328
 30
0.0
 10
147.7324739154
 20
36.9207158183
 30
0.0
 10
147.7209463076
 20
37.1242353458
 30
0.0
 10
147.7093627397
 20
37.364097358
 30
0.0
 10
147.6977486827
 20
37.6399720633
 30
0.0
 10
147.6861123484
 20
37.9515035788
 30
0.0
 10
147.6698083917
 20
38.4368731994
 30
0.0
 10
147.6497838452
 20
39.1291405713
 30
0.0
 10
147.6266344959
 20
40.0597681669
 30
0.0
 10
147.6034232843
 20
41.1198367634
 30
0.0
 10
147.5801695616
 20
42.3035693436
 30
0.0
 10
147.556882159
 20
43.6045911004
 30
0.0
 10
147.5335751019
 20
45.0158176795
 30
0.0
 10
147.5102490484
 20
46.5296293063
 30
0.0
 10
147.4869118285
 20
48.1377920636
 30
0.0
 10
147.4551102894
 20
50.4451125463
 30
0.0
 10
147.4157929305
 20
53.4960065368
 30
0.0
 10
147.3694739049
 20
57.3101031972
 30
0.0
 10
147.3231186641
 20
61.2678125217
 30
0.0
 10
147.27674989
 20
65.2834774823
 30
0.0
 10
147.2303805949
 20
69.2701527186
 30
0.0
 10
147.1840694857
 20
73.1415283955
 30
0.0
 10
147.1248290774
 20
77.8350760819
 30
0.0
 10
147.077572285
 20
81.2287583097
 30
0.0
 10
147.0422046498
 20
83.3893869928
 30
0.0
  0
SPLINE
  5
488
100
AcDbEntity
  8
GEOM
100
AcDbSpline
 62
7
  6
CONTINUOUS
 70
0
 71
3
 72
9
 73
5
 74
0
 42
0.0000001
 43
0.0000001
 44
0.0000000001
 40
0.0
 40
0.0
 40
0.0
 40
0.0
 40
0.4974932129
 40
1.0
 40
1.0
 40
1.0
 40
1.0
 10
136.8043389947
 20
35.4439449758
 30
0.0
 10
136.8919976389
 20
35.4439452246
 30
0.0
 10
137.0716591471
 20
35.4945877088
 30
0.0
 10
137.1968319081
 20
35.6324640738
 30
0.0
 10
137.2373503378
 20
35.7111911314
 30
0.0
  0
SPLINE
  5
489
100
AcDbEntity
  8
0
100
AcDbSpline
 62
7
  6
CONTINUOUS
 70
0
 71
3
 72
23
 73
19
 74
0
 42
0.0000001
 43
0.0000001
 44
0.0000000001
 40
0.0
 40
0.0
 40
0.0
 40
0.0
 40
0.2195494421
 40
0.4150704515
 40
0.5846867142
 40
0.6593060196
 40
0.7269033838
 40
0.7873145185
 40
0.8404067938
 40
0.8860623996
 40
0.9241735343
 40
0.954664467
 40
0.9670318696
 40
0.9774707463
 40
0.9859786903
 40
0.9925583952
 40
0.9972198117
 40
1.0
 40
1.0
 40
1.0
 40
1.0
 10
147.0422046498
 20
83.3893869928
 30
0.0
 10
147.032555628
 20
83.9788511088
 30
0.0
 10
147.0135016141
 20
85.0932530075
 30
0.0
 10
146.9834237995
 20
86.6629905786
 30
0.0
 10
146.9574766697
 20
87.8435605011
 30
0.0
 10
146.9363714713
 20
88.6806416889
 30
0.0
 10
146.9212453916
 20
89.224536524
 30
0.0
 10
146.9061438974
 20
89.7106023616
 30
0.0
 10
146.8910755546
 20
90.1377181208
 30
0.0
 10
146.8760717658
 20
90.5049148337
 30
0.0
 10
146.8611328096
 20
90.811361432
 30
0.0
 10
146.8480901314
 20
91.0284066042
 30
0.0
 10
146.8372878823
 20
91.1711113992
 30
0.0
 10
146.8298092043
 20
91.2548809105
 30
0.0
 10
146.8223451611
 20
91.322989152
 30
0.0
 10
146.8151028389
 20
91.375622676
 30
0.0
 10
146.807815719
 20
91.4124041157
 30
0.0
 10
146.8023137962
 20
91.4319407058
 30
0.0
 10
146.7985854313
 20
91.4384085189
 30
0.0
  0
SPLINE
  5
48A
100
AcDbEntity
  8
GEOM
100
AcDbSpline
 62
7
  6
CONTINUOUS
 70
0
 71
3
 72
10
 73
6
 74
0
 42
0.0000001
 43
0.0000001
 44
0.0000000001
 40
0.0
 40
0.0
 40
0.0
 40
0.0
 40
0.2816772533
 40
0.5461307788
 40
1.0
 40
1.0
 40
1.0
 40
1.0
 10
136.8043376359
 20
36.0297314134
 30
0.0
 10
136.847647401
 20
36.023278154
 30
0.0
 10
136.9332752453
 20
36.0187869023
 30
0.0
 10
137.0870450446
 20
36.0416538766
 30
0.0
 10
137.192730366
 20
36.099527864
 30
0.0
 10
137.2373503378
 20
36.1541830322
 30
0.0
  0
SPLINE
  5
48B
100
AcDbEntity
  8
0
100
AcDbSpline
 62
7
  6
CONTINUOUS
 70
0
 71
3
 72
32
 73
28
 74
0
 42
0.0000001
 43
0.0000001
 44
0.0000000001
 40
0.0
 40
0.0
 40
0.0
 40
0.0
 40
0.1366183943
 40
0.2968070702
 40
0.3815436662
 40
0.4669851402
 40
0.5513110817
 40
0.632724305
 40
0.7094908772
 40
0.7799754658
 40
0.8123864215
 40
0.8426747538
 40
0.8706802864
 40
0.8962523874
 40
0.9192562524
 40
0.9395685366
 40
0.9570817952
 40
0.9717024374
 40
0.9779037066
 40
0.9833535617
 40
0.9880457565
 40
0.991974786
 40
0.9951354236
 40
0.9975242449
 40
0.9991420145
 40
0.9996641641
 40
1.0
 40
1.0
 40
1.0
 40
1.0
 10
144.6927600904
 20
83.4232501617
 30
0.0
 10
144.7278407676
 20
81.283923997
 30
0.0
 10
144.7927209604
 20
76.6359991525
 30
0.0
 10
144.8652773019
 20
70.660992935
 30
0.0
 10
144.9255041002
 20
65.4873895655
 30
0.0
 10
144.9715202142
 20
61.5018062673
 30
0.0
 10
145.0175254938
 20
57.5682744022
 30
0.0
 10
145.0634932205
 20
53.7706112872
 30
0.0
 10
145.1094011173
 20
50.1897368598
 30
0.0
 10
145.1485791866
 20
47.3762766197
 30
0.0
 10
145.1803379258
 20
45.2906931512
 30
0.0
 10
145.2034727169
 20
43.8703310486
 30
0.0
 10
145.2265841144
 20
42.5570887276
 30
0.0
 10
145.249669086
 20
41.3579488093
 30
0.0
 10
145.2727140759
 20
40.2793184135
 30
0.0
 10
145.2956986564
 20
39.3269298699
 30
0.0
 10
145.3186061672
 20
38.5058748131
 30
0.0
 10
145.3385039964
 20
37.9058232484
 30
0.0
 10
145.3547925182
 20
37.49469518
 30
0.0
 10
145.3663076165
 20
37.2389975522
 30
0.0
 10
145.3777715416
 20
37.0189185013
 30
0.0
 10
145.3892035383
 20
36.8347626861
 30
0.0
 10
145.4004440758
 20
36.6867040132
 30
0.0
 10
145.4116885354
 20
36.5750819847
 30
0.0
 10
145.4212819328
 20
36.5046363786
 30
0.0
 10
145.4299845909
 20
36.4669205545
 30
0.0
 10
145.4343100552
 20
36.4540403
 30
0.0
 10
145.4369359804
 20
36.4494831102
 30
0.0
  0
SPLINE
  5
48C
100
AcDbEntity
  8
GEOM
100
AcDbSpline
 62
7
  6
CONTINUOUS
 70
0
 71
3
 72
9
 73
5
 74
0
 42
0.0000001
 43
0.0000001
 44
0.0000000001
 40
0.0
 40
0.0
 40
0.0
 40
0.0
 40
0.2654460091
 40
1.0
 40
1.0
 40
1.0
 40
1.0
 10
136.8043389947
 20
51.5530722134
 30
0.0
 10
136.848904086
 20
51.5597127343
 30
0.0
 10
137.0132388915
 20
51.6003284636
 30
0.0
 10
137.1689131142
 20
51.7023403987
 30
0.0
 10
137.2373503378
 20
51.8065635294
 30
0.0
  0
SPLINE
  5
48D
100
AcDbEntity
  8
GEOM
100
AcDbSpline
 62
7
  6
CONTINUOUS
 70
0
 71
3
 72
9
 73
5
 74
0
 42
0.0000001
 43
0.0000001
 44
0.0000000001
 40
0.0
 40
0.0
 40
0.0
 40
0.0
 40
0.2654459339
 40
1.0
 40
1.0
 40
1.0
 40
1.0
 10
136.8043376359
 20
76.3348179411
 30
0.0
 10
136.8489028713
 20
76.3281776138
 30
0.0
 10
137.0132383041
 20
76.2875623921
 30
0.0
 10
137.1689131507
 20
76.1855500115
 30
0.0
 10
137.2373503378
 20
76.0813264222
 30
0.0
  0
SPLINE
  5
48E
100
AcDbEntity
  8
GEOM
100
AcDbSpline
 62
7
  6
CONTINUOUS
 70
0
 71
3
 72
10
 73
6
 74
0
 42
0.0000001
 43
0.0000001
 44
0.0000000001
 40
0.0
 40
0.0
 40
0.0
 40
0.0
 40
0.2816769983
 40
0.5461303117
 40
1.0
 40
1.0
 40
1.0
 40
1.0
 10
136.8043389947
 20
91.858158741
 30
0.0
 10
136.8476486058
 20
91.8646120125
 30
0.0
 10
136.9332761628
 20
91.8691032659
 30
0.0
 10
137.0870455832
 20
91.8462362333
 30
0.0
 10
137.1927305046
 20
91.788362064
 30
0.0
 10
137.2373503378
 20
91.7337069194
 30
0.0
  0
SPLINE
  5
48F
100
AcDbEntity
  8
GEOM
100
AcDbSpline
 62
7
  6
CONTINUOUS
 70
0
 71
3
 72
9
 73
5
 74
0
 42
0.0000001
 43
0.0000001
 44
0.0000000001
 40
0.0
 40
0.0
 40
0.0
 40
0.0
 40
0.4974933751
 40
1.0
 40
1.0
 40
1.0
 40
1.0
 10
136.8043376359
 20
92.4439449758
 30
0.0
 10
136.8919965313
 20
92.4439449758
 30
0.0
 10
137.0716586814
 20
92.3933028103
 30
0.0
 10
137.1968318763
 20
92.2554260822
 30
0.0
 10
137.2373503378
 20
92.1766988202
 30
0.0
  0
SPLINE
  5
490
100
AcDbEntity
  8
GEOM
100
AcDbSpline
 62
7
  6
CONTINUOUS
 70
0
 71
3
 72
9
 73
5
 74
0
 42
0.0000001
 43
0.0000001
 44
0.0000000001
 40
0.0
 40
0.0
 40
0.0
 40
0.0
 40
0.4999999599
 40
1.0
 40
1.0
 40
1.0
 40
1.0
 10
132.0876817998
 20
76.3348179411
 30
0.0
 10
132.2009199454
 20
78.9202178985
 30
0.0
 10
132.3257688334
 20
84.0964666796
 30
0.0
 10
132.2009213444
 20
89.272715512
 30
0.0
 10
132.087683475
 20
91.8581158975
 30
0.0
  0
SPLINE
  5
491
100
AcDbEntity
  8
GEOM
100
AcDbSpline
 62
7
  6
CONTINUOUS
 70
0
 71
3
 72
10
 73
6
 74
0
 42
0.0000001
 43
0.0000001
 44
0.0000000001
 40
0.0
 40
0.0
 40
0.0
 40
0.0
 40
0.5403268212
 40
0.7847547596
 40
1.0
 40
1.0
 40
1.0
 40
1.0
 10
136.8043390332
 20
74.9206043787
 30
0.0
 10
136.7644189939
 20
75.1733625274
 30
0.0
 10
136.7311562587
 20
75.5456052928
 30
0.0
 10
136.7504965831
 20
76.0192635145
 30
0.0
 10
136.7821308254
 20
76.2353294553
 30
0.0
 10
136.8043393
 20
76.3348179411
 30
0.0
  0
SPLINE
  5
492
100
AcDbEntity
  8
GEOM
100
AcDbSpline
 62
7
  6
CONTINUOUS
 70
0
 71
3
 72
9
 73
5
 74
0
 42
0.0000001
 43
0.0000001
 44
0.0000000001
 40
0.0
 40
0.0
 40
0.0
 40
0.0
 40
0.5410232825
 40
1.0
 40
1.0
 40
1.0
 40
1.0
 10
132.0876820415
 20
74.9206043787
 30
0.0
 10
132.0778168265
 20
75.1755149329
 30
0.0
 10
132.0679112183
 20
75.6470002214
 30
0.0
 10
132.0758580789
 20
76.118726114
 30
0.0
 10
132.0876820404
 20
76.3348179411
 30
0.0
  0
SPLINE
  5
493
100
AcDbEntity
  8
GEOM
100
AcDbSpline
 62
7
  6
CONTINUOUS
 70
0
 71
3
 72
11
 73
7
 74
0
 42
0.0000001
 43
0.0000001
 44
0.0000000001
 40
0.0
 40
0.0
 40
0.0
 40
0.0
 40
0.2500092011
 40
0.4999903235
 40
0.7499801753
 40
1.0
 40
1.0
 40
1.0
 40
1.0
 10
136.8043376359
 20
52.9672855729
 30
0.0
 10
137.1843306574
 20
54.7705839237
 30
0.0
 10
137.7888375854
 20
58.4130089215
 30
0.0
 10
138.1088088782
 20
63.9437944311
 30
0.0
 10
137.7888636487
 20
69.4746606442
 30
0.0
 10
137.1843453328
 20
73.1172290903
 30
0.0
 10
136.8043376359
 20
74.9206043787
 30
0.0
  0
SPLINE
  5
494
100
AcDbEntity
  8
GEOM
100
AcDbSpline
 62
7
  6
CONTINUOUS
 70
0
 71
3
 72
10
 73
6
 74
0
 42
0.0000001
 43
0.0000001
 44
0.0000000001
 40
0.0
 40
0.0
 40
0.0
 40
0.0
 40
0.2150485398
 40
0.4593022108
 40
1.0
 40
1.0
 40
1.0
 40
1.0
 10
136.8043458466
 20
51.5530329651
 30
0.0
 10
136.7821451704
 20
51.6524306427
 30
0.0
 10
136.7505207764
 20
51.8683262951
 30
0.0
 10
136.7311369478
 20
52.3419959258
 30
0.0
 10
136.7644124089
 20
52.7143434419
 30
0.0
 10
136.8043393
 20
52.9672855729
 30
0.0
  0
SPLINE
  5
495
100
AcDbEntity
  8
GEOM
100
AcDbSpline
 62
7
  6
CONTINUOUS
 70
0
 71
3
 72
9
 73
5
 74
0
 42
0.0000001
 43
0.0000001
 44
0.0000000001
 40
0.0
 40
0.0
 40
0.0
 40
0.0
 40
0.4589750234
 40
1.0
 40
1.0
 40
1.0
 40
1.0
 10
132.0876841908
 20
51.5530184889
 30
0.0
 10
132.075859314
 20
51.7691176725
 30
0.0
 10
132.0679108343
 20
52.2408613966
 30
0.0
 10
132.0778159717
 20
52.7123645872
 30
0.0
 10
132.0876820757
 20
52.9672855729
 30
0.0
  0
SPLINE
  5
496
100
AcDbEntity
  8
0
100
AcDbSpline
 62
7
  6
CONTINUOUS
 70
0
 71
3
 72
24
 73
20
 74
0
 42
0.0000001
 43
0.0000001
 44
0.0000000001
 40
0.0
 40
0.0
 40
0.0
 40
0.0
 40
0.2247134594
 40
0.4241457396
 40
0.5137032812
 40
0.5962139266
 40
0.6714816713
 40
0.7393341043
 40
0.7996076752
 40
0.8521446183
 40
0.8968270487
 40
0.9335557019
 40
0.9622380057
 40
0.9735447344
 40
0.9828247189
 40
0.990078159
 40
0.9953119159
 40
0.9985561901
 40
1.0
 40
1.0
 40
1.0
 40
1.0
 10
147.9427600904
 20
82.4701426429
 30
0.0
 10
147.9328728164
 20
83.0456000763
 30
0.0
 10
147.9133548607
 20
84.1317592344
 30
0.0
 10
147.8867987653
 20
85.4472041511
 30
0.0
 10
147.8652709206
 20
86.3984583982
 30
0.0
 10
147.8497235543
 20
87.0317516894
 30
0.0
 10
147.8341902183
 20
87.6094355911
 30
0.0
 10
147.8186771098
 20
88.1301428241
 30
0.0
 10
147.8031962
 20
88.5926052354
 30
0.0
 10
147.787754442
 20
88.9956834404
 30
0.0
 10
147.7723837938
 20
89.3384238562
 30
0.0
 10
147.757119983
 20
89.6199622069
 30
0.0
 10
147.7437152855
 20
89.816070798
 30
0.0
 10
147.7326064033
 20
89.9416833062
 30
0.0
 10
147.7248649622
 20
90.012768101
 30
0.0
 10
147.7175956203
 20
90.0675391792
 30
0.0
 10
147.7096412855
 20
90.108284239
 30
0.0
 10
147.7038566795
 20
90.1307376003
 30
0.0
 10
147.6964582223
 20
90.1439372079
 30
0.0
 10
147.6927603053
 20
90.143928959
 30
0.0
  0
SPLINE
  5
497
100
AcDbEntity
  8
0
100
AcDbSpline
 62
7
  6
CONTINUOUS
 70
0
 71
3
 72
22
 73
18
 74
0
 42
0.0000001
 43
0.0000001
 44
0.0000000001
 40
0.0
 40
0.0
 40
0.0
 40
0.0
 40
0.2192618715
 40
0.4146110822
 40
0.5840995934
 40
0.6586764172
 40
0.7262512288
 40
0.7866727406
 40
0.8397918314
 40
0.8854895353
 40
0.9236728493
 40
0.9542521086
 40
0.9771650531
 40
0.9857396453
 40
0.9923932437
 40
0.9971344835
 40
1.0
 40
1.0
 40
1.0
 40
1.0
 10
147.7927600904
 20
82.4701426429
 30
0.0
 10
147.7831236581
 20
83.0310006341
 30
0.0
 10
147.7640909472
 20
84.0915360735
 30
0.0
 10
147.7340519714
 20
85.5855456516
 30
0.0
 10
147.7081373166
 20
86.7094103558
 30
0.0
 10
147.6870613148
 20
87.5064058846
 30
0.0
 10
147.6719527815
 20
88.0244322583
 30
0.0
 10
147.6568710567
 20
88.4875377049
 30
0.0
 10
147.6418261421
 20
88.8946440549
 30
0.0
 10
147.62682367
 20
89.2448120888
 30
0.0
 10
147.6119385706
 20
89.5372709865
 30
0.0
 10
147.5971345133
 20
89.7713266629
 30
0.0
 10
147.5842012654
 20
89.9296422316
 30
0.0
 10
147.5731811744
 20
90.0265629236
 30
0.0
 10
147.5659267706
 20
90.0772225344
 30
0.0
 10
147.558661176
 20
90.1128364785
 30
0.0
 10
147.5531259556
 20
90.1317957778
 30
0.0
 10
147.5494575387
 20
90.1381428
 30
0.0
  0
SPLINE
  5
498
100
AcDbEntity
  8
GEOM
100
AcDbSpline
 62
7
  6
CONTINUOUS
 70
0
 71
3
 72
13
 73
9
 74
0
 42
0.0000001
 43
0.0000001
 44
0.0000000001
 40
0.0
 40
0.0
 40
0.0
 40
0.0
 40
0.251302573
 40
0.3758415081
 40
0.4999938175
 40
0.6241482752
 40
0.748691704
 40
1.0
 40
1.0
 40
1.0
 40
1.0
 10
136.804337636
 20
36.0297314135
 30
0.0
 10
137.1812574062
 20
37.2945422668
 30
0.0
 10
137.6355486914
 20
39.2234223761
 30
0.0
 10
137.949159103
 20
41.8326212201
 30
0.0
 10
138.0286177282
 20
43.7912948022
 30
0.0
 10
137.9491718313
 20
45.7499925337
 30
0.0
 10
137.6355728443
 20
48.3592582449
 30
0.0
 10
137.1812766541
 20
50.2881932156
 30
0.0
 10
136.8043486068
 20
51.5530329645
 30
0.0
  0
SPLINE
  5
499
100
AcDbEntity
  8
GEOM
100
AcDbSpline
 62
7
  6
CONTINUOUS
 70
0
 71
3
 72
9
 73
5
 74
0
 42
0.0000001
 43
0.0000001
 44
0.0000000001
 40
0.0
 40
0.0
 40
0.0
 40
0.0
 40
0.5000002427
 40
1.0
 40
1.0
 40
1.0
 40
1.0
 10
132.0876837145
 20
36.02978144
 30
0.0
 10
132.2009213232
 20
38.6151727287
 30
0.0
 10
132.3257706561
 20
43.7914012154
 30
0.0
 10
132.2009215484
 20
48.9676297137
 30
0.0
 10
132.087683952
 20
51.5530184879
 30
0.0
  0
SPLINE
  5
49A
100
AcDbEntity
  8
GEOM
100
AcDbSpline
 62
7
  6
CONTINUOUS
 70
0
 71
3
 72
15
 73
11
 74
0
 42
0.0000001
 43
0.0000001
 44
0.0000000001
 40
0.0
 40
0.0
 40
0.0
 40
0.0
 40
0.0465311475
 40
0.1027761754
 40
0.1823143121
 40
0.2897879233
 40
0.4262709769
 40
0.5913027942
 40
0.7834100288
 40
1.0
 40
1.0
 40
1.0
 40
1.0
 10
136.8043390332
 20
35.4439449758
 30
0.0
 10
136.7947544263
 20
35.4439466659
 30
0.0
 10
136.7729004829
 20
35.4518899313
 30
0.0
 10
136.7535453881
 20
35.48616056
 30
0.0
 10
136.7432872306
 20
35.5352635169
 30
0.0
 10
136.7403364027
 20
35.6021167248
 30
0.0
 10
136.7450485196
 20
35.6862717546
 30
0.0
 10
136.7574264473
 20
35.7872605672
 30
0.0
 10
136.7774131259
 20
35.9037637126
 30
0.0
 10
136.7946189738
 20
35.9861894402
 30
0.0
 10
136.8043393
 20
36.0297314135
 30
0.0
  0
SPLINE
  5
49B
100
AcDbEntity
  8
GEOM
100
AcDbSpline
 62
7
  6
CONTINUOUS
 70
0
 71
3
 72
15
 73
11
 74
0
 42
0.0000001
 43
0.0000001
 44
0.0000000001
 40
0.0
 40
0.0
 40
0.0
 40
0.0
 40
0.019894035
 40
0.0694415744
 40
0.1505710374
 40
0.262847077
 40
0.4053788822
 40
0.5769785343
 40
0.7759899733
 40
1.0
 40
1.0
 40
1.0
 40
1.0
 10
132.0876820415
 20
35.4439449758
 30
0.0
 10
132.0837779432
 20
35.4439480277
 30
0.0
 10
132.0783611878
 20
35.4615906846
 30
0.0
 10
132.0754398617
 20
35.486982585
 30
0.0
 10
132.0725767287
 20
35.5367965931
 30
0.0
 10
132.0720849105
 20
35.6017822437
 30
0.0
 10
132.0731399035
 20
35.6858223979
 30
0.0
 10
132.076174671
 20
35.7863537376
 30
0.0
 10
132.0810437487
 20
35.9029888556
 30
0.0
 10
132.0852820417
 20
35.9858863241
 30
0.0
 10
132.0876840134
 20
36.0297814409
 30
0.0
  0
SPLINE
  5
49C
100
AcDbEntity
  8
GEOM
100
AcDbSpline
 62
7
  6
CONTINUOUS
 70
0
 71
3
 72
16
 73
12
 74
0
 42
0.0000001
 43
0.0000001
 44
0.0000000001
 40
0.0
 40
0.0
 40
0.0
 40
0.0
 40
0.0063108011
 40
0.0192286492
 40
0.068487787
 40
0.1495897235
 40
0.2619574811
 40
0.4046500836
 40
0.5764589232
 40
0.7757163434
 40
1.0
 40
1.0
 40
1.0
 40
1.0
 10
131.5895844508
 20
34.984701045
 30
0.0
 10
131.5880404291
 20
34.9846807701
 30
0.0
 10
131.5845573965
 20
34.9892497176
 30
0.0
 10
131.5809079401
 20
35.0048222536
 30
0.0
 10
131.5768208607
 20
35.0405002364
 30
0.0
 10
131.5747142834
 20
35.0994202478
 30
0.0
 10
131.5738953946
 20
35.1818703949
 30
0.0
 10
131.5750757883
 20
35.2862430787
 30
0.0
 10
131.5780649694
 20
35.4119445227
 30
0.0
 10
131.5829474646
 20
35.5575284476
 30
0.0
 10
131.5871819031
 20
35.6610789226
 30
0.0
 10
131.5895844508
 20
35.7159050251
 30
0.0
  0
SPLINE
  5
49D
100
AcDbEntity
  8
0
100
AcDbSpline
 62
7
  6
CONTINUOUS
 70
0
 71
3
 72
26
 73
22
 74
0
 42
0.0000001
 43
0.0000001
 44
0.0000000001
 40
0.0
 40
0.0
 40
0.0
 40
0.0
 40
0.2308098856
 40
0.4344708072
 40
0.5254295226
 40
0.6088528178
 40
0.6845377218
 40
0.7523044731
 40
0.811979007
 40
0.8634068595
 40
0.9064774292
 40
0.9248489851
 40
0.9410974235
 40
0.9552186197
 40
0.9672154784
 40
0.9770979278
 40
0.9848902833
 40
0.9906519681
 40
0.9945497792
 40
0.9971592003
 40
1.0
 40
1.0
 40
1.0
 40
1.0
 10
144.6927600904
 20
83.4232501617
 30
0.0
 10
144.669722953
 20
84.0007019214
 30
0.0
 10
144.624233412
 20
85.0875998534
 30
0.0
 10
144.5619379575
 20
86.4017272399
 30
0.0
 10
144.5112834136
 20
87.3469330338
 30
0.0
 10
144.4747243549
 20
87.9719954182
 30
0.0
 10
144.4381560422
 20
88.5388801471
 30
0.0
 10
144.4015966722
 20
89.0461656492
 30
0.0
 10
144.3650807004
 20
89.4925445402
 30
0.0
 10
144.3286157431
 20
89.8768539942
 30
0.0
 10
144.2969234845
 20
90.1577084144
 30
0.0
 10
144.2709980603
 20
90.3505046578
 30
0.0
 10
144.2526208025
 20
90.4711629609
 30
0.0
 10
144.2342687661
 20
90.5756490912
 30
0.0
 10
144.2160013175
 20
90.6639519862
 30
0.0
 10
144.1977491972
 20
90.7359634449
 30
0.0
 10
144.17986206
 20
90.7920060961
 30
0.0
 10
144.1616562406
 20
90.8317106971
 30
0.0
 10
144.1443802026
 20
90.8577265187
 30
0.0
 10
144.1203217308
 20
90.8677868202
 30
0.0
 10
144.1076110892
 20
90.8587639227
 30
0.0
 10
144.1025802438
 20
90.853735596
 30
0.0
  0
SPLINE
  5
49E
100
AcDbEntity
  8
0
100
AcDbSpline
 62
7
  6
CONTINUOUS
 70
0
 71
3
 72
54
 73
50
 74
0
 42
0.0000001
 43
0.0000001
 44
0.0000000001
 40
0.0
 40
0.0
 40
0.0
 40
0.0
 40
0.0004181104
 40
0.0011226327
 40
0.002119192
 40
0.0034092334
 40
0.0049931013
 40
0.0068706338
 40
0.0115021699
 40
0.0172927054
 40
0.0242300505
 40
0.0322984189
 40
0.0414775078
 40
0.0517465685
 40
0.0630816709
 40
0.0888370214
 40
0.1185003958
 40
0.1517895323
 40
0.1883875044
 40
0.2279475041
 40
0.2700930175
 40
0.3144230983
 40
0.4079361335
 40
0.5049387448
 40
0.6017511528
 40
0.6489341813
 40
0.6947004713
 40
0.7386154561
 40
0.7802610414
 40
0.8192414947
 40
0.8551869942
 40
0.8877549036
 40
0.9166361495
 40
0.929607511
 40
0.9415572282
 40
0.9524563345
 40
0.9622803454
 40
0.9710052961
 40
0.9786099185
 40
0.9850778281
 40
0.9903933405
 40
0.9926147229
 40
0.9945438968
 40
0.9961801339
 40
0.9975228696
 40
0.9985718879
 40
0.9993278913
 40
0.999795227
 40
1.0
 40
1.0
 40
1.0
 40
1.0
 10
150.798641889
 20
91.4384049294
 30
0.0
 10
150.8024877927
 20
91.4317719556
 30
0.0
 10
150.8080952215
 20
91.4116140419
 30
0.0
 10
150.8155243852
 20
91.3736409795
 30
0.0
 10
150.8228767317
 20
91.3191777584
 30
0.0
 10
150.8304565107
 20
91.2486392842
 30
0.0
 10
150.8380513167
 20
91.1618215668
 30
0.0
 10
150.8490428192
 20
91.0138246523
 30
0.0
 10
150.8623400719
 20
90.7886529812
 30
0.0
 10
150.8775897679
 20
90.4706812585
 30
0.0
 10
150.892902616
 20
90.089624377
 30
0.0
 10
150.9082640862
 20
89.6463895176
 30
0.0
 10
150.9236578082
 20
89.1420265731
 30
0.0
 10
150.9390783025
 20
88.5777347197
 30
0.0
 10
150.9605928802
 20
87.7095240121
 30
0.0
 10
150.9870482126
 20
86.4856786545
 30
0.0
 10
151.0177135001
 20
84.8592459834
 30
0.0
 10
151.0484502146
 20
83.0339517903
 30
0.0
 10
151.0792433829
 20
81.0271516633
 30
0.0
 10
151.1100709175
 20
78.8579266959
 30
0.0
 10
151.1409259674
 20
76.5468977601
 30
0.0
 10
151.182837842
 20
73.2465408226
 30
0.0
 10
151.234409254
 20
68.9402594928
 30
0.0
 10
151.2953404408
 20
63.6716037481
 30
0.0
 10
151.3465324537
 20
59.2524895056
 30
0.0
 10
151.3880783531
 20
55.7728960074
 30
0.0
 10
151.4189626252
 20
53.2632749116
 30
0.0
 10
151.4498318496
 20
50.8552069445
 30
0.0
 10
151.4806814199
 20
48.5715877388
 30
0.0
 10
151.5115039671
 20
46.434126305
 30
0.0
 10
151.5422846421
 20
44.4631486787
 30
0.0
 10
151.5730139837
 20
42.6773936905
 30
0.0
 10
151.5994054943
 20
41.3129272627
 30
0.0
 10
151.6207939287
 20
40.3265342342
 30
0.0
 10
151.636243131
 20
39.669846636
 30
0.0
 10
151.6516784281
 20
39.0708920454
 30
0.0
 10
151.6670911727
 20
38.5310937792
 30
0.0
 10
151.6824751521
 20
38.0517365454
 30
0.0
 10
151.6978157334
 20
37.6339557422
 30
0.0
 10
151.7130962666
 20
37.278747718
 30
0.0
 10
151.7264018973
 20
37.0222595708
 30
0.0
 10
151.7373222587
 20
36.8490245341
 30
0.0
 10
151.7450100942
 20
36.7431567714
 30
0.0
 10
151.7526150458
 20
36.6535486626
 30
0.0
 10
151.7603025258
 20
36.5798587497
 30
0.0
 10
151.7675295406
 20
36.5231539022
 30
0.0
 10
151.7754134339
 20
36.4808582829
 30
0.0
 10
151.7811794972
 20
36.45783873
 30
0.0
 10
151.7884504751
 20
36.4439729382
 30
0.0
 10
151.7922055913
 20
36.443976583
 30
0.0
  0
SPLINE
  5
49F
100
AcDbEntity
  8
0
100
AcDbSpline
 62
7
  6
CONTINUOUS
 70
0
 71
3
 72
49
 73
45
 74
0
 42
0.0000001
 43
0.0000001
 44
0.0000000001
 40
0.0
 40
0.0
 40
0.0
 40
0.0
 40
0.0000930703
 40
0.0002531511
 40
0.0007843997
 40
0.0016009708
 40
0.0027037589
 40
0.0040927794
 40
0.0057677689
 40
0.0077282686
 40
0.0099731409
 40
0.0153101406
 40
0.0217669154
 40
0.0293308028
 40
0.0379840763
 40
0.0477066739
 40
0.058478113
 40
0.0702735395
 40
0.0830653485
 40
0.111523134
 40
0.1435916633
 40
0.1789796955
 40
0.2173622368
 40
0.2583857607
 40
0.301673167
 40
0.3468238333
 40
0.3934205833
 40
0.489215062
 40
0.5854983612
 40
0.6786797304
 40
0.7652681961
 40
0.8050593022
 40
0.8420052009
 40
0.8757560759
 40
0.9059893525
 40
0.9324170176
 40
0.9547871172
 40
0.9728827107
 40
0.9802721314
 40
0.9865299071
 40
0.9916424908
 40
0.9955973622
 40
0.9983841287
 40
1.0
 40
1.0
 40
1.0
 40
1.0
 10
144.1218307125
 20
37.0148743537
 30
0.0
 10
144.1206634789
 20
37.0160415872
 30
0.0
 10
144.1188641284
 20
37.0203423026
 30
0.0
 10
144.1152115795
 20
37.0336370341
 30
0.0
 10
144.1113213869
 20
37.0602837826
 30
0.0
 10
144.1066603764
 20
37.1034105599
 30
0.0
 10
144.1020275829
 20
37.1619499805
 30
0.0
 10
144.0972857085
 20
37.2356872901
 30
0.0
 10
144.0925345065
 20
37.3246832045
 30
0.0
 10
144.0877581583
 20
37.4288681047
 30
0.0
 10
144.0809803747
 20
37.5979796096
 30
0.0
 10
144.0727101502
 20
37.8468370044
 30
0.0
 10
144.0631989398
 20
38.190038448
 30
0.0
 10
144.0536527709
 20
38.5920762454
 30
0.0
 10
144.0440744837
 20
39.0520507454
 30
0.0
 10
144.0344747883
 20
39.5689255923
 30
0.0
 10
144.0248608358
 20
40.1415387428
 30
0.0
 10
144.0152341432
 20
40.7685949062
 30
0.0
 10
144.0019055626
 20
41.7093197966
 30
0.0
 10
143.9854477923
 20
43.0096040638
 30
0.0
 10
143.9662657674
 20
44.7106559696
 30
0.0
 10
143.9470393646
 20
46.5877453232
 30
0.0
 10
143.9277739376
 20
48.6236697913
 30
0.0
 10
143.9084774823
 20
50.7997049842
 30
0.0
 10
143.889155731
 20
53.0957854744
 30
0.0
 10
143.8698108115
 20
55.4907171744
 30
0.0
 10
143.8437521225
 20
58.8169028676
 30
0.0
 10
143.8115998773
 20
63.0499690932
 30
0.0
 10
143.7733027945
 20
68.1092483707
 30
0.0
 10
143.7349955748
 20
73.0052427545
 30
0.0
 10
143.7022788204
 20
76.8992910105
 30
0.0
 10
143.675583173
 20
79.7959476549
 30
0.0
 10
143.6561342893
 20
81.7554906996
 30
0.0
 10
143.6367047774
 20
83.5455050778
 30
0.0
 10
143.6173025027
 20
85.1489535864
 30
0.0
 10
143.5979643494
 20
86.5505350444
 30
0.0
 10
143.5787000582
 20
87.7368152532
 30
0.0
 10
143.5618967202
 20
88.5854249705
 30
0.0
 10
143.5479642723
 20
89.1482479262
 30
0.0
 10
143.5383123037
 20
89.4808451013
 30
0.0
 10
143.5286226004
 20
89.7524656382
 30
0.0
 10
143.5193802499
 20
89.9625686301
 30
0.0
 10
143.5097636211
 20
90.1103926172
 30
0.0
 10
143.503026332
 20
90.1883562658
 30
0.0
 10
143.4978824935
 20
90.2165503547
 30
0.0
  0
SPLINE
  5
4A0
100
AcDbEntity
  8
0
100
AcDbSpline
 62
7
  6
CONTINUOUS
 70
0
 71
3
 72
9
 73
5
 74
0
 42
0.0000001
 43
0.0000001
 44
0.0000000001
 40
0.0
 40
0.0
 40
0.0
 40
0.0
 40
0.3407147182
 40
1.0
 40
1.0
 40
1.0
 40
1.0
 10
143.4978824935
 20
90.2165503547
 30
0.0
 10
143.497439234
 20
90.2189799212
 30
0.0
 10
143.4959675205
 20
90.2260356459
 30
0.0
 10
143.4944692559
 20
90.2333355912
 30
0.0
 10
143.4920860037
 20
90.2374777305
 30
0.0
  0
LINE
  5
4A1
100
AcDbEntity
  8
GEOM
100
AcDbLine
 62
7
  6
CONTINUOUS
 10
138.435173869
 20
35.6939449758
 11
137.2373503378
 21
35.7111911314
  0
LINE
  5
4A2
100
AcDbEntity
  8
GEOM
100
AcDbLine
 62
7
  6
CONTINUOUS
 10
131.765248973
 20
34.9875228472
 11
131.5895844508
 21
34.984701045
  0
SPLINE
  5
4A3
100
AcDbEntity
  8
GEOM
100
AcDbSpline
 62
7
  6
CONTINUOUS
 70
0
 71
3
 72
14
 73
10
 74
0
 42
0.0000001
 43
0.0000001
 44
0.0000000001
 40
0.0
 40
0.0
 40
0.0
 40
0.0
 40
0.0584802823
 40
0.1197758439
 40
0.199246682
 40
0.3043504851
 40
0.4375939217
 40
0.5990809466
 40
1.0
 40
1.0
 40
1.0
 40
1.0
 10
137.2373503378
 20
35.7111911314
 30
0.0
 10
137.2279935302
 20
35.7113197763
 30
0.0
 10
137.2081322209
 20
35.7162966212
 30
0.0
 10
137.1869788829
 20
35.7422191064
 30
0.0
 10
137.1763598824
 20
35.7806422341
 30
0.0
 10
137.173329894
 20
35.8316016178
 30
0.0
 10
137.1780953613
 20
35.895534447
 30
0.0
 10
137.19603658
 20
36.0054755269
 30
0.0
 10
137.2191043117
 20
36.0926796085
 30
0.0
 10
137.2373503378
 20
36.1541830322
 30
0.0
  0
SPLINE
  5
4A4
100
AcDbEntity
  8
GEOM
100
AcDbSpline
 62
7
  6
CONTINUOUS
 70
0
 71
3
 72
13
 73
9
 74
0
 42
0.0000001
 43
0.0000001
 44
0.0000000001
 40
0.0
 40
0.0
 40
0.0
 40
0.0
 40
0.2507388746
 40
0.3751291481
 40
0.4992411367
 40
0.623462699
 40
0.7481675662
 40
1.0
 40
1.0
 40
1.0
 40
1.0
 10
137.2373503378
 20
36.1541830322
 30
0.0
 10
137.6149433955
 20
37.4268037443
 30
0.0
 10
138.0692572541
 20
39.3682186078
 30
0.0
 10
138.3823251117
 20
41.9948145803
 30
0.0
 10
138.4615879724
 20
43.9686630034
 30
0.0
 10
138.3822042736
 20
45.9441655651
 30
0.0
 10
138.0688274125
 20
48.5788056883
 30
0.0
 10
137.6146391397
 20
50.5278152045
 30
0.0
 10
137.2373503378
 20
51.8065635294
 30
0.0
  0
SPLINE
  5
4A5
100
AcDbEntity
  8
GEOM
100
AcDbSpline
 62
7
  6
CONTINUOUS
 70
0
 71
3
 72
10
 73
6
 74
0
 42
0.0000001
 43
0.0000001
 44
0.0000000001
 40
0.0
 40
0.0
 40
0.0
 40
0.0
 40
0.2159506723
 40
0.4601077507
 40
1.0
 40
1.0
 40
1.0
 40
1.0
 10
137.2373503378
 20
51.8065635294
 30
0.0
 10
137.2153941487
 20
51.8809983809
 30
0.0
 10
137.1836264536
 20
52.0441387534
 30
0.0
 10
137.1640659309
 20
52.4036249101
 30
0.0
 10
137.1976272024
 20
52.6861310615
 30
0.0
 10
137.2373503378
 20
52.8760405845
 30
0.0
  0
SPLINE
  5
4A6
100
AcDbEntity
  8
GEOM
100
AcDbSpline
 62
7
  6
CONTINUOUS
 70
0
 71
3
 72
11
 73
7
 74
0
 42
0.0000001
 43
0.0000001
 44
0.0000000001
 40
0.0
 40
0.0
 40
0.0
 40
0.0
 40
0.2500083814
 40
0.4999904505
 40
0.7499811096
 40
1.0
 40
1.0
 40
1.0
 40
1.0
 10
137.2373503378
 20
52.8760405845
 30
0.0
 10
137.6178311593
 20
54.694663307
 30
0.0
 10
138.2222591797
 20
58.3677119776
 30
0.0
 10
138.5416176972
 20
63.9437950351
 30
0.0
 10
138.2222846993
 20
69.5199584456
 30
0.0
 10
137.6178462247
 20
73.1931500051
 30
0.0
 10
137.2373503378
 20
75.0118493671
 30
0.0
  0
SPLINE
  5
4A7
100
AcDbEntity
  8
GEOM
100
AcDbSpline
 62
7
  6
CONTINUOUS
 70
0
 71
3
 72
10
 73
6
 74
0
 42
0.0000001
 43
0.0000001
 44
0.0000000001
 40
0.0
 40
0.0
 40
0.0
 40
0.0
 40
0.5394950103
 40
0.7838384179
 40
1.0
 40
1.0
 40
1.0
 40
1.0
 10
137.2373503378
 20
75.0118493671
 30
0.0
 10
137.1976550016
 20
75.2016189653
 30
0.0
 10
137.1640801114
 20
75.4840432472
 30
0.0
 10
137.1836043196
 20
75.8435311638
 30
0.0
 10
137.2153737389
 20
76.0068185257
 30
0.0
 10
137.2373503378
 20
76.0813264222
 30
0.0
  0
SPLINE
  5
4A8
100
AcDbEntity
  8
GEOM
100
AcDbSpline
 62
7
  6
CONTINUOUS
 70
0
 71
3
 72
13
 73
9
 74
0
 42
0.0000001
 43
0.0000001
 44
0.0000000001
 40
0.0
 40
0.0
 40
0.0
 40
0.0
 40
0.2518251399
 40
0.3765242647
 40
0.5007418234
 40
0.6248538307
 40
0.7492478791
 40
1.0
 40
1.0
 40
1.0
 40
1.0
 10
137.2373503378
 20
76.0813264222
 30
0.0
 10
137.6146284307
 20
77.3600376425
 30
0.0
 10
138.0688041842
 20
79.3089780282
 30
0.0
 10
138.3821934584
 20
81.9435258533
 30
0.0
 10
138.4615834892
 20
83.9189763777
 30
0.0
 10
138.382346632
 20
85.892824614
 30
0.0
 10
138.0692860958
 20
88.5195126553
 30
0.0
 10
137.6149625544
 20
90.4610187454
 30
0.0
 10
137.2373503378
 20
91.7337069194
 30
0.0
  0
SPLINE
  5
4A9
100
AcDbEntity
  8
GEOM
100
AcDbSpline
 62
7
  6
CONTINUOUS
 70
0
 71
3
 72
14
 73
10
 74
0
 42
0.0000001
 43
0.0000001
 44
0.0000000001
 40
0.0
 40
0.0
 40
0.0
 40
0.0
 40
0.4006469163
 40
0.5620161752
 40
0.6953088322
 40
0.8005403935
 40
0.8801213898
 40
0.9414977478
 40
1.0
 40
1.0
 40
1.0
 40
1.0
 10
137.2373503378
 20
91.7337069194
 30
0.0
 10
137.2191170958
 20
91.7951658861
 30
0.0
 10
137.1960544847
 20
91.8823030444
 30
0.0
 10
137.1781212585
 20
91.9921848779
 30
0.0
 10
137.1733344506
 20
92.0561226638
 30
0.0
 10
137.1763335131
 20
92.1071255195
 30
0.0
 10
137.1869501166
 20
92.1456082485
 30
0.0
 10
137.2081252943
 20
92.1715449937
 30
0.0
 10
137.2279904201
 20
92.1765694676
 30
0.0
 10
137.2373503378
 20
92.1766988202
 30
0.0
  0
LINE
  5
4AA
100
AcDbEntity
  8
GEOM
100
AcDbLine
 62
7
  6
CONTINUOUS
 10
137.2373503378
 20
92.1766988202
 11
138.435173869
 21
92.1939449758
  0
SPLINE
  5
4AB
100
AcDbEntity
  8
0
100
AcDbSpline
 62
7
  6
CONTINUOUS
 70
0
 71
3
 72
54
 73
50
 74
0
 42
0.0000001
 43
0.0000001
 44
0.0000000001
 40
0.0
 40
0.0
 40
0.0
 40
0.0
 40
0.0004176531
 40
0.0011221491
 40
0.0021188351
 40
0.0034089503
 40
0.0049926541
 40
0.0068697017
 40
0.0115009088
 40
0.0172915925
 40
0.0242282627
 40
0.0322962873
 40
0.0414755936
 40
0.0517440631
 40
0.0630788244
 40
0.0888339304
 40
0.118497262
 40
0.1517856803
 40
0.1883836571
 40
0.2279436706
 40
0.2700887565
 40
0.3144190225
 40
0.4079320165
 40
0.5049349608
 40
0.6017478311
 40
0.6489309606
 40
0.6946978188
 40
0.7386128361
 40
0.7802585593
 40
0.81923982
 40
0.8551850922
 40
0.8877531914
 40
0.9166353759
 40
0.9296061492
 40
0.9415559269
 40
0.9524559306
 40
0.9622792913
 40
0.9710042183
 40
0.9786098077
 40
0.9850770231
 40
0.99039242
 40
0.9926144137
 40
0.9945439906
 40
0.9961800267
 40
0.9975222604
 40
0.9985709101
 40
0.9993270801
 40
0.9997949789
 40
1.0
 40
1.0
 40
1.0
 40
1.0
 10
151.4369346981
 20
36.4494700334
 30
0.0
 10
151.4331041297
 20
36.4561021985
 30
0.0
 10
151.4275142842
 20
36.4762525159
 30
0.0
 10
151.4200794614
 20
36.514218822
 30
0.0
 10
151.4127069013
 20
36.568681969
 30
0.0
 10
151.4050975472
 20
36.6392182053
 30
0.0
 10
151.3974746662
 20
36.7260229156
 30
0.0
 10
151.3864569651
 20
36.8740001135
 30
0.0
 10
151.3731609855
 20
37.0991599739
 30
0.0
 10
151.3579294101
 20
37.4171170226
 30
0.0
 10
151.3426276437
 20
37.798158604
 30
0.0
 10
151.3272662137
 20
38.2413790385
 30
0.0
 10
151.3118695571
 20
38.7457290594
 30
0.0
 10
151.2964440512
 20
39.3100080348
 30
0.0
 10
151.2749296367
 20
40.1781977378
 30
0.0
 10
151.248476846
 20
41.4020324299
 30
0.0
 10
151.2178110039
 20
43.0284477175
 30
0.0
 10
151.1870730552
 20
44.8537292232
 30
0.0
 10
151.1562805452
 20
46.86051785
 30
0.0
 10
151.1254529509
 20
49.0297367453
 30
0.0
 10
151.0945972408
 20
51.3407630031
 30
0.0
 10
151.052685745
 20
54.64111692
 30
0.0
 10
151.0011136477
 20
58.9474098244
 30
0.0
 10
150.9401823389
 20
64.2160828675
 30
0.0
 10
150.8889902978
 20
68.6352164557
 30
0.0
 10
150.8474438368
 20
72.114832989
 30
0.0
 10
150.8165598868
 20
74.6244686097
 30
0.0
 10
150.7856902806
 20
77.0325517056
 30
0.0
 10
150.7548401817
 20
79.316190341
 30
0.0
 10
150.7240184197
 20
81.4536663634
 30
0.0
 10
150.6932370034
 20
83.4246593957
 30
0.0
 10
150.6625067334
 20
85.2104320677
 30
0.0
 10
150.636117159
 20
86.57490934
 30
0.0
 10
150.6147271992
 20
87.5613105241
 30
0.0
 10
150.5992774121
 20
88.2180053195
 30
0.0
 10
150.5838443015
 20
88.816966005
 30
0.0
 10
150.5684291544
 20
89.3567686641
 30
0.0
 10
150.5530437446
 20
89.8361315363
 30
0.0
 10
150.5377073763
 20
90.2539173466
 30
0.0
 10
150.5224257237
 20
90.6091284482
 30
0.0
 10
150.5091190031
 20
90.8656130781
 30
0.0
 10
150.4982002024
 20
91.0388647839
 30
0.0
 10
150.4905123154
 20
91.1447477001
 30
0.0
 10
150.4829041816
 20
91.2343497714
 30
0.0
 10
150.475214395
 20
91.3080205715
 30
0.0
 10
150.467980324
 20
91.3647094476
 30
0.0
 10
150.4601005959
 20
91.40701781
 30
0.0
 10
150.4543258585
 20
91.4300418192
 30
0.0
 10
150.4470746547
 20
91.4439449758
 30
0.0
 10
150.4433149844
 20
91.4439449758
 30
0.0
  0
SPLINE
  5
4AC
100
AcDbEntity
  8
0
100
AcDbSpline
 62
7
  6
CONTINUOUS
 70
0
 71
3
 72
9
 73
5
 74
0
 42
0.0000001
 43
0.0000001
 44
0.0000000001
 40
0.0
 40
0.0
 40
0.0
 40
0.0
 40
0.3727256454
 40
1.0
 40
1.0
 40
1.0
 40
1.0
 10
150.6860627977
 20
37.7497719814
 30
0.0
 10
150.6820926191
 20
37.7566402515
 30
0.0
 10
150.6762720863
 20
37.7774751477
 30
0.0
 10
150.6721455322
 20
37.7982277753
 30
0.0
 10
150.6699152632
 20
37.811391242
 30
0.0
  0
SPLINE
  5
4AD
100
AcDbEntity
  8
0
100
AcDbSpline
 62
7
  6
CONTINUOUS
 70
0
 71
3
 72
45
 73
41
 74
0
 42
0.0000001
 43
0.0000001
 44
0.0000000001
 40
0.0
 40
0.0
 40
0.0
 40
0.0
 40
0.0023138095
 40
0.0057640753
 40
0.0103457535
 40
0.0160510972
 40
0.0307760283
 40
0.0498071804
 40
0.0729688762
 40
0.1000500085
 40
0.1308018485
 40
0.1649408176
 40
0.2421000919
 40
0.3286965294
 40
0.4215530574
 40
0.5172627438
 40
0.6123134861
 40
0.6584975283
 40
0.7032177576
 40
0.7460629907
 40
0.7866399886
 40
0.8245746132
 40
0.8595189685
 40
0.8911521038
 40
0.9191820389
 40
0.9317650414
 40
0.9433529312
 40
0.9539198481
 40
0.9634423366
 40
0.9718972727
 40
0.9792657408
 40
0.9855321677
 40
0.9906813834
 40
0.9947022926
 40
0.9962877158
 40
0.9975890355
 40
0.9986061317
 40
0.9993399127
 40
0.9997952755
 40
1.0
 40
1.0
 40
1.0
 40
1.0
 10
150.6699152632
 20
37.811391242
 30
0.0
 10
150.6631704684
 20
37.8512002878
 30
0.0
 10
150.6519414181
 20
37.9512499193
 30
0.0
 10
150.6372652907
 20
38.131163838
 30
0.0
 10
150.6224946047
 20
38.3704520675
 30
0.0
 10
150.600605524
 20
38.8063632209
 30
0.0
 10
150.5745925292
 20
39.4945059661
 30
0.0
 10
150.5448322057
 20
40.4872851069
 30
0.0
 10
150.5148967886
 20
41.6957634309
 30
0.0
 10
150.4847829499
 20
43.1088149214
 30
0.0
 10
150.4545827705
 20
44.7134588189
 30
0.0
 10
150.4124952185
 20
47.1919013876
 30
0.0
 10
150.3611328597
 20
50.6448196415
 30
0.0
 10
150.3013903968
 20
55.1223504889
 30
0.0
 10
150.2415040898
 20
59.9236141773
 30
0.0
 10
150.181542828
 20
64.8724167655
 30
0.0
 10
150.1311225742
 20
69.0068322161
 30
0.0
 10
150.0902185331
 20
72.2515222332
 30
0.0
 10
150.0598431802
 20
74.5852770862
 30
0.0
 10
150.0294819779
 20
76.8211796349
 30
0.0
 10
149.9991415767
 20
78.9386610651
 30
0.0
 10
149.9688274135
 20
80.9182561831
 30
0.0
 10
149.9385535702
 20
82.7417604302
 30
0.0
 10
149.9083326698
 20
84.3924009622
 30
0.0
 10
149.8823715435
 20
85.6528421897
 30
0.0
 10
149.8613346246
 20
86.5635133597
 30
0.0
 10
149.8461399074
 20
87.1695042277
 30
0.0
 10
149.8309605597
 20
87.7220709076
 30
0.0
 10
149.8158033464
 20
88.2199446034
 30
0.0
 10
149.8006739265
 20
88.6619784562
 30
0.0
 10
149.7855839091
 20
89.0471532788
 30
0.0
 10
149.7705671464
 20
89.3746078155
 30
0.0
 10
149.7556499682
 20
89.6435449547
 30
0.0
 10
149.7425488469
 20
89.8308427459
 30
0.0
 10
149.7316951564
 20
89.9508144689
 30
0.0
 10
149.7241307681
 20
90.0186995541
 30
0.0
 10
149.7170283504
 20
90.0710274098
 30
0.0
 10
149.7092528439
 20
90.1098743822
 30
0.0
 10
149.7035893066
 20
90.1314294034
 30
0.0
 10
149.6963320406
 20
90.1439146056
 30
0.0
 10
149.6927595634
 20
90.1439114743
 30
0.0
  0
SPLINE
  5
4AE
100
AcDbEntity
  8
0
100
AcDbSpline
 62
7
  6
CONTINUOUS
 70
0
 71
3
 72
36
 73
32
 74
0
 42
0.0000001
 43
0.0000001
 44
0.0000000001
 40
0.0
 40
0.0
 40
0.0
 40
0.0
 40
0.0001643879
 40
0.000489501
 40
0.0010022041
 40
0.0017081912
 40
0.0037066463
 40
0.0064897312
 40
0.0100547823
 40
0.0143977176
 40
0.0195139913
 40
0.0253975765
 40
0.0320396831
 40
0.0394311222
 40
0.0564240453
 40
0.0762844061
 40
0.0989051877
 40
0.1241640057
 40
0.1519240077
 40
0.1820352074
 40
0.2143340657
 40
0.2486462243
 40
0.2847851266
 40
0.3617526523
 40
0.4435709279
 40
0.5284691523
 40
0.6146098477
 40
0.7001285339
 40
0.7831744699
 40
0.8619497424
 40
1.0
 40
1.0
 40
1.0
 40
1.0
 10
148.5427595495
 20
37.7439735562
 30
0.0
 10
148.5403079993
 20
37.7439776543
 30
0.0
 10
148.5346601842
 20
37.750590805
 30
0.0
 10
148.5300962784
 20
37.7641166248
 30
0.0
 10
148.5241705691
 20
37.7867485593
 30
0.0
 10
148.5158336053
 20
37.8338198509
 30
0.0
 10
148.5057558278
 20
37.9152130981
 30
0.0
 10
148.4944897164
 20
38.0391140174
 30
0.0
 10
148.4830326465
 20
38.1981746367
 30
0.0
 10
148.4715027665
 20
38.3920589823
 30
0.0
 10
148.4599187259
 20
38.6205817162
 30
0.0
 10
148.4483059327
 20
38.8834241464
 30
0.0
 10
148.436668302
 20
39.1802260702
 30
0.0
 10
148.4203623665
 20
39.6426441854
 30
0.0
 10
148.4003418809
 20
40.3021755878
 30
0.0
 10
148.3771892215
 20
41.1888250465
 30
0.0
 10
148.3539799281
 20
42.1987810725
 30
0.0
 10
148.3307241601
 20
43.3265725435
 30
0.0
 10
148.3074381064
 20
44.566091149
 30
0.0
 10
148.2841298503
 20
45.9106159746
 30
0.0
 10
148.260804528
 20
47.3528678956
 30
0.0
 10
148.2374665593
 20
48.8850231027
 30
0.0
 10
148.2056653478
 20
51.0832799389
 30
0.0
 10
148.1663474628
 20
53.9899707422
 30
0.0
 10
148.1200282066
 20
57.6237906377
 30
0.0
 10
148.0736727888
 20
61.3944222386
 30
0.0
 10
148.0273041596
 20
65.2202428136
 30
0.0
 10
147.9809350931
 20
69.01843763
 30
0.0
 10
147.9346241838
 20
72.7067831728
 30
0.0
 10
147.8753838448
 20
77.1784405058
 30
0.0
 10
147.8281278935
 20
80.4116717802
 30
0.0
 10
147.7927600904
 20
82.4701426429
 30
0.0
  0
SPLINE
  5
4AF
100
AcDbEntity
  8
0
100
AcDbSpline
 62
7
  6
CONTINUOUS
 70
0
 71
3
 72
9
 73
5
 74
0
 42
0.0000001
 43
0.0000001
 44
0.0000000001
 40
0.0
 40
0.0
 40
0.0
 40
0.0
 40
0.1947755716
 40
1.0
 40
1.0
 40
1.0
 40
1.0
 10
152.6860634603
 20
37.7497519436
 30
0.0
 10
152.6854256174
 20
37.7508551818
 30
0.0
 10
152.6824999829
 20
37.7567194068
 30
0.0
 10
152.6805343131
 20
37.7630033846
 30
0.0
 10
152.6790990264
 20
37.7680724277
 30
0.0
  0
SPLINE
  5
4B0
100
AcDbEntity
  8
0
100
AcDbSpline
 62
7
  6
CONTINUOUS
 70
0
 71
3
 72
47
 73
43
 74
0
 42
0.0000001
 43
0.0000001
 44
0.0000000001
 40
0.0
 40
0.0
 40
0.0
 40
0.0
 40
0.0016507696
 40
0.0044571939
 40
0.0084190711
 40
0.0135307523
 40
0.019779926
 40
0.0271520681
 40
0.0451982797
 40
0.067499972
 40
0.0938499178
 40
0.1240020217
 40
0.1576727626
 40
0.1945480992
 40
0.2342823014
 40
0.3208146128
 40
0.4140354173
 40
0.5104599536
 40
0.6064832842
 40
0.6532184398
 40
0.6985158689
 40
0.7419506765
 40
0.7831168643
 40
0.8216282589
 40
0.8571239069
 40
0.8892725269
 40
0.9177718311
 40
0.9305687833
 40
0.9423556392
 40
0.9531062486
 40
0.962795015
 40
0.9713983014
 40
0.9788976361
 40
0.9852754834
 40
0.9905160184
 40
0.9946093124
 40
0.9962233187
 40
0.9975478359
 40
0.9985826233
 40
0.9993291025
 40
0.9997923512
 40
1.0
 40
1.0
 40
1.0
 40
1.0
 10
152.6790990264
 20
37.7680724277
 30
0.0
 10
152.6712445133
 20
37.795812437
 30
0.0
 10
152.6605205607
 20
37.8732858776
 30
0.0
 10
152.6455858978
 20
38.0193660799
 30
0.0
 10
152.6310497391
 20
38.2264605735
 30
0.0
 10
152.6159131961
 20
38.4936044788
 30
0.0
 10
152.6007963164
 20
38.8204452674
 30
0.0
 10
152.5789843942
 20
39.3730816369
 30
0.0
 10
152.5526629103
 20
40.2061077333
 30
0.0
 10
152.5224562185
 20
41.3705894615
 30
0.0
 10
152.4921169657
 20
42.7465599397
 30
0.0
 10
152.4616553632
 20
44.3211271987
 30
0.0
 10
152.4311268873
 20
46.0795492797
 30
0.0
 10
152.4005483704
 20
48.0053437255
 30
0.0
 10
152.3585321515
 20
50.8542944072
 30
0.0
 10
152.3069823553
 20
54.6872784152
 30
0.0
 10
152.2465528307
 20
59.5103217509
 30
0.0
 10
152.1860550945
 20
64.4991366213
 30
0.0
 10
152.1352024727
 20
68.6761404716
 30
0.0
 10
152.0939398973
 20
71.9602636073
 30
0.0
 10
152.0632809783
 20
74.3259927555
 30
0.0
 10
152.0326359095
 20
76.5944520395
 30
0.0
 10
152.0020114028
 20
78.7443827353
 30
0.0
 10
151.9714142487
 20
80.7556421286
 30
0.0
 10
151.9408566104
 20
82.6093915664
 30
0.0
 10
151.910352662
 20
84.2882555541
 30
0.0
 10
151.8841512546
 20
85.5706989533
 30
0.0
 10
151.862918653
 20
86.4975487874
 30
0.0
 10
151.8475805397
 20
87.1144715044
 30
0.0
 10
151.8322597822
 20
87.6770923821
 30
0.0
 10
151.8169602057
 20
88.1840900425
 30
0.0
 10
151.8016872258
 20
88.6342780961
 30
0.0
 10
151.7864569217
 20
89.0266009884
 30
0.0
 10
151.7713002969
 20
89.3601592638
 30
0.0
 10
151.7562394385
 20
89.6341279206
 30
0.0
 10
151.7430176884
 20
89.8249447564
 30
0.0
 10
151.7320623376
 20
89.947183781
 30
0.0
 10
151.7244291506
 20
90.016346485
 30
0.0
 10
151.7172558074
 20
90.0696378587
 30
0.0
 10
151.7094130305
 20
90.1092243651
 30
0.0
 10
151.7036872031
 20
90.1311383518
 30
0.0
 10
151.6963871024
 20
90.1439090583
 30
0.0
 10
151.6927605356
 20
90.143913922
 30
0.0
  0
SPLINE
  5
4B1
100
AcDbEntity
  8
0
100
AcDbSpline
 62
7
  6
CONTINUOUS
 70
0
 71
3
 72
47
 73
43
 74
0
 42
0.0000001
 43
0.0000001
 44
0.0000000001
 40
0.0
 40
0.0
 40
0.0
 40
0.0
 40
0.0002070835
 40
0.0006692454
 40
0.001414385
 40
0.0024473374
 40
0.0037689817
 40
0.0053791847
 40
0.0094629691
 40
0.0146926343
 40
0.0210564659
 40
0.0285389395
 40
0.0371241008
 40
0.0467921171
 40
0.0575192578
 40
0.0692815152
 40
0.0820518717
 40
0.1104921564
 40
0.1425761633
 40
0.1780031935
 40
0.216442084
 40
0.2575346981
 40
0.3008959565
 40
0.3461210086
 40
0.3927874669
 40
0.4886893725
 40
0.5850248324
 40
0.6782005373
 40
0.7647415691
 40
0.8045021265
 40
0.8414202732
 40
0.8751497517
 40
0.9053765976
 40
0.9318185373
 40
0.9542275048
 40
0.9723964312
 40
0.97983589
 40
0.9861560611
 40
0.9913412105
 40
0.9953804667
 40
0.9982674678
 40
1.0
 40
1.0
 40
1.0
 40
1.0
 10
150.5427600326
 20
37.7439781154
 30
0.0
 10
150.5391436348
 20
37.7439744989
 30
0.0
 10
150.5318375529
 20
37.7567041579
 30
0.0
 10
150.5261290131
 20
37.7785715842
 30
0.0
 10
150.5182912754
 20
37.8180775469
 30
0.0
 10
150.5111302511
 20
37.8712606267
 30
0.0
 10
150.5035037199
 20
37.9402682103
 30
0.0
 10
150.4925605711
 20
38.0622146659
 30
0.0
 10
150.4793517107
 20
38.252593096
 30
0.0
 10
150.4643122253
 20
38.5259387948
 30
0.0
 10
150.4491716038
 20
38.8587403974
 30
0.0
 10
150.4339572851
 20
39.2501751482
 30
0.0
 10
150.4187037004
 20
39.6993527904
 30
0.0
 10
150.4034215782
 20
40.2052199016
 30
0.0
 10
150.388117144
 20
40.7665925723
 30
0.0
 10
150.3727976725
 20
41.3821605842
 30
0.0
 10
150.3515892797
 20
42.3070092993
 30
0.0
 10
150.3254171527
 20
43.5867234692
 30
0.0
 10
150.294948049
 20
45.2620917177
 30
0.0
 10
150.2644261453
 20
47.1120955368
 30
0.0
 10
150.2338632379
 20
49.1194398307
 30
0.0
 10
150.2032741154
 20
51.2653579084
 30
0.0
 10
150.1726642781
 20
53.5297970339
 30
0.0
 10
150.1420400131
 20
55.8915831739
 30
0.0
 10
150.1008220382
 20
59.1708515614
 30
0.0
 10
150.0500224101
 20
63.3426354998
 30
0.0
 10
149.9895913931
 20
68.326575812
 30
0.0
 10
149.9292270952
 20
73.1470312077
 30
0.0
 10
149.8777404461
 20
76.9795249165
 30
0.0
 10
149.8357785168
 20
79.829601765
 30
0.0
 10
149.8052340045
 20
81.7574718496
 30
0.0
 10
149.7747385451
 20
83.5188285498
 30
0.0
 10
149.7443077888
 20
85.0972048708
 30
0.0
 10
149.7139989156
 20
86.4778486323
 30
0.0
 10
149.6838198446
 20
87.6478603087
 30
0.0
 10
149.6575249456
 20
88.4860116334
 30
0.0
 10
149.6357537729
 20
89.0431676219
 30
0.0
 10
149.6206423903
 20
89.3736800271
 30
0.0
 10
149.6055299179
 20
89.6446935929
 30
0.0
 10
149.5909350982
 20
89.8557924256
 30
0.0
 10
149.5760782163
 20
90.0061230904
 30
0.0
 10
149.565213236
 20
90.086363618
 30
0.0
 10
149.5575557761
 20
90.1156346247
 30
0.0
  0
SPLINE
  5
4B2
100
AcDbEntity
  8
0
100
AcDbSpline
 62
7
  6
CONTINUOUS
 70
0
 71
3
 72
9
 73
5
 74
0
 42
0.0000001
 43
0.0000001
 44
0.0000000001
 40
0.0
 40
0.0
 40
0.0
 40
0.0
 40
0.3129949714
 40
1.0
 40
1.0
 40
1.0
 40
1.0
 10
149.5575557761
 20
90.1156346247
 30
0.0
 10
149.5569239896
 20
90.1180496588
 30
0.0
 10
149.5547613227
 20
90.1257081529
 30
0.0
 10
149.5521990105
 20
90.1333752154
 30
0.0
 10
149.5494567929
 20
90.1381188766
 30
0.0
  0
SPLINE
  5
4B3
100
AcDbEntity
  8
0
100
AcDbSpline
 62
7
  6
CONTINUOUS
 70
0
 71
3
 72
9
 73
5
 74
0
 42
0.0000001
 43
0.0000001
 44
0.0000000001
 40
0.0
 40
0.0
 40
0.0
 40
0.0
 40
0.3572239175
 40
1.0
 40
1.0
 40
1.0
 40
1.0
 10
146.6860634373
 20
37.7497624783
 30
0.0
 10
146.6805732692
 20
37.7592818674
 30
0.0
 10
146.673607586
 20
37.7899265971
 30
0.0
 10
146.6683550775
 20
37.8199489611
 30
0.0
 10
146.6655670992
 20
37.8395248575
 30
0.0
  0
SPLINE
  5
4B4
100
AcDbEntity
  8
0
100
AcDbSpline
 62
7
  6
CONTINUOUS
 70
0
 71
3
 72
44
 73
40
 74
0
 42
0.0000001
 43
0.0000001
 44
0.0000000001
 40
0.0
 40
0.0
 40
0.0
 40
0.0
 40
0.0026238934
 40
0.0063754312
 40
0.0172280984
 40
0.0324679174
 40
0.0519562442
 40
0.0755176805
 40
0.1029381462
 40
0.13396685
 40
0.1683227219
 40
0.2457338662
 40
0.3323572709
 40
0.4250422619
 40
0.5204181354
 40
0.6150163103
 40
0.6609440261
 40
0.7053962006
 40
0.7479682466
 40
0.7882712601
 40
0.8259389381
 40
0.860627965
 40
0.892021424
 40
0.919834916
 40
0.9323178735
 40
0.9438141453
 40
0.9542965901
 40
0.9637410751
 40
0.9721275517
 40
0.9794363335
 40
0.9856502142
 40
0.9907570216
 40
0.9947455676
 40
0.9963175526
 40
0.9976075357
 40
0.9986158612
 40
0.999343847
 40
0.9997961987
 40
1.0
 40
1.0
 40
1.0
 40
1.0
 10
146.6655670992
 20
37.8395248575
 30
0.0
 10
146.659114757
 20
37.8848302252
 30
0.0
 10
146.6478769
 20
37.9955110644
 30
0.0
 10
146.6255245754
 20
38.2951396074
 30
0.0
 10
146.6000915828
 20
38.8150949239
 30
0.0
 10
146.5707032165
 20
39.6094965549
 30
0.0
 10
146.5411746669
 20
40.6256957346
 30
0.0
 10
146.5112927305
 20
41.854381222
 30
0.0
 10
146.4813147281
 20
43.2843924084
 30
0.0
 10
146.4512304824
 20
44.9026980159
 30
0.0
 10
146.4093692426
 20
47.3928041606
 30
0.0
 10
146.3582430654
 20
50.8524963822
 30
0.0
 10
146.29874669
 20
55.329469303
 30
0.0
 10
146.2391115033
 20
60.1197834627
 30
0.0
 10
146.1794065424
 20
65.0491924184
 30
0.0
 10
146.129191386
 20
69.1631771867
 30
0.0
 10
146.0884573169
 20
72.3890664124
 30
0.0
 10
146.058216029
 20
74.7076436876
 30
0.0
 10
146.0279901647
 20
76.9281138002
 30
0.0
 10
145.9977831496
 20
79.0302463663
 30
0.0
 10
145.9676035982
 20
80.994878956
 30
0.0
 10
145.9374651211
 20
82.8041037936
 30
0.0
 10
145.9073755134
 20
84.4414395103
 30
0.0
 10
145.8815320557
 20
85.6914962053
 30
0.0
 10
145.8605846812
 20
86.5945549108
 30
0.0
 10
145.8454587272
 20
87.195400592
 30
0.0
 10
145.8303482514
 20
87.7432355211
 30
0.0
 10
145.8152557088
 20
88.2368109401
 30
0.0
 10
145.8001941629
 20
88.6750091883
 30
0.0
 10
145.7851743647
 20
89.0568234276
 30
0.0
 10
145.770220871
 20
89.3814026293
 30
0.0
 10
145.7553682164
 20
89.6479731479
 30
0.0
 10
145.7423312576
 20
89.8336302458
 30
0.0
 10
145.7315234497
 20
89.9525410518
 30
0.0
 10
145.7239926448
 20
90.0198012179
 30
0.0
 10
145.7169171864
 20
90.0716547666
 30
0.0
 10
145.709179318
 20
90.1101592615
 30
0.0
 10
145.7035326457
 20
90.1315567468
 30
0.0
 10
145.6963148542
 20
90.1439429369
 30
0.0
 10
145.6927604173
 20
90.1439446511
 30
0.0
  0
SPLINE
  5
4B5
100
AcDbEntity
  8
0
100
AcDbSpline
 62
7
  6
CONTINUOUS
 70
0
 71
3
 72
47
 73
43
 74
0
 42
0.0000001
 43
0.0000001
 44
0.0000000001
 40
0.0
 40
0.0
 40
0.0
 40
0.0
 40
0.0002062225
 40
0.0006662952
 40
0.0014075239
 40
0.002434415
 40
0.0037480746
 40
0.0053486339
 40
0.0094091522
 40
0.0146090735
 40
0.0209356865
 40
0.0283755029
 40
0.0369123986
 40
0.046525224
 40
0.0571921798
 40
0.0688897007
 40
0.0815892978
 40
0.109876114
 40
0.1417903607
 40
0.1770367966
 40
0.2152867283
 40
0.2561856601
 40
0.2993538692
 40
0.3443896325
 40
0.3908753141
 40
0.4864585683
 40
0.5825600146
 40
0.6756169383
 40
0.7621796903
 40
0.8020097071
 40
0.8390388239
 40
0.8729225944
 40
0.9033458711
 40
0.9300276387
 40
0.952719014
 40
0.9712101876
 40
0.9788262687
 40
0.9853317419
 40
0.9907109113
 40
0.9949536195
 40
0.9980513164
 40
1.0
 40
1.0
 40
1.0
 40
1.0
 10
152.5427606944
 20
37.7439558445
 30
0.0
 10
152.5391602288
 20
37.7439480108
 30
0.0
 10
152.5318681538
 20
37.7566061284
 30
0.0
 10
152.5261853168
 20
37.7783651992
 30
0.0
 10
152.5183675508
 20
37.8176412796
 30
0.0
 10
152.5112277952
 20
37.8705017705
 30
0.0
 10
152.5036233731
 20
37.9390767305
 30
0.0
 10
152.4927117489
 20
38.060279618
 30
0.0
 10
152.4795455961
 20
38.2495167972
 30
0.0
 10
152.4645527398
 20
38.5212198536
 30
0.0
 10
152.4494551785
 20
38.8520251556
 30
0.0
 10
152.4342881477
 20
39.2411260582
 30
0.0
 10
152.4190823594
 20
39.6876417878
 30
0.0
 10
152.4038447909
 20
40.1905268903
 30
0.0
 10
152.3885869722
 20
40.7486163498
 30
0.0
 10
152.3733154715
 20
41.360615997
 30
0.0
 10
152.3521687031
 20
42.2801912594
 30
0.0
 10
152.3260773694
 20
43.5527108569
 30
0.0
 10
152.2956986291
 20
45.2188691896
 30
0.0
 10
152.2652701635
 20
47.0590004314
 30
0.0
 10
152.2347997018
 20
49.0560156587
 30
0.0
 10
152.2043025279
 20
51.1913530305
 30
0.0
 10
152.1737858297
 20
53.4451764838
 30
0.0
 10
152.1432538223
 20
55.7965482709
 30
0.0
 10
152.1021526589
 20
59.0629829987
 30
0.0
 10
152.0514937407
 20
63.2209322887
 30
0.0
 10
151.9912386006
 20
68.1919202964
 30
0.0
 10
151.931047376
 20
73.0054067876
 30
0.0
 10
151.879725847
 20
76.8364743328
 30
0.0
 10
151.8379089991
 20
79.6893792246
 30
0.0
 10
151.8074526232
 20
81.6226192871
 30
0.0
 10
151.7770448967
 20
83.3916044128
 30
0.0
 10
151.7466978466
 20
84.9799049827
 30
0.0
 10
151.716465975
 20
86.3727592608
 30
0.0
 10
151.6863629697
 20
87.5572333219
 30
0.0
 10
151.6601393012
 20
88.4088242344
 30
0.0
 10
151.6384744494
 20
88.9778030123
 30
0.0
 10
151.6233798568
 20
89.3179442089
 30
0.0
 10
151.6083186223
 20
89.5990990218
 30
0.0
 10
151.5936251669
 20
89.8207400165
 30
0.0
 10
151.5788880483
 20
89.9821744924
 30
0.0
 10
151.5677838317
 20
90.0697630146
 30
0.0
 10
151.5605507066
 20
90.1030076499
 30
0.0
  0
SPLINE
  5
4B6
100
AcDbEntity
  8
0
100
AcDbSpline
 62
7
  6
CONTINUOUS
 70
0
 71
3
 72
9
 73
5
 74
0
 42
0.0000001
 43
0.0000001
 44
0.0000000001
 40
0.0
 40
0.0
 40
0.0
 40
0.0
 40
0.3275915647
 40
1.0
 40
1.0
 40
1.0
 40
1.0
 10
151.5605507066
 20
90.1030076499
 30
0.0
 10
151.5596948742
 20
90.1069411967
 30
0.0
 10
151.5568300995
 20
90.1188428242
 30
0.0
 10
151.5535884041
 20
90.1309559723
 30
0.0
 10
151.5494577699
 20
90.1381122295
 30
0.0
  0
SPLINE
  5
4B7
100
AcDbEntity
  8
0
100
AcDbSpline
 62
7
  6
CONTINUOUS
 70
0
 71
3
 72
47
 73
43
 74
0
 42
0.0000001
 43
0.0000001
 44
0.0000000001
 40
0.0
 40
0.0
 40
0.0
 40
0.0
 40
0.0002066045
 40
0.0006667268
 40
0.0014076486
 40
0.0024341848
 40
0.0037477605
 40
0.0053487858
 40
0.0094103618
 40
0.0146099635
 40
0.0209370089
 40
0.0283782765
 40
0.0369152376
 40
0.0465285543
 40
0.057197243
 40
0.0688952253
 40
0.0815953937
 40
0.1098849367
 40
0.1418017672
 40
0.177050169
 40
0.2153033552
 40
0.2562048716
 40
0.2993756435
 40
0.3444144425
 40
0.3909024515
 40
0.4864903533
 40
0.5825951907
 40
0.6756539265
 40
0.7622159848
 40
0.8020455705
 40
0.8390725518
 40
0.8729542595
 40
0.9033751965
 40
0.9300527375
 40
0.9527407084
 40
0.9712273535
 40
0.9788409946
 40
0.9853429358
 40
0.9907200393
 40
0.9949601548
 40
0.9980538397
 40
1.0
 40
1.0
 40
1.0
 40
1.0
 10
146.5427606762
 20
37.7439527526
 30
0.0
 10
146.5391535255
 20
37.7439599769
 30
0.0
 10
146.5318842246
 20
37.7566246061
 30
0.0
 10
146.5261780514
 20
37.7783884001
 30
0.0
 10
146.5183695169
 20
37.8176510115
 30
0.0
 10
146.5112239534
 20
37.8704994901
 30
0.0
 10
146.5036206757
 20
37.9390748023
 30
0.0
 10
146.4927098788
 20
38.0603036813
 30
0.0
 10
146.4795457974
 20
38.249562624
 30
0.0
 10
146.4645475724
 20
38.5212869358
 30
0.0
 10
146.4494501674
 20
38.8521208341
 30
0.0
 10
146.4342852515
 20
39.241257343
 30
0.0
 10
146.4190763036
 20
39.6878097248
 30
0.0
 10
146.403837691
 20
40.1907366982
 30
0.0
 10
146.388581494
 20
40.7488752179
 30
0.0
 10
146.373307802
 20
41.3609254248
 30
0.0
 10
146.3521597262
 20
42.2805697914
 30
0.0
 10
146.3260682541
 20
43.5531969132
 30
0.0
 10
146.2956882466
 20
45.2194885841
 30
0.0
 10
146.2652573565
 20
47.0597630163
 30
0.0
 10
146.2347867085
 20
49.0569220737
 30
0.0
 10
146.2042877078
 20
51.1924141968
 30
0.0
 10
146.1737694908
 20
53.4463890339
 30
0.0
 10
146.1432366683
 20
55.7979080928
 30
0.0
 10
146.1021332753
 20
59.0645299306
 30
0.0
 10
146.0514727349
 20
63.2226759154
 30
0.0
 10
145.991214809
 20
68.1938546783
 30
0.0
 10
145.9310216818
 20
73.0074380818
 30
0.0
 10
145.8796965932
 20
76.8385320634
 30
0.0
 10
145.837879013
 20
79.6913908026
 30
0.0
 10
145.8074204623
 20
81.6245573029
 30
0.0
 10
145.7770113935
 20
83.3934349248
 30
0.0
 10
145.7466646915
 20
84.9815908255
 30
0.0
 10
145.7164291463
 20
86.3742761688
 30
0.0
 10
145.6863274303
 20
87.5585423835
 30
0.0
 10
145.6601007686
 20
88.409955246
 30
0.0
 10
145.6384371745
 20
88.978752753
 30
0.0
 10
145.6233381715
 20
89.318754622
 30
0.0
 10
145.6082781796
 20
89.5997672076
 30
0.0
 10
145.5935907035
 20
89.8212580712
 30
0.0
 10
145.5788442911
 20
89.9825319564
 30
0.0
 10
145.5677429353
 20
90.0700066961
 30
0.0
 10
145.5605077377
 20
90.1032059247
 30
0.0
  0
SPLINE
  5
4B8
100
AcDbEntity
  8
0
100
AcDbSpline
 62
7
  6
CONTINUOUS
 70
0
 71
3
 72
9
 73
5
 74
0
 42
0.0000001
 43
0.0000001
 44
0.0000000001
 40
0.0
 40
0.0
 40
0.0
 40
0.0
 40
0.327413002
 40
1.0
 40
1.0
 40
1.0
 40
1.0
 10
145.5605077377
 20
90.1032059247
 30
0.0
 10
145.5596550651
 20
90.107118475
 30
0.0
 10
145.5568001887
 20
90.1189632999
 30
0.0
 10
145.5535684645
 20
90.1310167141
 30
0.0
 10
145.5494576666
 20
90.138141903
 30
0.0
  0
SPLINE
  5
4B9
100
AcDbEntity
  8
0
100
AcDbSpline
 62
7
  6
CONTINUOUS
 70
0
 71
3
 72
45
 73
41
 74
0
 42
0.0000001
 43
0.0000001
 44
0.0000000001
 40
0.0
 40
0.0
 40
0.0
 40
0.0
 40
0.0002042246
 40
0.0006580887
 40
0.0013886735
 40
0.0024006158
 40
0.0036951621
 40
0.0052725852
 40
0.0092748933
 40
0.0143996952
 40
0.0206352439
 40
0.0279691177
 40
0.0363845917
 40
0.0458614656
 40
0.0563792805
 40
0.0679143061
 40
0.0804389607
 40
0.1083434145
 40
0.1398370078
 40
0.1746333183
 40
0.2124129678
 40
0.2528306805
 40
0.2955174923
 40
0.3400820182
 40
0.3861172414
 40
0.4809053213
 40
0.5764213314
 40
0.6691785187
 40
0.7557909267
 40
0.8330964325
 40
0.8673616413
 40
0.8982739682
 40
0.9255522976
 40
0.9489461489
 40
0.9682423023
 40
0.9832663878
 40
0.9891313953
 40
0.9938815372
 40
0.9975067506
 40
1.0
 40
1.0
 40
1.0
 40
1.0
 10
144.542759896
 20
37.7439461242
 30
0.0
 10
144.5391972226
 20
37.743942841
 30
0.0
 10
144.5319620337
 20
37.7563847416
 30
0.0
 10
144.5263116311
 20
37.7778506076
 30
0.0
 10
144.5185567108
 20
37.8165085293
 30
0.0
 10
144.5114694524
 20
37.8685587769
 30
0.0
 10
144.5039240918
 20
37.9360742894
 30
0.0
 10
144.4930958236
 20
38.0554275572
 30
0.0
 10
144.4800335347
 20
38.2417786305
 30
0.0
 10
144.4651541097
 20
38.5093451196
 30
0.0
 10
144.4501724228
 20
38.8351320612
 30
0.0
 10
144.4351236485
 20
39.2183596028
 30
0.0
 10
144.4200343268
 20
39.6581717916
 30
0.0
 10
144.4049135631
 20
40.1535537175
 30
0.0
 10
144.3897741327
 20
40.7033783661
 30
0.0
 10
144.3746200317
 20
41.3063888971
 30
0.0
 10
144.3536338428
 20
42.2126548406
 30
0.0
 10
144.3277420244
 20
43.4670728813
 30
0.0
 10
144.2975960952
 20
45.1100071097
 30
0.0
 10
144.2674012644
 20
46.925238243
 30
0.0
 10
144.2371649494
 20
48.8961685189
 30
0.0
 10
144.2069014884
 20
51.0047623102
 30
0.0
 10
144.1766189878
 20
53.2317286758
 30
0.0
 10
144.1463210565
 20
55.5567002851
 30
0.0
 10
144.1055154575
 20
58.7905125433
 30
0.0
 10
144.0552139078
 20
62.9131182701
 30
0.0
 10
143.9954009768
 20
67.8507277937
 30
0.0
 10
143.9356600178
 20
72.6457041851
 30
0.0
 10
143.8760600527
 20
77.1229760793
 30
0.0
 10
143.8248344093
 20
80.5798816843
 30
0.0
 10
143.7828775522
 20
83.0651289174
 30
0.0
 10
143.7527469071
 20
84.6777308933
 30
0.0
 10
143.722701989
 20
86.1006473947
 30
0.0
 10
143.6928271246
 20
87.3208765753
 30
0.0
 10
143.6631171078
 20
88.3272547323
 30
0.0
 10
143.6371580865
 20
89.0278227078
 30
0.0
 10
143.6153650742
 20
89.4745649407
 30
0.0
 10
143.6005841139
 20
89.7225651834
 30
0.0
 10
143.5859267196
 20
89.9115864399
 30
0.0
 10
143.5746866453
 20
90.0177995525
 30
0.0
 10
143.5681223152
 20
90.0607957965
 30
0.0
  0
SPLINE
  5
4BA
100
AcDbEntity
  8
0
100
AcDbSpline
 62
7
  6
CONTINUOUS
 70
0
 71
3
 72
9
 73
5
 74
0
 42
0.0000001
 43
0.0000001
 44
0.0000000001
 40
0.0
 40
0.0
 40
0.0
 40
0.0
 40
0.6087127719
 40
1.0
 40
1.0
 40
1.0
 40
1.0
 10
143.5681223152
 20
90.0607957965
 30
0.0
 10
143.5658716522
 20
90.0755375983
 30
0.0
 10
143.561682664
 20
90.0996344348
 30
0.0
 10
143.5558189539
 20
90.1235804769
 30
0.0
 10
143.5521803228
 20
90.1324490538
 30
0.0
  0
SPLINE
  5
4BB
100
AcDbEntity
  8
0
100
AcDbSpline
 62
7
  6
CONTINUOUS
 70
0
 71
3
 72
8
 73
4
 74
0
 42
0.0000001
 43
0.0000001
 44
0.0000000001
 40
0.0
 40
0.0
 40
0.0
 40
0.0
 40
1.0
 40
1.0
 40
1.0
 40
1.0
 10
143.5521803228
 20
90.1324490538
 30
0.0
 10
143.5513833205
 20
90.1343916185
 30
0.0
 10
143.5505059449
 20
90.1363101545
 30
0.0
 10
143.5494567862
 20
90.1381289552
 30
0.0
  0
SPLINE
  5
4BC
100
AcDbEntity
  8
0
100
AcDbSpline
 62
7
  6
CONTINUOUS
 70
0
 71
3
 72
9
 73
5
 74
0
 42
0.0000001
 43
0.0000001
 44
0.0000000001
 40
0.0
 40
0.0
 40
0.0
 40
0.0
 40
0.372975964
 40
1.0
 40
1.0
 40
1.0
 40
1.0
 10
144.6860626493
 20
37.7497439887
 30
0.0
 10
144.6821033429
 20
37.7565998928
 30
0.0
 10
144.6762987615
 20
37.77737736
 30
0.0
 10
144.6721792768
 20
37.7980734702
 30
0.0
 10
144.6699529904
 20
37.811195592
 30
0.0
  0
SPLINE
  5
4BD
100
AcDbEntity
  8
0
100
AcDbSpline
 62
7
  6
CONTINUOUS
 70
0
 71
3
 72
45
 73
41
 74
0
 42
0.0000001
 43
0.0000001
 44
0.0000000001
 40
0.0
 40
0.0
 40
0.0
 40
0.0
 40
0.002310623
 40
0.0057576508
 40
0.0103377743
 40
0.0160404683
 40
0.0307609859
 40
0.0497873864
 40
0.0729464419
 40
0.1000241921
 40
0.130773405
 40
0.1649111208
 40
0.2420678017
 40
0.328663855
 40
0.4215221334
 40
0.5172347908
 40
0.6122896361
 40
0.6584756625
 40
0.7031984833
 40
0.7460461976
 40
0.7866251448
 40
0.8245627692
 40
0.859509055
 40
0.8911439763
 40
0.9191766356
 40
0.9317597949
 40
0.9433484923
 40
0.9539168951
 40
0.9634394712
 40
0.9718947532
 40
0.979264572
 40
0.9855310681
 40
0.9906801366
 40
0.9947021704
 40
0.9962879081
 40
0.9975889913
 40
0.9986055868
 40
0.9993392496
 40
0.9997949345
 40
1.0
 40
1.0
 40
1.0
 40
1.0
 10
144.6699529904
 20
37.811195592
 30
0.0
 10
144.6632085576
 20
37.8509484588
 30
0.0
 10
144.651974127
 20
37.9508851811
 30
0.0
 10
144.6372972787
 20
38.1306601488
 30
0.0
 10
144.622532534
 20
38.3698195774
 30
0.0
 10
144.6006367663
 20
38.8055814895
 30
0.0
 10
144.5746273111
 20
39.4935208111
 30
0.0
 10
144.5448621407
 20
40.4860975242
 30
0.0
 10
144.5149293945
 20
41.694392569
 30
0.0
 10
144.4848126104
 20
43.1072985038
 30
0.0
 10
144.4546114506
 20
44.711821866
 30
0.0
 10
144.4125231229
 20
47.1901610613
 30
0.0
 10
144.361157565
 20
50.6430188412
 30
0.0
 10
144.3014132208
 20
55.1205456368
 30
0.0
 10
144.2415249262
 20
59.9219036358
 30
0.0
 10
144.1815612257
 20
64.8708794104
 30
0.0
 10
144.1311395701
 20
69.0054689789
 30
0.0
 10
144.0902335803
 20
72.2503230319
 30
0.0
 10
144.0598573022
 20
74.5842100908
 30
0.0
 10
144.029495228
 20
76.820243859
 30
0.0
 10
143.9991527224
 20
78.9378631553
 30
0.0
 10
143.9688384867
 20
80.917586027
 30
0.0
 10
143.9385631968
 20
82.7412145518
 30
0.0
 10
143.9083398187
 20
84.391973857
 30
0.0
 10
143.8823802048
 20
85.6525014702
 30
0.0
 10
143.8613406694
 20
86.5632405034
 30
0.0
 10
143.8461450043
 20
87.1692764718
 30
0.0
 10
143.8309671195
 20
87.7218869078
 30
0.0
 10
143.8158079367
 20
88.2197959935
 30
0.0
 10
143.8006765675
 20
88.6618626444
 30
0.0
 10
143.7855888938
 20
89.0470698881
 30
0.0
 10
143.7705710289
 20
89.3745478976
 30
0.0
 10
143.755649314
 20
89.6435041195
 30
0.0
 10
143.7425512054
 20
89.8308253952
 30
0.0
 10
143.7316977028
 20
89.9508187487
 30
0.0
 10
143.7241343965
 20
90.0186965871
 30
0.0
 10
143.7170258232
 20
90.0710096404
 30
0.0
 10
143.7092559345
 20
90.1098504795
 30
0.0
 10
143.703578345
 20
90.1314144002
 30
0.0
 10
143.6963379678
 20
90.1439157553
 30
0.0
 10
143.6927595323
 20
90.1439234946
 30
0.0
  0
SPLINE
  5
4BE
100
AcDbEntity
  8
0
100
AcDbSpline
 62
7
  6
CONTINUOUS
 70
0
 71
3
 72
9
 73
5
 74
0
 42
0.0000001
 43
0.0000001
 44
0.0000000001
 40
0.0
 40
0.0
 40
0.0
 40
0.0
 40
0.3690857665
 40
1.0
 40
1.0
 40
1.0
 40
1.0
 10
144.7985857433
 20
91.4383841415
 30
0.0
 10
144.8026712691
 20
91.4313006169
 30
0.0
 10
144.8084842466
 20
91.4095208138
 30
0.0
 10
144.8126450637
 20
91.38790843
 30
0.0
 10
144.814888734
 20
91.3741114591
 30
0.0
  0
SPLINE
  5
4BF
100
AcDbEntity
  8
0
100
AcDbSpline
 62
7
  6
CONTINUOUS
 70
0
 71
3
 72
47
 73
43
 74
0
 42
0.0000001
 43
0.0000001
 44
0.0000000001
 40
0.0
 40
0.0
 40
0.0
 40
0.0
 40
0.0022995464
 40
0.0057379108
 40
0.010308699
 40
0.0160024644
 40
0.0307084545
 40
0.0497217654
 40
0.0728686477
 40
0.0999378059
 40
0.1306793986
 40
0.1648110312
 40
0.202019743
 40
0.2419624408
 40
0.328559851
 40
0.4214249582
 40
0.5171493809
 40
0.6122193116
 40
0.658413804
 40
0.7031452487
 40
0.7460016363
 40
0.7865893056
 40
0.8245352067
 40
0.8594894809
 40
0.8911315654
 40
0.9191707646
 40
0.9317566815
 40
0.9433483044
 40
0.9539189962
 40
0.9634433444
 40
0.9719007822
 40
0.9792719978
 40
0.9855390398
 40
0.9906892063
 40
0.9928419957
 40
0.994711473
 40
0.9962965711
 40
0.9975970396
 40
0.9986131375
 40
0.999346009
 40
0.999799893
 40
1.0
 40
1.0
 40
1.0
 40
1.0
 10
144.814888734
 20
91.3741114591
 30
0.0
 10
144.821649178
 20
91.3325395529
 30
0.0
 10
144.832881488
 20
91.2279553206
 30
0.0
 10
144.8475516916
 20
91.0397376816
 30
0.0
 10
144.8623193795
 20
90.7891678196
 30
0.0
 10
144.8842212003
 20
90.3323399613
 30
0.0
 10
144.9102297785
 20
89.6109026188
 30
0.0
 10
144.9399981381
 20
88.5697792573
 30
0.0
 10
144.9699354135
 20
87.3021366914
 30
0.0
 10
145.0000538741
 20
85.8196384565
 30
0.0
 10
145.0302566564
 20
84.1359103995
 30
0.0
 10
145.0605246756
 20
82.266443339
 30
0.0
 10
145.0908349402
 20
80.2284312647
 30
0.0
 10
145.1324151369
 20
77.2295299195
 30
0.0
 10
145.183467279
 20
73.2112729749
 30
0.0
 10
145.2433752281
 20
68.1713623056
 30
0.0
 10
145.3033424949
 20
62.9762608893
 30
0.0
 10
145.3537709164
 20
58.635915498
 30
0.0
 10
145.3946814628
 20
55.2294995811
 30
0.0
 10
145.425061575
 20
52.7793586866
 30
0.0
 10
145.4554275454
 20
50.4319191884
 30
0.0
 10
145.485773651
 20
48.2087728975
 30
0.0
 10
145.5160919213
 20
46.1303739539
 30
0.0
 10
145.5463706292
 20
44.2158384812
 30
0.0
 10
145.5765982466
 20
42.4827760845
 30
0.0
 10
145.6025605901
 20
41.1593979856
 30
0.0
 10
145.6236032068
 20
40.2032381668
 30
0.0
 10
145.6387999886
 20
39.566977802
 30
0.0
 10
145.653979986
 20
38.9868094771
 30
0.0
 10
145.6691424824
 20
38.4640671016
 30
0.0
 10
145.6842762251
 20
37.9999526169
 30
0.0
 10
145.6993610133
 20
37.5955305459
 30
0.0
 10
145.7143908048
 20
37.2517343682
 30
0.0
 10
145.7274790846
 20
37.0035207499
 30
0.0
 10
145.7382194326
 20
36.8358728392
 30
0.0
 10
145.7457821317
 20
36.7334211834
 30
0.0
 10
145.7532667435
 20
36.6467218612
 30
0.0
 10
145.7608333064
 20
36.5754481032
 30
0.0
 10
145.7679484523
 20
36.5205823593
 30
0.0
 10
145.7757064005
 20
36.4796833975
 30
0.0
 10
145.7813810093
 20
36.457320958
 30
0.0
 10
145.7885402088
 20
36.4439449758
 30
0.0
 10
145.7922053262
 20
36.4439449758
 30
0.0
  0
SPLINE
  5
4C0
100
AcDbEntity
  8
0
100
AcDbSpline
 62
7
  6
CONTINUOUS
 70
0
 71
3
 72
9
 73
5
 74
0
 42
0.0000001
 43
0.0000001
 44
0.0000000001
 40
0.0
 40
0.0
 40
0.0
 40
0.0
 40
0.6631652878
 40
1.0
 40
1.0
 40
1.0
 40
1.0
 10
71.9422055345
 20
91.4439396516
 30
0.0
 10
71.9441065551
 20
91.443943505
 30
0.0
 10
71.9466281503
 20
91.441605073
 30
0.0
 10
71.9481032107
 20
91.4392552936
 30
0.0
 10
71.9485858487
 20
91.4384190032
 30
0.0
  0
SPLINE
  5
4C1
100
AcDbEntity
  8
0
100
AcDbSpline
 62
7
  6
CONTINUOUS
 70
0
 71
3
 72
9
 73
5
 74
0
 42
0.0000001
 43
0.0000001
 44
0.0000000001
 40
0.0
 40
0.0
 40
0.0
 40
0.0
 40
0.4660934938
 40
1.0
 40
1.0
 40
1.0
 40
1.0
 10
64.9422031635
 20
36.4439604871
 30
0.0
 10
64.9427101072
 20
36.4439572826
 30
0.0
 10
64.9438058801
 20
36.4441902201
 30
0.0
 10
64.9447354876
 20
36.4447885057
 30
0.0
 10
64.9451877464
 20
36.4451527694
 30
0.0
  0
SPLINE
  5
4C2
100
AcDbEntity
  8
0
100
AcDbSpline
 62
7
  6
CONTINUOUS
 70
0
 71
3
 72
8
 73
4
 74
0
 42
0.0000001
 43
0.0000001
 44
0.0000000001
 40
0.0
 40
0.0
 40
0.0
 40
0.0
 40
1.0
 40
1.0
 40
1.0
 40
1.0
 10
64.9451877464
 20
36.4451527694
 30
0.0
 10
64.9466117475
 20
36.4462997052
 30
0.0
 10
64.9476700075
 20
36.4478764013
 30
0.0
 10
64.9485852063
 20
36.4494593264
 30
0.0
  0
SPLINE
  5
4C3
100
AcDbEntity
  8
0
100
AcDbSpline
 62
7
  6
CONTINUOUS
 70
0
 71
3
 72
26
 73
22
 74
0
 42
0.0000001
 43
0.0000001
 44
0.0000000001
 40
0.0
 40
0.0
 40
0.0
 40
0.0
 40
0.0008686175
 40
0.0022665865
 40
0.0066871629
 40
0.0132864703
 40
0.0220628487
 40
0.033006805
 40
0.0460976894
 40
0.061312565
 40
0.0786281783
 40
0.1194456032
 40
0.1682639239
 40
0.2247599433
 40
0.2885393289
 40
0.3591751934
 40
0.4361798497
 40
0.5190352627
 40
0.607161893
 40
0.7968258517
 40
1.0
 40
1.0
 40
1.0
 40
1.0
 10
71.9485858487
 20
91.4384190032
 30
0.0
 10
71.9516656437
 20
91.4330824926
 30
0.0
 10
71.9565143515
 20
91.4175320183
 30
0.0
 10
71.9664308991
 20
91.3712675537
 30
0.0
 10
71.9771752054
 20
91.2836048268
 30
0.0
 10
71.9899086834
 20
91.1438554447
 30
0.0
 10
72.0025951134
 20
90.9575360922
 30
0.0
 10
72.0155265312
 20
90.7251663607
 30
0.0
 10
72.0284898872
 20
90.4470454509
 30
0.0
 10
72.0415170377
 20
90.1236976675
 30
0.0
 10
72.0599432728
 20
89.6037355394
 30
0.0
 10
72.0824342553
 20
88.8454153656
 30
0.0
 10
72.1083449004
 20
87.8091660192
 30
0.0
 10
72.1343347408
 20
86.6099964748
 30
0.0
 10
72.1604020543
 20
85.2560364433
 30
0.0
 10
72.1865071865
 20
83.7565770289
 30
0.0
 10
72.2126489673
 20
82.1217857397
 30
0.0
 10
72.2388103102
 20
80.3629111281
 30
0.0
 10
72.2745988527
 20
77.8049548439
 30
0.0
 10
72.3187119932
 20
74.3935639243
 30
0.0
 10
72.3524303894
 20
71.6072099463
 30
0.0
 10
72.3695550096
 20
70.166116171
 30
0.0
  0
SPLINE
  5
4C4
100
AcDbEntity
  8
0
100
AcDbSpline
 62
7
  6
CONTINUOUS
 70
0
 71
3
 72
27
 73
23
 74
0
 42
0.0000001
 43
0.0000001
 44
0.0000000001
 40
0.0
 40
0.0
 40
0.0
 40
0.0
 40
0.0004365617
 40
0.0017391668
 40
0.0039014242
 40
0.0069169486
 40
0.0107793603
 40
0.0154802569
 40
0.0273324526
 40
0.0423352809
 40
0.0603428731
 40
0.0811819401
 40
0.1046731339
 40
0.1588865524
 40
0.2215418883
 40
0.2912548708
 40
0.3666803047
 40
0.4464687586
 40
0.5291864929
 40
0.6971255465
 40
0.8579456971
 40
1.0
 40
1.0
 40
1.0
 40
1.0
 10
93.5427600904
 20
98.4439449758
 30
0.0
 10
93.5462092909
 20
98.4432492906
 30
0.0
 10
93.5588840243
 20
98.4368196473
 30
0.0
 10
93.5886236616
 20
98.4268691585
 30
0.0
 10
93.6371816052
 20
98.4074366419
 30
0.0
 10
93.7053618299
 20
98.3818126842
 30
0.0
 10
93.7925746805
 20
98.3485650574
 30
0.0
 10
93.9465192155
 20
98.2904666144
 30
0.0
 10
94.1847817226
 20
98.2014640473
 30
0.0
 10
94.5243519287
 20
98.0772041693
 30
0.0
 10
94.9330432312
 20
97.93107939
 30
0.0
 10
95.4077573861
 20
97.7664550785
 30
0.0
 10
96.1609916348
 20
97.5144586552
 30
0.0
 10
97.2408710951
 20
97.1767477304
 30
0.0
 10
98.6899505156
 20
96.7735002779
 30
0.0
 10
100.3199538313
 20
96.3865938698
 30
0.0
 10
102.1014971682
 20
96.0472139528
 30
0.0
 10
104.0021494552
 20
95.7847041215
 30
0.0
 10
106.6578892826
 20
95.5680949493
 30
0.0
 10
109.9831066968
 20
95.5937096991
 30
0.0
 10
113.7558180962
 20
96.0653643711
 30
0.0
 10
116.1401263637
 20
96.6049607178
 30
0.0
 10
117.2457038155
 20
96.902628048
 30
0.0
  0
SPLINE
  5
4C5
100
AcDbEntity
  8
0
100
AcDbSpline
 62
7
  6
CONTINUOUS
 70
0
 71
3
 72
21
 73
17
 74
0
 42
0.0000001
 43
0.0000001
 44
0.0000000001
 40
0.0
 40
0.0
 40
0.0
 40
0.0
 40
0.0022557388
 40
0.0064275057
 40
0.0125418498
 40
0.020602427
 40
0.0425547449
 40
0.0722583929
 40
0.1096749032
 40
0.1547286891
 40
0.2073237019
 40
0.2673631983
 40
0.4093490811
 40
0.5796682437
 40
0.7771226795
 40
1.0
 40
1.0
 40
1.0
 40
1.0
 10
72.50734792
 20
36.5872990194
 30
0.0
 10
72.5049450416
 20
36.5914501815
 30
0.0
 10
72.5021021131
 20
36.6051473311
 30
0.0
 10
72.4978510167
 20
36.6312636004
 30
0.0
 10
72.4938674415
 20
36.6701894928
 30
0.0
 10
72.4875357282
 20
36.7466877465
 30
0.0
 10
72.4802575094
 20
36.8735147488
 30
0.0
 10
72.4718534276
 20
37.0627048982
 30
0.0
 10
72.4634337991
 20
37.3010869371
 30
0.0
 10
72.454934775
 20
37.5881527998
 30
0.0
 10
72.4464130637
 20
37.9233443288
 30
0.0
 10
72.4343372888
 20
38.4646177937
 30
0.0
 10
72.419621839
 20
39.2562124926
 30
0.0
 10
72.4026834523
 20
40.339999729
 30
0.0
 10
72.3857044299
 20
41.5958068454
 30
0.0
 10
72.3749810043
 20
42.489508467
 30
0.0
 10
72.3695550096
 20
42.9633890231
 30
0.0
  0
SPLINE
  5
4C6
100
AcDbEntity
  8
0
100
AcDbSpline
 62
7
  6
CONTINUOUS
 70
0
 71
3
 72
21
 73
17
 74
0
 42
0.0000001
 43
0.0000001
 44
0.0000000001
 40
0.0
 40
0.0
 40
0.0
 40
0.0
 40
0.0028744069
 40
0.0076196126
 40
0.014275836
 40
0.0228555503
 40
0.0457882788
 40
0.07637812
 40
0.1145621398
 40
0.1602709596
 40
0.2133996714
 40
0.2738144135
 40
0.4159528851
 40
0.5854354094
 40
0.7807935031
 40
1.0
 40
1.0
 40
1.0
 40
1.0
 10
68.7744908947
 20
90.0081565083
 30
0.0
 10
68.778148898
 20
90.0018193672
 30
0.0
 10
68.7836904216
 20
89.9829333084
 30
0.0
 10
68.7909555191
 20
89.9474602482
 30
0.0
 10
68.7982127134
 20
89.8970287955
 30
0.0
 10
68.8092309757
 20
89.8005239538
 30
0.0
 10
68.8221560971
 20
89.6429085996
 30
0.0
 10
68.8369611361
 20
89.4099402613
 30
0.0
 10
68.8518487715
 20
89.1188801503
 30
0.0
 10
68.8668460774
 20
88.7703989242
 30
0.0
 10
68.8818891823
 20
88.3652808958
 30
0.0
 10
68.903170327
 20
87.7147605469
 30
0.0
 10
68.9291389273
 20
86.768051883
 30
0.0
 10
68.9590696483
 20
85.4778247036
 30
0.0
 10
68.9890917362
 20
83.9913683047
 30
0.0
 10
69.0081261685
 20
82.9362184556
 30
0.0
 10
69.0177600904
 20
82.3782867775
 30
0.0
  0
SPLINE
  5
4C7
100
AcDbEntity
  8
0
100
AcDbSpline
 62
7
  6
CONTINUOUS
 70
0
 71
3
 72
29
 73
25
 74
0
 42
0.0000001
 43
0.0000001
 44
0.0000000001
 40
0.0
 40
0.0
 40
0.0
 40
0.0
 40
0.1367156487
 40
0.2968969341
 40
0.3816024336
 40
0.4670015996
 40
0.5512786014
 40
0.6326419314
 40
0.7093617776
 40
0.7798073764
 40
0.8424816464
 40
0.8704820401
 40
0.896052994
 40
0.9190621443
 40
0.9393837187
 40
0.9569127526
 40
0.971554838
 40
0.9832329826
 40
0.9879421255
 40
0.9918885388
 40
0.9950674423
 40
0.9974772288
 40
0.9991183735
 40
1.0
 40
1.0
 40
1.0
 40
1.0
 10
69.0177600904
 20
82.3782867775
 30
0.0
 10
69.0527789028
 20
80.3502337039
 30
0.0
 10
69.1175713336
 20
75.9458454277
 30
0.0
 10
69.190058175
 20
70.2847395702
 30
0.0
 10
69.2502198789
 20
65.3848847263
 30
0.0
 10
69.2961817497
 20
61.6110800537
 30
0.0
 10
69.3421320478
 20
57.8868642948
 30
0.0
 10
69.3880471072
 20
54.2914271891
 30
0.0
 10
69.4338941744
 20
50.9012134692
 30
0.0
 10
69.4796431389
 20
47.7883022947
 30
0.0
 10
69.5189441777
 20
45.3981933336
 30
0.0
 10
69.5509365906
 20
43.6738336661
 30
0.0
 10
69.5739979688
 20
42.5378953102
 30
0.0
 10
69.5970114154
 20
41.515906502
 30
0.0
 10
69.6199781377
 20
40.6132638824
 30
0.0
 10
69.6428383715
 20
39.8347960372
 30
0.0
 10
69.6655964743
 20
39.1846365889
 30
0.0
 10
69.6854556621
 20
38.724676876
 30
0.0
 10
69.7019674894
 20
38.4234716312
 30
0.0
 10
69.7133065501
 20
38.2482038936
 30
0.0
 10
69.7247668583
 20
38.1073296016
 30
0.0
 10
69.7354438945
 20
38.0002600425
 30
0.0
 10
69.7469361062
 20
37.9285868566
 30
0.0
 10
69.7544910995
 20
37.8910066861
 30
0.0
 10
69.7610290727
 20
37.87967781
 30
0.0
  0
SPLINE
  5
4C8
100
AcDbEntity
  8
0
100
AcDbSpline
 62
7
  6
CONTINUOUS
 70
0
 71
3
 72
43
 73
39
 74
0
 42
0.0000001
 43
0.0000001
 44
0.0000000001
 40
0.0
 40
0.0
 40
0.0
 40
0.0
 40
0.0004283479
 40
0.0011391431
 40
0.0021381665
 40
0.0034264974
 40
0.0068702691
 40
0.0114661079
 40
0.0172065575
 40
0.0240776301
 40
0.0320624417
 40
0.0411439047
 40
0.0625100353
 40
0.087974135
 40
0.1172991091
 40
0.1502107002
 40
0.2672273354
 40
0.4037551203
 40
0.475797685
 40
0.5483499626
 40
0.6198836835
 40
0.6888920851
 40
0.7539215525
 40
0.8136021666
 40
0.8666766038
 40
0.8903807049
 40
0.9120272289
 40
0.931501229
 40
0.9486997657
 40
0.9635342
 40
0.9759237347
 40
0.985807373
 40
0.9897918554
 40
0.9931310941
 40
0.9958222781
 40
0.9978632053
 40
0.9992533094
 40
1.0
 40
1.0
 40
1.0
 40
1.0
 10
64.774490196
 20
90.0081896273
 30
0.0
 10
64.7782186678
 20
90.00174493
 30
0.0
 10
64.7838257474
 20
89.9824434485
 30
0.0
 10
64.7911913864
 20
89.9461583034
 30
0.0
 10
64.7985403081
 20
89.8944732258
 30
0.0
 10
64.8097120316
 20
89.7955171919
 30
0.0
 10
64.8228187301
 20
89.6338521125
 30
0.0
 10
64.8378302354
 20
89.3948109777
 30
0.0
 10
64.8529168181
 20
89.0960822601
 30
0.0
 10
64.8681212135
 20
88.7384015067
 30
0.0
 10
64.8833754047
 20
88.3226014093
 30
0.0
 10
64.9049483464
 20
87.6549194976
 30
0.0
 10
64.9312726219
 20
86.6834174083
 30
0.0
 10
64.9616099359
 20
85.3600392506
 30
0.0
 10
64.992058221
 20
83.8359352482
 30
0.0
 10
65.047579546
 20
80.7206627556
 30
0.0
 10
65.1202791762
 20
75.7420254493
 30
0.0
 10
65.1925736093
 20
70.0831600459
 30
0.0
 10
65.2525063869
 20
65.1970751294
 30
0.0
 10
65.2982655748
 20
61.4406235778
 30
0.0
 10
65.3440111197
 20
57.7369152959
 30
0.0
 10
65.3897215123
 20
54.1639777115
 30
0.0
 10
65.4353633187
 20
50.7970865052
 30
0.0
 10
65.4809080289
 20
47.7071842959
 30
0.0
 10
65.5200334746
 20
45.3355820335
 30
0.0
 10
65.5518878751
 20
43.625060931
 30
0.0
 10
65.5748421207
 20
42.4985174222
 30
0.0
 10
65.5977535827
 20
41.4850774727
 30
0.0
 10
65.6206168493
 20
40.5900785226
 30
0.0
 10
65.643370716
 20
39.8182595367
 30
0.0
 10
65.6660326648
 20
39.1736596374
 30
0.0
 10
65.6857952877
 20
38.7176523318
 30
0.0
 10
65.7022346134
 20
38.419026756
 30
0.0
 10
65.7135265121
 20
38.2452609949
 30
0.0
 10
65.7249319651
 20
38.1055550396
 30
0.0
 10
65.7355648438
 20
37.9993363006
 30
0.0
 10
65.7469915525
 20
37.9282190262
 30
0.0
 10
65.7545298324
 20
37.8909346702
 30
0.0
 10
65.7610292569
 20
37.8797003562
 30
0.0
  0
SPLINE
  5
4C9
100
AcDbEntity
  8
0
100
AcDbSpline
 62
7
  6
CONTINUOUS
 70
0
 71
3
 72
11
 73
7
 74
0
 42
0.0000001
 43
0.0000001
 44
0.0000000001
 40
0.0
 40
0.0
 40
0.0
 40
0.0
 40
0.079154023
 40
0.2677293825
 40
0.5742547774
 40
1.0
 40
1.0
 40
1.0
 40
1.0
 10
65.5933149945
 20
91.4439449758
 30
0.0
 10
65.5978315954
 20
91.4439449758
 30
0.0
 10
65.6056400444
 20
91.4256547925
 30
0.0
 10
65.6122746974
 20
91.3973495634
 30
0.0
 10
65.6210476058
 20
91.3434204741
 30
0.0
 10
65.6256869278
 20
91.3025620554
 30
0.0
 10
65.6282420224
 20
91.2784033857
 30
0.0
  0
SPLINE
  5
4CA
100
AcDbEntity
  8
0
100
AcDbSpline
 62
7
  6
CONTINUOUS
 70
0
 71
3
 72
38
 73
34
 74
0
 42
0.0000001
 43
0.0000001
 44
0.0000000001
 40
0.0
 40
0.0
 40
0.0
 40
0.0
 40
0.0073880057
 40
0.0191151239
 40
0.0350821801
 40
0.055147643
 40
0.0791373001
 40
0.1068365438
 40
0.1723604572
 40
0.249405512
 40
0.3352473265
 40
0.4268567085
 40
0.5210002678
 40
0.6143486484
 40
0.7036020698
 40
0.7456999639
 40
0.7856112888
 40
0.822981993
 40
0.8574810822
 40
0.8888038172
 40
0.9166714662
 40
0.9408404268
 40
0.9610943593
 40
0.9696976262
 40
0.9772575346
 40
0.983757808
 40
0.989185934
 40
0.9935297711
 40
0.9967794645
 40
0.9979931042
 40
0.9989328556
 40
0.9996000707
 40
1.0
 40
1.0
 40
1.0
 40
1.0
 10
65.6282420224
 20
91.2784033857
 30
0.0
 10
65.6424470444
 20
91.1440935148
 30
0.0
 10
65.6639805491
 20
90.7951382794
 30
0.0
 10
65.6927456988
 20
90.1545257687
 30
0.0
 10
65.7213601653
 20
89.2818561962
 30
0.0
 10
65.7507315278
 20
88.185005746
 30
0.0
 10
65.7801591806
 20
86.8735970417
 30
0.0
 10
65.8219967875
 20
84.7312570735
 30
0.0
 10
65.8725907023
 20
81.6190138898
 30
0.0
 10
65.9310126387
 20
77.4438806424
 30
0.0
 10
65.9896635979
 20
72.7918432659
 30
0.0
 10
66.0484778506
 20
67.827210743
 30
0.0
 10
66.107342554
 20
62.7253430772
 30
0.0
 10
66.1661962098
 20
57.6665471765
 30
0.0
 10
66.2160757294
 20
53.5591498588
 30
0.0
 10
66.2565913703
 20
50.428586543
 30
0.0
 10
66.2863661533
 20
48.2464239067
 30
0.0
 10
66.316115255
 20
46.2031871317
 30
0.0
 10
66.3458292145
 20
44.316974244
 30
0.0
 10
66.3754915202
 20
42.6045078195
 30
0.0
 10
66.4050772865
 20
41.0809142956
 30
0.0
 10
66.4345567309
 20
39.7597093626
 30
0.0
 10
66.4601477128
 20
38.7906787426
 30
0.0
 10
66.4811150746
 20
38.1252725076
 30
0.0
 10
66.4959384077
 20
37.7112282376
 30
0.0
 10
66.5107189406
 20
37.3552725866
 30
0.0
 10
66.5253814089
 20
37.0581517188
 30
0.0
 10
66.5399577828
 20
36.8205642331
 30
0.0
 10
66.552682182
 20
36.6600072915
 30
0.0
 10
66.5635405747
 20
36.5618681948
 30
0.0
 10
66.5706714871
 20
36.5107066928
 30
0.0
 10
66.5778358774
 20
36.474873187
 30
0.0
 10
66.5832664651
 20
36.455822696
 30
0.0
 10
66.5869191171
 20
36.4494894906
 30
0.0
  0
SPLINE
  5
4CB
100
AcDbEntity
  8
0
100
AcDbSpline
 62
7
  6
CONTINUOUS
 70
0
 71
3
 72
35
 73
31
 74
0
 42
0.0000001
 43
0.0000001
 44
0.0000000001
 40
0.0
 40
0.0
 40
0.0
 40
0.0
 40
0.1299924699
 40
0.2063154947
 40
0.2878876531
 40
0.3728157362
 40
0.4591318316
 40
0.5448346945
 40
0.627937706
 40
0.7065144291
 40
0.7787434417
 40
0.811947622
 40
0.8429505699
 40
0.8715723911
 40
0.8976478028
 40
0.9210240882
 40
0.9415680424
 40
0.9591577621
 40
0.9668139093
 40
0.973695212
 40
0.9797907733
 40
0.9850930265
 40
0.9895953066
 40
0.9932911372
 40
0.9961747366
 40
0.9982443622
 40
0.9989749341
 40
0.9995044349
 40
0.9998378022
 40
1.0
 40
1.0
 40
1.0
 40
1.0
 10
72.3695550096
 20
42.9633890231
 30
0.0
 10
72.3319389225
 20
45.0643228075
 30
0.0
 10
72.2831213446
 20
48.3989772987
 30
0.0
 10
72.2223910037
 20
53.0521548576
 30
0.0
 10
72.1745371596
 20
56.9769942828
 30
0.0
 10
72.1265891778
 20
61.0633765751
 30
0.0
 10
72.0786367011
 20
65.216534541
 30
0.0
 10
72.0306879607
 20
69.3401890452
 30
0.0
 10
71.982776761
 20
73.3387319536
 30
0.0
 10
71.9349284978
 20
77.1194604843
 30
0.0
 10
71.8940969684
 20
80.09361983
 30
0.0
 10
71.8609756634
 20
82.2988010092
 30
0.0
 10
71.8368529167
 20
83.7991461515
 30
0.0
 10
71.812753809
 20
85.1842423675
 30
0.0
 10
71.7886875635
 20
86.4460373134
 30
0.0
 10
71.7646656586
 20
87.5772321342
 30
0.0
 10
71.7407085037
 20
88.5712260536
 30
0.0
 10
71.719987504
 20
89.3111115569
 30
0.0
 10
71.7031169912
 20
89.8301595469
 30
0.0
 10
71.6910736654
 20
90.163466917
 30
0.0
 10
71.6790524758
 20
90.4586957818
 30
0.0
 10
71.6670627124
 20
90.7154408167
 30
0.0
 10
71.6551320438
 20
90.9333307024
 30
0.0
 10
71.6432752687
 20
91.1121142924
 30
0.0
 10
71.6316214364
 20
91.2513433594
 30
0.0
 10
71.6211757462
 20
91.3428632383
 30
0.0
 10
71.6125702754
 20
91.3957315324
 30
0.0
 10
71.606412062
 20
91.4212683934
 30
0.0
 10
71.6017876289
 20
91.4362020549
 30
0.0
 10
71.5959370518
 20
91.4439253415
 30
0.0
 10
71.5933152064
 20
91.4439326955
 30
0.0
  0
SPLINE
  5
4CC
100
AcDbEntity
  8
0
100
AcDbSpline
 62
7
  6
CONTINUOUS
 70
0
 71
3
 72
11
 73
7
 74
0
 42
0.0000001
 43
0.0000001
 44
0.0000000001
 40
0.0
 40
0.0
 40
0.0
 40
0.0
 40
0.0793201289
 40
0.267904462
 40
0.5743672374
 40
1.0
 40
1.0
 40
1.0
 40
1.0
 10
67.593315648
 20
91.4439449758
 30
0.0
 10
67.5977920425
 20
91.4439449758
 30
0.0
 10
67.6055792573
 20
91.4258952195
 30
0.0
 10
67.6121650356
 20
91.3978700438
 30
0.0
 10
67.6208957342
 20
91.3445688392
 30
0.0
 10
67.6255058748
 20
91.3041652367
 30
0.0
 10
67.6280461703
 20
91.2802795533
 30
0.0
  0
SPLINE
  5
4CD
100
AcDbEntity
  8
0
100
AcDbSpline
 62
7
  6
CONTINUOUS
 70
0
 71
3
 72
38
 73
34
 74
0
 42
0.0000001
 43
0.0000001
 44
0.0000000001
 40
0.0
 40
0.0
 40
0.0
 40
0.0
 40
0.0073607339
 40
0.0190628449
 40
0.0350075785
 40
0.0550533537
 40
0.0790257429
 40
0.1067101137
 40
0.1722111998
 40
0.2492423698
 40
0.3350815393
 40
0.4266981876
 40
0.5208557967
 40
0.6142234656
 40
0.7035004373
 40
0.7456120335
 40
0.7855370881
 40
0.8229206716
 40
0.8574316513
 40
0.888765169
 40
0.9166423744
 40
0.9408195125
 40
0.9610803315
 40
0.969686543
 40
0.977249092
 40
0.9837517953
 40
0.9891820389
 40
0.9935275605
 40
0.9967784651
 40
0.9979925418
 40
0.9989326144
 40
0.9996000265
 40
1.0
 40
1.0
 40
1.0
 40
1.0
 10
67.6280461703
 20
91.2802795533
 30
0.0
 10
67.6422772056
 20
91.146469137
 30
0.0
 10
67.6637978978
 20
90.7984558179
 30
0.0
 10
67.6925746871
 20
90.1591887445
 30
0.0
 10
67.721186945
 20
89.2877139306
 30
0.0
 10
67.7505647272
 20
88.1919103606
 30
0.0
 10
67.7799969857
 20
86.8814042539
 30
0.0
 10
67.8218453988
 20
84.7399959698
 30
0.0
 10
67.8724484564
 20
81.6285890422
 30
0.0
 10
67.9308799487
 20
77.4540319731
 30
0.0
 10
67.9895411446
 20
72.802004147
 30
0.0
 10
68.0483666101
 20
67.8368597219
 30
0.0
 10
68.1072427306
 20
62.7340744342
 30
0.0
 10
68.166108001
 20
57.6740646804
 30
0.0
 10
68.2159973809
 20
53.5654925504
 30
0.0
 10
68.256521736
 20
50.4338896149
 30
0.0
 10
68.2863036385
 20
48.2509150377
 30
0.0
 10
68.3160596507
 20
46.2069042138
 30
0.0
 10
68.3457803956
 20
44.3199765469
 30
0.0
 10
68.3754492821
 20
42.6068620625
 30
0.0
 10
68.4050403973
 20
41.0826948274
 30
0.0
 10
68.4345255851
 20
39.7609943708
 30
0.0
 10
68.4601238278
 20
38.7916012739
 30
0.0
 10
68.4810946658
 20
38.125944143
 30
0.0
 10
68.4959180424
 20
37.7117390103
 30
0.0
 10
68.5106972877
 20
37.3556395201
 30
0.0
 10
68.5253615127
 20
37.0583944407
 30
0.0
 10
68.5399456987
 20
36.8207073169
 30
0.0
 10
68.5526866492
 20
36.6600850239
 30
0.0
 10
68.5635571981
 20
36.5619075164
 30
0.0
 10
68.5706932223
 20
36.5107275656
 30
0.0
 10
68.5778586905
 20
36.4748820634
 30
0.0
 10
68.5832851344
 20
36.4558262342
 30
0.0
 10
68.5869337644
 20
36.4494894865
 30
0.0
  0
SPLINE
  5
4CE
100
AcDbEntity
  8
0
100
AcDbSpline
 62
7
  6
CONTINUOUS
 70
0
 71
3
 72
11
 73
7
 74
0
 42
0.0000001
 43
0.0000001
 44
0.0000000001
 40
0.0
 40
0.0
 40
0.0
 40
0.0
 40
0.3708755271
 40
0.661065584
 40
0.8705918839
 40
1.0
 40
1.0
 40
1.0
 40
1.0
 10
64.8927600904
 20
36.7750472577
 30
0.0
 10
64.8957103481
 20
36.7356141565
 30
0.0
 10
64.901438048
 20
36.6653768431
 30
0.0
 10
64.910818103
 20
36.5729613937
 30
0.0
 10
64.9202491309
 20
36.5066448305
 30
0.0
 10
64.9273524919
 20
36.4709914836
 30
0.0
 10
64.9320504946
 20
36.4580182414
 30
0.0
  0
SPLINE
  5
4CF
100
AcDbEntity
  8
0
100
AcDbSpline
 62
7
  6
CONTINUOUS
 70
0
 71
3
 72
9
 73
5
 74
0
 42
0.0000001
 43
0.0000001
 44
0.0000000001
 40
0.0
 40
0.0
 40
0.0
 40
0.0
 40
0.3766900808
 40
1.0
 40
1.0
 40
1.0
 40
1.0
 10
64.9320504946
 20
36.4580182414
 30
0.0
 10
64.9328041583
 20
36.4559370459
 30
0.0
 10
64.9348709901
 20
36.4509139527
 30
0.0
 10
64.9385406275
 20
36.4439836388
 30
0.0
 10
64.9422031635
 20
36.4439604871
 30
0.0
  0
SPLINE
  5
4D0
100
AcDbEntity
  8
0
100
AcDbSpline
 62
7
  6
CONTINUOUS
 70
0
 71
3
 72
11
 73
7
 74
0
 42
0.0000001
 43
0.0000001
 44
0.0000000001
 40
0.0
 40
0.0
 40
0.0
 40
0.0
 40
0.0806655973
 40
0.2693415027
 40
0.5753017994
 40
1.0
 40
1.0
 40
1.0
 40
1.0
 10
69.5933156483
 20
91.4439449758
 30
0.0
 10
69.5974831815
 20
91.4439449758
 30
0.0
 10
69.6050715528
 20
91.4277078932
 30
0.0
 10
69.6112959877
 20
91.4018353979
 30
0.0
 10
69.6196861267
 20
91.3533018571
 30
0.0
 10
69.6240754133
 20
91.3163641983
 30
0.0
 10
69.6265016878
 20
91.2945570136
 30
0.0
  0
SPLINE
  5
4D1
100
AcDbEntity
  8
0
100
AcDbSpline
 62
7
  6
CONTINUOUS
 70
0
 71
3
 72
14
 73
10
 74
0
 42
0.0000001
 43
0.0000001
 44
0.0000000001
 40
0.0
 40
0.0
 40
0.0
 40
0.0
 40
0.0434345785
 40
0.1115637631
 40
0.2039221366
 40
0.3198416621
 40
0.4584758151
 40
0.618851929
 40
1.0
 40
1.0
 40
1.0
 40
1.0
 10
69.6265016878
 20
91.2945570136
 30
0.0
 10
69.6391636691
 20
91.1807520179
 30
0.0
 10
69.6587571421
 20
90.8871318115
 30
0.0
 10
69.6847740233
 20
90.3502189254
 30
0.0
 10
69.7107318257
 20
89.6219403435
 30
0.0
 10
69.7373063949
 20
88.7077667951
 30
0.0
 10
69.7639507492
 20
87.6141981458
 30
0.0
 10
69.8018828442
 20
85.8214882089
 30
0.0
 10
69.826869269
 20
84.3940731192
 30
0.0
 10
69.8433154403
 20
83.3893814584
 30
0.0
  0
SPLINE
  5
4D2
100
AcDbEntity
  8
0
100
AcDbSpline
 62
7
  6
CONTINUOUS
 70
0
 71
3
 72
11
 73
7
 74
0
 42
0.0000001
 43
0.0000001
 44
0.0000000001
 40
0.0
 40
0.0
 40
0.0
 40
0.0
 40
0.2469475169
 40
0.4960425151
 40
0.7474710472
 40
1.0
 40
1.0
 40
1.0
 40
1.0
 10
94.272793498
 20
159.6439449758
 30
0.0
 10
94.3108702213
 20
159.6439449758
 30
0.0
 10
94.3881396438
 20
159.659874601
 30
0.0
 10
94.4857382884
 20
159.7266080634
 30
0.0
 10
94.550322987
 20
159.8265575425
 30
0.0
 10
94.5656188587
 20
159.9050076534
 30
0.0
 10
94.5656188587
 20
159.9439449758
 30
0.0
  0
SPLINE
  5
4D3
100
AcDbEntity
  8
0
100
AcDbSpline
 62
7
  6
CONTINUOUS
 70
0
 71
3
 72
38
 73
34
 74
0
 42
0.0000001
 43
0.0000001
 44
0.0000000001
 40
0.0
 40
0.0
 40
0.0
 40
0.0
 40
0.0096530718
 40
0.0234441703
 40
0.062942785
 40
0.1171906288
 40
0.1843763637
 40
0.262241608
 40
0.3481561272
 40
0.4392096059
 40
0.5323004609
 40
0.6242409226
 40
0.7118712625
 40
0.753119465
 40
0.7921746466
 40
0.8286970588
 40
0.8623673691
 40
0.89289298
 40
0.9200043813
 40
0.9434665687
 40
0.9537617986
 40
0.963070048
 40
0.9713708742
 40
0.9786441918
 40
0.9848743488
 40
0.9900488332
 40
0.9941553183
 40
0.9958045935
 40
0.9971836801
 40
0.9982922912
 40
0.9991303572
 40
0.9996984394
 40
1.0
 40
1.0
 40
1.0
 40
1.0
 10
64.8927600904
 20
36.7750472577
 30
0.0
 10
64.8848852903
 20
36.948850394
 30
0.0
 10
64.8712556057
 20
37.3711975514
 30
0.0
 10
64.8441502405
 20
38.5053143017
 30
0.0
 10
64.8133733538
 20
40.4432936862
 30
0.0
 10
64.7776601377
 20
43.3436170593
 30
0.0
 10
64.7417343581
 20
46.9354909901
 30
0.0
 10
64.7053500146
 20
51.0981212701
 30
0.0
 10
64.6688151747
 20
55.6909452348
 30
0.0
 10
64.6321423539
 20
60.5581932831
 30
0.0
 10
64.5953997274
 20
65.5340520869
 30
0.0
 10
64.5586211849
 20
70.4482121881
 30
0.0
 10
64.5273933224
 20
74.4280053202
 30
0.0
 10
64.5020044008
 20
77.4546402976
 30
0.0
 10
64.4833462137
 20
79.5601590517
 30
0.0
 10
64.4646929504
 20
81.5290925881
 30
0.0
 10
64.4460478481
 20
83.344286695
 30
0.0
 10
64.427427014
 20
84.9898527235
 30
0.0
 10
64.4088346557
 20
86.4514205802
 30
0.0
 10
64.3927809919
 20
87.5483690808
 30
0.0
 10
64.3797068532
 20
88.3244502402
 30
0.0
 10
64.3703418876
 20
88.8272945601
 30
0.0
 10
64.360993519
 20
89.2756637562
 30
0.0
 10
64.3516634067
 20
89.668541487
 30
0.0
 10
64.3423722644
 20
90.0050565577
 30
0.0
 10
64.3331182639
 20
90.2844652808
 30
0.0
 10
64.3250370187
 20
90.4813115544
 30
0.0
 10
64.3183031173
 20
90.6097205901
 30
0.0
 10
64.3136890484
 20
90.6841642695
 30
0.0
 10
64.3090153156
 20
90.7438668449
 30
0.0
 10
64.3046931197
 20
90.789134006
 30
0.0
 10
64.2999826259
 20
90.8192851715
 30
0.0
 10
64.2969674626
 20
90.8350650325
 30
0.0
 10
64.2942622496
 20
90.8397791333
 30
0.0
  0
SPLINE
  5
4D4
100
AcDbEntity
  8
0
100
AcDbSpline
 62
7
  6
CONTINUOUS
 70
0
 71
3
 72
30
 73
26
 74
0
 42
0.0000001
 43
0.0000001
 44
0.0000000001
 40
0.0
 40
0.0
 40
0.0
 40
0.0
 40
0.1367832507
 40
0.2970493507
 40
0.381797115
 40
0.4672340927
 40
0.5515422205
 40
0.6329289532
 40
0.7096635667
 40
0.7801131297
 40
0.8427766887
 40
0.8707644469
 40
0.8963208117
 40
0.9193091605
 40
0.9396088152
 40
0.9571098097
 40
0.9717219839
 40
0.9779184224
 40
0.983364732
 40
0.9880544713
 40
0.9919813359
 40
0.9951396065
 40
0.9975268994
 40
0.9991440129
 40
1.0
 40
1.0
 40
1.0
 40
1.0
 10
69.8433154403
 20
83.3893814584
 30
0.0
 10
69.8783517916
 20
81.2490214187
 30
0.0
 10
69.9431727865
 20
76.6006649986
 30
0.0
 10
70.0156910571
 20
70.6260122312
 30
0.0
 10
70.0758801887
 20
65.4548333524
 30
0.0
 10
70.1218622584
 20
61.4723060749
 30
0.0
 10
70.1678325945
 20
57.5423819674
 30
0.0
 10
70.2137679356
 20
53.7486582854
 30
0.0
 10
70.259635436
 20
50.1718356358
 30
0.0
 10
70.3054057106
 20
46.8880537919
 30
0.0
 10
70.3447241726
 20
44.3671424387
 30
0.0
 10
70.3767370018
 20
42.5487827999
 30
0.0
 10
70.3998039896
 20
41.3512772268
 30
0.0
 10
70.4228334464
 20
40.2741137278
 30
0.0
 10
70.4457981741
 20
39.3230459942
 30
0.0
 10
70.4686959041
 20
38.5031079353
 30
0.0
 10
70.4885701133
 20
37.9038880818
 30
0.0
 10
70.5048519646
 20
37.4933247566
 30
0.0
 10
70.5163465008
 20
37.2379728854
 30
0.0
 10
70.5278350842
 20
37.0182071831
 30
0.0
 10
70.5391651699
 20
36.8342189507
 30
0.0
 10
70.550660324
 20
36.6865655529
 30
0.0
 10
70.5612755224
 20
36.5745984354
 30
0.0
 10
70.5728837974
 20
36.5000928126
 30
0.0
 10
70.5802589244
 20
36.4610981749
 30
0.0
 10
70.5869406076
 20
36.4494873449
 30
0.0
  0
SPLINE
  5
4D5
100
AcDbEntity
  8
0
100
AcDbSpline
 62
7
  6
CONTINUOUS
 70
0
 71
3
 72
21
 73
17
 74
0
 42
0.0000001
 43
0.0000001
 44
0.0000000001
 40
0.0
 40
0.0
 40
0.0
 40
0.0
 40
0.219513046
 40
0.4150660456
 40
0.5846837638
 40
0.7268859369
 40
0.7873039887
 40
0.8404041392
 40
0.8860564687
 40
0.9241710208
 40
0.9546653677
 40
0.9774671841
 40
0.9859749099
 40
0.992555565
 40
0.9972184645
 40
1.0
 40
1.0
 40
1.0
 40
1.0
 10
68.192204741
 20
83.3893814193
 30
0.0
 10
68.1825571903
 20
83.9787472697
 30
0.0
 10
68.1634993984
 20
85.093136102
 30
0.0
 10
68.1334349037
 20
86.6628650727
 30
0.0
 10
68.1034670694
 20
88.0249542732
 30
0.0
 10
68.077458009
 20
89.02416898
 30
0.0
 10
68.0561457399
 20
89.7105093517
 30
0.0
 10
68.0410829007
 20
90.1376572774
 30
0.0
 10
68.0260636376
 20
90.504870424
 30
0.0
 10
68.0111615622
 20
90.8113395829
 30
0.0
 10
67.9963410233
 20
91.0563377377
 30
0.0
 10
67.9833979214
 20
91.2218506693
 30
0.0
 10
67.9723455536
 20
91.3229550854
 30
0.0
 10
67.9651002016
 20
91.3755934066
 30
0.0
 10
67.9578144375
 20
91.4123857444
 30
0.0
 10
67.9523136751
 20
91.4319300385
 30
0.0
 10
67.9485861017
 20
91.4384024747
 30
0.0
  0
SPLINE
  5
4D6
100
AcDbEntity
  8
0
100
AcDbSpline
 62
7
  6
CONTINUOUS
 70
0
 71
3
 72
11
 73
7
 74
0
 42
0.0000001
 43
0.0000001
 44
0.0000000001
 40
0.0
 40
0.0
 40
0.0
 40
0.0
 40
0.0791696442
 40
0.2677419753
 40
0.5742609122
 40
1.0
 40
1.0
 40
1.0
 40
1.0
 10
66.9422051522
 20
36.4439449758
 30
0.0
 10
66.9376840372
 20
36.4439449758
 30
0.0
 10
66.9298632359
 20
36.4622460804
 30
0.0
 10
66.9232278008
 20
36.4905785574
 30
0.0
 10
66.9144505682
 20
36.5445485441
 30
0.0
 10
66.9098118969
 20
36.5854401478
 30
0.0
 10
66.9072568342
 20
36.6096180594
 30
0.0
  0
SPLINE
  5
4D7
100
AcDbEntity
  8
0
100
AcDbSpline
 62
7
  6
CONTINUOUS
 70
0
 71
3
 72
38
 73
34
 74
0
 42
0.0000001
 43
0.0000001
 44
0.0000000001
 40
0.0
 40
0.0
 40
0.0
 40
0.0
 40
0.0073900048
 40
0.0191190668
 40
0.0350877394
 40
0.0551545849
 40
0.0791453667
 40
0.1068456103
 40
0.1723712745
 40
0.2494179598
 40
0.3352608754
 40
0.4268694448
 40
0.5210113295
 40
0.6143578768
 40
0.703609541
 40
0.7457065323
 40
0.7856167226
 40
0.8229860252
 40
0.8574838878
 40
0.8888057834
 40
0.9166727791
 40
0.9408412801
 40
0.961094932
 40
0.969698113
 40
0.9772579158
 40
0.9837581112
 40
0.9891861845
 40
0.993529984
 40
0.9967796263
 40
0.9979932342
 40
0.9989329523
 40
0.9996001302
 40
1.0
 40
1.0
 40
1.0
 40
1.0
 10
66.9072568342
 20
36.6096180594
 30
0.0
 10
66.8930593618
 20
36.7439651478
 30
0.0
 10
66.8715325355
 20
37.0929917378
 30
0.0
 10
66.8427613637
 20
37.7337043243
 30
0.0
 10
66.814146081
 20
38.6064620986
 30
0.0
 10
66.7847767171
 20
39.7033853717
 30
0.0
 10
66.7553494445
 20
41.0148550181
 30
0.0
 10
66.7135121791
 20
43.1572606552
 30
0.0
 10
66.6629190458
 20
46.2695763985
 30
0.0
 10
66.6044972621
 20
50.444781465
 30
0.0
 10
66.5458468553
 20
55.0968426402
 30
0.0
 10
66.4870334306
 20
60.0614377806
 30
0.0
 10
66.4281698499
 20
65.1632140909
 30
0.0
 10
66.3693172471
 20
70.2219014697
 30
0.0
 10
66.3194385518
 20
74.3292066829
 30
0.0
 10
66.2789234977
 20
77.4596930336
 30
0.0
 10
66.249149405
 20
79.6417875097
 30
0.0
 10
66.2194011356
 20
81.6849505436
 30
0.0
 10
66.1896878015
 20
83.5710954653
 30
0.0
 10
66.1600260807
 20
85.2835080249
 30
0.0
 10
66.1304413137
 20
86.8070621713
 30
0.0
 10
66.1009623758
 20
88.1282384304
 30
0.0
 10
66.0753696515
 20
89.0972515425
 30
0.0
 10
66.0544028442
 20
89.7626475409
 30
0.0
 10
66.0395817661
 20
90.1766859493
 30
0.0
 10
66.0248045058
 20
90.5326365542
 30
0.0
 10
66.0101430718
 20
90.8297536618
 30
0.0
 10
65.9955634093
 20
91.0673378562
 30
0.0
 10
65.9828289987
 20
91.2278913774
 30
0.0
 10
65.9719634964
 20
91.3260274213
 30
0.0
 10
65.9648299746
 20
91.3771863047
 30
0.0
 10
65.9576660893
 20
91.413017819
 30
0.0
 10
65.9522393766
 20
91.4320665545
 30
0.0
 10
65.9485905653
 20
91.4384006993
 30
0.0
  0
SPLINE
  5
4D8
100
AcDbEntity
  8
0
100
AcDbSpline
 62
7
  6
CONTINUOUS
 70
0
 71
3
 72
11
 73
7
 74
0
 42
0.0000001
 43
0.0000001
 44
0.0000000001
 40
0.0
 40
0.0
 40
0.0
 40
0.0
 40
0.0806038802
 40
0.2692744989
 40
0.5752570146
 40
1.0
 40
1.0
 40
1.0
 40
1.0
 10
68.9422043189
 20
36.4439449758
 30
0.0
 10
68.9380264847
 20
36.4439449758
 30
0.0
 10
68.9304335203
 20
36.4602470112
 30
0.0
 10
68.9241959494
 20
36.4861932636
 30
0.0
 10
68.9157935141
 20
36.5348953308
 30
0.0
 10
68.9113955787
 20
36.5719548774
 30
0.0
 10
68.9089648606
 20
36.5938354172
 30
0.0
  0
SPLINE
  5
4D9
100
AcDbEntity
  8
0
100
AcDbSpline
 62
7
  6
CONTINUOUS
 70
0
 71
3
 72
21
 73
17
 74
0
 42
0.0000001
 43
0.0000001
 44
0.0000000001
 40
0.0
 40
0.0
 40
0.0
 40
0.0
 40
0.0057725036
 40
0.0144038029
 40
0.0258515141
 40
0.0400638767
 40
0.0764820507
 40
0.122940793
 40
0.1785239195
 40
0.2421343247
 40
0.3125134581
 40
0.3882679572
 40
0.5498375167
 40
0.7141348019
 40
0.8682294337
 40
1.0
 40
1.0
 40
1.0
 40
1.0
 10
68.9089648606
 20
36.5938354172
 30
0.0
 10
68.8990216702
 20
36.6833408054
 30
0.0
 10
68.8825791285
 20
36.9075429206
 30
0.0
 10
68.8610703201
 20
37.3102500893
 30
0.0
 10
68.8394264975
 20
37.8448119252
 30
0.0
 10
68.8074192156
 20
38.8127535664
 30
0.0
 10
68.7694020226
 20
40.3269754994
 30
0.0
 10
68.7258375662
 20
42.4866305151
 30
0.0
 10
68.682017498
 20
45.0705809542
 30
0.0
 10
68.6379409267
 20
48.027748743
 30
0.0
 10
68.5937458938
 20
51.2996374925
 30
0.0
 10
68.5334147942
 20
56.0996915973
 30
0.0
 10
68.4602706812
 20
62.3649014641
 30
0.0
 10
68.3741639964
 20
69.8522161213
 30
0.0
 10
68.2884040556
 20
76.8746113608
 30
0.0
 10
68.2258513044
 20
81.3339233046
 30
0.0
 10
68.192204741
 20
83.3893814193
 30
0.0
  0
SPLINE
  5
4DA
100
AcDbEntity
  8
0
100
AcDbSpline
 62
7
  6
CONTINUOUS
 70
0
 71
3
 72
11
 73
7
 74
0
 42
0.0000001
 43
0.0000001
 44
0.0000000001
 40
0.0
 40
0.0
 40
0.0
 40
0.0
 40
0.0791206514
 40
0.2676883208
 40
0.5742251487
 40
1.0
 40
1.0
 40
1.0
 40
1.0
 10
70.9422047586
 20
36.4439449758
 30
0.0
 10
70.9376694344
 20
36.4439449758
 30
0.0
 10
70.9298383773
 20
36.4623265738
 30
0.0
 10
70.923186972
 20
36.4907569762
 30
0.0
 10
70.9143949858
 20
36.5449410682
 30
0.0
 10
70.9097471184
 20
36.585988819
 30
0.0
 10
70.9071873068
 20
36.6102603116
 30
0.0
  0
SPLINE
  5
4DB
100
AcDbEntity
  8
0
100
AcDbSpline
 62
7
  6
CONTINUOUS
 70
0
 71
3
 72
38
 73
34
 74
0
 42
0.0000001
 43
0.0000001
 44
0.0000000001
 40
0.0
 40
0.0
 40
0.0
 40
0.0
 40
0.0073994667
 40
0.0191375999
 40
0.0351149574
 40
0.0551899399
 40
0.0791876367
 40
0.106893238
 40
0.172424566
 40
0.2494720979
 40
0.3353140231
 40
0.4269191145
 40
0.5210531976
 40
0.6143894949
 40
0.7036336475
 40
0.7457283551
 40
0.7856363689
 40
0.8230035219
 40
0.8574986618
 40
0.8888175621
 40
0.9166813496
 40
0.9408469051
 40
0.9610983961
 40
0.9697007376
 40
0.9772597379
 40
0.9837593784
 40
0.9891870589
 40
0.9935305066
 40
0.9967798637
 40
0.9979933784
 40
0.9989330311
 40
0.9996001656
 40
1.0
 40
1.0
 40
1.0
 40
1.0
 10
70.9071873068
 20
36.6102603116
 30
0.0
 10
70.8929999999
 20
36.7447808023
 30
0.0
 10
70.8714704838
 20
37.0941415351
 30
0.0
 10
70.8427002646
 20
37.735345262
 30
0.0
 10
70.8140830078
 20
38.60856595
 30
0.0
 10
70.7847152075
 20
39.7059105273
 30
0.0
 10
70.755288878
 20
41.017737878
 30
0.0
 10
70.7134562371
 20
43.1604463182
 30
0.0
 10
70.6628684162
 20
46.2729424208
 30
0.0
 10
70.6044519127
 20
50.448199269
 30
0.0
 10
70.5458064188
 20
55.1001394546
 30
0.0
 10
70.4869979371
 20
60.0644518198
 30
0.0
 10
70.4281398178
 20
65.165774458
 30
0.0
 10
70.3692926765
 20
70.2239349322
 30
0.0
 10
70.3194177204
 20
74.3308253104
 30
0.0
 10
70.2789049454
 20
77.4610559203
 30
0.0
 10
70.2491316278
 20
79.6430038435
 30
0.0
 10
70.21938462
 20
81.68601394
 30
0.0
 10
70.1896723362
 20
83.5719928026
 30
0.0
 10
70.160012371
 20
85.284222004
 30
0.0
 10
70.1304299838
 20
86.8075909543
 30
0.0
 10
70.100953137
 20
88.1285996501
 30
0.0
 10
70.0753613815
 20
89.0974926239
 30
0.0
 10
70.0543964355
 20
89.7628112785
 30
0.0
 10
70.039577124
 20
90.1768046768
 30
0.0
 10
70.0248022581
 20
90.5327191611
 30
0.0
 10
70.0101421385
 20
90.82980903
 30
0.0
 10
69.9955614154
 20
91.0673715341
 30
0.0
 10
69.9828224818
 20
91.2279093775
 30
0.0
 10
69.9719541046
 20
91.3260358359
 30
0.0
 10
69.964819642
 20
91.3771901062
 30
0.0
 10
69.9576563676
 20
91.413018857
 30
0.0
 10
69.9522317947
 20
91.4320659306
 30
0.0
 10
69.9485850946
 20
91.4384004445
 30
0.0
  0
SPLINE
  5
4DC
100
AcDbEntity
  8
0
100
AcDbSpline
 62
7
  6
CONTINUOUS
 70
0
 71
3
 72
47
 73
43
 74
0
 42
0.0000001
 43
0.0000001
 44
0.0000000001
 40
0.0
 40
0.0
 40
0.0
 40
0.0
 40
0.0004289419
 40
0.0011401408
 40
0.0021390569
 40
0.0034269885
 40
0.0068700586
 40
0.0114667254
 40
0.017207422
 40
0.0240776405
 40
0.0320624309
 40
0.0411448555
 40
0.0625097962
 40
0.0879748449
 40
0.1172990958
 40
0.1502109428
 40
0.1863996111
 40
0.2255275893
 40
0.2672277883
 40
0.3111090165
 40
0.4037549704
 40
0.5000004301
 40
0.5962457778
 40
0.6888916385
 40
0.7327733833
 40
0.7744733797
 40
0.8136010796
 40
0.8497906002
 40
0.8827011045
 40
0.9120269186
 40
0.9374905669
 40
0.9588563596
 40
0.9679375873
 40
0.975923529
 40
0.9827944247
 40
0.9885336384
 40
0.9931303322
 40
0.9965749204
 40
0.9978627817
 40
0.9988609824
 40
0.9995713813
 40
1.0
 40
1.0
 40
1.0
 40
1.0
 10
70.7744903361
 20
90.0082133291
 30
0.0
 10
70.7782191216
 20
90.0017568764
 30
0.0
 10
70.783821885
 20
89.9824366834
 30
0.0
 10
70.7911896527
 20
89.9461360155
 30
0.0
 10
70.7985397904
 20
89.8944530107
 30
0.0
 10
70.8097131689
 20
89.7955180799
 30
0.0
 10
70.8228221998
 20
89.6338577279
 30
0.0
 10
70.8378285126
 20
89.3948094353
 30
0.0
 10
70.8529158215
 20
89.0960765686
 30
0.0
 10
70.868122569
 20
88.7384063795
 30
0.0
 10
70.8833764467
 20
88.3226042354
 30
0.0
 10
70.9049457761
 20
87.6549257004
 30
0.0
 10
70.9312752511
 20
86.6834099968
 30
0.0
 10
70.9616097432
 20
85.3600468389
 30
0.0
 10
70.9920526799
 20
83.8359324297
 30
0.0
 10
71.0225737979
 20
82.1253898443
 30
0.0
 10
71.0531485762
 20
80.2444158468
 30
0.0
 10
71.0837581955
 20
78.2106653018
 30
0.0
 10
71.1143948165
 20
76.0431893968
 30
0.0
 10
71.1560224155
 20
72.945530139
 30
0.0
 10
71.2072510063
 20
68.8998124642
 30
0.0
 10
71.2677599053
 20
63.9439499991
 30
0.0
 10
71.3282687314
 20
58.9880891525
 30
0.0
 10
71.3794978609
 20
54.9423660714
 30
0.0
 10
71.4211247546
 20
51.8447029654
 30
0.0
 10
71.4517614558
 20
49.677226439
 30
0.0
 10
71.4823721919
 20
47.6434694559
 30
0.0
 10
71.5129442795
 20
45.7625087744
 30
0.0
 10
71.5434697032
 20
44.0519476237
 30
0.0
 10
71.5739071017
 20
42.5278536085
 30
0.0
 10
71.6042478459
 20
41.2044729646
 30
0.0
 10
71.6305704615
 20
40.232987408
 30
0.0
 10
71.6521459909
 20
39.5652950457
 30
0.0
 10
71.6673972851
 20
39.1494818371
 30
0.0
 10
71.6826006395
 20
38.7918054704
 30
0.0
 10
71.6976928368
 20
38.4930863956
 30
0.0
 10
71.7127024964
 20
38.2540372363
 30
0.0
 10
71.7258040086
 20
38.0923507349
 30
0.0
 10
71.7369772519
 20
37.993402652
 30
0.0
 10
71.7443291548
 20
37.9417482368
 30
0.0
 10
71.75169694
 20
37.9054787948
 30
0.0
 10
71.7573044578
 20
37.8861819677
 30
0.0
 10
71.7610295402
 20
37.879729863
 30
0.0
  0
SPLINE
  5
4DD
100
AcDbEntity
  8
0
100
AcDbSpline
 62
7
  6
CONTINUOUS
 70
0
 71
3
 72
23
 73
19
 74
0
 42
0.0000001
 43
0.0000001
 44
0.0000000001
 40
0.0
 40
0.0
 40
0.0
 40
0.0
 40
0.2155855006
 40
0.410258354
 40
0.5809445325
 40
0.6565021542
 40
0.725151027
 40
0.7866149514
 40
0.8406685315
 40
0.887107951
 40
0.9257465422
 40
0.9564504328
 40
0.9687887554
 40
0.9790987529
 40
0.9873732171
 40
0.9936099417
 40
0.9978111631
 40
1.0
 40
1.0
 40
1.0
 40
1.0
 10
73.5766617908
 20
49.8367306761
 30
0.0
 10
73.5845554914
 20
48.9730555819
 30
0.0
 10
73.6003213415
 20
47.3294918537
 30
0.0
 10
73.6256226371
 20
45.002161044
 30
0.0
 10
73.6479340696
 20
43.2358334778
 30
0.0
 10
73.6664349342
 20
41.9743981252
 30
0.0
 10
73.6798744408
 20
41.1505194834
 30
0.0
 10
73.6934414495
 20
40.4128081595
 30
0.0
 10
73.7071259856
 20
39.7640959833
 30
0.0
 10
73.7208886554
 20
39.206851965
 30
0.0
 10
73.7347416148
 20
38.7431995685
 30
0.0
 10
73.7469464428
 20
38.4161657341
 30
0.0
 10
73.7572049631
 20
38.2026813413
 30
0.0
 10
73.7642567997
 20
38.0789508415
 30
0.0
 10
73.7714749862
 20
37.9798756233
 30
0.0
 10
73.7780857106
 20
37.9049284443
 30
0.0
 10
73.7855161353
 20
37.8553728863
 30
0.0
 10
73.7900514705
 20
37.8294724288
 30
0.0
 10
73.79442345
 20
37.8218707502
 30
0.0
  0
SPLINE
  5
4DE
100
AcDbEntity
  8
0
100
AcDbSpline
 62
7
  6
CONTINUOUS
 70
0
 71
3
 72
12
 73
8
 74
0
 42
0.0000001
 43
0.0000001
 44
0.0000000001
 40
0.0
 40
0.0
 40
0.0
 40
0.0
 40
0.4003936828
 40
0.7004942718
 40
0.8988409146
 40
0.9605639696
 40
1.0
 40
1.0
 40
1.0
 40
1.0
 10
73.5766617908
 20
38.1557259842
 30
0.0
 10
73.586149837
 20
38.1004437258
 30
0.0
 10
73.6034873117
 20
38.0037416403
 30
0.0
 10
73.6303284577
 20
37.8809976027
 30
0.0
 10
73.6521095828
 20
37.8048992424
 30
0.0
 10
73.6704425011
 20
37.7674331812
 30
0.0
 10
73.6801262485
 20
37.7560850729
 30
0.0
 10
73.6851119851
 20
37.7537053834
 30
0.0
  0
SPLINE
  5
4DF
100
AcDbEntity
  8
0
100
AcDbSpline
 62
7
  6
CONTINUOUS
 70
0
 71
3
 72
8
 73
4
 74
0
 42
0.0000001
 43
0.0000001
 44
0.0000000001
 40
0.0
 40
0.0
 40
0.0
 40
0.0
 40
1.0
 40
1.0
 40
1.0
 40
1.0
 10
73.6851119851
 20
37.7537053834
 30
0.0
 10
73.6894725817
 20
37.7516240729
 30
0.0
 10
73.6956064655
 20
37.7525888474
 30
0.0
 10
73.6995025271
 20
37.7554467067
 30
0.0
  0
SPLINE
  5
4E0
100
AcDbEntity
  8
0
100
AcDbSpline
 62
7
  6
CONTINUOUS
 70
0
 71
3
 72
18
 73
14
 74
0
 42
0.0000001
 43
0.0000001
 44
0.0000000001
 40
0.0
 40
0.0
 40
0.0
 40
0.0
 40
0.0184123269
 40
0.0450631351
 40
0.0796679593
 40
0.1218630216
 40
0.1711969409
 40
0.2271478616
 40
0.3565075293
 40
0.5046241385
 40
0.6655258533
 40
0.8328236513
 40
1.0
 40
1.0
 40
1.0
 40
1.0
 10
73.5766617908
 20
38.1557259842
 30
0.0
 10
73.543399828
 20
38.3495273618
 30
0.0
 10
73.4867771369
 20
38.8278438999
 30
0.0
 10
73.4129581164
 20
39.6753720705
 30
0.0
 10
73.3387939878
 20
40.7777899889
 30
0.0
 10
73.2638533969
 20
42.1227483164
 30
0.0
 10
73.1888249579
 20
43.6959965454
 30
0.0
 10
73.0835527317
 20
46.1996833956
 30
0.0
 10
72.9563631537
 20
49.7582873376
 30
0.0
 10
72.8097067057
 20
54.437665095
 30
0.0
 10
72.6633459642
 20
59.5223960158
 30
0.0
 10
72.5174623465
 20
64.8107659912
 30
0.0
 10
72.4194149457
 20
68.3814474694
 30
0.0
 10
72.3695550096
 20
70.166116171
 30
0.0
  0
SPLINE
  5
4E1
100
AcDbEntity
  8
0
100
AcDbSpline
 62
7
  6
CONTINUOUS
 70
0
 71
3
 72
9
 73
5
 74
0
 42
0.0000001
 43
0.0000001
 44
0.0000000001
 40
0.0
 40
0.0
 40
0.0
 40
0.0
 40
0.5294520755
 40
1.0
 40
1.0
 40
1.0
 40
1.0
 10
94.7646630846
 20
153.4884072616
 30
0.0
 10
94.7646644861
 20
153.3856658494
 30
0.0
 10
94.7568947212
 20
153.1915943048
 30
0.0
 10
94.7306156914
 20
152.9986371744
 30
0.0
 10
94.710232387
 20
152.9096304007
 30
0.0
  0
SPLINE
  5
4E2
100
AcDbEntity
  8
0
100
AcDbSpline
 62
7
  6
CONTINUOUS
 70
0
 71
3
 72
9
 73
5
 74
0
 42
0.0000001
 43
0.0000001
 44
0.0000000001
 40
0.0
 40
0.0
 40
0.0
 40
0.0
 40
0.5260235758
 40
1.0
 40
1.0
 40
1.0
 40
1.0
 10
94.4762609289
 20
153.4884072616
 30
0.0
 10
94.492081389
 20
153.4182354778
 30
0.0
 10
94.5162195356
 20
153.2835624306
 30
0.0
 10
94.5245820546
 20
153.1460866542
 30
0.0
 10
94.519818585
 20
153.0814462465
 30
0.0
  0
SPLINE
  5
4E3
100
AcDbEntity
  8
0
100
AcDbSpline
 62
7
  6
CONTINUOUS
 70
0
 71
3
 72
11
 73
7
 74
0
 42
0.0000001
 43
0.0000001
 44
0.0000000001
 40
0.0
 40
0.0
 40
0.0
 40
0.0
 40
0.3821143316
 40
0.6503620082
 40
0.8272923458
 40
1.0
 40
1.0
 40
1.0
 40
1.0
 10
94.710232387
 20
152.9096304007
 30
0.0
 10
94.7003987447
 20
152.8851036673
 30
0.0
 10
94.6844721959
 20
152.8428210166
 30
0.0
 10
94.6648836511
 20
152.7897259996
 30
0.0
 10
94.6333963577
 20
152.7551148535
 30
0.0
 10
94.6062292246
 20
152.7590470193
 30
0.0
 10
94.5950305831
 20
152.7631984921
 30
0.0
  0
SPLINE
  5
4E4
100
AcDbEntity
  8
0
100
AcDbSpline
 62
7
  6
CONTINUOUS
 70
0
 71
3
 72
9
 73
5
 74
0
 42
0.0000001
 43
0.0000001
 44
0.0000000001
 40
0.0
 40
0.0
 40
0.0
 40
0.0
 40
0.2863750457
 40
1.0
 40
1.0
 40
1.0
 40
1.0
 10
94.5198185881
 20
153.0814462518
 30
0.0
 10
94.5431690202
 20
153.0727861494
 30
0.0
 10
94.6212494989
 20
153.0366214685
 30
0.0
 10
94.6929167349
 20
152.9692262453
 30
0.0
 10
94.7102323912
 20
152.9096304007
 30
0.0
  0
SPLINE
  5
4E5
100
AcDbEntity
  8
0
100
AcDbSpline
 62
7
  6
CONTINUOUS
 70
0
 71
3
 72
12
 73
8
 74
0
 42
0.0000001
 43
0.0000001
 44
0.0000000001
 40
0.0
 40
0.0
 40
0.0
 40
0.0
 40
0.3728683847
 40
0.5320392641
 40
0.6657061506
 40
0.8287487964
 40
1.0
 40
1.0
 40
1.0
 40
1.0
 10
94.519818585
 20
153.0814462465
 30
0.0
 10
94.5178547311
 20
153.0547531418
 30
0.0
 10
94.5179372067
 20
153.0168780512
 30
0.0
 10
94.5198490069
 20
152.9681966599
 30
0.0
 10
94.5213367659
 20
152.9378832043
 30
0.0
 10
94.5148451659
 20
152.8934421283
 30
0.0
 10
94.4832256748
 20
152.9070355259
 30
0.0
 10
94.472579993
 20
152.9131821818
 30
0.0
  0
LINE
  5
4E6
100
AcDbEntity
  8
0
100
AcDbLine
 62
7
  6
CONTINUOUS
 10
94.4844796077
 20
152.8036177608
 11
94.2455498711
 21
152.8874187176
  0
LINE
  5
4E7
100
AcDbEntity
  8
0
100
AcDbLine
 62
7
  6
CONTINUOUS
 10
94.2455498711
 20
152.8874187176
 11
94.2433359721
 21
152.8881740771
  0
SPLINE
  5
4E8
100
AcDbEntity
  8
0
100
AcDbSpline
 62
7
  6
CONTINUOUS
 70
0
 71
3
 72
9
 73
5
 74
0
 42
0.0000001
 43
0.0000001
 44
0.0000000001
 40
0.0
 40
0.0
 40
0.0
 40
0.0
 40
0.4969990054
 40
1.0
 40
1.0
 40
1.0
 40
1.0
 10
94.4725799444
 20
152.9131820977
 30
0.0
 10
94.5008131894
 20
152.8968816729
 30
0.0
 10
94.5520152962
 20
152.8532825273
 30
0.0
 10
94.5843216546
 20
152.7944068952
 30
0.0
 10
94.5950306879
 20
152.7631985344
 30
0.0
  0
SPLINE
  5
4E9
100
AcDbEntity
  8
0
100
AcDbSpline
 62
7
  6
CONTINUOUS
 70
0
 71
3
 72
47
 73
43
 74
0
 42
0.0000001
 43
0.0000001
 44
0.0000000001
 40
0.0
 40
0.0
 40
0.0
 40
0.0
 40
0.0004284514
 40
0.0011387872
 40
0.0021371373
 40
0.0034252988
 40
0.0068698484
 40
0.0114661828
 40
0.0172055142
 40
0.0240767433
 40
0.0320623884
 40
0.0411434227
 40
0.062509568
 40
0.087973066
 40
0.1172988536
 40
0.1502095762
 40
0.1863987803
 40
0.225526768
 40
0.2672265113
 40
0.3111084172
 40
0.4037542267
 40
0.4999995874
 40
0.596245058
 40
0.6888909293
 40
0.7327723728
 40
0.7744723275
 40
0.8136006034
 40
0.8497890683
 40
0.8827009802
 40
0.9120253432
 40
0.9374900892
 40
0.958855505
 40
0.9679376316
 40
0.9759222506
 40
0.9827928106
 40
0.988533605
 40
0.993129893
 40
0.9965732597
 40
0.997861392
 40
0.998860395
 40
0.9995714586
 40
1.0
 40
1.0
 40
1.0
 40
1.0
 10
72.7744910929
 20
90.0081613641
 30
0.0
 10
72.7782169171
 20
90.0017130481
 30
0.0
 10
72.7838245042
 20
89.9824197999
 30
0.0
 10
72.7911924144
 20
89.9461522063
 30
0.0
 10
72.7985435875
 20
89.8944906781
 30
0.0
 10
72.8097146436
 20
89.795535307
 30
0.0
 10
72.8228181858
 20
89.6338506832
 30
0.0
 10
72.8378285515
 20
89.3948064739
 30
0.0
 10
72.8529201575
 20
89.0960858093
 30
0.0
 10
72.8681224853
 20
88.7384067643
 30
0.0
 10
72.883374877
 20
88.3225963777
 30
0.0
 10
72.9049505633
 20
87.6549064993
 30
0.0
 10
72.9312721847
 20
86.6834208956
 30
0.0
 10
72.9616136569
 20
85.3600373954
 30
0.0
 10
72.9920509757
 20
83.8359428645
 30
0.0
 10
73.0225759209
 20
82.1253841068
 30
0.0
 10
73.0531487219
 20
80.244420399
 30
0.0
 10
73.0837587178
 20
78.2106685824
 30
0.0
 10
73.1143959865
 20
76.0431889581
 30
0.0
 10
73.1560224013
 20
72.9455287593
 30
0.0
 10
73.2072518011
 20
68.8998041007
 30
0.0
 10
73.2677605164
 20
63.943944409
 30
0.0
 10
73.3282692689
 20
58.9880836438
 30
0.0
 10
73.3794982007
 20
54.9423640318
 30
0.0
 10
73.421125249
 20
51.8447071304
 30
0.0
 10
73.4517624328
 20
49.677226859
 30
0.0
 10
73.4823714148
 20
47.6434791907
 30
0.0
 10
73.5129466018
 20
45.7625026906
 30
0.0
 10
73.5434676959
 20
44.0519608001
 30
0.0
 10
73.5739099808
 20
42.5278487703
 30
0.0
 10
73.6042458787
 20
41.2044808838
 30
0.0
 10
73.6305735454
 20
40.2329674469
 30
0.0
 10
73.6521437532
 20
39.5652889309
 30
0.0
 10
73.6673982497
 20
39.1494890896
 30
0.0
 10
73.6826043146
 20
38.7918142744
 30
0.0
 10
73.6976904579
 20
38.4930803021
 30
0.0
 10
73.7126992718
 20
38.2540319827
 30
0.0
 10
73.7258073606
 20
38.092369413
 30
0.0
 10
73.7369798587
 20
37.9934243778
 30
0.0
 10
73.7443295681
 20
37.9417382707
 30
0.0
 10
73.751695677
 20
37.9054459858
 30
0.0
 10
73.7572996242
 20
37.8861345351
 30
0.0
 10
73.761029867
 20
37.8796869664
 30
0.0
  0
SPLINE
  5
4EA
100
AcDbEntity
  8
0
100
AcDbSpline
 62
7
  6
CONTINUOUS
 70
0
 71
3
 72
14
 73
10
 74
0
 42
0.0000001
 43
0.0000001
 44
0.0000000001
 40
0.0
 40
0.0
 40
0.0
 40
0.0
 40
0.0448176932
 40
0.1123589968
 40
0.2076211607
 40
0.3295742439
 40
0.4749171331
 40
0.6390134564
 40
1.0
 40
1.0
 40
1.0
 40
1.0
 10
94.5656188587
 20
159.9439449758
 30
0.0
 10
94.5783462351
 20
159.9439442195
 30
0.0
 10
94.6087363955
 20
159.9265116196
 30
0.0
 10
94.6413779515
 20
159.8771788942
 30
0.0
 10
94.6744402881
 20
159.8029926387
 30
0.0
 10
94.7041722441
 20
159.7042589946
 30
0.0
 10
94.7298701007
 20
159.584361643
 30
0.0
 10
94.7568791087
 20
159.3957979628
 30
0.0
 10
94.764662467
 20
159.2464583206
 30
0.0
 10
94.7646630846
 20
159.1439449758
 30
0.0
  0
SPLINE
  5
4EB
100
AcDbEntity
  8
0
100
AcDbSpline
 62
7
  6
CONTINUOUS
 70
0
 71
3
 72
12
 73
8
 74
0
 42
0.0000001
 43
0.0000001
 44
0.0000000001
 40
0.0
 40
0.0
 40
0.0
 40
0.0
 40
0.1383378963
 40
0.2364257031
 40
0.3558581758
 40
0.6524290721
 40
1.0
 40
1.0
 40
1.0
 40
1.0
 10
94.272793498
 20
159.6439449758
 30
0.0
 10
94.2990929453
 20
159.6439441922
 30
0.0
 10
94.3411796907
 20
159.6149885206
 30
0.0
 10
94.3805087479
 20
159.5610998975
 30
0.0
 10
94.4256972801
 20
159.4735341797
 30
0.0
 10
94.4651662883
 20
159.3327560854
 30
0.0
 10
94.4762601811
 20
159.2100217599
 30
0.0
 10
94.4762609289
 20
159.1439449758
 30
0.0
  0
SPLINE
  5
4EC
100
AcDbEntity
  8
0
100
AcDbSpline
 62
7
  6
CONTINUOUS
 70
0
 71
3
 72
18
 73
14
 74
0
 42
0.0000001
 43
0.0000001
 44
0.0000000001
 40
0.0
 40
0.0
 40
0.0
 40
0.0
 40
0.1946864136
 40
0.3826914178
 40
0.5556668332
 40
0.7071503808
 40
0.8314221829
 40
0.8819012404
 40
0.9238948862
 40
0.9569203266
 40
0.9807320154
 40
0.9951510353
 40
1.0
 40
1.0
 40
1.0
 40
1.0
 10
90.2427600904
 20
155.9326201104
 30
0.0
 10
90.2265900922
 20
155.9044883157
 30
0.0
 10
90.1947912616
 20
155.8491975227
 30
0.0
 10
90.1485048435
 20
155.7689846252
 30
0.0
 10
90.1056164736
 20
155.6951143828
 30
0.0
 10
90.0680442275
 20
155.6304721619
 30
0.0
 10
90.0409775621
 20
155.5832561131
 30
0.0
 10
90.0230243853
 20
155.5520026249
 30
0.0
 10
90.012696111
 20
155.5336106688
 30
0.0
 10
90.0043474731
 20
155.5199430983
 30
0.0
 10
89.998716652
 20
155.5082607694
 30
0.0
 10
89.9945184171
 20
155.5045567314
 30
0.0
 10
89.9934599818
 20
155.499203326
 30
0.0
 10
89.9927600904
 20
155.4996074085
 30
0.0
  0
LINE
  5
4ED
100
AcDbEntity
  8
0
100
AcDbLine
 62
7
  6
CONTINUOUS
 10
118.0942319529
 20
97.2383976053
 11
118.3912882278
 21
97.6298291529
  0
SPLINE
  5
4EE
100
AcDbEntity
  8
0
100
AcDbSpline
 62
7
  6
CONTINUOUS
 70
0
 71
3
 72
13
 73
9
 74
0
 42
0.0000001
 43
0.0000001
 44
0.0000000001
 40
0.0
 40
0.0
 40
0.0
 40
0.0
 40
0.0829363426
 40
0.1832772662
 40
0.3010872726
 40
0.4335641143
 40
0.7214214359
 40
1.0
 40
1.0
 40
1.0
 40
1.0
 10
118.0942319529
 20
97.2383976053
 30
0.0
 10
118.0459629618
 20
97.215072552
 30
0.0
 10
117.9276568516
 20
97.1879099687
 30
0.0
 10
117.7319617577
 20
97.198518702
 30
0.0
 10
117.5111408137
 20
97.2544951864
 30
0.0
 10
117.1895556422
 20
97.3895613532
 30
0.0
 10
116.8089928144
 20
97.6400196124
 30
0.0
 10
116.548981449
 20
97.9037018299
 30
0.0
 10
116.4426381486
 20
98.0490170244
 30
0.0
  0
SPLINE
  5
4EF
100
AcDbEntity
  8
0
100
AcDbSpline
 62
7
  6
CONTINUOUS
 70
0
 71
3
 72
18
 73
14
 74
0
 42
0.0000001
 43
0.0000001
 44
0.0000000001
 40
0.0
 40
0.0
 40
0.0
 40
0.0
 40
0.1946864136
 40
0.3826914178
 40
0.5556668332
 40
0.7071503808
 40
0.8314221829
 40
0.8819012404
 40
0.9238948862
 40
0.9569203266
 40
0.9807320154
 40
0.9951510353
 40
1.0
 40
1.0
 40
1.0
 40
1.0
 10
90.2427600904
 20
155.9326201104
 30
0.0
 10
90.2103122424
 20
155.9326823785
 30
0.0
 10
90.1465295958
 20
155.93278918
 30
0.0
 10
90.0539199798
 20
155.9328104148
 30
0.0
 10
89.9685022884
 20
155.9326031181
 30
0.0
 10
89.8937343599
 20
155.932385709
 30
0.0
 10
89.8393107295
 20
155.9325533135
 30
0.0
 10
89.8032678263
 20
155.9326321505
 30
0.0
 10
89.7821757879
 20
155.9328835806
 30
0.0
 10
89.7661650057
 20
155.9324872333
 30
0.0
 10
89.7532324015
 20
155.9334519636
 30
0.0
 10
89.7479254931
 20
155.9316682045
 30
0.0
 10
89.7427600904
 20
155.9334282755
 30
0.0
 10
89.7427600904
 20
155.9326201104
 30
0.0
  0
LINE
  5
4F0
100
AcDbEntity
  8
0
100
AcDbLine
 62
7
  6
CONTINUOUS
 10
116.4426381486
 20
98.0490170244
 11
116.7145910763
 21
98.4430472895
  0
SPLINE
  5
4F1
100
AcDbEntity
  8
0
100
AcDbSpline
 62
7
  6
CONTINUOUS
 70
0
 71
3
 72
9
 73
5
 74
0
 42
0.0000001
 43
0.0000001
 44
0.0000000001
 40
0.0
 40
0.0
 40
0.0
 40
0.0
 40
0.5636604723
 40
1.0
 40
1.0
 40
1.0
 40
1.0
 10
118.3912882278
 20
97.6298291529
 30
0.0
 10
118.5100918066
 20
97.8292797485
 30
0.0
 10
118.7652087841
 20
98.1587713195
 30
0.0
 10
119.0872354732
 20
98.4215282877
 30
0.0
 10
119.2398163652
 20
98.516480845
 30
0.0
  0
SPLINE
  5
4F2
100
AcDbEntity
  8
0
100
AcDbSpline
 62
7
  6
CONTINUOUS
 70
0
 71
3
 72
12
 73
8
 74
0
 42
0.0000001
 43
0.0000001
 44
0.0000000001
 40
0.0
 40
0.0
 40
0.0
 40
0.0
 40
0.1842792663
 40
0.3028048955
 40
0.4356215437
 40
0.7230772389
 40
1.0
 40
1.0
 40
1.0
 40
1.0
 10
118.3912882447
 20
97.6298291367
 30
0.0
 10
118.2837785005
 20
97.574268251
 30
0.0
 10
118.0693179845
 20
97.5668629427
 30
0.0
 10
117.7928537122
 20
97.6332170834
 30
0.0
 10
117.4635084833
 20
97.7682087059
 30
0.0
 10
117.078393638
 20
98.0227091174
 30
0.0
 10
116.8183993186
 20
98.2937283606
 30
0.0
 10
116.7145910736
 20
98.4430472895
 30
0.0
  0
SPLINE
  5
4F3
100
AcDbEntity
  8
0
100
AcDbSpline
 62
7
  6
CONTINUOUS
 70
0
 71
3
 72
9
 73
5
 74
0
 42
0.0000001
 43
0.0000001
 44
0.0000000001
 40
0.0
 40
0.0
 40
0.0
 40
0.0
 40
0.5463762943
 40
1.0
 40
1.0
 40
1.0
 40
1.0
 10
116.7145910763
 20
98.4430472895
 30
0.0
 10
116.9227521456
 20
98.744870016
 30
0.0
 10
117.3870332603
 20
99.2456247735
 30
0.0
 10
117.9810436353
 20
99.5842204835
 30
0.0
 10
118.2682341448
 20
99.6851299448
 30
0.0
  0
SPLINE
  5
4F4
100
AcDbEntity
  8
0
100
AcDbSpline
 62
7
  6
CONTINUOUS
 70
0
 71
3
 72
18
 73
14
 74
0
 42
0.0000001
 43
0.0000001
 44
0.0000000001
 40
0.0
 40
0.0
 40
0.0
 40
0.0
 40
0.2234078742
 40
0.4221731471
 40
0.5942132624
 40
0.7378006573
 40
0.8513628086
 40
0.8964657909
 40
0.9335777818
 40
0.9625542976
 40
0.9833173642
 40
0.9958161844
 40
1.0
 40
1.0
 40
1.0
 40
1.0
 10
119.2398163652
 20
98.516480845
 30
0.0
 10
119.4430383531
 20
98.579718634
 30
0.0
 10
119.8262707441
 20
98.7017937285
 30
0.0
 10
120.3634880111
 20
98.8803055654
 30
0.0
 10
120.826897468
 20
99.0396951982
 30
0.0
 10
121.2123398587
 20
99.1761342243
 30
0.0
 10
121.4831068704
 20
99.2741228415
 30
0.0
 10
121.6582371613
 20
99.3382582397
 30
0.0
 10
121.7575613151
 20
99.3751170745
 30
0.0
 10
121.8352465166
 20
99.403492608
 30
0.0
 10
121.8905572836
 20
99.4251085414
 30
0.0
 10
121.9244197149
 20
99.4359727396
 30
0.0
 10
121.9388371079
 20
99.4432401803
 30
0.0
 10
121.9427600904
 20
99.4439449758
 30
0.0
  0
SPLINE
  5
4F5
100
AcDbEntity
  8
0
100
AcDbSpline
 62
7
  6
CONTINUOUS
 70
0
 71
3
 72
11
 73
7
 74
0
 42
0.0000001
 43
0.0000001
 44
0.0000000001
 40
0.0
 40
0.0
 40
0.0
 40
0.0
 40
0.2276058492
 40
0.4742501512
 40
0.7352659003
 40
1.0
 40
1.0
 40
1.0
 40
1.0
 10
119.2398163652
 20
98.5164806716
 30
0.0
 10
119.11858437
 20
98.5359157367
 30
0.0
 10
118.8734107542
 20
98.6324545938
 30
0.0
 10
118.5732633285
 20
98.9017824816
 30
0.0
 10
118.3568053829
 20
99.2644017081
 30
0.0
 10
118.283961329
 20
99.543190178
 30
0.0
 10
118.268233635
 20
99.6851299448
 30
0.0
  0
SPLINE
  5
4F6
100
AcDbEntity
  8
0
100
AcDbSpline
 62
7
  6
CONTINUOUS
 70
0
 71
3
 72
32
 73
28
 74
0
 42
0.0000001
 43
0.0000001
 44
0.0000000001
 40
0.0
 40
0.0
 40
0.0
 40
0.0
 40
0.0001066946
 40
0.0004253539
 40
0.0009552317
 40
0.0016955823
 40
0.0038047203
 40
0.0067468086
 40
0.010515894
 40
0.0151046405
 40
0.0204989706
 40
0.0266827908
 40
0.041354738
 40
0.0589881446
 40
0.0794257783
 40
0.1025031183
 40
0.1280552876
 40
0.1559150707
 40
0.2179009163
 40
0.2871849072
 40
0.3625066349
 40
0.4425593125
 40
0.5258757311
 40
0.6108056156
 40
0.6955786498
 40
0.8576391939
 40
1.0
 40
1.0
 40
1.0
 40
1.0
 10
94.7427600904
 20
99.6439449758
 30
0.0
 10
94.7432780677
 20
99.6433464189
 30
0.0
 10
94.7466692568
 20
99.6427575056
 30
0.0
 10
94.7526829074
 20
99.6392717854
 30
0.0
 10
94.7637631072
 20
99.6349346035
 30
0.0
 10
94.7865943925
 20
99.6247241808
 30
0.0
 10
94.8261501127
 20
99.6078247807
 30
0.0
 10
94.8861861662
 20
99.5818478284
 30
0.0
 10
94.9632487831
 20
99.5488190333
 30
0.0
 10
95.057061561
 20
99.5087196482
 30
0.0
 10
95.1674750891
 20
99.4618677265
 30
0.0
 10
95.3469762423
 20
99.3863287365
 30
0.0
 10
95.6107744526
 20
99.2770096198
 30
0.0
 10
95.9734414022
 20
99.1300725809
 30
0.0
 10
96.395610061
 20
98.9639800085
 30
0.0
 10
96.8746226569
 20
98.7819913696
 30
0.0
 10
97.407755582
 20
98.587528184
 30
0.0
 10
98.2165034692
 20
98.3065734961
 30
0.0
 10
99.3418796059
 20
97.9488003566
 30
0.0
 10
100.821217601
 20
97.5459029993
 30
0.0
 10
102.449859578
 20
97.1879013675
 30
0.0
 10
104.1993567617
 20
96.9068746608
 30
0.0
 10
106.034339129
 20
96.7304295918
 30
0.0
 10
107.9122578
 20
96.6772482113
 30
0.0
 10
110.3732710302
 20
96.7770608539
 30
0.0
 10
113.2407084827
 20
97.1803008885
 30
0.0
 10
115.4322252819
 20
97.7415161541
 30
0.0
 10
116.4426381486
 20
98.0490170244
 30
0.0
  0
SPLINE
  5
4F7
100
AcDbEntity
  8
0
100
AcDbSpline
 62
7
  6
CONTINUOUS
 70
0
 71
3
 72
22
 73
18
 74
0
 42
0.0000001
 43
0.0000001
 44
0.0000000001
 40
0.0
 40
0.0
 40
0.0
 40
0.0
 40
0.2239358182
 40
0.4229108056
 40
0.5949413046
 40
0.7383849029
 40
0.7989093759
 40
0.8517453557
 40
0.8967461927
 40
0.9337649344
 40
0.9626640993
 40
0.9740440201
 40
0.983369259
 40
0.9906336484
 40
0.9958310175
 40
0.9989551933
 40
1.0
 40
1.0
 40
1.0
 40
1.0
 10
118.2682341448
 20
99.6851299448
 30
0.0
 10
118.4551558557
 20
99.75080559
 30
0.0
 10
118.8072480703
 20
99.877462449
 30
0.0
 10
119.3000531578
 20
100.0624404868
 30
0.0
 10
119.724322903
 20
100.2272599684
 30
0.0
 10
120.0332080054
 20
100.3507704636
 30
0.0
 10
120.2436676248
 20
100.4363762467
 30
0.0
 10
120.3732740216
 20
100.4895958469
 30
0.0
 10
120.4835094012
 20
100.5352426302
 30
0.0
 10
120.5740730458
 20
100.5730306257
 30
0.0
 10
120.6371656637
 20
100.5994328067
 30
0.0
 10
120.67760162
 20
100.6164671364
 30
0.0
 10
120.7004600463
 20
100.6259959593
 30
0.0
 10
120.7180876498
 20
100.6336745407
 30
0.0
 10
120.7310905373
 20
100.6386178315
 30
0.0
 10
120.7381916478
 20
100.6425961671
 30
0.0
 10
120.7421361337
 20
100.6432629567
 30
0.0
 10
120.7427600904
 20
100.6439449758
 30
0.0
  0
SPLINE
  5
4F8
100
AcDbEntity
  8
0
100
AcDbSpline
 62
7
  6
CONTINUOUS
 70
0
 71
3
 72
47
 73
43
 74
0
 42
0.0000001
 43
0.0000001
 44
0.0000000001
 40
0.0
 40
0.0
 40
0.0
 40
0.0
 40
0.0004291405
 40
0.0011402391
 40
0.0021388925
 40
0.0034265483
 40
0.0068696314
 40
0.0114669123
 40
0.0172072541
 40
0.0240771023
 40
0.0320624501
 40
0.0411449125
 40
0.0625094656
 40
0.0879746804
 40
0.1172991072
 40
0.1502106348
 40
0.1863996666
 40
0.2255272929
 40
0.267227758
 40
0.3111088625
 40
0.4037549048
 40
0.5000003627
 40
0.5962457271
 40
0.6888916442
 40
0.7327732615
 40
0.7744734405
 40
0.8136009851
 40
0.8497906472
 40
0.8827010867
 40
0.912026856
 40
0.9374906251
 40
0.95885627
 40
0.9679375848
 40
0.9759236136
 40
0.982794382
 40
0.9885335909
 40
0.9931303819
 40
0.9965749614
 40
0.9978627521
 40
0.998860932
 40
0.9995713475
 40
1.0
 40
1.0
 40
1.0
 40
1.0
 10
66.7744908842
 20
90.0082027367
 30
0.0
 10
66.7782168216
 20
90.0017406566
 30
0.0
 10
66.7838218011
 20
89.9824211261
 30
0.0
 10
66.7911894928
 20
89.9461220902
 30
0.0
 10
66.7985407324
 20
89.8944510738
 30
0.0
 10
66.8097151596
 20
89.7955251363
 30
0.0
 10
66.8228235824
 20
89.6338588182
 30
0.0
 10
66.8378271134
 20
89.3948055931
 30
0.0
 10
66.8529167651
 20
89.0960748927
 30
0.0
 10
66.8681242032
 20
88.7384077069
 30
0.0
 10
66.883376237
 20
88.3226016836
 30
0.0
 10
66.9049463215
 20
87.6549197161
 30
0.0
 10
66.9312762338
 20
86.6834074389
 30
0.0
 10
66.9616102515
 20
85.3600453643
 30
0.0
 10
66.9920529151
 20
83.8359309069
 30
0.0
 10
67.0225748174
 20
82.1253849036
 30
0.0
 10
67.0531486592
 20
80.2444166743
 30
0.0
 10
67.0837591379
 20
78.2106617804
 30
0.0
 10
67.1143951242
 20
76.0431900018
 30
0.0
 10
67.1560231677
 20
72.9455274452
 30
0.0
 10
67.2072514532
 20
68.8998113371
 30
0.0
 10
67.2677604521
 20
63.9439482133
 30
0.0
 10
67.3282693115
 20
58.9880872627
 30
0.0
 10
67.3794982093
 20
54.9423660494
 30
0.0
 10
67.4211254312
 20
51.8447017189
 30
0.0
 10
67.45176175
 20
49.6772274255
 30
0.0
 10
67.4823728661
 20
47.6434679794
 30
0.0
 10
67.5129446391
 20
45.7625090884
 30
0.0
 10
67.543470158
 20
44.0519477742
 30
0.0
 10
67.573907743
 20
42.5278539168
 30
0.0
 10
67.6042480058
 20
41.2044748124
 30
0.0
 10
67.630571125
 20
40.2329884473
 30
0.0
 10
67.6521464866
 20
39.5652957762
 30
0.0
 10
67.6673974171
 20
39.1494818327
 30
0.0
 10
67.6826012208
 20
38.7918063504
 30
0.0
 10
67.6976934362
 20
38.493087952
 30
0.0
 10
67.7127028588
 20
38.2540373791
 30
0.0
 10
67.7258039573
 20
38.0923505637
 30
0.0
 10
67.7369777861
 20
37.9934042975
 30
0.0
 10
67.7443297284
 20
37.9417512562
 30
0.0
 10
67.7516974938
 20
37.9054812248
 30
0.0
 10
67.7573049895
 20
37.8861835976
 30
0.0
 10
67.7610299377
 20
37.8797307397
 30
0.0
  0
SPLINE
  5
4F9
100
AcDbEntity
  8
0
100
AcDbSpline
 62
7
  6
CONTINUOUS
 70
0
 71
3
 72
14
 73
10
 74
0
 42
0.0000001
 43
0.0000001
 44
0.0000000001
 40
0.0
 40
0.0
 40
0.0
 40
0.0
 40
0.0269584338
 40
0.0813251724
 40
0.16380939
 40
0.274544059
 40
0.413551314
 40
0.5808173379
 40
1.0
 40
1.0
 40
1.0
 40
1.0
 10
73.1453883249
 20
90.6681116605
 30
0.0
 10
73.1478649626
 20
90.6656350228
 30
0.0
 10
73.1504074768
 20
90.6546337557
 30
0.0
 10
73.1545398835
 20
90.634293031
 30
0.0
 10
73.1582386779
 20
90.602043182
 30
0.0
 10
73.1623183559
 20
90.5591917398
 30
0.0
 10
73.1663246088
 20
90.5051132285
 30
0.0
 10
73.1722090512
 20
90.4110649883
 30
0.0
 10
73.1758992089
 20
90.3349482554
 30
0.0
 10
73.1783210252
 20
90.2805410645
 30
0.0
  0
SPLINE
  5
4FA
100
AcDbEntity
  8
0
100
AcDbSpline
 62
7
  6
CONTINUOUS
 70
0
 71
3
 72
17
 73
13
 74
0
 42
0.0000001
 43
0.0000001
 44
0.0000000001
 40
0.0
 40
0.0
 40
0.0
 40
0.0
 40
0.01857926
 40
0.0466243476
 40
0.0837237923
 40
0.129329538
 40
0.2432272604
 40
0.3815041028
 40
0.5358339696
 40
0.696879203
 40
0.8548212296
 40
1.0
 40
1.0
 40
1.0
 40
1.0
 10
73.1783210252
 20
90.2805410645
 30
0.0
 10
73.1894598499
 20
90.0303023573
 30
0.0
 10
73.2074599522
 20
89.4019233212
 30
0.0
 10
73.2311726451
 20
88.2734182451
 30
0.0
 10
73.2550023095
 20
86.7804556705
 30
0.0
 10
73.2900102439
 20
84.1300790622
 30
0.0
 10
73.3315014994
 20
80.1155960891
 30
0.0
 10
73.3793881616
 20
74.6352937915
 30
0.0
 10
73.4275891865
 20
68.5193249904
 30
0.0
 10
73.4760272304
 20
62.1382243309
 30
0.0
 10
73.524492138
 20
55.8805028266
 30
0.0
 10
73.5587734058
 20
51.7939562309
 30
0.0
 10
73.5766617908
 20
49.8367306761
 30
0.0
  0
SPLINE
  5
4FB
100
AcDbEntity
  8
0
100
AcDbSpline
 62
7
  6
CONTINUOUS
 70
0
 71
3
 72
9
 73
5
 74
0
 42
0.0000001
 43
0.0000001
 44
0.0000000001
 40
0.0
 40
0.0
 40
0.0
 40
0.0
 40
0.503004695
 40
1.0
 40
1.0
 40
1.0
 40
1.0
 10
117.2457038155
 20
96.902628048
 30
0.0
 10
117.401517633
 20
96.9029479788
 30
0.0
 10
117.714054789
 20
96.9610009779
 30
0.0
 10
117.9831003372
 20
97.1318556968
 30
0.0
 10
118.0942319529
 20
97.2383976053
 30
0.0
  0
SPLINE
  5
4FC
100
AcDbEntity
  8
0
100
AcDbSpline
 62
7
  6
CONTINUOUS
 70
0
 71
3
 72
10
 73
6
 74
0
 42
0.0000001
 43
0.0000001
 44
0.0000000001
 40
0.0
 40
0.0
 40
0.0
 40
0.0
 40
0.4536378694
 40
0.7227214599
 40
1.0
 40
1.0
 40
1.0
 40
1.0
 10
117.2457038155
 20
96.9026280225
 30
0.0
 10
117.036057419
 20
96.9683544234
 30
0.0
 10
116.7560782702
 20
97.2291347238
 30
0.0
 10
116.5335028715
 20
97.6576579999
 30
0.0
 10
116.4630585104
 20
97.9162858658
 30
0.0
 10
116.4426381486
 20
98.0490170244
 30
0.0
  0
ELLIPSE
  5
4FD
100
AcDbEntity
  8
0
100
AcDbEllipse
 62
7
  6
CONTINUOUS
 10
124.5107092828
 20
171.6939449758
 30
0.0
 11
0.0
 21
1.0
 31
0.0
 40
0.5773502692
 41
-0.0
 42
1.5707963268
  0
ELLIPSE
  5
4FE
100
AcDbEntity
  8
0
100
AcDbEllipse
 62
7
  6
CONTINUOUS
 10
120.4692573985
 20
169.208870545
 30
0.0
 11
2.0131567266
 21
5.5311026482
 31
0.0
 40
0.5096773721
 41
-1.5707963268
 42
-0.9506573207
  0
ELLIPSE
  5
4FF
100
AcDbEntity
  8
0
100
AcDbEllipse
 62
7
  6
CONTINUOUS
 10
123.9333590136
 20
172.6939449758
 30
0.0
 11
-0.0
 21
4.0
 31
0.0
 40
0.5773502692
 41
-0.0
 42
1.5707963268
  0
ELLIPSE
  5
500
100
AcDbEntity
  8
0
100
AcDbEllipse
 62
7
  6
CONTINUOUS
 10
99.1253935987
 20
172.6939449758
 30
0.0
 11
-0.0
 21
4.0
 31
0.0
 40
1.0
 41
-1.5707963268
 42
0.0
  0
ELLIPSE
  5
501
100
AcDbEntity
  8
0
100
AcDbEllipse
 62
7
  6
CONTINUOUS
 10
118.1598563217
 20
162.8638432342
 30
0.0
 11
2.0131567266
 21
5.5311026482
 31
0.0
 40
0.5096773721
 41
-1.5707963268
 42
-0.9506573207
  0
ENDSEC
  0
SECTION
  2
OBJECTS
  0
DICTIONARY
  5
502
100
AcDbDictionary
  3
ACAD_GROUP
350
503
  3
ACAD_MLINESTYLE
350
504
  0
DICTIONARY
  5
503
102
{ACAD_REACTORS
330
502
102
}
100
AcDbDictionary
  0
DICTIONARY
  5
504
102
{ACAD_REACTORS
330
502
102
}
100
AcDbDictionary
  3
STANDARD
350
505
  0
MLINESTYLE
  5
505
102
{ACAD_REACTORS
330
504
102
}
100
AcDbMlineStyle
  2
STANDARD
 70
0
  3

 62
256
 51
90.0
 52
90.0
 71
2
 49
0.5
 62
256
  6
BYLAYER
 49
-0.5
 62
256
  6
BYLAYER
  0
ENDSEC
  0
EOF
