999
DXF file: C:\Users\64ciro\Desktop\FILE 3D-2D\ARMATEC\h34nll020_3077.dxf
999
Pro/ENGINEER 2017260 by Parametric Technology Corporation
  0
SECTION
  2
HEADER
  9
$ACADVER
  1
AC1014
  9
$DWGCODEPAGE
  3
ANSI_1252
  9
$EXTMAX
 10
297.0
 20
210.0
 30
0.0
  9
$EXTMIN
 10
0.0
 20
0.0
 30
0.0
  9
$LIMMIN
 10
0.0
 20
0.0
  9
$LIMMAX
 10
297.0
 20
210.0
  9
$VIEWCTR
 10
148.5
 20
105.0
  9
$VIEWSIZE
 40
210.0
  9
$CLAYER
  8
0
  9
$LTSCALE
 40
16.335
  9
$CELTYPE
  6
BYLAYER
  9
$DIMSCALE
 40
1.0
  9
$DIMASZ
 40
1.5
  9
$DIMEXO
 40
0.0625
  9
$DIMDLI
 40
11.286
  9
$DIMEXE
 40
0.125
  9
$DIMCEN
 40
2.673
  9
$DIMLFAC
 40
1.0
  9
$DIMBLK
  1
_CLOSED
  9
$DIMALT
 70
0
  9
$DIMALTF
 40
25.4
  9
$DIMTXT
 40
2.0
  9
$DIMTOL
 70
1
  9
$DIMLIM
 70
0
  9
$DIMTFAC
 40
1.0
  9
$DIMTP
 40
0.01
  9
$DIMTM
 40
0.01
  9
$DIMGAP
 40
0.625
  9
$AUNITS
 70
0
  9
$PDMODE
 70
3
  9
$PDSIZE
 40
0.3125
  9
$HANDSEED
  5
408
  9
$TILEMODE
 70
1
  9
$MEASUREMENT
 70
1
  0
ENDSEC
  0
SECTION
  2
CLASSES
  0
ENDSEC
  0
SECTION
  2
TABLES
  0
TABLE
  2
VPORT
  5
8
100
AcDbSymbolTable
 70
2
  0
VPORT
  5
1F4
100
AcDbSymbolTableRecord
100
AcDbViewportTableRecord
  2
*ACTIVE
 70
0
 10
0.0
 20
0.0
 11
1.0
 21
1.0
 12
148.5
 22
105.0
 13
0.0
 23
0.0
 14
1.0
 24
1.0
 15
0.0
 25
0.0
 16
0.0
 26
0.0
 36
1.0
 17
0.0
 27
0.0
 37
0.0
 40
210.0
 41
1.4142857143
 42
50.0
 43
0.0
 44
0.0
 50
0.0
 51
0.0
 71
0
 72
100
 73
1
 74
1
 75
0
 76
0
 77
0
 78
0
  0
ENDTAB
  0
TABLE
  2
LTYPE
  5
5
100
AcDbSymbolTable
 70
6
  0
LTYPE
  5
14
100
AcDbSymbolTableRecord
100
AcDbLinetypeTableRecord
  2
BYBLOCK
 70
0
  3

 72
65
 73
0
 40
0.0
  0
LTYPE
  5
15
100
AcDbSymbolTableRecord
100
AcDbLinetypeTableRecord
  2
BYLAYER
 70
0
  3

 72
65
 73
0
 40
0.0
  0
LTYPE
  5
16
100
AcDbSymbolTableRecord
100
AcDbLinetypeTableRecord
  2
CONTINUOUS
 70
64
  3
Solid line
 72
65
 73
0
 40
0.0
  0
LTYPE
  5
1F5
100
AcDbSymbolTableRecord
100
AcDbLinetypeTableRecord
  2
CENTER
 70
64
  3
____ _ ____ _ ____ _ ____ _ ____ _ ____ _ ____
 72
65
 73
4
 40
0.6
 49
0.375
 74
0
 49
-0.075
 74
0
 49
0.075
 74
0
 49
-0.075
 74
0
  0
LTYPE
  5
1F6
100
AcDbSymbolTableRecord
100
AcDbLinetypeTableRecord
  2
HIDDEN
 70
64
  3
- - - - - - - - - - - - - - - - - - - -
 72
65
 73
2
 40
0.2
 49
0.1
 74
0
 49
-0.1
 74
0
  0
LTYPE
  5
1F7
100
AcDbSymbolTableRecord
100
AcDbLinetypeTableRecord
  2
PHANTOM
 70
64
  3
_____ _ _ _____ _ _ _____ _ _ _____
 72
65
 73
6
 40
0.8
 49
0.45
 74
0
 49
-0.05
 74
0
 49
0.1
 74
0
 49
-0.05
 74
0
 49
0.1
 74
0
 49
-0.05
 74
0
  0
LTYPE
  5
1F8
100
AcDbSymbolTableRecord
100
AcDbLinetypeTableRecord
  2
DOT
 70
64
  3
. . . . . . . . . . . . . . . . . . . .
 72
65
 73
2
 40
0.2
 49
0.1
 74
0
 49
-0.1
 74
0
  0
LTYPE
  5
1F9
100
AcDbSymbolTableRecord
100
AcDbLinetypeTableRecord
  2
DASHED
 70
64
  3
- - - - - - - - - - - - - - - - - - - -
 72
65
 73
2
 40
0.2
 49
0.1
 74
0
 49
-0.1
 74
0
  0
ENDTAB
  0
TABLE
  2
LAYER
  5
2
100
AcDbSymbolTable
 70
36
  0
LAYER
  5
10
100
AcDbSymbolTableRecord
100
AcDbLayerTableRecord
  2
0
 70
0
 62
7
  6
CONTINUOUS
  0
LAYER
  5
1FA
100
AcDbSymbolTableRecord
100
AcDbLayerTableRecord
  2
DEFAULT_1
 70
0
 62
7
  6
CENTER
  0
LAYER
  5
1FB
100
AcDbSymbolTableRecord
100
AcDbLayerTableRecord
  2
DEFAULT_2
 70
0
 62
8
  6
HIDDEN
  0
LAYER
  5
1FC
100
AcDbSymbolTableRecord
100
AcDbLayerTableRecord
  2
DEFAULT_3
 70
0
 62
7
  6
PHANTOM
  0
LAYER
  5
1FD
100
AcDbSymbolTableRecord
100
AcDbLayerTableRecord
  2
ASSI
 70
0
 62
7
  6
CONTINUOUS
  0
LAYER
  5
1FE
100
AcDbSymbolTableRecord
100
AcDbLayerTableRecord
  2
COSMETICA
 70
0
 62
7
  6
CONTINUOUS
  0
LAYER
  5
1FF
100
AcDbSymbolTableRecord
100
AcDbLayerTableRecord
  2
CSYS
 70
0
 62
7
  6
CONTINUOUS
  0
LAYER
  5
200
100
AcDbSymbolTableRecord
100
AcDbLayerTableRecord
  2
CURVE
 70
0
 62
7
  6
CONTINUOUS
  0
LAYER
  5
201
100
AcDbSymbolTableRecord
100
AcDbLayerTableRecord
  2
DETTAGLI
 70
0
 62
7
  6
CONTINUOUS
  0
LAYER
  5
202
100
AcDbSymbolTableRecord
100
AcDbLayerTableRecord
  2
FILETTI
 70
0
 62
7
  6
CONTINUOUS
  0
LAYER
  5
203
100
AcDbSymbolTableRecord
100
AcDbLayerTableRecord
  2
GEOM
 70
0
 62
7
  6
CONTINUOUS
  0
LAYER
  5
204
100
AcDbSymbolTableRecord
100
AcDbLayerTableRecord
  2
GEOMETRIA_SOLIDA
 70
0
 62
7
  6
CONTINUOUS
  0
LAYER
  5
205
100
AcDbSymbolTableRecord
100
AcDbLayerTableRecord
  2
LAY0001
 70
0
 62
7
  6
CONTINUOUS
  0
LAYER
  5
206
100
AcDbSymbolTableRecord
100
AcDbLayerTableRecord
  2
LAY0002
 70
0
 62
7
  6
CONTINUOUS
  0
LAYER
  5
207
100
AcDbSymbolTableRecord
100
AcDbLayerTableRecord
  2
NOGEOM
 70
0
 62
7
  6
CONTINUOUS
  0
LAYER
  5
208
100
AcDbSymbolTableRecord
100
AcDbLayerTableRecord
  2
PIANI
 70
0
 62
7
  6
CONTINUOUS
  0
LAYER
  5
209
100
AcDbSymbolTableRecord
100
AcDbLayerTableRecord
  2
PIANI_OFFSET
 70
0
 62
7
  6
CONTINUOUS
  0
LAYER
  5
20A
100
AcDbSymbolTableRecord
100
AcDbLayerTableRecord
  2
QUOTE
 70
0
 62
7
  6
CONTINUOUS
  0
LAYER
  5
20B
100
AcDbSymbolTableRecord
100
AcDbLayerTableRecord
  2
RACCORDI
 70
0
 62
7
  6
CONTINUOUS
  0
LAYER
  5
20C
100
AcDbSymbolTableRecord
100
AcDbLayerTableRecord
  2
RIF
 70
0
 62
7
  6
CONTINUOUS
  0
LAYER
  5
20D
100
AcDbSymbolTableRecord
100
AcDbLayerTableRecord
  2
SMUSSI
 70
0
 62
7
  6
CONTINUOUS
  0
LAYER
  5
20E
100
AcDbSymbolTableRecord
100
AcDbLayerTableRecord
  2
TABELLE
 70
0
 62
7
  6
CONTINUOUS
  0
ENDTAB
  0
TABLE
  2
STYLE
  5
3
100
AcDbSymbolTable
 70
1
  0
STYLE
  5
11
100
AcDbSymbolTableRecord
100
AcDbTextStyleTableRecord
  2
STANDARD
 70
0
 40
0.0
 41
0.8
 50
0.0
 71
0
 42
0.2
  3
txt
  4

  0
STYLE
  5
20F
100
AcDbSymbolTableRecord
100
AcDbTextStyleTableRecord
  2
TEXTSTYLE_1
 70
0
 40
0.0
 41
0.8
 50
0.0
 71
0
 42
0.2
  3
gdt
  4

  0
ENDTAB
  0
TABLE
  2
VIEW
  5
6
100
AcDbSymbolTable
 70
0
  0
ENDTAB
  0
TABLE
  2
UCS
  5
7
100
AcDbSymbolTable
 70
0
  0
ENDTAB
  0
TABLE
  2
APPID
  5
9
100
AcDbSymbolTable
 70
1
  0
APPID
  5
210
100
AcDbSymbolTableRecord
100
AcDbRegAppTableRecord
  2
ACAD
 70
0
  0
ENDTAB
  0
TABLE
  2
BLOCK_RECORD
  5
1
100
AcDbSymbolTable
 70
0
  0
BLOCK_RECORD
  5
1F
100
AcDbSymbolTableRecord
100
AcDbBlockTableRecord
  2
*MODEL_SPACE
  0
BLOCK_RECORD
  5
1B
100
AcDbSymbolTableRecord
100
AcDbBlockTableRecord
  2
*PAPER_SPACE
  0
ENDTAB
  0
TABLE
  2
DIMSTYLE
  5
A
100
AcDbSymbolTable
 70
1
  0
DIMSTYLE
105
211
100
AcDbSymbolTableRecord
100
AcDbDimStyleTableRecord
  2
STANDARD
 70
0
  3

  4

  5
_CLOSED
  6
_CLOSED
  7
_CLOSED
 40
1.0
 41
1.5
 42
0.0625
 43
0.38
 44
0.125
 45
0.0
 46
0.0
 47
0.01
 48
0.01
140
2.0
141
0.09
142
0.0
143
25.4
144
1.0
145
0.0
146
1.0
147
0.625
 71
1.0
 72
0.0
 73
0
 74
0
 75
0
 76
0
 77
1
 78
8
 79
2
170
0
171
1
172
0
173
0
174
0
175
0
176
0
177
0
178
0
270
2
179
2
271
2
272
2
273
2
274
2
275
0
280
0
281
0
282
0
283
1
284
8
285
0
286
0
287
3
288
0
340
11
  0
ENDTAB
  0
ENDSEC
  0
SECTION
  2
BLOCKS
  0
BLOCK
  5
20
100
AcDbEntity
  8
0
100
AcDbBlockBegin
  2
*MODEL_SPACE
 70
0
 10
0.0
 20
0.0
 30
0.0
  3
*MODEL_SPACE
  1

  0
ENDBLK
  5
21
100
AcDbEntity
  8
0
100
AcDbBlockEnd
  0
BLOCK
  5
1C
100
AcDbEntity
  8
0
100
AcDbBlockBegin
  2
*PAPER_SPACE
 70
0
 10
0.0
 20
0.0
 30
0.0
  3
*PAPER_SPACE
  1

  0
ENDBLK
  5
1D
100
AcDbEntity
  8
0
100
AcDbBlockEnd
  0
ENDSEC
  0
SECTION
  2
ENTITIES
  0
LINE
  5
212
100
AcDbEntity
  8
0
100
AcDbLine
 62
7
  6
CONTINUOUS
 10
0.0
 20
0.0
 11
0.0
 21
210.0
  0
LINE
  5
213
100
AcDbEntity
  8
0
100
AcDbLine
 62
7
  6
CONTINUOUS
 10
0.0
 20
0.0
 11
297.0
 21
0.0
  0
LINE
  5
214
100
AcDbEntity
  8
0
100
AcDbLine
 62
7
  6
CONTINUOUS
 10
0.0
 20
210.0
 11
297.0
 21
210.0
  0
LINE
  5
215
100
AcDbEntity
  8
0
100
AcDbLine
 62
7
  6
CONTINUOUS
 10
297.0
 20
0.0
 11
297.0
 21
210.0
  0
LINE
  5
216
100
AcDbEntity
  8
0
100
AcDbLine
 62
7
  6
CONTINUOUS
 10
79.1974543503
 20
46.6800508885
 11
80.2078173214
 21
44.9300508885
  0
LINE
  5
217
100
AcDbEntity
  8
0
100
AcDbLine
 62
7
  6
CONTINUOUS
 10
99.0367941785
 20
46.7407110602
 11
101.1581145221
 21
44.6193907167
  0
LINE
  5
218
100
AcDbEntity
  8
0
100
AcDbLine
 62
7
  6
CONTINUOUS
 10
79.1974543503
 20
46.6800508885
 11
79.1974543503
 21
85.6800508885
  0
LINE
  5
219
100
AcDbEntity
  8
0
100
AcDbLine
 62
7
  6
CONTINUOUS
 10
80.2078173214
 20
44.9300508885
 11
80.2078173214
 21
45.0513276528
  0
LINE
  5
21A
100
AcDbEntity
  8
0
100
AcDbLine
 62
7
  6
CONTINUOUS
 10
80.2078173214
 20
53.652358982
 11
80.2078173214
 21
57.5790195593
  0
LINE
  5
21B
100
AcDbEntity
  8
0
100
AcDbLine
 62
7
  6
CONTINUOUS
 10
80.2078173214
 20
74.7810822176
 11
80.2078173214
 21
78.707742795
  0
LINE
  5
21C
100
AcDbEntity
  8
0
100
AcDbLine
 62
7
  6
CONTINUOUS
 10
80.2078173214
 20
87.3087741241
 11
80.2078173214
 21
87.4300508885
  0
LINE
  5
21D
100
AcDbEntity
  8
0
100
AcDbLine
 62
7
  6
CONTINUOUS
 10
97.6974543503
 20
153.2940125444
 11
98.9899560161
 21
154.6800508885
  0
LINE
  5
21E
100
AcDbEntity
  8
0
100
AcDbLine
 62
7
  6
CONTINUOUS
 10
108.0786521968
 20
162.3227852986
 11
108.6974543503
 21
162.6800508885
  0
LINE
  5
21F
100
AcDbEntity
  8
0
100
AcDbLine
 62
7
  6
CONTINUOUS
 10
120.6367941785
 20
43.7407110602
 11
120.7581145221
 21
43.6193907167
  0
LINE
  5
220
100
AcDbEntity
  8
0
100
AcDbLine
 62
7
  6
CONTINUOUS
 10
93.9665142426
 20
85.5800508885
 11
93.1293563523
 21
87.0300508885
  0
LINE
  5
221
100
AcDbEntity
  8
0
100
AcDbLine
 62
7
  6
CONTINUOUS
 10
92.4365360293
 20
44.9300508885
 11
92.4365360293
 21
45.1539416163
  0
LINE
  5
222
100
AcDbEntity
  8
0
100
AcDbLine
 62
7
  6
CONTINUOUS
 10
92.4365360293
 20
53.4311694131
 11
92.4365360293
 21
57.9028230917
  0
LINE
  5
223
100
AcDbEntity
  8
0
100
AcDbLine
 62
7
  6
CONTINUOUS
 10
92.4365360293
 20
74.4572786853
 11
92.4365360293
 21
78.9289323639
  0
LINE
  5
224
100
AcDbEntity
  8
0
100
AcDbLine
 62
7
  6
CONTINUOUS
 10
92.4365360293
 20
87.2061601607
 11
92.4365360293
 21
87.4300508885
  0
LINE
  5
225
100
AcDbEntity
  8
0
100
AcDbLine
 62
7
  6
CONTINUOUS
 10
93.1293563523
 20
78.4719303589
 11
93.1293563523
 21
74.6191769427
  0
LINE
  5
226
100
AcDbEntity
  8
0
100
AcDbLine
 62
7
  6
CONTINUOUS
 10
93.1293563523
 20
57.7409248264
 11
93.1293563523
 21
53.8881714132
  0
LINE
  5
227
100
AcDbEntity
  8
0
100
AcDbLine
 62
7
  6
CONTINUOUS
 10
93.1293563523
 20
45.3300508885
 11
93.1293563523
 21
45.4490452176
  0
LINE
  5
228
100
AcDbEntity
  8
0
100
AcDbLine
 62
7
  6
CONTINUOUS
 10
93.1293563523
 20
86.9110565586
 11
93.1293563523
 21
87.0300508885
  0
LINE
  5
229
100
AcDbEntity
  8
0
100
AcDbLine
 62
7
  6
CONTINUOUS
 10
93.9665118072
 20
47.9275000363
 11
93.9665142426
 21
46.7800508885
  0
LINE
  5
22A
100
AcDbEntity
  8
0
100
AcDbLine
 62
7
  6
CONTINUOUS
 10
93.9665117452
 20
80.9987250207
 11
93.9665117844
 21
69.6139278255
  0
LINE
  5
22B
100
AcDbEntity
  8
0
100
AcDbLine
 62
7
  6
CONTINUOUS
 10
93.9665117843
 20
62.7461738797
 11
93.9665117455
 21
51.3613767588
  0
LINE
  5
22C
100
AcDbEntity
  8
0
100
AcDbLine
 62
7
  6
CONTINUOUS
 10
93.9665142426
 20
85.5800508885
 11
93.9665118073
 21
84.4326017407
  0
LINE
  5
22D
100
AcDbEntity
  8
0
100
AcDbLine
 62
7
  6
CONTINUOUS
 10
94.6593286717
 20
48.303863174
 11
94.6593345657
 21
47.1800508885
  0
LINE
  5
22E
100
AcDbEntity
  8
0
100
AcDbLine
 62
7
  6
CONTINUOUS
 10
94.6593283774
 20
80.6932177554
 11
94.6593285742
 21
69.5430719191
  0
LINE
  5
22F
100
AcDbEntity
  8
0
100
AcDbLine
 62
7
  6
CONTINUOUS
 10
94.6593285739
 20
62.8170298587
 11
94.6593283783
 21
51.6668840229
  0
LINE
  5
230
100
AcDbEntity
  8
0
100
AcDbLine
 62
7
  6
CONTINUOUS
 10
94.6593345657
 20
85.1800508885
 11
94.659328672
 21
84.0562386031
  0
LINE
  5
231
100
AcDbEntity
  8
0
100
AcDbLine
 62
7
  6
CONTINUOUS
 10
98.1974543503
 20
141.4687260231
 11
97.9474543503
 21
141.0357133212
  0
LINE
  5
232
100
AcDbEntity
  8
0
100
AcDbLine
 62
7
  6
CONTINUOUS
 10
101.7232886116
 20
148.9058851498
 11
101.8974543503
 21
149.0800508885
  0
LINE
  5
233
100
AcDbEntity
  8
0
100
AcDbLine
 62
7
  6
CONTINUOUS
 10
104.3974543503
 20
150.6800508885
 11
104.0668589398
 21
150.349455478
  0
LINE
  5
234
100
AcDbEntity
  8
0
100
AcDbLine
 62
7
  6
CONTINUOUS
 10
108.0786521968
 20
159.4774858369
 11
106.9974543503
 21
158.8532559692
  0
LINE
  5
235
100
AcDbEntity
  8
0
100
AcDbLine
 62
7
  6
CONTINUOUS
 10
105.6974543503
 20
154.1800508885
 11
104.6974543503
 21
153.6027006193
  0
LINE
  5
236
100
AcDbEntity
  8
0
100
AcDbLine
 62
7
  6
CONTINUOUS
 10
121.8187746939
 20
43.1800508885
 11
131.1372883197
 21
43.1800508885
  0
LINE
  5
237
100
AcDbEntity
  8
0
100
AcDbLine
 62
7
  6
CONTINUOUS
 10
102.2187746939
 20
44.1800508885
 11
119.5761340067
 21
44.1800508885
  0
LINE
  5
238
100
AcDbEntity
  8
0
100
AcDbLine
 62
7
  6
CONTINUOUS
 10
145.1870913792
 20
44.9300508885
 11
132.8945682908
 21
44.9300508885
  0
LINE
  5
239
100
AcDbEntity
  8
0
100
AcDbLine
 62
7
  6
CONTINUOUS
 10
92.4365360293
 20
44.9300508885
 11
80.2078173214
 21
44.9300508885
  0
LINE
  5
23A
100
AcDbEntity
  8
0
100
AcDbLine
 62
7
  6
CONTINUOUS
 10
80.2078173214
 20
45.0513276528
 11
92.4365360293
 21
45.0513276528
  0
LINE
  5
23B
100
AcDbEntity
  8
0
100
AcDbLine
 62
7
  6
CONTINUOUS
 10
145.1870913792
 20
45.0702190761
 11
132.9177108792
 21
45.0702190761
  0
LINE
  5
23C
100
AcDbEntity
  8
0
100
AcDbLine
 62
7
  6
CONTINUOUS
 10
80.1697209794
 20
45.1539416163
 11
92.4365319189
 21
45.1539416163
  0
LINE
  5
23D
100
AcDbEntity
  8
0
100
AcDbLine
 62
7
  6
CONTINUOUS
 10
94.6593345657
 20
47.1800508885
 11
97.9761340067
 21
47.1800508885
  0
LINE
  5
23E
100
AcDbEntity
  8
0
100
AcDbLine
 62
7
  6
CONTINUOUS
 10
105.4255885426
 20
67.3200508885
 11
106.9041513792
 21
64.4182079322
  0
LINE
  5
23F
100
AcDbEntity
  8
0
100
AcDbLine
 62
7
  6
CONTINUOUS
 10
106.211216909
 20
67.3200508885
 11
107.2969655624
 21
65.1891491748
  0
LINE
  5
240
100
AcDbEntity
  8
0
100
AcDbLine
 62
7
  6
CONTINUOUS
 10
97.6974543503
 20
139.6800508885
 11
97.6974543503
 21
154.6800508885
  0
LINE
  5
241
100
AcDbEntity
  8
0
100
AcDbLine
 62
7
  6
CONTINUOUS
 10
97.9761340067
 20
85.1800508885
 11
97.9761340067
 21
47.1800508885
  0
LINE
  5
242
100
AcDbEntity
  8
0
100
AcDbLine
 62
7
  6
CONTINUOUS
 10
98.1974543503
 20
141.4687260231
 11
98.1974543503
 21
145.1800508885
  0
LINE
  5
243
100
AcDbEntity
  8
0
100
AcDbLine
 62
7
  6
CONTINUOUS
 10
99.0367941785
 20
85.6193907167
 11
99.0367941785
 21
46.7407110602
  0
LINE
  5
244
100
AcDbEntity
  8
0
100
AcDbLine
 62
7
  6
CONTINUOUS
 10
100.6974543503
 20
145.1800508885
 11
100.6974543503
 21
154.1800508885
  0
LINE
  5
245
100
AcDbEntity
  8
0
100
AcDbLine
 62
7
  6
CONTINUOUS
 10
101.1581145221
 20
44.6193907167
 11
101.1581145221
 21
87.7407110602
  0
LINE
  5
246
100
AcDbEntity
  8
0
100
AcDbLine
 62
7
  6
CONTINUOUS
 10
101.6974543503
 20
148.6800508885
 11
101.6974543503
 21
145.4800508885
  0
LINE
  5
247
100
AcDbEntity
  8
0
100
AcDbLine
 62
7
  6
CONTINUOUS
 10
101.749851873
 20
144.6800508885
 11
101.749851873
 21
139.417748357
  0
LINE
  5
248
100
AcDbEntity
  8
0
100
AcDbLine
 62
7
  6
CONTINUOUS
 10
102.0404961866
 20
144.6800508885
 11
102.0404961866
 21
139.417748357
  0
LINE
  5
249
100
AcDbEntity
  8
0
100
AcDbLine
 62
7
  6
CONTINUOUS
 10
102.2187746939
 20
44.1800508885
 11
102.2187746939
 21
87.7403539238
  0
LINE
  5
24A
100
AcDbEntity
  8
0
100
AcDbLine
 62
7
  6
CONTINUOUS
 10
102.4474543503
 20
137.9491107808
 11
102.4474543503
 21
89.199284262
  0
LINE
  5
24B
100
AcDbEntity
  8
0
100
AcDbLine
 62
7
  6
CONTINUOUS
 10
103.6974543503
 20
149.5088479855
 11
103.6974543503
 21
149.2047550287
  0
LINE
  5
24C
100
AcDbEntity
  8
0
100
AcDbLine
 62
7
  6
CONTINUOUS
 10
103.7455885426
 20
70.4000508885
 11
103.7455885426
 21
62.0000508885
  0
LWPOLYLINE
  5
24D
100
AcDbEntity
  8
0
100
AcDbPolyline
 62
7
  6
CONTINUOUS
 90
36
 70
0
 10
102.4474596975
 20
89.1992834231
 10
102.4470153262
 20
89.1666657912
 10
102.4448529011
 20
89.1202660054
 10
102.4409141146
 20
89.0741537104
 10
102.4352244097
 20
89.0283958222
 10
102.4278163471
 20
88.9830832816
 10
102.4187229865
 20
88.9382787947
 10
102.4079794922
 20
88.894042938
 10
102.3956306355
 20
88.850459195
 10
102.3817182374
 20
88.8075828127
 10
102.3662857598
 20
88.7654665625
 10
102.3493885563
 20
88.7241847941
 10
102.3310756244
 20
88.683784052
 10
102.3113970896
 20
88.6443081634
 10
102.2904170382
 20
88.6058210324
 10
102.268189901
 20
88.5683596056
 10
102.2447706981
 20
88.5319579801
 10
102.220230261
 20
88.4966686936
 10
102.1946266346
 20
88.4625185684
 10
102.1680179038
 20
88.4295315413
 10
102.1404795854
 20
88.3977482414
 10
102.1120714883
 20
88.3671851718
 10
102.0828529725
 20
88.3378560674
 10
102.0529022668
 20
88.3097895618
 10
102.0222791905
 20
88.2829920135
 10
101.9910426614
 20
88.2574672072
 10
101.9592717462
 20
88.2332320203
 10
101.9270246939
 20
88.2102831711
 10
101.8943583728
 20
88.1886150092
 10
101.8613508399
 20
88.168233115
 10
101.8280572834
 20
88.1491252803
 10
101.7945311854
 20
88.1312772668
 10
101.760848077
 20
88.1146841949
 10
101.7270554725
 20
88.0993244128
 10
101.6932056361
 20
88.0851777863
 10
101.6792325234
 20
88.0796885885
  0
LINE
  5
24E
100
AcDbEntity
  8
0
100
AcDbLine
 62
7
  6
CONTINUOUS
 10
101.7232886116
 20
148.9058851498
 11
101.6974543503
 21
148.6800508885
  0
LINE
  5
24F
100
AcDbEntity
  8
0
100
AcDbLine
 62
7
  6
CONTINUOUS
 10
79.1974543503
 20
85.6800508885
 11
80.2078173214
 21
87.4300508885
  0
LINE
  5
250
100
AcDbEntity
  8
0
100
AcDbLine
 62
7
  6
CONTINUOUS
 10
104.5076238444
 20
149.9359003619
 11
103.7067227606
 21
149.5185059355
  0
LINE
  5
251
100
AcDbEntity
  8
0
100
AcDbLine
 62
7
  6
CONTINUOUS
 10
92.4365321706
 20
53.4311694131
 11
80.1697209794
 21
53.4311694131
  0
LINE
  5
252
100
AcDbEntity
  8
0
100
AcDbLine
 62
7
  6
CONTINUOUS
 10
145.1870913792
 20
53.5148919532
 11
132.9177108792
 21
53.5148919532
  0
LINE
  5
253
100
AcDbEntity
  8
0
100
AcDbLine
 62
7
  6
CONTINUOUS
 10
92.4365360293
 20
53.652358982
 11
80.2078173214
 21
53.652358982
  0
LINE
  5
254
100
AcDbEntity
  8
0
100
AcDbLine
 62
7
  6
CONTINUOUS
 10
104.4455885426
 20
69.7000508885
 11
104.4455885426
 21
62.7000508885
  0
LINE
  5
255
100
AcDbEntity
  8
0
100
AcDbLine
 62
7
  6
CONTINUOUS
 10
104.4974544121
 20
150.1253016618
 11
104.4974544121
 21
149.9305999613
  0
LINE
  5
256
100
AcDbEntity
  8
0
100
AcDbLine
 62
7
  6
CONTINUOUS
 10
104.6987848507
 20
153.6027006193
 11
104.6987848507
 21
150.6800508885
  0
LINE
  5
257
100
AcDbEntity
  8
0
100
AcDbLine
 62
7
  6
CONTINUOUS
 10
106.6974543503
 20
158.3336407269
 11
106.6974543503
 21
157.6800508885
  0
LINE
  5
258
100
AcDbEntity
  8
0
100
AcDbLine
 62
7
  6
CONTINUOUS
 10
107.2974543503
 20
154.6800508885
 11
107.2974543503
 21
154.1800508885
  0
LINE
  5
259
100
AcDbEntity
  8
0
100
AcDbLine
 62
7
  6
CONTINUOUS
 10
108.0786521968
 20
159.4774858369
 11
108.0786521968
 21
162.3227852986
  0
LINE
  5
25A
100
AcDbEntity
  8
0
100
AcDbLine
 62
7
  6
CONTINUOUS
 10
108.5717681969
 20
153.6027006193
 11
108.5717681969
 21
150.6800508885
  0
LINE
  5
25B
100
AcDbEntity
  8
0
100
AcDbLine
 62
7
  6
CONTINUOUS
 10
108.8244710041
 20
153.5142388184
 11
108.8244710041
 21
150.6800508885
  0
LINE
  5
25C
100
AcDbEntity
  8
0
100
AcDbLine
 62
7
  6
CONTINUOUS
 10
109.029835327
 20
154.6800508885
 11
109.029835327
 21
153.2940125444
  0
LINE
  5
25D
100
AcDbEntity
  8
0
100
AcDbLine
 62
7
  6
CONTINUOUS
 10
110.3880532735
 20
159.4774858369
 11
110.3880532735
 21
162.3227852986
  0
LINE
  5
25E
100
AcDbEntity
  8
0
100
AcDbLine
 62
7
  6
CONTINUOUS
 10
110.7768452753
 20
68.7200508885
 11
110.7768452753
 21
68.0200508885
  0
LINE
  5
25F
100
AcDbEntity
  8
0
100
AcDbLine
 62
7
  6
CONTINUOUS
 10
110.7768452753
 20
67.3200508885
 11
110.7768452753
 21
63.7600508885
  0
LINE
  5
260
100
AcDbEntity
  8
0
100
AcDbLine
 62
7
  6
CONTINUOUS
 10
146.5400950374
 20
175.5084780132
 11
129.0045611315
 21
157.9729441073
  0
LINE
  5
261
100
AcDbEntity
  8
0
100
AcDbLine
 62
7
  6
CONTINUOUS
 10
131.125881475
 20
155.8516237637
 11
148.3685221622
 21
173.0942644508
  0
LINE
  5
262
100
AcDbEntity
  8
0
100
AcDbLine
 62
7
  6
CONTINUOUS
 10
80.2078173214
 20
57.5790195593
 11
92.4365360293
 21
57.5790195593
  0
LINE
  5
263
100
AcDbEntity
  8
0
100
AcDbLine
 62
7
  6
CONTINUOUS
 10
145.1870913792
 20
57.7353780114
 11
132.9177108792
 21
57.7353780114
  0
LINE
  5
264
100
AcDbEntity
  8
0
100
AcDbLine
 62
7
  6
CONTINUOUS
 10
80.1697209794
 20
57.9028230917
 11
92.4365320379
 21
57.9028230917
  0
LINE
  5
265
100
AcDbEntity
  8
0
100
AcDbLine
 62
7
  6
CONTINUOUS
 10
103.7455885426
 20
62.0000508885
 11
117.7455885426
 21
62.0000508885
  0
LINE
  5
266
100
AcDbEntity
  8
0
100
AcDbLine
 62
7
  6
CONTINUOUS
 10
104.4455885426
 20
62.7000508885
 11
117.0455885426
 21
62.7000508885
  0
LINE
  5
267
100
AcDbEntity
  8
0
100
AcDbLine
 62
7
  6
CONTINUOUS
 10
111.4768452753
 20
68.7200508885
 11
111.4768452753
 21
68.0200508885
  0
LINE
  5
268
100
AcDbEntity
  8
0
100
AcDbLine
 62
7
  6
CONTINUOUS
 10
111.4768452753
 20
67.3200508885
 11
111.4768452753
 21
63.7600508885
  0
LINE
  5
269
100
AcDbEntity
  8
0
100
AcDbLine
 62
7
  6
CONTINUOUS
 10
112.4568452753
 20
67.3200508885
 11
112.4568452753
 21
66.1800508885
  0
LINE
  5
26A
100
AcDbEntity
  8
0
100
AcDbLine
 62
7
  6
CONTINUOUS
 10
112.4568452753
 20
63.9400508885
 11
112.4568452753
 21
63.7600508885
  0
LINE
  5
26B
100
AcDbEntity
  8
0
100
AcDbLine
 62
7
  6
CONTINUOUS
 10
113.1568452753
 20
67.3200508885
 11
113.1568452753
 21
66.6200508885
  0
LINE
  5
26C
100
AcDbEntity
  8
0
100
AcDbLine
 62
7
  6
CONTINUOUS
 10
115.0068554271
 20
159.4774858369
 11
115.0068554271
 21
162.3227852986
  0
LINE
  5
26D
100
AcDbEntity
  8
0
100
AcDbLine
 62
7
  6
CONTINUOUS
 10
115.1168452753
 20
66.9000508885
 11
115.1168452753
 21
66.1800508885
  0
LINE
  5
26E
100
AcDbEntity
  8
0
100
AcDbLine
 62
7
  6
CONTINUOUS
 10
115.1974543503
 20
139.6800508885
 11
115.1974543503
 21
146.6800508885
  0
LINE
  5
26F
100
AcDbEntity
  8
0
100
AcDbLine
 62
7
  6
CONTINUOUS
 10
115.8168452753
 20
66.9000508885
 11
115.8168452753
 21
65.9843710093
  0
LINE
  5
270
100
AcDbEntity
  8
0
100
AcDbLine
 62
7
  6
CONTINUOUS
 10
117.0455885426
 20
69.7000508885
 11
117.0455885426
 21
62.7000508885
  0
LINE
  5
271
100
AcDbEntity
  8
0
100
AcDbLine
 62
7
  6
CONTINUOUS
 10
117.3162565038
 20
159.4774858369
 11
117.3162565038
 21
162.3227852986
  0
LINE
  5
272
100
AcDbEntity
  8
0
100
AcDbLine
 62
7
  6
CONTINUOUS
 10
117.7455885426
 20
70.4000508885
 11
117.7455885426
 21
62.0000508885
  0
LINE
  5
273
100
AcDbEntity
  8
0
100
AcDbLine
 62
7
  6
CONTINUOUS
 10
126.6974543503
 20
153.4174379857
 11
121.6974543503
 21
139.6800508885
  0
LINE
  5
274
100
AcDbEntity
  8
0
100
AcDbLine
 62
7
  6
CONTINUOUS
 10
123.4974543503
 20
138.4975935365
 11
123.1474543503
 21
138.2955209423
  0
LINE
  5
275
100
AcDbEntity
  8
0
100
AcDbLine
 62
7
  6
CONTINUOUS
 10
107.1973063087
 20
63.7600508885
 11
107.9829346751
 21
63.7600508885
  0
LINE
  5
276
100
AcDbEntity
  8
0
100
AcDbLine
 62
7
  6
CONTINUOUS
 10
110.7768452753
 20
63.7600508885
 11
111.4768452753
 21
63.7600508885
  0
LINE
  5
277
100
AcDbEntity
  8
0
100
AcDbLine
 62
7
  6
CONTINUOUS
 10
112.4568452753
 20
63.7600508885
 11
113.1568452753
 21
63.7600508885
  0
LINE
  5
278
100
AcDbEntity
  8
0
100
AcDbLine
 62
7
  6
CONTINUOUS
 10
114.6968452753
 20
66.1800508885
 11
115.1168452753
 21
66.1800508885
  0
LINE
  5
279
100
AcDbEntity
  8
0
100
AcDbLine
 62
7
  6
CONTINUOUS
 10
115.1168452753
 20
66.9000508885
 11
115.8168452753
 21
66.9000508885
  0
LINE
  5
27A
100
AcDbEntity
  8
0
100
AcDbLine
 62
7
  6
CONTINUOUS
 10
105.4255885426
 20
67.3200508885
 11
106.211216909
 21
67.3200508885
  0
LINE
  5
27B
100
AcDbEntity
  8
0
100
AcDbLine
 62
7
  6
CONTINUOUS
 10
109.011216909
 20
67.3200508885
 11
109.7968452753
 21
67.3200508885
  0
LINE
  5
27C
100
AcDbEntity
  8
0
100
AcDbLine
 62
7
  6
CONTINUOUS
 10
110.7768452753
 20
67.3200508885
 11
111.4768452753
 21
67.3200508885
  0
LINE
  5
27D
100
AcDbEntity
  8
0
100
AcDbLine
 62
7
  6
CONTINUOUS
 10
112.4568452753
 20
67.3200508885
 11
113.1568452753
 21
67.3200508885
  0
LINE
  5
27E
100
AcDbEntity
  8
0
100
AcDbLine
 62
7
  6
CONTINUOUS
 10
110.7768452753
 20
68.0200508885
 11
111.4768452753
 21
68.0200508885
  0
LINE
  5
27F
100
AcDbEntity
  8
0
100
AcDbLine
 62
7
  6
CONTINUOUS
 10
110.7768452753
 20
68.7200508885
 11
111.4768452753
 21
68.7200508885
  0
LINE
  5
280
100
AcDbEntity
  8
0
100
AcDbLine
 62
7
  6
CONTINUOUS
 10
104.4455885426
 20
69.7000508885
 11
117.0455885426
 21
69.7000508885
  0
LINE
  5
281
100
AcDbEntity
  8
0
100
AcDbLine
 62
7
  6
CONTINUOUS
 10
118.6974543503
 20
158.3336407269
 11
118.6974543503
 21
157.6800508885
  0
LINE
  5
282
100
AcDbEntity
  8
0
100
AcDbLine
 62
7
  6
CONTINUOUS
 10
119.5761340067
 20
86.3953203141
 11
119.5761340067
 21
44.1800508885
  0
LINE
  5
283
100
AcDbEntity
  8
0
100
AcDbLine
 62
7
  6
CONTINUOUS
 10
120.6367941785
 20
86.8798959377
 11
120.6367941785
 21
43.7407110602
  0
LINE
  5
284
100
AcDbEntity
  8
0
100
AcDbLine
 62
7
  6
CONTINUOUS
 10
120.7581145221
 20
43.6193907167
 11
120.7581145221
 21
87.0492939682
  0
LINE
  5
285
100
AcDbEntity
  8
0
100
AcDbLine
 62
7
  6
CONTINUOUS
 10
121.8187746939
 20
43.1800508885
 11
121.8187746939
 21
88.2193114822
  0
LINE
  5
286
100
AcDbEntity
  8
0
100
AcDbLine
 62
7
  6
CONTINUOUS
 10
122.9474543503
 20
137.9491107808
 11
122.9474543503
 21
90.3800508885
  0
LINE
  5
287
100
AcDbEntity
  8
0
100
AcDbLine
 62
7
  6
CONTINUOUS
 10
123.6974543503
 20
145.1750057274
 11
123.6974543503
 21
138.844003698
  0
LINE
  5
288
100
AcDbEntity
  8
0
100
AcDbLine
 62
7
  6
CONTINUOUS
 10
125.1220278698
 20
154.6800508885
 11
125.1220278698
 21
149.0889893044
  0
LINE
  5
289
100
AcDbEntity
  8
0
100
AcDbLine
 62
7
  6
CONTINUOUS
 10
103.7455885426
 20
70.4000508885
 11
117.7455885426
 21
70.4000508885
  0
LINE
  5
28A
100
AcDbEntity
  8
0
100
AcDbLine
 62
7
  6
CONTINUOUS
 10
92.4365320307
 20
74.4572786853
 11
80.1697209794
 21
74.4572786853
  0
LINE
  5
28B
100
AcDbEntity
  8
0
100
AcDbLine
 62
7
  6
CONTINUOUS
 10
145.1870913792
 20
74.6247237655
 11
132.9177108792
 21
74.6247237655
  0
LINE
  5
28C
100
AcDbEntity
  8
0
100
AcDbLine
 62
7
  6
CONTINUOUS
 10
92.4365360293
 20
74.7810822176
 11
80.2078173214
 21
74.7810822176
  0
LINE
  5
28D
100
AcDbEntity
  8
0
100
AcDbLine
 62
7
  6
CONTINUOUS
 10
126.6706594311
 20
157.6631821528
 11
126.6706594311
 21
153.3438195502
  0
LINE
  5
28E
100
AcDbEntity
  8
0
100
AcDbLine
 62
7
  6
CONTINUOUS
 10
126.6974543503
 20
157.6721422024
 11
126.6974543503
 21
153.4174379857
  0
LINE
  5
28F
100
AcDbEntity
  8
0
100
AcDbLine
 62
7
  6
CONTINUOUS
 10
129.6974543503
 20
89.1800508885
 11
129.6974543503
 21
43.1800508885
  0
LINE
  5
290
100
AcDbEntity
  8
GEOM
100
AcDbLine
 62
7
  6
CONTINUOUS
 10
129.6974543503
 20
43.1800508885
 11
129.6974543503
 21
89.1800508885
  0
LINE
  5
291
100
AcDbEntity
  8
0
100
AcDbLine
 62
7
  6
CONTINUOUS
 10
131.1372883197
 20
89.1800508885
 11
131.1372883197
 21
43.1800508885
  0
LINE
  5
292
100
AcDbEntity
  8
0
100
AcDbLine
 62
7
  6
CONTINUOUS
 10
131.8890424182
 20
88.6536669981
 11
131.8890424182
 21
43.7064347788
  0
LINE
  5
293
100
AcDbEntity
  8
0
100
AcDbLine
 62
7
  6
CONTINUOUS
 10
132.1428141942
 20
44.4036670031
 11
132.1428141942
 21
44.5668700484
  0
LINE
  5
294
100
AcDbEntity
  8
0
100
AcDbLine
 62
7
  6
CONTINUOUS
 10
132.1428141942
 20
53.0689032738
 11
132.1428141942
 21
57.6780173268
  0
LINE
  5
295
100
AcDbEntity
  8
0
100
AcDbLine
 62
7
  6
CONTINUOUS
 10
132.1428141942
 20
74.6820844504
 11
132.1428141942
 21
79.2911984951
  0
LINE
  5
296
100
AcDbEntity
  8
0
100
AcDbLine
 62
7
  6
CONTINUOUS
 10
132.1428141942
 20
87.7932317289
 11
132.1428141942
 21
87.9564347738
  0
LINE
  5
297
100
AcDbEntity
  8
0
100
AcDbLine
 62
7
  6
CONTINUOUS
 10
80.2078173214
 20
78.707742795
 11
92.4365360293
 21
78.707742795
  0
LINE
  5
298
100
AcDbEntity
  8
0
100
AcDbLine
 62
7
  6
CONTINUOUS
 10
145.1870913792
 20
78.8452098237
 11
132.9177108792
 21
78.8452098237
  0
LINE
  5
299
100
AcDbEntity
  8
0
100
AcDbLine
 62
7
  6
CONTINUOUS
 10
80.1697209794
 20
78.9289323639
 11
92.4365321763
 21
78.9289323639
  0
LINE
  5
29A
100
AcDbEntity
  8
0
100
AcDbLine
 62
7
  6
CONTINUOUS
 10
132.1428141942
 20
87.9564347738
 11
131.8890424178
 21
88.6536669991
  0
LINE
  5
29B
100
AcDbEntity
  8
0
100
AcDbLine
 62
7
  6
CONTINUOUS
 10
132.8945682908
 20
44.9300508885
 11
132.8945682908
 21
45.0703147537
  0
LINE
  5
29C
100
AcDbEntity
  8
0
100
AcDbLine
 62
7
  6
CONTINUOUS
 10
132.8945682908
 20
53.5142223911
 11
132.8945682908
 21
57.73614351
  0
LINE
  5
29D
100
AcDbEntity
  8
0
100
AcDbLine
 62
7
  6
CONTINUOUS
 10
132.8945682908
 20
74.623958267
 11
132.8945682908
 21
78.8458793802
  0
LINE
  5
29E
100
AcDbEntity
  8
0
100
AcDbLine
 62
7
  6
CONTINUOUS
 10
132.8945682908
 20
87.2897870231
 11
132.8945682908
 21
87.4300508885
  0
LINE
  5
29F
100
AcDbEntity
  8
0
100
AcDbLine
 62
7
  6
CONTINUOUS
 10
107.2969655624
 20
65.1891491748
 11
106.9041513792
 21
64.4182079322
  0
LINE
  5
2A0
100
AcDbEntity
  8
0
100
AcDbLine
 62
7
  6
CONTINUOUS
 10
109.011216909
 20
67.3200508885
 11
107.1973063087
 21
63.7600508885
  0
LINE
  5
2A1
100
AcDbEntity
  8
0
100
AcDbLine
 62
7
  6
CONTINUOUS
 10
109.7968452753
 20
67.3200508885
 11
107.9829346751
 21
63.7600508885
  0
LINE
  5
2A2
100
AcDbEntity
  8
0
100
AcDbLine
 62
7
  6
CONTINUOUS
 10
93.9665142426
 20
46.7800508885
 11
93.1293563523
 21
45.3300508885
  0
LINE
  5
2A3
100
AcDbEntity
  8
0
100
AcDbLine
 62
7
  6
CONTINUOUS
 10
99.0367941785
 20
85.6193907167
 11
101.1581145221
 21
87.7407110602
  0
LINE
  5
2A4
100
AcDbEntity
  8
0
100
AcDbLine
 62
7
  6
CONTINUOUS
 10
94.6593345657
 20
85.1800508885
 11
97.9761340067
 21
85.1800508885
  0
LINE
  5
2A5
100
AcDbEntity
  8
0
100
AcDbLine
 62
7
  6
CONTINUOUS
 10
92.4365319127
 20
87.2061601607
 11
80.1697209794
 21
87.2061601607
  0
LINE
  5
2A6
100
AcDbEntity
  8
0
100
AcDbLine
 62
7
  6
CONTINUOUS
 10
145.1870913792
 20
87.2898827008
 11
132.9177108792
 21
87.2898827008
  0
LINE
  5
2A7
100
AcDbEntity
  8
0
100
AcDbLine
 62
7
  6
CONTINUOUS
 10
92.4365360293
 20
87.3087741241
 11
80.2078173214
 21
87.3087741241
  0
LINE
  5
2A8
100
AcDbEntity
  8
0
100
AcDbLine
 62
7
  6
CONTINUOUS
 10
145.1870913792
 20
87.4300508885
 11
132.8945682908
 21
87.4300508885
  0
LINE
  5
2A9
100
AcDbEntity
  8
0
100
AcDbLine
 62
7
  6
CONTINUOUS
 10
92.4365360293
 20
87.4300508885
 11
80.2078173214
 21
87.4300508885
  0
LINE
  5
2AA
100
AcDbEntity
  8
0
100
AcDbLine
 62
7
  6
CONTINUOUS
 10
124.1474543503
 20
89.1800508885
 11
131.1372883197
 21
89.1800508885
  0
LINE
  5
2AB
100
AcDbEntity
  8
0
100
AcDbLine
 62
7
  6
CONTINUOUS
 10
146.1974543503
 20
85.6800508885
 11
145.1870913792
 21
87.4300508885
  0
LINE
  5
2AC
100
AcDbEntity
  8
0
100
AcDbLine
 62
7
  6
CONTINUOUS
 10
145.1870913792
 20
44.9300508885
 11
145.1870913792
 21
45.0702190761
  0
LINE
  5
2AD
100
AcDbEntity
  8
0
100
AcDbLine
 62
7
  6
CONTINUOUS
 10
145.1870913792
 20
53.5148919532
 11
145.1870913792
 21
57.7353780114
  0
LINE
  5
2AE
100
AcDbEntity
  8
0
100
AcDbLine
 62
7
  6
CONTINUOUS
 10
145.1870913792
 20
74.6247237655
 11
145.1870913792
 21
78.8452098237
  0
LINE
  5
2AF
100
AcDbEntity
  8
0
100
AcDbLine
 62
7
  6
CONTINUOUS
 10
145.1870913792
 20
87.2898827008
 11
145.1870913792
 21
87.4300508885
  0
LINE
  5
2B0
100
AcDbEntity
  8
0
100
AcDbLine
 62
7
  6
CONTINUOUS
 10
146.1974543503
 20
85.6800508885
 11
146.1974543503
 21
46.6800508885
  0
LINE
  5
2B1
100
AcDbEntity
  8
0
100
AcDbLine
 62
7
  6
CONTINUOUS
 10
150.1974543503
 20
173.4800508885
 11
150.1974543503
 21
173.6800508885
  0
LINE
  5
2B2
100
AcDbEntity
  8
0
100
AcDbLine
 62
7
  6
CONTINUOUS
 10
150.1974543503
 20
174.0167259304
 11
150.1974543503
 21
176.3433758465
  0
LINE
  5
2B3
100
AcDbEntity
  8
0
100
AcDbLine
 62
7
  6
CONTINUOUS
 10
150.1974543503
 20
176.6800508885
 11
150.1974543503
 21
176.8800508885
  0
LINE
  5
2B4
100
AcDbEntity
  8
0
100
AcDbLine
 62
7
  6
CONTINUOUS
 10
151.4974543503
 20
172.1800508885
 11
151.4974543503
 21
178.1800508885
  0
LINE
  5
2B5
100
AcDbEntity
  8
GEOM
100
AcDbLine
 62
7
  6
CONTINUOUS
 10
152.6974543503
 20
178.1800508885
 11
152.6974543503
 21
178.2300508885
  0
LWPOLYLINE
  5
2B6
100
AcDbEntity
  8
0
100
AcDbPolyline
 62
7
  6
CONTINUOUS
 90
7
 70
0
 10
101.5652610644
 20
138.9469776505
 10
101.6031956453
 20
138.9210043086
 10
101.6368767236
 20
138.889363944
 10
101.6653878328
 20
138.8527920872
 10
101.687989465
 20
138.8121168339
 10
101.7040727896
 20
138.76828084
 10
101.7076186949
 20
138.7543850012
  0
LINE
  5
2B7
100
AcDbEntity
  8
0
100
AcDbLine
 62
7
  6
CONTINUOUS
 10
115.1974543503
 20
146.6800508885
 11
107.7373336612
 21
154.6800508885
  0
LINE
  5
2B8
100
AcDbEntity
  8
GEOM
100
AcDbLine
 62
7
  6
CONTINUOUS
 10
154.2113714984
 20
178.1800508885
 11
154.2113714984
 21
178.2300508885
  0
LINE
  5
2B9
100
AcDbEntity
  8
GEOM
100
AcDbLine
 62
7
  6
CONTINUOUS
 10
155.1974543503
 20
178.1800508885
 11
155.1974543503
 21
178.2300508885
  0
LINE
  5
2BA
100
AcDbEntity
  8
GEOM
100
AcDbLine
 62
7
  6
CONTINUOUS
 10
156.1971501212
 20
178.1800508885
 11
156.1971501212
 21
178.2300508885
  0
LINE
  5
2BB
100
AcDbEntity
  8
GEOM
100
AcDbLine
 62
7
  6
CONTINUOUS
 10
157.6596534439
 20
178.1800508885
 11
157.6596534439
 21
178.2300508885
  0
LINE
  5
2BC
100
AcDbEntity
  8
GEOM
100
AcDbLine
 62
7
  6
CONTINUOUS
 10
158.5327112643
 20
178.1800508885
 11
158.5327112643
 21
178.2300508885
  0
LINE
  5
2BD
100
AcDbEntity
  8
GEOM
100
AcDbLine
 62
7
  6
CONTINUOUS
 10
158.6262611097
 20
178.1800508885
 11
158.6262611097
 21
178.2300508885
  0
LINE
  5
2BE
100
AcDbEntity
  8
0
100
AcDbLine
 62
7
  6
CONTINUOUS
 10
132.1428141942
 20
44.4036670031
 11
131.8890424178
 21
43.7064347778
  0
LINE
  5
2BF
100
AcDbEntity
  8
0
100
AcDbLine
 62
7
  6
CONTINUOUS
 10
101.8974543503
 20
138.4975935365
 11
102.2474543503
 21
138.2955209423
  0
LINE
  5
2C0
100
AcDbEntity
  8
0
100
AcDbLine
 62
7
  6
CONTINUOUS
 10
97.9474543503
 20
141.0357133212
 11
101.787560226
 21
138.8186271601
  0
LINE
  5
2C1
100
AcDbEntity
  8
0
100
AcDbLine
 62
7
  6
CONTINUOUS
 10
98.1974543503
 20
141.4687260231
 11
101.749851873
 21
139.417748357
  0
LINE
  5
2C2
100
AcDbEntity
  8
GEOM
100
AcDbLine
 62
7
  6
CONTINUOUS
 10
160.7085784513
 20
178.1800508885
 11
160.7085784513
 21
178.2300508885
  0
LINE
  5
2C3
100
AcDbEntity
  8
GEOM
100
AcDbLine
 62
7
  6
CONTINUOUS
 10
160.8019801575
 20
178.1800508885
 11
160.8019801575
 21
178.2300508885
  0
LINE
  5
2C4
100
AcDbEntity
  8
GEOM
100
AcDbLine
 62
7
  6
CONTINUOUS
 10
161.6914073491
 20
178.1800508885
 11
161.6914073491
 21
178.2300508885
  0
LINE
  5
2C5
100
AcDbEntity
  8
GEOM
100
AcDbLine
 62
7
  6
CONTINUOUS
 10
163.1224311118
 20
178.1800508885
 11
163.1224311118
 21
178.2300508885
  0
LINE
  5
2C6
100
AcDbEntity
  8
GEOM
100
AcDbLine
 62
7
  6
CONTINUOUS
 10
164.2354742837
 20
178.1800508885
 11
164.2354742837
 21
178.2300508885
  0
LINE
  5
2C7
100
AcDbEntity
  8
GEOM
100
AcDbLine
 62
7
  6
CONTINUOUS
 10
165.2127849999
 20
178.1800508885
 11
165.2127849999
 21
178.2300508885
  0
LINE
  5
2C8
100
AcDbEntity
  8
GEOM
100
AcDbLine
 62
7
  6
CONTINUOUS
 10
166.1866144471
 20
178.1800508885
 11
166.1866144471
 21
178.2300508885
  0
LINE
  5
2C9
100
AcDbEntity
  8
GEOM
100
AcDbLine
 62
7
  6
CONTINUOUS
 10
167.2276620135
 20
178.1800508885
 11
167.2276620135
 21
178.2300508885
  0
LINE
  5
2CA
100
AcDbEntity
  8
GEOM
100
AcDbLine
 62
7
  6
CONTINUOUS
 10
168.3460381933
 20
178.1800508885
 11
168.3460381933
 21
178.2300508885
  0
LINE
  5
2CB
100
AcDbEntity
  8
GEOM
100
AcDbLine
 62
7
  6
CONTINUOUS
 10
170.5052397308
 20
178.1800508885
 11
170.5052397308
 21
178.2300508885
  0
LINE
  5
2CC
100
AcDbEntity
  8
GEOM
100
AcDbLine
 62
7
  6
CONTINUOUS
 10
171.9621137675
 20
178.1800508885
 11
171.9621137675
 21
178.2300508885
  0
LINE
  5
2CD
100
AcDbEntity
  8
GEOM
100
AcDbLine
 62
7
  6
CONTINUOUS
 10
172.8993898903
 20
178.1800508885
 11
172.8993898903
 21
178.2300508885
  0
LINE
  5
2CE
100
AcDbEntity
  8
GEOM
100
AcDbLine
 62
7
  6
CONTINUOUS
 10
173.8747377633
 20
178.1800508885
 11
173.8747377633
 21
178.2300508885
  0
LINE
  5
2CF
100
AcDbEntity
  8
0
100
AcDbLine
 62
7
  6
CONTINUOUS
 10
103.7067227863
 20
149.1950970523
 11
103.9274908037
 21
149.0800508885
  0
LINE
  5
2D0
100
AcDbEntity
  8
0
100
AcDbLine
 62
7
  6
CONTINUOUS
 10
104.0698974373
 20
150.3428375385
 11
104.4952828224
 21
150.1211352175
  0
LINE
  5
2D1
100
AcDbEntity
  8
GEOM
100
AcDbLine
 62
7
  6
CONTINUOUS
 10
175.1472526827
 20
178.1800508885
 11
175.1472526827
 21
178.2300508885
  0
LINE
  5
2D2
100
AcDbEntity
  8
GEOM
100
AcDbLine
 62
7
  6
CONTINUOUS
 10
176.0003857934
 20
178.1800508885
 11
176.0003857934
 21
178.2300508885
  0
LINE
  5
2D3
100
AcDbEntity
  8
GEOM
100
AcDbLine
 62
7
  6
CONTINUOUS
 10
176.8780359261
 20
178.1800508885
 11
176.8780359261
 21
178.2300508885
  0
LINE
  5
2D4
100
AcDbEntity
  8
GEOM
100
AcDbLine
 62
7
  6
CONTINUOUS
 10
177.9388600632
 20
178.1800508885
 11
177.9388600632
 21
178.2300508885
  0
LINE
  5
2D5
100
AcDbEntity
  8
GEOM
100
AcDbLine
 62
7
  6
CONTINUOUS
 10
178.9001347211
 20
178.1800508885
 11
178.9001347211
 21
178.2300508885
  0
LINE
  5
2D6
100
AcDbEntity
  8
GEOM
100
AcDbLine
 62
7
  6
CONTINUOUS
 10
179.8665942478
 20
178.1800508885
 11
179.8665942478
 21
178.2300508885
  0
LINE
  5
2D7
100
AcDbEntity
  8
GEOM
100
AcDbLine
 62
7
  6
CONTINUOUS
 10
180.969489891
 20
178.1800508885
 11
180.969489891
 21
178.2300508885
  0
LINE
  5
2D8
100
AcDbEntity
  8
0
100
AcDbLine
 62
7
  6
CONTINUOUS
 10
146.1974543503
 20
46.6800508885
 11
145.1870913792
 21
44.9300508885
  0
LINE
  5
2D9
100
AcDbEntity
  8
0
100
AcDbLine
 62
7
  6
CONTINUOUS
 10
117.3162565038
 20
159.4774858369
 11
118.3974543503
 21
158.8532559692
  0
LINE
  5
2DA
100
AcDbEntity
  8
GEOM
100
AcDbLine
 62
7
  6
CONTINUOUS
 10
182.4320672832
 20
178.1800508885
 11
182.4320672832
 21
178.2300508885
  0
LINE
  5
2DB
100
AcDbEntity
  8
GEOM
100
AcDbLine
 62
7
  6
CONTINUOUS
 10
183.3051991731
 20
178.1800508885
 11
183.3051991731
 21
178.2300508885
  0
LINE
  5
2DC
100
AcDbEntity
  8
GEOM
100
AcDbLine
 62
7
  6
CONTINUOUS
 10
183.3986749489
 20
178.1800508885
 11
183.3986749489
 21
178.2300508885
  0
LINE
  5
2DD
100
AcDbEntity
  8
GEOM
100
AcDbLine
 62
7
  6
CONTINUOUS
 10
185.4810663601
 20
178.1800508885
 11
185.4810663601
 21
178.2300508885
  0
LINE
  5
2DE
100
AcDbEntity
  8
GEOM
100
AcDbLine
 62
7
  6
CONTINUOUS
 10
185.5745421359
 20
178.1800508885
 11
185.5745421359
 21
178.2300508885
  0
LINE
  5
2DF
100
AcDbEntity
  8
GEOM
100
AcDbLine
 62
7
  6
CONTINUOUS
 10
186.4638211884
 20
178.1800508885
 11
186.4638211884
 21
178.2300508885
  0
LINE
  5
2E0
100
AcDbEntity
  8
GEOM
100
AcDbLine
 62
7
  6
CONTINUOUS
 10
187.8948449511
 20
178.1800508885
 11
187.8948449511
 21
178.2300508885
  0
LINE
  5
2E1
100
AcDbEntity
  8
0
100
AcDbLine
 62
7
  6
CONTINUOUS
 10
122.9474543503
 20
137.9491107808
 11
102.4474543503
 21
137.9491107808
  0
LINE
  5
2E2
100
AcDbEntity
  8
0
100
AcDbLine
 62
7
  6
CONTINUOUS
 10
123.1474543503
 20
138.2955209423
 11
102.2474543503
 21
138.2955209423
  0
LINE
  5
2E3
100
AcDbEntity
  8
0
100
AcDbLine
 62
7
  6
CONTINUOUS
 10
101.8974543503
 20
138.4975935365
 11
123.4974543503
 21
138.4975935365
  0
LINE
  5
2E4
100
AcDbEntity
  8
0
100
AcDbLine
 62
7
  6
CONTINUOUS
 10
101.9942999229
 20
138.844003698
 11
123.6974543503
 21
138.844003698
  0
LINE
  5
2E5
100
AcDbEntity
  8
0
100
AcDbLine
 62
7
  6
CONTINUOUS
 10
101.749851873
 20
139.417748357
 11
102.0404961866
 21
139.417748357
  0
LINE
  5
2E6
100
AcDbEntity
  8
0
100
AcDbLine
 62
7
  6
CONTINUOUS
 10
117.3162565038
 20
162.3227852986
 11
116.6974543503
 21
162.6800508885
  0
LINE
  5
2E7
100
AcDbEntity
  8
GEOM
100
AcDbLine
 62
7
  6
CONTINUOUS
 10
188.69745435
 20
178.1800508885
 11
188.69745435
 21
178.2300508885
  0
LINE
  5
2E8
100
AcDbEntity
  8
GEOM
100
AcDbLine
 62
7
  6
CONTINUOUS
 10
188.9951145046
 20
178.1800508885
 11
188.9951145046
 21
178.2300508885
  0
LINE
  5
2E9
100
AcDbEntity
  8
GEOM
100
AcDbLine
 62
7
  6
CONTINUOUS
 10
189.5720228199
 20
178.1800508885
 11
189.5720228199
 21
178.2300508885
  0
LINE
  5
2EA
100
AcDbEntity
  8
GEOM
100
AcDbLine
 62
7
  6
CONTINUOUS
 10
190.2313706633
 20
178.1800508885
 11
190.2313706633
 21
178.2300508885
  0
LINE
  5
2EB
100
AcDbEntity
  8
GEOM
100
AcDbLine
 62
7
  6
CONTINUOUS
 10
190.4143703591
 20
178.1800508885
 11
190.4143703591
 21
178.2300508885
  0
LINE
  5
2EC
100
AcDbEntity
  8
GEOM
100
AcDbLine
 62
7
  6
CONTINUOUS
 10
190.700303338
 20
178.1800508885
 11
190.700303338
 21
178.2300508885
  0
LINE
  5
2ED
100
AcDbEntity
  8
GEOM
100
AcDbLine
 62
7
  6
CONTINUOUS
 10
190.7565261628
 20
178.1800508885
 11
190.7565261628
 21
178.2300508885
  0
LINE
  5
2EE
100
AcDbEntity
  8
GEOM
100
AcDbLine
 62
7
  6
CONTINUOUS
 10
191.0127591719
 20
178.1800508885
 11
191.0127591719
 21
178.2300508885
  0
LINE
  5
2EF
100
AcDbEntity
  8
GEOM
100
AcDbLine
 62
7
  6
CONTINUOUS
 10
191.465386872
 20
178.1800508885
 11
191.465386872
 21
178.2300508885
  0
LINE
  5
2F0
100
AcDbEntity
  8
GEOM
100
AcDbLine
 62
7
  6
CONTINUOUS
 10
191.9628911687
 20
178.1800508885
 11
191.9628911687
 21
178.2300508885
  0
LINE
  5
2F1
100
AcDbEntity
  8
GEOM
100
AcDbLine
 62
7
  6
CONTINUOUS
 10
192.1696446749
 20
178.1800508885
 11
192.1696446749
 21
178.2300508885
  0
LINE
  5
2F2
100
AcDbEntity
  8
GEOM
100
AcDbLine
 62
7
  6
CONTINUOUS
 10
192.708328918
 20
178.1800508885
 11
192.708328918
 21
178.2300508885
  0
LINE
  5
2F3
100
AcDbEntity
  8
GEOM
100
AcDbLine
 62
7
  6
CONTINUOUS
 10
193.4047809257
 20
178.1800508885
 11
193.4047809257
 21
178.2300508885
  0
LINE
  5
2F4
100
AcDbEntity
  8
GEOM
100
AcDbLine
 62
7
  6
CONTINUOUS
 10
193.6917007812
 20
178.1800508885
 11
193.6917007812
 21
178.2300508885
  0
LINE
  5
2F5
100
AcDbEntity
  8
GEOM
100
AcDbLine
 62
7
  6
CONTINUOUS
 10
194.3422566699
 20
178.1800508885
 11
194.3422566699
 21
178.2300508885
  0
LINE
  5
2F6
100
AcDbEntity
  8
GEOM
100
AcDbLine
 62
7
  6
CONTINUOUS
 10
194.6107643639
 20
178.1800508885
 11
194.6107643639
 21
178.2300508885
  0
LINE
  5
2F7
100
AcDbEntity
  8
0
100
AcDbLine
 62
7
  6
CONTINUOUS
 10
97.6974543503
 20
139.6800508885
 11
100.2955305617
 21
139.6800508885
  0
LINE
  5
2F8
100
AcDbEntity
  8
0
100
AcDbLine
 62
7
  6
CONTINUOUS
 10
115.1974543503
 20
139.6800508885
 11
121.6974543503
 21
139.6800508885
  0
LINE
  5
2F9
100
AcDbEntity
  8
0
100
AcDbLine
 62
7
  6
CONTINUOUS
 10
98.1974543503
 20
141.4687260231
 11
97.6974543503
 21
141.4687260231
  0
LINE
  5
2FA
100
AcDbEntity
  8
0
100
AcDbLine
 62
7
  6
CONTINUOUS
 10
97.6974543503
 20
144.6800508885
 11
102.0404961866
 21
144.6800508885
  0
LINE
  5
2FB
100
AcDbEntity
  8
0
100
AcDbLine
 62
7
  6
CONTINUOUS
 10
101.5758537461
 20
145.1800508885
 11
98.1974543503
 21
145.1800508885
  0
LINE
  5
2FC
100
AcDbEntity
  8
0
100
AcDbLine
 62
7
  6
CONTINUOUS
 10
101.6974543503
 20
145.4800508885
 11
101.8711174789
 21
145.4800508885
  0
LINE
  5
2FD
100
AcDbEntity
  8
GEOM
100
AcDbLine
 62
7
  6
CONTINUOUS
 10
195.2643893931
 20
178.1800508885
 11
195.2643893931
 21
178.2300508885
  0
LINE
  5
2FE
100
AcDbEntity
  8
GEOM
100
AcDbLine
 62
7
  6
CONTINUOUS
 10
195.5513092487
 20
178.1800508885
 11
195.5513092487
 21
178.2300508885
  0
LINE
  5
2FF
100
AcDbEntity
  8
GEOM
100
AcDbLine
 62
7
  6
CONTINUOUS
 10
195.902670865
 20
178.1800508885
 11
195.902670865
 21
178.2300508885
  0
LINE
  5
300
100
AcDbEntity
  8
GEOM
100
AcDbLine
 62
7
  6
CONTINUOUS
 10
196.0465489597
 20
178.1800508885
 11
196.0465489597
 21
178.2300508885
  0
LINE
  5
301
100
AcDbEntity
  8
GEOM
100
AcDbLine
 62
7
  6
CONTINUOUS
 10
196.459633253
 20
178.1800508885
 11
196.459633253
 21
178.2300508885
  0
LINE
  5
302
100
AcDbEntity
  8
GEOM
100
AcDbLine
 62
7
  6
CONTINUOUS
 10
196.7634304313
 20
178.1800508885
 11
196.7634304313
 21
178.2300508885
  0
LINE
  5
303
100
AcDbEntity
  8
GEOM
100
AcDbLine
 62
7
  6
CONTINUOUS
 10
197.0595560998
 20
178.1800508885
 11
197.0595560998
 21
178.2300508885
  0
LINE
  5
304
100
AcDbEntity
  8
GEOM
100
AcDbLine
 62
7
  6
CONTINUOUS
 10
197.1147920479
 20
178.1800508885
 11
197.1147920479
 21
178.2300508885
  0
LINE
  5
305
100
AcDbEntity
  8
GEOM
100
AcDbLine
 62
7
  6
CONTINUOUS
 10
197.4032462056
 20
178.1800508885
 11
197.4032462056
 21
178.2300508885
  0
LINE
  5
306
100
AcDbEntity
  8
GEOM
100
AcDbLine
 62
7
  6
CONTINUOUS
 10
197.5597482375
 20
178.1800508885
 11
197.5597482375
 21
178.2300508885
  0
LINE
  5
307
100
AcDbEntity
  8
GEOM
100
AcDbLine
 62
7
  6
CONTINUOUS
 10
197.8942325307
 20
178.1800508885
 11
197.8942325307
 21
178.2300508885
  0
LINE
  5
308
100
AcDbEntity
  8
GEOM
100
AcDbLine
 62
7
  6
CONTINUOUS
 10
198.3223108609
 20
178.1800508885
 11
198.3223108609
 21
178.2300508885
  0
LINE
  5
309
100
AcDbEntity
  8
GEOM
100
AcDbLine
 62
7
  6
CONTINUOUS
 10
198.4113014553
 20
178.1800508885
 11
198.4113014553
 21
178.2300508885
  0
LINE
  5
30A
100
AcDbEntity
  8
GEOM
100
AcDbLine
 62
7
  6
CONTINUOUS
 10
198.7457857485
 20
178.1800508885
 11
198.7457857485
 21
178.2300508885
  0
LINE
  5
30B
100
AcDbEntity
  8
GEOM
100
AcDbLine
 62
7
  6
CONTINUOUS
 10
199.0848724117
 20
178.1800508885
 11
199.0848724117
 21
178.2300508885
  0
LINE
  5
30C
100
AcDbEntity
  8
GEOM
100
AcDbLine
 62
7
  6
CONTINUOUS
 10
199.5627253464
 20
178.1800508885
 11
199.5627253464
 21
178.2300508885
  0
LINE
  5
30D
100
AcDbEntity
  8
GEOM
100
AcDbLine
 62
7
  6
CONTINUOUS
 10
200.1113403592
 20
178.1800508885
 11
200.1113403592
 21
178.2300508885
  0
LINE
  5
30E
100
AcDbEntity
  8
GEOM
100
AcDbLine
 62
7
  6
CONTINUOUS
 10
200.333252038
 20
178.1800508885
 11
200.333252038
 21
178.2300508885
  0
LINE
  5
30F
100
AcDbEntity
  8
GEOM
100
AcDbLine
 62
7
  6
CONTINUOUS
 10
200.8447496338
 20
178.1800508885
 11
200.8447496338
 21
178.2300508885
  0
LINE
  5
310
100
AcDbEntity
  8
GEOM
100
AcDbLine
 62
7
  6
CONTINUOUS
 10
201.2528817183
 20
178.1800508885
 11
201.2528817183
 21
178.2300508885
  0
LINE
  5
311
100
AcDbEntity
  8
GEOM
100
AcDbLine
 62
7
  6
CONTINUOUS
 10
201.4961503289
 20
178.1800508885
 11
201.4961503289
 21
178.2300508885
  0
LINE
  5
312
100
AcDbEntity
  8
GEOM
100
AcDbLine
 62
7
  6
CONTINUOUS
 10
201.578159981
 20
178.1800508885
 11
201.578159981
 21
178.2300508885
  0
LINE
  5
313
100
AcDbEntity
  8
0
100
AcDbLine
 62
7
  6
CONTINUOUS
 10
97.6974543503
 20
146.6800508885
 11
100.6974543503
 21
146.6800508885
  0
LINE
  5
314
100
AcDbEntity
  8
0
100
AcDbLine
 62
7
  6
CONTINUOUS
 10
101.6974543503
 20
148.6800508885
 11
113.332424178
 21
148.6800508885
  0
LINE
  5
315
100
AcDbEntity
  8
0
100
AcDbLine
 62
7
  6
CONTINUOUS
 10
101.7232886116
 20
148.9058851498
 11
113.1218303224
 21
148.9058851498
  0
LINE
  5
316
100
AcDbEntity
  8
0
100
AcDbLine
 62
7
  6
CONTINUOUS
 10
112.9594181436
 20
149.0800508885
 11
101.8974543503
 21
149.0800508885
  0
LINE
  5
317
100
AcDbEntity
  8
0
100
AcDbLine
 62
7
  6
CONTINUOUS
 10
104.3974806382
 20
150.6800508885
 11
111.4673940057
 21
150.6800508885
  0
LINE
  5
318
100
AcDbEntity
  8
GEOM
100
AcDbLine
 62
7
  6
CONTINUOUS
 10
202.013910358
 20
178.1800508885
 11
202.013910358
 21
178.2300508885
  0
LINE
  5
319
100
AcDbEntity
  8
GEOM
100
AcDbLine
 62
7
  6
CONTINUOUS
 10
202.3284481876
 20
178.1800508885
 11
202.3284481876
 21
178.2300508885
  0
LINE
  5
31A
100
AcDbEntity
  8
GEOM
100
AcDbLine
 62
7
  6
CONTINUOUS
 10
202.9437145917
 20
178.1800508885
 11
202.9437145917
 21
178.2300508885
  0
LINE
  5
31B
100
AcDbEntity
  8
GEOM
100
AcDbLine
 62
7
  6
CONTINUOUS
 10
203.2340375675
 20
178.1800508885
 11
203.2340375675
 21
178.2300508885
  0
LINE
  5
31C
100
AcDbEntity
  8
GEOM
100
AcDbLine
 62
7
  6
CONTINUOUS
 10
203.4960730009
 20
178.1800508885
 11
203.4960730009
 21
178.2300508885
  0
LINE
  5
31D
100
AcDbEntity
  8
GEOM
100
AcDbLine
 62
7
  6
CONTINUOUS
 10
203.7722527417
 20
178.1800508885
 11
203.7722527417
 21
178.2300508885
  0
LINE
  5
31E
100
AcDbEntity
  8
GEOM
100
AcDbLine
 62
7
  6
CONTINUOUS
 10
204.4795794169
 20
178.1800508885
 11
204.4795794169
 21
178.2300508885
  0
LINE
  5
31F
100
AcDbEntity
  8
GEOM
100
AcDbLine
 62
7
  6
CONTINUOUS
 10
204.7014910957
 20
178.1800508885
 11
204.7014910957
 21
178.2300508885
  0
LINE
  5
320
100
AcDbEntity
  8
GEOM
100
AcDbLine
 62
7
  6
CONTINUOUS
 10
205.2129897641
 20
178.1800508885
 11
205.2129897641
 21
178.2300508885
  0
LINE
  5
321
100
AcDbEntity
  8
GEOM
100
AcDbLine
 62
7
  6
CONTINUOUS
 10
205.621121412
 20
178.1800508885
 11
205.621121412
 21
178.2300508885
  0
LINE
  5
322
100
AcDbEntity
  8
GEOM
100
AcDbLine
 62
7
  6
CONTINUOUS
 10
205.8643893867
 20
178.1800508885
 11
205.8643893867
 21
178.2300508885
  0
LINE
  5
323
100
AcDbEntity
  8
GEOM
100
AcDbLine
 62
7
  6
CONTINUOUS
 10
205.9463990388
 20
178.1800508885
 11
205.9463990388
 21
178.2300508885
  0
LINE
  5
324
100
AcDbEntity
  8
GEOM
100
AcDbLine
 62
7
  6
CONTINUOUS
 10
206.2793495662
 20
178.1800508885
 11
206.2793495662
 21
178.2300508885
  0
LINE
  5
325
100
AcDbEntity
  8
GEOM
100
AcDbLine
 62
7
  6
CONTINUOUS
 10
206.4143699981
 20
178.1800508885
 11
206.4143699981
 21
178.2300508885
  0
LINE
  5
326
100
AcDbEntity
  8
GEOM
100
AcDbLine
 62
7
  6
CONTINUOUS
 10
206.7549907252
 20
178.1800508885
 11
206.7549907252
 21
178.2300508885
  0
LINE
  5
327
100
AcDbEntity
  8
GEOM
100
AcDbLine
 62
7
  6
CONTINUOUS
 10
206.7611279336
 20
178.1800508885
 11
206.7611279336
 21
178.2300508885
  0
LINE
  5
328
100
AcDbEntity
  8
GEOM
100
AcDbLine
 62
7
  6
CONTINUOUS
 10
206.9897448456
 20
178.1800508885
 11
206.9897448456
 21
178.2300508885
  0
LINE
  5
329
100
AcDbEntity
  8
GEOM
100
AcDbLine
 62
7
  6
CONTINUOUS
 10
207.7338936987
 20
178.1800508885
 11
207.7338936987
 21
178.2300508885
  0
LINE
  5
32A
100
AcDbEntity
  8
GEOM
100
AcDbLine
 62
7
  6
CONTINUOUS
 10
207.8692968271
 20
178.1800508885
 11
207.8692968271
 21
178.2300508885
  0
LINE
  5
32B
100
AcDbEntity
  8
GEOM
100
AcDbLine
 62
7
  6
CONTINUOUS
 10
208.2095370028
 20
178.1800508885
 11
208.2095370028
 21
178.2300508885
  0
LINE
  5
32C
100
AcDbEntity
  8
GEOM
100
AcDbLine
 62
7
  6
CONTINUOUS
 10
208.555913392
 20
178.1800508885
 11
208.555913392
 21
178.2300508885
  0
LINE
  5
32D
100
AcDbEntity
  8
GEOM
100
AcDbLine
 62
7
  6
CONTINUOUS
 10
208.6974547237
 20
178.1800508885
 11
208.6974547237
 21
178.2300508885
  0
LINE
  5
32E
100
AcDbEntity
  8
GEOM
100
AcDbLine
 62
7
  6
CONTINUOUS
 10
208.8464549719
 20
178.1800508885
 11
208.8464549719
 21
178.2300508885
  0
LINE
  5
32F
100
AcDbEntity
  8
GEOM
100
AcDbLine
 62
7
  6
CONTINUOUS
 10
208.8468993892
 20
178.1800508885
 11
208.8468993892
 21
178.2300508885
  0
LINE
  5
330
100
AcDbEntity
  8
GEOM
100
AcDbLine
 62
7
  6
CONTINUOUS
 10
208.9094140919
 20
178.1800508885
 11
208.9094140919
 21
178.2300508885
  0
LINE
  5
331
100
AcDbEntity
  8
GEOM
100
AcDbLine
 62
7
  6
CONTINUOUS
 10
208.9384493566
 20
178.1800508885
 11
208.9384493566
 21
178.2300508885
  0
LINE
  5
332
100
AcDbEntity
  8
0
100
AcDbLine
 62
7
  6
CONTINUOUS
 10
108.7419790403
 20
153.6027006193
 11
108.5717681969
 21
153.6027006193
  0
LINE
  5
333
100
AcDbEntity
  8
0
100
AcDbLine
 62
7
  6
CONTINUOUS
 10
108.2035912043
 20
154.1800508885
 11
105.6974543503
 21
154.1800508885
  0
LINE
  5
334
100
AcDbEntity
  8
0
100
AcDbLine
 62
7
  6
CONTINUOUS
 10
98.9899560161
 20
154.6800508885
 11
107.7373336612
 21
154.6800508885
  0
LINE
  5
335
100
AcDbEntity
  8
0
100
AcDbLine
 62
7
  6
CONTINUOUS
 10
109.029835327
 20
154.6800508885
 11
125.1220278698
 21
154.6800508885
  0
LINE
  5
336
100
AcDbEntity
  8
0
100
AcDbLine
 62
7
  6
CONTINUOUS
 10
126.6974543503
 20
154.6800508885
 11
128.2974543503
 21
154.6800508885
  0
LINE
  5
337
100
AcDbEntity
  8
0
100
AcDbLine
 62
7
  6
CONTINUOUS
 10
128.2974543503
 20
157.6800508885
 11
126.6974543503
 21
157.6800508885
  0
LINE
  5
338
100
AcDbEntity
  8
0
100
AcDbLine
 62
7
  6
CONTINUOUS
 10
100.6974543503
 20
157.6800508885
 11
126.6706594311
 21
157.6800508885
  0
LINE
  5
339
100
AcDbEntity
  8
0
100
AcDbLine
 62
7
  6
CONTINUOUS
 10
106.6974543503
 20
158.3336407269
 11
118.6974543503
 21
158.3336407269
  0
LINE
  5
33A
100
AcDbEntity
  8
0
100
AcDbLine
 62
7
  6
CONTINUOUS
 10
106.9974543503
 20
158.8532559692
 11
118.3974543503
 21
158.8532559692
  0
LINE
  5
33B
100
AcDbEntity
  8
GEOM
100
AcDbLine
 62
7
  6
CONTINUOUS
 10
209.0009640593
 20
178.1800508885
 11
209.0009640593
 21
178.2300508885
  0
LINE
  5
33C
100
AcDbEntity
  8
GEOM
100
AcDbLine
 62
7
  6
CONTINUOUS
 10
209.276206518
 20
178.1800508885
 11
209.276206518
 21
178.2300508885
  0
LINE
  5
33D
100
AcDbEntity
  8
GEOM
100
AcDbLine
 62
7
  6
CONTINUOUS
 10
209.3385730816
 20
178.1800508885
 11
209.3385730816
 21
178.2300508885
  0
LINE
  5
33E
100
AcDbEntity
  8
GEOM
100
AcDbLine
 62
7
  6
CONTINUOUS
 10
209.5908539789
 20
178.1800508885
 11
209.5908539789
 21
178.2300508885
  0
LINE
  5
33F
100
AcDbEntity
  8
GEOM
100
AcDbLine
 62
7
  6
CONTINUOUS
 10
209.653961238
 20
178.1800508885
 11
209.653961238
 21
178.2300508885
  0
LINE
  5
340
100
AcDbEntity
  8
GEOM
100
AcDbLine
 62
7
  6
CONTINUOUS
 10
209.6829965027
 20
178.1800508885
 11
209.6829965027
 21
178.2300508885
  0
LINE
  5
341
100
AcDbEntity
  8
GEOM
100
AcDbLine
 62
7
  6
CONTINUOUS
 10
209.7452149272
 20
178.1800508885
 11
209.7452149272
 21
178.2300508885
  0
LINE
  5
342
100
AcDbEntity
  8
GEOM
100
AcDbLine
 62
7
  6
CONTINUOUS
 10
209.9540910664
 20
178.1800508885
 11
209.9540910664
 21
178.2300508885
  0
LINE
  5
343
100
AcDbEntity
  8
GEOM
100
AcDbLine
 62
7
  6
CONTINUOUS
 10
210.020605525
 20
178.1800508885
 11
210.020605525
 21
178.2300508885
  0
LINE
  5
344
100
AcDbEntity
  8
GEOM
100
AcDbLine
 62
7
  6
CONTINUOUS
 10
210.0414931389
 20
178.1800508885
 11
210.0414931389
 21
178.2300508885
  0
LINE
  5
345
100
AcDbEntity
  8
GEOM
100
AcDbLine
 62
7
  6
CONTINUOUS
 10
210.1078594583
 20
178.1800508885
 11
210.1078594583
 21
178.2300508885
  0
LINE
  5
346
100
AcDbEntity
  8
GEOM
100
AcDbLine
 62
7
  6
CONTINUOUS
 10
210.3162911803
 20
178.1800508885
 11
210.3162911803
 21
178.2300508885
  0
LINE
  5
347
100
AcDbEntity
  8
GEOM
100
AcDbLine
 62
7
  6
CONTINUOUS
 10
210.3168837367
 20
178.1800508885
 11
210.3168837367
 21
178.2300508885
  0
LINE
  5
348
100
AcDbEntity
  8
GEOM
100
AcDbLine
 62
7
  6
CONTINUOUS
 10
210.3792503003
 20
178.1800508885
 11
210.3792503003
 21
178.2300508885
  0
LINE
  5
349
100
AcDbEntity
  8
GEOM
100
AcDbLine
 62
7
  6
CONTINUOUS
 10
210.4085818432
 20
178.1800508885
 11
210.4085818432
 21
178.2300508885
  0
LINE
  5
34A
100
AcDbEntity
  8
GEOM
100
AcDbLine
 62
7
  6
CONTINUOUS
 10
210.4709484068
 20
178.1800508885
 11
210.4709484068
 21
178.2300508885
  0
LINE
  5
34B
100
AcDbEntity
  8
GEOM
100
AcDbLine
 62
7
  6
CONTINUOUS
 10
211.7276336804
 20
178.1800508885
 11
211.7276336804
 21
178.2300508885
  0
LINE
  5
34C
100
AcDbEntity
  8
0
100
AcDbLine
 62
7
  6
CONTINUOUS
 10
108.6975014261
 20
162.6800508885
 11
116.6974072745
 21
162.6800508885
  0
LINE
  5
34D
100
AcDbEntity
  8
GEOM
100
AcDbLine
 62
7
  6
CONTINUOUS
 10
221.5842826851
 20
178.1800508885
 11
221.5842826851
 21
178.2300508885
  0
LINE
  5
34E
100
AcDbEntity
  8
GEOM
100
AcDbLine
 62
7
  6
CONTINUOUS
 10
221.7138871773
 20
178.1800508885
 11
221.7138871773
 21
178.2300508885
  0
LINE
  5
34F
100
AcDbEntity
  8
GEOM
100
AcDbLine
 62
7
  6
CONTINUOUS
 10
221.9284546143
 20
178.1800508885
 11
221.9284546143
 21
178.2300508885
  0
LINE
  5
350
100
AcDbEntity
  8
GEOM
100
AcDbLine
 62
7
  6
CONTINUOUS
 10
222.0199356798
 20
178.1800508885
 11
222.0199356798
 21
178.2300508885
  0
LINE
  5
351
100
AcDbEntity
  8
GEOM
100
AcDbLine
 62
7
  6
CONTINUOUS
 10
222.056922225
 20
178.1800508885
 11
222.056922225
 21
178.2300508885
  0
LINE
  5
352
100
AcDbEntity
  8
GEOM
100
AcDbLine
 62
7
  6
CONTINUOUS
 10
222.2153277154
 20
178.1800508885
 11
222.2153277154
 21
178.2300508885
  0
LINE
  5
353
100
AcDbEntity
  8
0
100
AcDbLine
 62
7
  6
CONTINUOUS
 10
151.4974543503
 20
172.1800508885
 11
236.6974543503
 21
172.1800508885
  0
LINE
  5
354
100
AcDbEntity
  8
0
100
AcDbLine
 62
7
  6
CONTINUOUS
 10
149.7827357245
 20
173.6800508885
 11
150.2152248273
 21
173.6800508885
  0
LINE
  5
355
100
AcDbEntity
  8
0
100
AcDbLine
 62
7
  6
CONTINUOUS
 10
228.1974543503
 20
172.1800508885
 11
228.1974543503
 21
178.1800508885
  0
LINE
  5
356
100
AcDbEntity
  8
0
100
AcDbLine
 62
7
  6
CONTINUOUS
 10
150.1974543503
 20
174.6800508885
 11
239.1974543503
 21
174.6800508885
  0
LINE
  5
357
100
AcDbEntity
  8
0
100
AcDbLine
 62
7
  6
CONTINUOUS
 10
150.1974543503
 20
175.6800508885
 11
239.1974543503
 21
175.6800508885
  0
LINE
  5
358
100
AcDbEntity
  8
0
100
AcDbLine
 62
7
  6
CONTINUOUS
 10
150.2152248273
 20
176.6800508885
 11
149.3685221622
 21
176.6800508885
  0
LINE
  5
359
100
AcDbEntity
  8
0
100
AcDbLine
 62
7
  6
CONTINUOUS
 10
151.4974543503
 20
178.1800508885
 11
236.6974543503
 21
178.1800508885
  0
LINE
  5
35A
100
AcDbEntity
  8
GEOM
100
AcDbLine
 62
7
  6
CONTINUOUS
 10
152.6974543503
 20
178.2300508885
 11
155.1974543503
 21
178.2300508885
  0
LINE
  5
35B
100
AcDbEntity
  8
GEOM
100
AcDbLine
 62
7
  6
CONTINUOUS
 10
156.1971501212
 20
178.2300508885
 11
163.1224311118
 21
178.2300508885
  0
LINE
  5
35C
100
AcDbEntity
  8
GEOM
100
AcDbLine
 62
7
  6
CONTINUOUS
 10
164.2354742837
 20
178.2300508885
 11
170.5052397308
 21
178.2300508885
  0
LINE
  5
35D
100
AcDbEntity
  8
GEOM
100
AcDbLine
 62
7
  6
CONTINUOUS
 10
171.9621137675
 20
178.2300508885
 11
179.8665942478
 21
178.2300508885
  0
LINE
  5
35E
100
AcDbEntity
  8
GEOM
100
AcDbLine
 62
7
  6
CONTINUOUS
 10
180.969489891
 20
178.2300508885
 11
209.3384249425
 21
178.2300508885
  0
LINE
  5
35F
100
AcDbEntity
  8
GEOM
100
AcDbLine
 62
7
  6
CONTINUOUS
 10
209.5908539789
 20
178.2300508885
 11
210.4709484068
 21
178.2300508885
  0
LINE
  5
360
100
AcDbEntity
  8
GEOM
100
AcDbLine
 62
7
  6
CONTINUOUS
 10
211.7276336804
 20
178.2300508885
 11
222.2153277154
 21
178.2300508885
  0
LINE
  5
361
100
AcDbEntity
  8
0
100
AcDbLine
 62
7
  6
CONTINUOUS
 10
239.1974543503
 20
174.6800508885
 11
239.1974543503
 21
175.6800508885
  0
ARC
  5
362
100
AcDbEntity
  8
0
100
AcDbCircle
 62
7
  6
CONTINUOUS
 10
28.4571519031
 20
-217.4451423169
 40
282.6833275054
100
AcDbArc
 50
76.7747622683
 51
76.9189701
  0
ARC
  5
363
100
AcDbEntity
  8
0
100
AcDbCircle
 62
7
  6
CONTINUOUS
 10
102.2187746939
 20
45.6800508885
 40
1.5
100
AcDbArc
 50
225.0
 51
270.0
  0
ARC
  5
364
100
AcDbEntity
  8
0
100
AcDbCircle
 62
7
  6
CONTINUOUS
 10
121.8187746939
 20
44.6800508885
 40
1.5
100
AcDbArc
 50
225.0
 51
270.0
  0
ARC
  5
365
100
AcDbEntity
  8
0
100
AcDbCircle
 62
7
  6
CONTINUOUS
 10
97.9761340067
 20
45.6800508885
 40
1.5
100
AcDbArc
 50
45.0
 51
90.0
  0
ARC
  5
366
100
AcDbEntity
  8
0
100
AcDbCircle
 62
7
  6
CONTINUOUS
 10
119.5761340067
 20
42.6800508885
 40
1.5
100
AcDbArc
 50
45.0
 51
90.0
  0
ARC
  5
367
100
AcDbEntity
  8
0
100
AcDbCircle
 62
7
  6
CONTINUOUS
 10
92.4373867194
 20
45.8521482687
 40
0.8008210678
100
AcDbArc
 50
269.9391362661
 51
329.7772735906
  0
ARC
  5
368
100
AcDbEntity
  8
0
100
AcDbCircle
 62
7
  6
CONTINUOUS
 10
131.1372883197
 20
43.9800508885
 40
0.8
100
AcDbArc
 50
270.0
 51
340.0000003059
  0
ARC
  5
369
100
AcDbEntity
  8
0
100
AcDbCircle
 62
7
  6
CONTINUOUS
 10
94.6593345657
 20
46.3800508885
 40
0.8
100
AcDbArc
 50
90.0
 51
150.0
  0
ARC
  5
36A
100
AcDbEntity
  8
0
100
AcDbCircle
 62
7
  6
CONTINUOUS
 10
92.4365360293
 20
45.7300508885
 40
0.8
100
AcDbArc
 50
270.0
 51
330.0
  0
ARC
  5
36B
100
AcDbEntity
  8
0
100
AcDbCircle
 62
7
  6
CONTINUOUS
 10
37.31723805
 20
311.890600557
 40
243.7472447978
100
AcDbArc
 50
283.0695121249
 51
283.2367556703
  0
ARC
  5
36C
100
AcDbEntity
  8
0
100
AcDbCircle
 62
7
  6
CONTINUOUS
 10
128.2974543503
 20
158.6800508885
 40
4.0
100
AcDbArc
 50
270.0
 51
315.0
  0
ARC
  5
36D
100
AcDbEntity
  8
0
100
AcDbCircle
 62
7
  6
CONTINUOUS
 10
100.6974543503
 20
154.6800508885
 40
3.0
100
AcDbArc
 50
90.0
 51
180.0
  0
ARC
  5
36E
100
AcDbEntity
  8
0
100
AcDbCircle
 62
7
  6
CONTINUOUS
 10
115.4168452753
 20
63.7600508885
 40
2.26
100
AcDbArc
 50
79.8054483672
 51
180.0
  0
ARC
  5
36F
100
AcDbEntity
  8
0
100
AcDbCircle
 62
7
  6
CONTINUOUS
 10
114.6968452753
 20
63.9400508885
 40
2.24
100
AcDbArc
 50
90.0
 51
180.0
  0
ARC
  5
370
100
AcDbEntity
  8
0
100
AcDbCircle
 62
7
  6
CONTINUOUS
 10
102.2187746939
 20
86.6800508885
 40
1.5
100
AcDbArc
 50
111.0847375628
 51
135.0
  0
ARC
  5
371
100
AcDbEntity
  8
0
100
AcDbCircle
 62
7
  6
CONTINUOUS
 10
97.9761340067
 20
86.6800508885
 40
1.5
100
AcDbArc
 50
270.0
 51
315.0
  0
ARC
  5
372
100
AcDbEntity
  8
0
100
AcDbCircle
 62
7
  6
CONTINUOUS
 10
113.5631095379
 20
65.196903198
 40
1.48
100
AcDbArc
 50
105.9323912632
 51
138.3721990194
  0
ARC
  5
373
100
AcDbEntity
  8
0
100
AcDbCircle
 62
7
  6
CONTINUOUS
 10
124.147437116
 20
90.3800394737
 40
1.1999982029
100
AcDbArc
 50
179.9994349477
 51
270.0008376627
  0
ARC
  5
374
100
AcDbEntity
  8
0
100
AcDbCircle
 62
7
  6
CONTINUOUS
 10
128.2974543503
 20
158.6800508885
 40
1.0
100
AcDbArc
 50
270.0
 51
315.0
  0
ARC
  5
375
100
AcDbEntity
  8
0
100
AcDbCircle
 62
7
  6
CONTINUOUS
 10
92.4373867194
 20
86.5079535082
 40
0.8008210678
100
AcDbArc
 50
30.2227264094
 51
90.0608637339
  0
ARC
  5
376
100
AcDbEntity
  8
0
100
AcDbCircle
 62
7
  6
CONTINUOUS
 10
131.1372883197
 20
88.3800508885
 40
0.8
100
AcDbArc
 50
19.9999996941
 51
90.0
  0
ARC
  5
377
100
AcDbEntity
  8
0
100
AcDbCircle
 62
7
  6
CONTINUOUS
 10
94.6593345657
 20
85.9800508885
 40
0.8
100
AcDbArc
 50
210.0
 51
270.0
  0
ARC
  5
378
100
AcDbEntity
  8
0
100
AcDbCircle
 62
7
  6
CONTINUOUS
 10
92.4365360293
 20
86.6300508885
 40
0.8
100
AcDbArc
 50
30.0
 51
90.0
  0
ARC
  5
379
100
AcDbEntity
  8
0
100
AcDbCircle
 62
7
  6
CONTINUOUS
 10
118.0974543503
 20
158.3336407269
 40
0.6
100
AcDbArc
 50
0.0
 51
60.0
  0
ARC
  5
37A
100
AcDbEntity
  8
0
100
AcDbCircle
 62
7
  6
CONTINUOUS
 10
107.2974543503
 20
158.3336407269
 40
0.6
100
AcDbArc
 50
120.0
 51
180.0
  0
ARC
  5
37B
100
AcDbEntity
  8
0
100
AcDbCircle
 62
7
  6
CONTINUOUS
 10
101.1974543503
 20
154.1800508885
 40
0.5
100
AcDbArc
 50
90.0
 51
180.0
  0
ARC
  5
37C
100
AcDbEntity
  8
0
100
AcDbCircle
 62
7
  6
CONTINUOUS
 10
98.1974543503
 20
141.4687260231
 40
0.5
100
AcDbArc
 50
180.0
 51
240.0
  0
ARC
  5
37D
100
AcDbEntity
  8
0
100
AcDbCircle
 62
7
  6
CONTINUOUS
 10
98.1974543503
 20
144.6800508885
 40
0.5
100
AcDbArc
 50
90.0
 51
180.0
  0
ARC
  5
37E
100
AcDbEntity
  8
0
100
AcDbCircle
 62
7
  6
CONTINUOUS
 10
123.2974543503
 20
138.844003698
 40
0.4
100
AcDbArc
 50
299.9999999738
 51
359.9999999993
  0
ARC
  5
37F
100
AcDbEntity
  8
0
100
AcDbCircle
 62
7
  6
CONTINUOUS
 10
102.0974543503
 20
138.844003698
 40
0.4
100
AcDbArc
 50
192.9468551753
 51
240.0000000292
  0
ARC
  5
380
100
AcDbEntity
  8
0
100
AcDbCircle
 62
7
  6
CONTINUOUS
 10
123.3474543503
 20
137.9491107808
 40
0.4
100
AcDbArc
 50
119.9999999642
 51
180.0
  0
ARC
  5
381
100
AcDbEntity
  8
0
100
AcDbCircle
 62
7
  6
CONTINUOUS
 10
102.0474543503
 20
137.9491107808
 40
0.4
100
AcDbArc
 50
0.0
 51
60.0000000439
  0
ARC
  5
382
100
AcDbEntity
  8
0
100
AcDbCircle
 62
7
  6
CONTINUOUS
 10
101.3974543503
 20
145.4800508885
 40
0.3
100
AcDbArc
 50
270.0
 51
360.0
  0
ARC
  5
383
100
AcDbEntity
  8
0
100
AcDbCircle
 62
7
  6
CONTINUOUS
 10
132.8945682908
 20
44.1300508885
 40
0.8
100
AcDbArc
 50
90.0
 51
160.0
  0
ARC
  5
384
100
AcDbEntity
  8
0
100
AcDbCircle
 62
7
  6
CONTINUOUS
 10
149.3685221622
 20
172.6800508885
 40
4.0
100
AcDbArc
 50
90.0
 51
135.0
  0
ARC
  5
385
100
AcDbEntity
  8
0
100
AcDbCircle
 62
7
  6
CONTINUOUS
 10
132.917653952
 20
84.5047289161
 40
2.7851537852
100
AcDbArc
 50
89.9988936317
 51
90.4749203108
  0
ARC
  5
386
100
AcDbEntity
  8
0
100
AcDbCircle
 62
7
  6
CONTINUOUS
 10
132.917653942
 20
47.8553726965
 40
2.7851536209
100
AcDbArc
 50
269.5250798673
 51
270.0011065404
  0
ARC
  5
387
100
AcDbEntity
  8
0
100
AcDbCircle
 62
7
  6
CONTINUOUS
 10
236.6974543503
 20
175.6800508885
 40
2.5
100
AcDbArc
 50
0.0
 51
90.0
  0
ARC
  5
388
100
AcDbEntity
  8
0
100
AcDbCircle
 62
7
  6
CONTINUOUS
 10
236.6974543503
 20
174.6800508885
 40
2.5
100
AcDbArc
 50
270.0
 51
360.0
  0
ARC
  5
389
100
AcDbEntity
  8
0
100
AcDbCircle
 62
7
  6
CONTINUOUS
 10
149.7827357245
 20
171.6800508885
 40
2.0
100
AcDbArc
 50
90.0
 51
135.0
  0
ARC
  5
38A
100
AcDbEntity
  8
0
100
AcDbCircle
 62
7
  6
CONTINUOUS
 10
151.4974543503
 20
173.4800508885
 40
1.3
100
AcDbArc
 50
180.0
 51
270.0
  0
ARC
  5
38B
100
AcDbEntity
  8
0
100
AcDbCircle
 62
7
  6
CONTINUOUS
 10
151.4974543503
 20
176.8800508885
 40
1.3
100
AcDbArc
 50
90.0
 51
180.0
  0
ARC
  5
38C
100
AcDbEntity
  8
0
100
AcDbCircle
 62
7
  6
CONTINUOUS
 10
132.8945682908
 20
88.2300508885
 40
0.8
100
AcDbArc
 50
200.0
 51
270.0
  0
ARC
  5
38D
100
AcDbEntity
  8
0
100
AcDbCircle
 62
7
  6
CONTINUOUS
 10
132.9176626971
 20
79.2438303097
 40
0.3986204885
100
AcDbArc
 50
266.6786620088
 51
270.0064992344
  0
ARC
  5
38E
100
AcDbEntity
  8
0
100
AcDbCircle
 62
7
  6
CONTINUOUS
 10
132.9176627817
 20
53.1162718922
 40
0.3986200635
100
AcDbArc
 50
89.9935163661
 51
93.3213537122
  0
ARC
  5
38F
100
AcDbEntity
  8
0
100
AcDbCircle
 62
7
  6
CONTINUOUS
 10
132.917670702
 20
74.2757315722
 40
0.3489921952
100
AcDbArc
 50
89.9939143205
 51
93.7956129928
  0
ARC
  5
390
100
AcDbEntity
  8
0
100
AcDbCircle
 62
7
  6
CONTINUOUS
 10
132.9176707021
 20
58.0843702003
 40
0.3489921909
100
AcDbArc
 50
266.2043869374
 51
270.0060856099
  0
SPLINE
  5
391
100
AcDbEntity
  8
0
100
AcDbSpline
 62
7
  6
CONTINUOUS
 70
0
 71
3
 72
11
 73
7
 74
0
 42
0.0000001
 43
0.0000001
 44
0.0000000001
 40
0.0
 40
0.0
 40
0.0
 40
0.0
 40
0.2220463701
 40
0.4104298874
 40
0.6535196252
 40
1.0
 40
1.0
 40
1.0
 40
1.0
 10
104.0668601294
 20
150.3494548253
 30
0.0
 10
104.0663987173
 20
150.3489927231
 30
0.0
 10
104.0655971975
 20
150.347965279
 30
0.0
 10
104.0658444948
 20
150.3458887376
 30
0.0
 10
104.0675231517
 20
150.3442016642
 30
0.0
 10
104.0690025477
 20
150.3433084093
 30
0.0
 10
104.069906198
 20
150.3428375303
 30
0.0
  0
SPLINE
  5
392
100
AcDbEntity
  8
0
100
AcDbSpline
 62
7
  6
CONTINUOUS
 70
0
 71
3
 72
10
 73
6
 74
0
 42
0.0000001
 43
0.0000001
 44
0.0000000001
 40
0.0
 40
0.0
 40
0.0
 40
0.0
 40
0.1783999007
 40
0.5181058508
 40
1.0
 40
1.0
 40
1.0
 40
1.0
 10
103.6974625122
 20
149.2047550374
 30
0.0
 10
103.6974623131
 20
149.2039274372
 30
0.0
 10
103.6981161331
 20
149.2015135401
 30
0.0
 10
103.7014668419
 20
149.1980829511
 30
0.0
 10
103.704741865
 20
149.1961304478
 30
0.0
 10
103.7067241955
 20
149.1950970582
 30
0.0
  0
SPLINE
  5
393
100
AcDbEntity
  8
0
100
AcDbSpline
 62
7
  6
CONTINUOUS
 70
0
 71
3
 72
10
 73
6
 74
0
 42
0.0000001
 43
0.0000001
 44
0.0000000001
 40
0.0
 40
0.0
 40
0.0
 40
0.0
 40
0.1783627819
 40
0.5181329572
 40
1.0
 40
1.0
 40
1.0
 40
1.0
 10
103.6974581992
 20
149.5088480022
 30
0.0
 10
103.6974589771
 20
149.5096758475
 30
0.0
 10
103.6981165676
 20
149.5120901109
 30
0.0
 10
103.7014713319
 20
149.5155193443
 30
0.0
 10
103.7047484419
 20
149.51747233
 30
0.0
 10
103.7067317913
 20
149.5185059339
 30
0.0
  0
SPLINE
  5
394
100
AcDbEntity
  8
0
100
AcDbSpline
 62
7
  6
CONTINUOUS
 70
0
 71
3
 72
11
 73
7
 74
0
 42
0.0000001
 43
0.0000001
 44
0.0000000001
 40
0.0
 40
0.0
 40
0.0
 40
0.0
 40
0.2409986936
 40
0.4863412479
 40
0.7389668424
 40
1.0
 40
1.0
 40
1.0
 40
1.0
 10
106.6352765239
 20
154.1800508885
 30
0.0
 10
106.4712407439
 20
154.1800508849
 30
0.0
 10
106.139643624
 20
154.1527390979
 30
0.0
 10
105.6491154272
 20
154.0343129361
 30
0.0
 10
105.1659184466
 20
153.8482587493
 30
0.0
 10
104.8538698957
 20
153.689395795
 30
0.0
 10
104.6987848507
 20
153.6027006193
 30
0.0
  0
SPLINE
  5
395
100
AcDbEntity
  8
0
100
AcDbSpline
 62
7
  6
CONTINUOUS
 70
0
 71
3
 72
11
 73
7
 74
0
 42
0.0000001
 43
0.0000001
 44
0.0000000001
 40
0.0
 40
0.0
 40
0.0
 40
0.0
 40
0.2610331594
 40
0.5136587636
 40
0.7590013162
 40
1.0
 40
1.0
 40
1.0
 40
1.0
 10
108.5717681969
 20
153.6027006193
 30
0.0
 10
108.4166831509
 20
153.6893957955
 30
0.0
 10
108.1046345927
 20
153.8482587519
 30
0.0
 10
107.6214376057
 20
154.0343129423
 30
0.0
 10
107.1309094086
 20
154.1527390914
 30
0.0
 10
106.7993122971
 20
154.180050892
 30
0.0
 10
106.6352765239
 20
154.1800508885
 30
0.0
  0
SPLINE
  5
396
100
AcDbEntity
  8
0
100
AcDbSpline
 62
7
  6
CONTINUOUS
 70
0
 71
3
 72
26
 73
22
 74
0
 42
0.0000001
 43
0.0000001
 44
0.0000000001
 40
0.0
 40
0.0
 40
0.0
 40
0.0
 40
0.0014941063
 40
0.0035148841
 40
0.0091791332
 40
0.0170276609
 40
0.0270566162
 40
0.0392536868
 40
0.0535965357
 40
0.0700549087
 40
0.0885972628
 40
0.131773776
 40
0.1827639817
 40
0.2411355429
 40
0.3063960242
 40
0.3779908024
 40
0.4553107765
 40
0.537700599
 40
0.6244589334
 40
0.808099598
 40
1.0
 40
1.0
 40
1.0
 40
1.0
 10
103.7067317913
 20
149.5185059339
 30
0.0
 10
103.7105124118
 20
149.5204761688
 30
0.0
 10
103.7199023016
 20
149.5241237334
 30
0.0
 10
103.7450947227
 20
149.5313066346
 30
0.0
 10
103.7887016495
 20
149.5396239571
 30
0.0
 10
103.8551901006
 20
149.5491370347
 30
0.0
 10
103.9404837857
 20
149.5587143107
 30
0.0
 10
104.0443796709
 20
149.5683820753
 30
0.0
 10
104.1666885332
 20
149.578082371
 30
0.0
 10
104.3071474915
 20
149.5878150998
 30
0.0
 10
104.5297949048
 20
149.60151788
 30
0.0
 10
104.8509616644
 20
149.6182851573
 30
0.0
 10
105.2857784325
 20
149.637635235
 30
0.0
 10
105.7836602504
 20
149.657044675
 30
0.0
 10
106.3403714591
 20
149.6765001221
 30
0.0
 10
106.9511779158
 20
149.6959848763
 30
0.0
 10
107.6108824332
 20
149.715491393
 30
0.0
 10
108.3138710134
 20
149.7350132812
 30
0.0
 10
109.3201503224
 20
149.7615612465
 30
0.0
 10
110.6388464653
 20
149.7942652977
 30
0.0
 10
111.7100930321
 20
149.8197335474
 30
0.0
 10
112.2574982731
 20
149.8326915412
 30
0.0
  0
SPLINE
  5
397
100
AcDbEntity
  8
0
100
AcDbSpline
 62
7
  6
CONTINUOUS
 70
0
 71
3
 72
30
 73
26
 74
0
 42
0.0000001
 43
0.0000001
 44
0.0000000001
 40
0.0
 40
0.0
 40
0.0
 40
0.0
 40
0.1992912763
 40
0.2952828592
 40
0.3877834555
 40
0.4760416766
 40
0.559344151
 40
0.6370204448
 40
0.7084505343
 40
0.7730638952
 40
0.8303520728
 40
0.8798667222
 40
0.9015849754
 40
0.9212214041
 40
0.9387395126
 40
0.9541039219
 40
0.967287947
 40
0.9782699621
 40
0.9870300328
 40
0.990573389
 40
0.9935588686
 40
0.9959874674
 40
0.9978620809
 40
0.9991906655
 40
1.0
 40
1.0
 40
1.0
 40
1.0
 10
111.5877507021
 20
150.550797834
 30
0.0
 10
111.0878596628
 20
150.5424442018
 30
0.0
 10
110.347190411
 20
150.5299628985
 30
0.0
 10
109.374509771
 20
150.5129118433
 30
0.0
 10
108.6803420859
 20
150.5003060274
 30
0.0
 10
108.0180124779
 20
150.4877251852
 30
0.0
 10
107.3928790303
 20
150.475170715
 30
0.0
 10
106.8099706224
 20
150.4626454786
 30
0.0
 10
106.2739583538
 20
150.4501539468
 30
0.0
 10
105.7891076529
 20
150.4377028704
 30
0.0
 10
105.3592550438
 20
150.4252983853
 30
0.0
 10
105.0370105215
 20
150.4146063726
 30
0.0
 10
104.8092123448
 20
150.4059175257
 30
0.0
 10
104.6616489727
 20
150.3997006521
 30
0.0
 10
104.5300402227
 20
150.3935002477
 30
0.0
 10
104.4146380674
 20
150.3873172552
 30
0.0
 10
104.3156570868
 20
150.3811637801
 30
0.0
 10
104.2332815176
 20
150.3750445627
 30
0.0
 10
104.1751019196
 20
150.369701054
 30
0.0
 10
104.137003358
 20
150.3652778425
 30
0.0
 10
104.1147332418
 20
150.3622152241
 30
0.0
 10
104.0967152631
 20
150.35917474
 30
0.0
 10
104.082856928
 20
150.3561848124
 30
0.0
 10
104.0733014341
 20
150.3532525414
 30
0.0
 10
104.0682947465
 20
150.350891588
 30
0.0
 10
104.0668601294
 20
150.3494548253
 30
0.0
  0
SPLINE
  5
398
100
AcDbEntity
  8
0
100
AcDbSpline
 62
7
  6
CONTINUOUS
 70
0
 71
3
 72
23
 73
19
 74
0
 42
0.0000001
 43
0.0000001
 44
0.0000000001
 40
0.0
 40
0.0
 40
0.0
 40
0.0
 40
0.0037729276
 40
0.0096448932
 40
0.0176465836
 40
0.0277801982
 40
0.0400351227
 40
0.0543889625
 40
0.0892896153
 40
0.1322203802
 40
0.182851865
 40
0.2407856202
 40
0.3055699884
 40
0.3766956619
 40
0.4536020111
 40
0.622300242
 40
0.8063619101
 40
1.0
 40
1.0
 40
1.0
 40
1.0
 10
104.5076265655
 20
149.9359003526
 30
0.0
 10
104.5158577156
 20
149.9401924924
 30
0.0
 10
104.5387711058
 20
149.9471867536
 30
0.0
 10
104.581160994
 20
149.9562194492
 30
0.0
 10
104.6395878283
 20
149.965318636
 30
0.0
 10
104.713773289
 20
149.9745813613
 30
0.0
 10
104.8037068276
 20
149.9838828
 30
0.0
 10
104.9544573937
 20
149.9972296608
 30
0.0
 10
105.1807114107
 20
150.0133873522
 30
0.0
 10
105.4962435232
 20
150.031927763
 30
0.0
 10
105.8685271581
 20
150.0505467026
 30
0.0
 10
106.2946330187
 20
150.0692369743
 30
0.0
 10
106.771204921
 20
150.0879649406
 30
0.0
 10
107.2944886551
 20
150.106723189
 30
0.0
 10
108.073352353
 20
150.1325630127
 30
0.0
 10
109.1300403733
 20
150.1642965987
 30
0.0
 10
110.4739000748
 20
150.201427341
 30
0.0
 10
111.4028814949
 20
150.2258597495
 30
0.0
 10
111.8791518342
 20
150.2382810019
 30
0.0
  0
SPLINE
  5
399
100
AcDbEntity
  8
0
100
AcDbSpline
 62
7
  6
CONTINUOUS
 70
0
 71
3
 72
28
 73
24
 74
0
 42
0.0000001
 43
0.0000001
 44
0.0000000001
 40
0.0
 40
0.0
 40
0.0
 40
0.0
 40
0.0017712194
 40
0.0033724119
 40
0.0055152388
 40
0.0082146984
 40
0.0114773935
 40
0.0197025091
 40
0.0301961336
 40
0.042942776
 40
0.0579213048
 40
0.0751066038
 40
0.1159515639
 40
0.1651554804
 40
0.222317407
 40
0.2869747301
 40
0.3586002482
 40
0.4366071441
 40
0.5203602697
 40
0.6091732165
 40
0.7023193694
 40
0.79903791
 40
1.0
 40
1.0
 40
1.0
 40
1.0
 10
104.4974588479
 20
150.1253016514
 30
0.0
 10
104.4974549949
 20
150.1295608099
 30
0.0
 10
104.5057876235
 20
150.1354315346
 30
0.0
 10
104.5173211033
 20
150.1403259576
 30
0.0
 10
104.5323500432
 20
150.1451443341
 30
0.0
 10
104.5511753586
 20
150.1498169285
 30
0.0
 10
104.5846410178
 20
150.1567128592
 30
0.0
 10
104.6368444872
 20
150.1649510553
 30
0.0
 10
104.7119349169
 20
150.1743827529
 30
0.0
 10
104.8033496447
 20
150.1838567857
 30
0.0
 10
104.910926666
 20
150.1933816616
 30
0.0
 10
105.0859682619
 20
150.2068989007
 30
0.0
 10
105.3433120573
 20
150.223366793
 30
0.0
 10
105.6967982259
 20
150.242307874
 30
0.0
 10
106.1076120597
 20
150.2613209047
 30
0.0
 10
106.5723891309
 20
150.2803899818
 30
0.0
 10
107.08732746
 20
150.2994929564
 30
0.0
 10
107.6482121911
 20
150.3186217453
 30
0.0
 10
108.2504482859
 20
150.3377673845
 30
0.0
 10
108.889105767
 20
150.3569261625
 30
0.0
 10
109.5589535075
 20
150.3760947993
 30
0.0
 10
110.4983978177
 20
150.4019920536
 30
0.0
 10
111.213965664
 20
150.4208956071
 30
0.0
 10
111.6970437845
 20
150.4335258795
 30
0.0
  0
SPLINE
  5
39A
100
AcDbEntity
  8
0
100
AcDbSpline
 62
7
  6
CONTINUOUS
 70
0
 71
3
 72
9
 73
5
 74
0
 42
0.0000001
 43
0.0000001
 44
0.0000000001
 40
0.0
 40
0.0
 40
0.0
 40
0.0
 40
0.247757834
 40
1.0
 40
1.0
 40
1.0
 40
1.0
 10
111.0705217097
 20
149.0800505572
 30
0.0
 10
111.2228101281
 20
149.0840825949
 30
0.0
 10
111.8374790147
 20
149.1002632513
 30
0.0
 10
112.4521547355
 20
149.1161824653
 30
0.0
 10
112.9145389918
 20
149.1281855888
 30
0.0
  0
SPLINE
  5
39B
100
AcDbEntity
  8
0
100
AcDbSpline
 62
7
  6
CONTINUOUS
 70
0
 71
3
 72
30
 73
26
 74
0
 42
0.0000001
 43
0.0000001
 44
0.0000000001
 40
0.0
 40
0.0
 40
0.0
 40
0.0
 40
0.1957932173
 40
0.291126271
 40
0.3835489709
 40
0.4721914417
 40
0.5562204077
 40
0.6348467715
 40
0.7073309169
 40
0.7729913893
 40
0.8312134701
 40
0.8814517139
 40
0.9034261038
 40
0.9232359291
 40
0.9408348618
 40
0.9561814254
 40
0.9692442103
 40
0.9799945501
 40
0.9884131022
 40
0.9917466734
 40
0.9944975633
 40
0.9966697837
 40
0.9982744712
 40
0.9993445025
 40
1.0
 40
1.0
 40
1.0
 40
1.0
 10
112.5349834861
 20
149.535163692
 30
0.0
 10
111.9574627577
 20
149.5215069208
 30
0.0
 10
111.0987438616
 20
149.5011715647
 30
0.0
 10
109.9674313533
 20
149.4735306377
 30
0.0
 10
109.1521850634
 20
149.4529902574
 30
0.0
 10
108.3703018518
 20
149.4324594204
 30
0.0
 10
107.6291386431
 20
149.4119416215
 30
0.0
 10
106.9356688443
 20
149.3914427729
 30
0.0
 10
106.2964193568
 20
149.3709694604
 30
0.0
 10
105.7174041025
 20
149.3505355409
 30
0.0
 10
105.2040685092
 20
149.3301517063
 30
0.0
 10
104.8196231175
 20
149.3125501172
 30
0.0
 10
104.5484910899
 20
149.2982145747
 30
0.0
 10
104.3735819213
 20
149.2879622143
 30
0.0
 10
104.2182636041
 20
149.2777311611
 30
0.0
 10
104.0828995741
 20
149.2675243521
 30
0.0
 10
103.9678017833
 20
149.2573676544
 30
0.0
 10
103.8732366391
 20
149.2472693819
 30
0.0
 10
103.8074164139
 20
149.238417678
 30
0.0
 10
103.7652569438
 20
149.2310615473
 30
0.0
 10
103.7414223008
 20
149.2259794993
 30
0.0
 10
103.7228016702
 20
149.2210368804
 30
0.0
 10
103.7093655611
 20
149.2159538895
 30
0.0
 10
103.7007133751
 20
149.2113791663
 30
0.0
 10
103.6974629774
 20
149.2066890637
 30
0.0
 10
103.6974625122
 20
149.2047550374
 30
0.0
  0
SPLINE
  5
39C
100
AcDbEntity
  8
0
100
AcDbSpline
 62
7
  6
CONTINUOUS
 70
0
 71
3
 72
10
 73
6
 74
0
 42
0.0000001
 43
0.0000001
 44
0.0000000001
 40
0.0
 40
0.0
 40
0.0
 40
0.0
 40
0.2500490219
 40
0.5000997455
 40
1.0
 40
1.0
 40
1.0
 40
1.0
 10
112.6974543503
 20
159.8347514268
 30
0.0
 10
112.5021035034
 20
159.8347514268
 30
0.0
 10
112.1111934537
 20
159.8180800389
 30
0.0
 10
111.3353212397
 20
159.7212167431
 30
0.0
 10
110.7632788583
 20
159.5858041331
 30
0.0
 10
110.3880532735
 20
159.4774858369
 30
0.0
  0
SPLINE
  5
39D
100
AcDbEntity
  8
0
100
AcDbSpline
 62
7
  6
CONTINUOUS
 70
0
 71
3
 72
11
 73
7
 74
0
 42
0.0000001
 43
0.0000001
 44
0.0000000001
 40
0.0
 40
0.0
 40
0.0
 40
0.0
 40
0.2616429466
 40
0.5144970929
 40
0.7595947853
 40
1.0
 40
1.0
 40
1.0
 40
1.0
 10
115.0068554271
 20
162.3227852986
 30
0.0
 10
115.0991605442
 20
162.3760776828
 30
0.0
 10
115.2848598119
 20
162.4739468775
 30
0.0
 10
115.5727973585
 20
162.5892223975
 30
0.0
 10
115.865477885
 20
162.6629766769
 30
0.0
 10
116.0636227539
 20
162.6800508885
 30
0.0
 10
116.1615559658
 20
162.6800508885
 30
0.0
  0
SPLINE
  5
39E
100
AcDbEntity
  8
0
100
AcDbSpline
 62
7
  6
CONTINUOUS
 70
0
 71
3
 72
11
 73
7
 74
0
 42
0.0000001
 43
0.0000001
 44
0.0000000001
 40
0.0
 40
0.0
 40
0.0
 40
0.0
 40
0.2404052601
 40
0.485503008
 40
0.7383572234
 40
1.0
 40
1.0
 40
1.0
 40
1.0
 10
116.1615559658
 20
162.6800508885
 30
0.0
 10
116.2594891961
 20
162.6800508884
 30
0.0
 10
116.4576341092
 20
162.6629766873
 30
0.0
 10
116.7503146874
 20
162.5892223308
 30
0.0
 10
117.038252223
 20
162.4739468389
 30
0.0
 10
117.2239514468
 20
162.376077648
 30
0.0
 10
117.3162565038
 20
162.3227852986
 30
0.0
  0
SPLINE
  5
39F
100
AcDbEntity
  8
0
100
AcDbSpline
 62
7
  6
CONTINUOUS
 70
0
 71
3
 72
15
 73
11
 74
0
 42
0.0000001
 43
0.0000001
 44
0.0000000001
 40
0.0
 40
0.0
 40
0.0
 40
0.0
 40
0.1308200724
 40
0.2572467341
 40
0.3797970183
 40
0.5000000228
 40
0.620203024
 40
0.7427533002
 40
0.8691799394
 40
1.0
 40
1.0
 40
1.0
 40
1.0
 10
117.3162565038
 20
159.4774858369
 30
0.0
 10
117.2239524568
 20
159.5307776033
 30
0.0
 10
117.0382504506
 20
159.6286458764
 30
0.0
 10
116.7503322386
 20
159.74392288
 30
0.0
 10
116.4575860001
 20
159.8176743439
 30
0.0
 10
116.1615559132
 20
159.8431966735
 30
0.0
 10
115.8655258367
 20
159.8176743111
 30
0.0
 10
115.5727796281
 20
159.7439228464
 30
0.0
 10
115.2848614462
 20
159.6286458605
 30
0.0
 10
115.0991594657
 20
159.5307775985
 30
0.0
 10
115.0068554271
 20
159.4774858369
 30
0.0
  0
SPLINE
  5
3A0
100
AcDbEntity
  8
0
100
AcDbSpline
 62
7
  6
CONTINUOUS
 70
0
 71
3
 72
11
 73
7
 74
0
 42
0.0000001
 43
0.0000001
 44
0.0000000001
 40
0.0
 40
0.0
 40
0.0
 40
0.0
 40
0.2404053342
 40
0.4855030662
 40
0.7383571529
 40
1.0
 40
1.0
 40
1.0
 40
1.0
 10
109.2333527347
 20
162.6800508885
 30
0.0
 10
109.3312859956
 20
162.6800508885
 30
0.0
 10
109.5294309339
 20
162.6629766931
 30
0.0
 10
109.8221114852
 20
162.5892223374
 30
0.0
 10
110.1100489857
 20
162.4739468384
 30
0.0
 10
110.2957481913
 20
162.3760776626
 30
0.0
 10
110.3880532735
 20
162.3227852986
 30
0.0
  0
SPLINE
  5
3A1
100
AcDbEntity
  8
0
100
AcDbSpline
 62
7
  6
CONTINUOUS
 70
0
 71
3
 72
15
 73
11
 74
0
 42
0.0000001
 43
0.0000001
 44
0.0000000001
 40
0.0
 40
0.0
 40
0.0
 40
0.0
 40
0.1308200724
 40
0.2572467341
 40
0.3797970183
 40
0.5000000228
 40
0.620203024
 40
0.7427533002
 40
0.8691799394
 40
1.0
 40
1.0
 40
1.0
 40
1.0
 10
110.3880532735
 20
159.4774858369
 30
0.0
 10
110.2957492265
 20
159.5307776033
 30
0.0
 10
110.1100472204
 20
159.6286458764
 30
0.0
 10
109.8221290083
 20
159.74392288
 30
0.0
 10
109.5293827698
 20
159.8176743439
 30
0.0
 10
109.2333526829
 20
159.8431966735
 30
0.0
 10
108.9373226064
 20
159.8176743111
 30
0.0
 10
108.6445763978
 20
159.7439228464
 30
0.0
 10
108.3566582159
 20
159.6286458605
 30
0.0
 10
108.1709562354
 20
159.5307775985
 30
0.0
 10
108.0786521968
 20
159.4774858369
 30
0.0
  0
SPLINE
  5
3A2
100
AcDbEntity
  8
0
100
AcDbSpline
 62
7
  6
CONTINUOUS
 70
0
 71
3
 72
11
 73
7
 74
0
 42
0.0000001
 43
0.0000001
 44
0.0000000001
 40
0.0
 40
0.0
 40
0.0
 40
0.0
 40
0.2616427032
 40
0.5144968934
 40
0.7595946658
 40
1.0
 40
1.0
 40
1.0
 40
1.0
 10
108.0786521968
 20
162.3227852986
 30
0.0
 10
108.170957228
 20
162.3760776332
 30
0.0
 10
108.3566564136
 20
162.4739468112
 30
0.0
 10
108.6445939192
 20
162.5892222944
 30
0.0
 10
108.9372745184
 20
162.6629766952
 30
0.0
 10
109.1354194742
 20
162.6800508884
 30
0.0
 10
109.2333527347
 20
162.6800508885
 30
0.0
  0
SPLINE
  5
3A3
100
AcDbEntity
  8
0
100
AcDbSpline
 62
7
  6
CONTINUOUS
 70
0
 71
3
 72
10
 73
6
 74
0
 42
0.0000001
 43
0.0000001
 44
0.0000000001
 40
0.0
 40
0.0
 40
0.0
 40
0.0
 40
0.4999011814
 40
0.7499517172
 40
1.0
 40
1.0
 40
1.0
 40
1.0
 10
110.3880532735
 20
162.3227852986
 30
0.0
 10
110.7632795521
 20
162.431103795
 30
0.0
 10
111.3353225072
 20
162.5665165823
 30
0.0
 10
112.1111947697
 20
162.6633794053
 30
0.0
 10
112.5021040816
 20
162.6800508885
 30
0.0
 10
112.6974543501
 20
162.6800508885
 30
0.0
  0
SPLINE
  5
3A4
100
AcDbEntity
  8
0
100
AcDbSpline
 62
7
  6
CONTINUOUS
 70
0
 71
3
 72
10
 73
6
 74
0
 42
0.0000001
 43
0.0000001
 44
0.0000000001
 40
0.0
 40
0.0
 40
0.0
 40
0.0
 40
0.2500483041
 40
0.5000988454
 40
1.0
 40
1.0
 40
1.0
 40
1.0
 10
112.6974543501
 20
162.6800508885
 30
0.0
 10
112.8928046354
 20
162.6800508885
 30
0.0
 10
113.2837139687
 20
162.6633794084
 30
0.0
 10
114.0595862299
 20
162.5665165711
 30
0.0
 10
114.6316291685
 20
162.4311037892
 30
0.0
 10
115.0068554271
 20
162.3227852986
 30
0.0
  0
SPLINE
  5
3A5
100
AcDbEntity
  8
0
100
AcDbSpline
 62
7
  6
CONTINUOUS
 70
0
 71
3
 72
10
 73
6
 74
0
 42
0.0000001
 43
0.0000001
 44
0.0000000001
 40
0.0
 40
0.0
 40
0.0
 40
0.0
 40
0.4999007856
 40
0.7499513904
 40
1.0
 40
1.0
 40
1.0
 40
1.0
 10
115.0068554271
 20
159.4774858369
 30
0.0
 10
114.6316294448
 20
159.5858042479
 30
0.0
 10
114.0595867406
 20
159.7212169413
 30
0.0
 10
113.2837145024
 20
159.8180799955
 30
0.0
 10
112.8928048745
 20
159.8347514268
 30
0.0
 10
112.6974543503
 20
159.8347514268
 30
0.0
  0
SPLINE
  5
3A6
100
AcDbEntity
  8
0
100
AcDbSpline
 62
7
  6
CONTINUOUS
 70
0
 71
3
 72
8
 73
4
 74
0
 42
0.0000001
 43
0.0000001
 44
0.0000000001
 40
0.0
 40
0.0
 40
0.0
 40
0.0
 40
1.0
 40
1.0
 40
1.0
 40
1.0
 10
150.1974543503
 20
174.0167259304
 30
0.0
 10
150.1974543503
 20
173.9043446974
 30
0.0
 10
150.202040723
 20
173.7916560896
 30
0.0
 10
150.2152248273
 20
173.6800508885
 30
0.0
  0
SPLINE
  5
3A7
100
AcDbEntity
  8
0
100
AcDbSpline
 62
7
  6
CONTINUOUS
 70
0
 71
3
 72
8
 73
4
 74
0
 42
0.0000001
 43
0.0000001
 44
0.0000000001
 40
0.0
 40
0.0
 40
0.0
 40
0.0
 40
1.0
 40
1.0
 40
1.0
 40
1.0
 10
150.2152248273
 20
176.6800508885
 30
0.0
 10
150.202040723
 20
176.5684456873
 30
0.0
 10
150.1974543503
 20
176.4557570795
 30
0.0
 10
150.1974543503
 20
176.3433758465
 30
0.0
  0
SPLINE
  5
3A8
100
AcDbEntity
  8
0
100
AcDbSpline
 62
7
  6
CONTINUOUS
 70
0
 71
3
 72
10
 73
6
 74
0
 42
0.0000001
 43
0.0000001
 44
0.0000000001
 40
0.0
 40
0.0
 40
0.0
 40
0.0
 40
0.2500407678
 40
0.5000815196
 40
1.0
 40
1.0
 40
1.0
 40
1.0
 10
146.1974543503
 20
66.1800508888
 30
0.0
 10
146.1974543503
 20
66.8902268375
 30
0.0
 10
146.1524220534
 20
68.3110255753
 30
0.0
 10
145.8872073806
 20
71.1401739008
 30
0.0
 10
145.5046159927
 20
73.2407937558
 30
0.0
 10
145.1870913792
 20
74.6247237655
 30
0.0
  0
SPLINE
  5
3A9
100
AcDbEntity
  8
0
100
AcDbSpline
 62
7
  6
CONTINUOUS
 70
0
 71
3
 72
11
 73
7
 74
0
 42
0.0000001
 43
0.0000001
 44
0.0000000001
 40
0.0
 40
0.0
 40
0.0
 40
0.0
 40
0.2555552247
 40
0.5075012523
 40
0.7553436742
 40
1.0
 40
1.0
 40
1.0
 40
1.0
 10
132.8945682908
 20
87.2897870231
 30
0.0
 10
132.8128446288
 20
87.2891081163
 30
0.0
 10
132.6492872126
 20
87.3121783324
 30
0.0
 10
132.4276297117
 20
87.416850265
 30
0.0
 10
132.2498010078
 20
87.5805213223
 30
0.0
 10
132.1704373336
 20
87.7200291403
 30
0.0
 10
132.1428141942
 20
87.7932317289
 30
0.0
  0
SPLINE
  5
3AA
100
AcDbEntity
  8
0
100
AcDbSpline
 62
7
  6
CONTINUOUS
 70
0
 71
3
 72
11
 73
7
 74
0
 42
0.0000001
 43
0.0000001
 44
0.0000000001
 40
0.0
 40
0.0
 40
0.0
 40
0.0
 40
0.2518672219
 40
0.4999999657
 40
0.7481326609
 40
1.0
 40
1.0
 40
1.0
 40
1.0
 10
132.9177108792
 20
78.8452098237
 30
0.0
 10
133.1110801917
 20
79.5368201994
 30
0.0
 10
133.4207301986
 20
80.9328349084
 30
0.0
 10
133.586466108
 20
83.0675457392
 30
0.0
 10
133.4207486066
 20
85.2022612794
 30
0.0
 10
133.1110734521
 20
86.5982700937
 30
0.0
 10
132.9177108792
 20
87.2898827008
 30
0.0
  0
SPLINE
  5
3AB
100
AcDbEntity
  8
0
100
AcDbSpline
 62
7
  6
CONTINUOUS
 70
0
 71
3
 72
11
 73
7
 74
0
 42
0.0000001
 43
0.0000001
 44
0.0000000001
 40
0.0
 40
0.0
 40
0.0
 40
0.0
 40
0.270180871
 40
0.5315411434
 40
0.7758022115
 40
1.0
 40
1.0
 40
1.0
 40
1.0
 10
132.8945682908
 20
78.8458793802
 30
0.0
 10
132.8125440916
 20
78.8506492547
 30
0.0
 10
132.6516485624
 20
78.8788692577
 30
0.0
 10
132.4329445791
 20
78.9731298901
 30
0.0
 10
132.2554724429
 20
79.1106132113
 30
0.0
 10
132.1714983303
 20
79.2293468856
 30
0.0
 10
132.1428141942
 20
79.2911984951
 30
0.0
  0
SPLINE
  5
3AC
100
AcDbEntity
  8
0
100
AcDbSpline
 62
7
  6
CONTINUOUS
 70
0
 71
3
 72
13
 73
9
 74
0
 42
0.0000001
 43
0.0000001
 44
0.0000000001
 40
0.0
 40
0.0
 40
0.0
 40
0.0
 40
0.2503414297
 40
0.3742306422
 40
0.4978596517
 40
0.6217974376
 40
0.7465751354
 40
1.0
 40
1.0
 40
1.0
 40
1.0
 10
132.1428141942
 20
79.2911984951
 30
0.0
 10
132.3428703031
 20
79.9822722962
 30
0.0
 10
132.5847107082
 20
81.0343347608
 30
0.0
 10
132.7516341781
 20
82.4564786378
 30
0.0
 10
132.7938202908
 20
83.5243009664
 30
0.0
 10
132.7514349785
 20
84.5946592781
 30
0.0
 10
132.5840489502
 20
86.0291168591
 30
0.0
 10
132.3424310043
 20
87.0928120646
 30
0.0
 10
132.1428141942
 20
87.7932317289
 30
0.0
  0
SPLINE
  5
3AD
100
AcDbEntity
  8
0
100
AcDbSpline
 62
7
  6
CONTINUOUS
 70
0
 71
3
 72
12
 73
8
 74
0
 42
0.0000001
 43
0.0000001
 44
0.0000000001
 40
0.0
 40
0.0
 40
0.0
 40
0.0
 40
0.3199503595
 40
0.6079454257
 40
0.8399602349
 40
0.9296396639
 40
1.0
 40
1.0
 40
1.0
 40
1.0
 10
132.8945682908
 20
74.623958267
 30
0.0
 10
132.8137875078
 20
74.6185896397
 30
0.0
 10
132.6599047758
 20
74.6130607533
 30
0.0
 10
132.4473815844
 20
74.6197549664
 30
0.0
 10
132.2936542039
 20
74.6374146788
 30
0.0
 10
132.1970711258
 20
74.6603946
 30
0.0
 10
132.1587780564
 20
74.6742023847
 30
0.0
 10
132.1428141942
 20
74.6820844504
 30
0.0
  0
SPLINE
  5
3AE
100
AcDbEntity
  8
0
100
AcDbSpline
 62
7
  6
CONTINUOUS
 70
0
 71
3
 72
9
 73
5
 74
0
 42
0.0000001
 43
0.0000001
 44
0.0000000001
 40
0.0
 40
0.0
 40
0.0
 40
0.0
 40
0.4999890589
 40
1.0
 40
1.0
 40
1.0
 40
1.0
 10
133.5315162008
 20
66.1800508885
 30
0.0
 10
133.5315162204
 20
67.5920447489
 30
0.0
 10
133.4228125767
 20
70.4170680918
 30
0.0
 10
133.1132044738
 20
73.2262662465
 30
0.0
 10
132.9177108792
 20
74.6247237655
 30
0.0
  0
SPLINE
  5
3AF
100
AcDbEntity
  8
0
100
AcDbSpline
 62
7
  6
CONTINUOUS
 70
0
 71
3
 72
9
 73
5
 74
0
 42
0.0000001
 43
0.0000001
 44
0.0000000001
 40
0.0
 40
0.0
 40
0.0
 40
0.0
 40
0.4999888291
 40
1.0
 40
1.0
 40
1.0
 40
1.0
 10
132.7797621042
 20
66.1800508885
 30
0.0
 10
132.7797621147
 20
67.6019165164
 30
0.0
 10
132.6663580318
 20
70.4467504051
 30
0.0
 10
132.3449449415
 20
73.2745953005
 30
0.0
 10
132.1428141942
 20
74.6820844504
 30
0.0
  0
SPLINE
  5
3B0
100
AcDbEntity
  8
0
100
AcDbSpline
 62
7
  6
CONTINUOUS
 70
0
 71
3
 72
9
 73
5
 74
0
 42
0.0000001
 43
0.0000001
 44
0.0000000001
 40
0.0
 40
0.0
 40
0.0
 40
0.0
 40
0.5000109411
 40
1.0
 40
1.0
 40
1.0
 40
1.0
 10
132.9177108792
 20
57.7353780114
 30
0.0
 10
133.1132044738
 20
59.1338355304
 30
0.0
 10
133.4228125767
 20
61.9430336852
 30
0.0
 10
133.5315162203
 20
64.768057028
 30
0.0
 10
133.5315162008
 20
66.1800508885
 30
0.0
  0
SPLINE
  5
3B1
100
AcDbEntity
  8
0
100
AcDbSpline
 62
7
  6
CONTINUOUS
 70
0
 71
3
 72
12
 73
8
 74
0
 42
0.0000001
 43
0.0000001
 44
0.0000000001
 40
0.0
 40
0.0
 40
0.0
 40
0.0
 40
0.3199503589
 40
0.6079454262
 40
0.8399602362
 40
0.9296396646
 40
1.0
 40
1.0
 40
1.0
 40
1.0
 10
132.8945682908
 20
57.73614351
 30
0.0
 10
132.813787508
 20
57.7415121372
 30
0.0
 10
132.659904776
 20
57.7470410232
 30
0.0
 10
132.4473815842
 20
57.7403468107
 30
0.0
 10
132.2936542039
 20
57.7226870957
 30
0.0
 10
132.1970711256
 20
57.6997071762
 30
0.0
 10
132.1587780563
 20
57.6858993923
 30
0.0
 10
132.1428141942
 20
57.6780173268
 30
0.0
  0
SPLINE
  5
3B2
100
AcDbEntity
  8
0
100
AcDbSpline
 62
7
  6
CONTINUOUS
 70
0
 71
3
 72
9
 73
5
 74
0
 42
0.0000001
 43
0.0000001
 44
0.0000000001
 40
0.0
 40
0.0
 40
0.0
 40
0.0
 40
0.5000111709
 40
1.0
 40
1.0
 40
1.0
 40
1.0
 10
132.1428141942
 20
57.6780173268
 30
0.0
 10
132.3449449413
 20
59.0855064766
 30
0.0
 10
132.6663580319
 20
61.9133513719
 30
0.0
 10
132.7797621147
 20
64.7581852606
 30
0.0
 10
132.7797621042
 20
66.1800508885
 30
0.0
  0
SPLINE
  5
3B3
100
AcDbEntity
  8
0
100
AcDbSpline
 62
7
  6
CONTINUOUS
 70
0
 71
3
 72
11
 73
7
 74
0
 42
0.0000001
 43
0.0000001
 44
0.0000000001
 40
0.0
 40
0.0
 40
0.0
 40
0.0
 40
0.2701808636
 40
0.5315411227
 40
0.7758021626
 40
1.0
 40
1.0
 40
1.0
 40
1.0
 10
132.8945682908
 20
53.5142223911
 30
0.0
 10
132.8125440909
 20
53.5094525213
 30
0.0
 10
132.6516485581
 20
53.4812325304
 30
0.0
 10
132.4329445878
 20
53.3869719064
 30
0.0
 10
132.2554723873
 20
53.2494886336
 30
0.0
 10
132.1714983376
 20
53.1307548988
 30
0.0
 10
132.1428141942
 20
53.0689032738
 30
0.0
  0
SPLINE
  5
3B4
100
AcDbEntity
  8
0
100
AcDbSpline
 62
7
  6
CONTINUOUS
 70
0
 71
3
 72
11
 73
7
 74
0
 42
0.0000001
 43
0.0000001
 44
0.0000000001
 40
0.0
 40
0.0
 40
0.0
 40
0.0
 40
0.2518673383
 40
0.5000000338
 40
0.7481327778
 40
1.0
 40
1.0
 40
1.0
 40
1.0
 10
132.9177108792
 20
45.0702190761
 30
0.0
 10
133.1110734754
 20
45.761831676
 30
0.0
 10
133.4207485114
 20
47.1578405175
 30
0.0
 10
133.5864661973
 20
49.2925560322
 30
0.0
 10
133.4207303627
 20
51.427266902
 30
0.0
 10
133.1110801218
 20
52.8232815555
 30
0.0
 10
132.9177108792
 20
53.5148919532
 30
0.0
  0
SPLINE
  5
3B5
100
AcDbEntity
  8
0
100
AcDbSpline
 62
7
  6
CONTINUOUS
 70
0
 71
3
 72
11
 73
7
 74
0
 42
0.0000001
 43
0.0000001
 44
0.0000000001
 40
0.0
 40
0.0
 40
0.0
 40
0.0
 40
0.2555552251
 40
0.5075012551
 40
0.7553436828
 40
1.0
 40
1.0
 40
1.0
 40
1.0
 10
132.8945682908
 20
45.0703147537
 30
0.0
 10
132.8128446288
 20
45.0709936605
 30
0.0
 10
132.649287212
 20
45.0479234441
 30
0.0
 10
132.4276297087
 20
44.94325151
 30
0.0
 10
132.2498010081
 20
44.77958045
 30
0.0
 10
132.1704373327
 20
44.6400726343
 30
0.0
 10
132.1428141942
 20
44.5668700484
 30
0.0
  0
SPLINE
  5
3B6
100
AcDbEntity
  8
0
100
AcDbSpline
 62
7
  6
CONTINUOUS
 70
0
 71
3
 72
13
 73
9
 74
0
 42
0.0000001
 43
0.0000001
 44
0.0000000001
 40
0.0
 40
0.0
 40
0.0
 40
0.0
 40
0.253424864
 40
0.378202563
 40
0.5021403507
 40
0.6257693617
 40
0.7496585741
 40
1.0
 40
1.0
 40
1.0
 40
1.0
 10
132.1428141942
 20
44.5668700484
 30
0.0
 10
132.3424310128
 20
45.2672897082
 30
0.0
 10
132.5840489451
 20
46.3309849186
 30
0.0
 10
132.7514349777
 20
47.7654425042
 30
0.0
 10
132.7938203038
 20
48.8358008283
 30
0.0
 10
132.7516341791
 20
49.9036231643
 30
0.0
 10
132.5847107491
 20
51.3257670407
 30
0.0
 10
132.3428702555
 20
52.3778294708
 30
0.0
 10
132.1428141942
 20
53.0689032738
 30
0.0
  0
SPLINE
  5
3B7
100
AcDbEntity
  8
0
100
AcDbSpline
 62
7
  6
CONTINUOUS
 70
0
 71
3
 72
10
 73
6
 74
0
 42
0.0000001
 43
0.0000001
 44
0.0000000001
 40
0.0
 40
0.0
 40
0.0
 40
0.0
 40
0.5091404231
 40
0.7559499606
 40
1.0
 40
1.0
 40
1.0
 40
1.0
 10
145.1870913792
 20
45.0702190761
 30
0.0
 10
145.4965024195
 20
45.7445025896
 30
0.0
 10
145.881337388
 20
46.786237347
 30
0.0
 10
146.151797254
 20
48.2208505435
 30
0.0
 10
146.1974543503
 20
48.9369422676
 30
0.0
 10
146.1974543503
 20
49.2925555149
 30
0.0
  0
SPLINE
  5
3B8
100
AcDbEntity
  8
0
100
AcDbSpline
 62
7
  6
CONTINUOUS
 70
0
 71
3
 72
10
 73
6
 74
0
 42
0.0000001
 43
0.0000001
 44
0.0000000001
 40
0.0
 40
0.0
 40
0.0
 40
0.0
 40
0.2440500455
 40
0.4908595892
 40
1.0
 40
1.0
 40
1.0
 40
1.0
 10
146.1974543503
 20
49.2925555149
 30
0.0
 10
146.1974543503
 20
49.648168771
 30
0.0
 10
146.1517972507
 20
50.3642605128
 30
0.0
 10
145.8813373799
 20
51.7988737084
 30
0.0
 10
145.496502412
 20
52.8406084559
 30
0.0
 10
145.1870913792
 20
53.5148919532
 30
0.0
  0
SPLINE
  5
3B9
100
AcDbEntity
  8
0
100
AcDbSpline
 62
7
  6
CONTINUOUS
 70
0
 71
3
 72
10
 73
6
 74
0
 42
0.0000001
 43
0.0000001
 44
0.0000000001
 40
0.0
 40
0.0
 40
0.0
 40
0.0
 40
0.5091404231
 40
0.7559499606
 40
1.0
 40
1.0
 40
1.0
 40
1.0
 10
145.1870913792
 20
78.8452098237
 30
0.0
 10
145.4965024195
 20
79.5194933372
 30
0.0
 10
145.881337388
 20
80.5612280946
 30
0.0
 10
146.151797254
 20
81.9958412911
 30
0.0
 10
146.1974543503
 20
82.7119330152
 30
0.0
 10
146.1974543503
 20
83.0675462624
 30
0.0
  0
SPLINE
  5
3BA
100
AcDbEntity
  8
0
100
AcDbSpline
 62
7
  6
CONTINUOUS
 70
0
 71
3
 72
10
 73
6
 74
0
 42
0.0000001
 43
0.0000001
 44
0.0000000001
 40
0.0
 40
0.0
 40
0.0
 40
0.0
 40
0.2440500455
 40
0.4908595892
 40
1.0
 40
1.0
 40
1.0
 40
1.0
 10
146.1974543503
 20
83.0675462624
 30
0.0
 10
146.1974543503
 20
83.4231595185
 30
0.0
 10
146.1517972507
 20
84.1392512604
 30
0.0
 10
145.8813373799
 20
85.573864456
 30
0.0
 10
145.496502412
 20
86.6155992035
 30
0.0
 10
145.1870913792
 20
87.2898827008
 30
0.0
  0
SPLINE
  5
3BB
100
AcDbEntity
  8
0
100
AcDbSpline
 62
7
  6
CONTINUOUS
 70
0
 71
3
 72
10
 73
6
 74
0
 42
0.0000001
 43
0.0000001
 44
0.0000000001
 40
0.0
 40
0.0
 40
0.0
 40
0.0
 40
0.4999184928
 40
0.7499592385
 40
1.0
 40
1.0
 40
1.0
 40
1.0
 10
145.1870913792
 20
57.7353780114
 30
0.0
 10
145.5046160005
 20
59.1193080554
 30
0.0
 10
145.8872073886
 20
61.2199279287
 30
0.0
 10
146.1524220567
 20
64.0490762548
 30
0.0
 10
146.1974543503
 20
65.4698749578
 30
0.0
 10
146.1974543503
 20
66.1800508888
 30
0.0
  0
SPLINE
  5
3BC
100
AcDbEntity
  8
0
100
AcDbSpline
 62
7
  6
CONTINUOUS
 70
0
 71
3
 72
10
 73
6
 74
0
 42
0.0000001
 43
0.0000001
 44
0.0000000001
 40
0.0
 40
0.0
 40
0.0
 40
0.0
 40
0.7143811974
 40
0.9079629918
 40
1.0
 40
1.0
 40
1.0
 40
1.0
 10
126.6706594311
 20
157.6631821528
 30
0.0
 10
126.6773887647
 20
157.6644234216
 30
0.0
 10
126.6862728638
 20
157.6663115439
 30
0.0
 10
126.6947486593
 20
157.6693315512
 30
0.0
 10
126.6974543503
 20
157.6712606059
 30
0.0
 10
126.6974543503
 20
157.6721422024
 30
0.0
  0
SPLINE
  5
3BD
100
AcDbEntity
  8
0
100
AcDbSpline
 62
7
  6
CONTINUOUS
 70
0
 71
3
 72
9
 73
5
 74
0
 42
0.0000001
 43
0.0000001
 44
0.0000000001
 40
0.0
 40
0.0
 40
0.0
 40
0.0
 40
0.2560375253
 40
1.0
 40
1.0
 40
1.0
 40
1.0
 10
93.1293563523
 20
78.4719303589
 30
0.0
 10
93.2234215885
 20
78.679011892
 30
0.0
 10
93.5721644434
 20
79.4958550588
 30
0.0
 10
93.8375201393
 20
80.3505550813
 30
0.0
 10
93.9665117452
 20
80.9987250207
 30
0.0
  0
SPLINE
  5
3BE
100
AcDbEntity
  8
0
100
AcDbSpline
 62
7
  6
CONTINUOUS
 70
0
 71
3
 72
9
 73
5
 74
0
 42
0.0000001
 43
0.0000001
 44
0.0000000001
 40
0.0
 40
0.0
 40
0.0
 40
0.0
 40
0.5065218606
 40
1.0
 40
1.0
 40
1.0
 40
1.0
 10
92.4365360291
 20
78.9289323656
 30
0.0
 10
92.5796668788
 20
78.9122976581
 30
0.0
 10
92.8574502415
 20
78.8107241726
 30
0.0
 10
93.0625792631
 20
78.5954117407
 30
0.0
 10
93.1293563482
 20
78.4719274225
 30
0.0
  0
SPLINE
  5
3BF
100
AcDbEntity
  8
0
100
AcDbSpline
 62
7
  6
CONTINUOUS
 70
0
 71
3
 72
13
 73
9
 74
0
 42
0.0000001
 43
0.0000001
 44
0.0000000001
 40
0.0
 40
0.0
 40
0.0
 40
0.0
 40
0.2547342543
 40
0.3780856244
 40
0.4999999169
 40
0.6219143198
 40
0.7452657527
 40
1.0
 40
1.0
 40
1.0
 40
1.0
 10
92.4365321763
 20
78.9289323639
 30
0.0
 10
92.7450320162
 20
79.5890166706
 30
0.0
 10
93.129885498
 20
80.6092875153
 30
0.0
 10
93.4010612709
 20
82.0165524121
 30
0.0
 10
93.4696353655
 20
83.0675460244
 30
0.0
 10
93.4010607786
 20
84.1185396438
 30
0.0
 10
93.1298880291
 20
85.5258057227
 30
0.0
 10
92.7450311655
 20
86.5460756018
 30
0.0
 10
92.4365319127
 20
87.2061601607
 30
0.0
  0
SPLINE
  5
3C0
100
AcDbEntity
  8
0
100
AcDbSpline
 62
7
  6
CONTINUOUS
 70
0
 71
3
 72
10
 73
6
 74
0
 42
0.0000001
 43
0.0000001
 44
0.0000000001
 40
0.0
 40
0.0
 40
0.0
 40
0.0
 40
0.5192243315
 40
0.7638923053
 40
1.0
 40
1.0
 40
1.0
 40
1.0
 10
92.4365360291
 20
87.206160159
 30
0.0
 10
92.5721176016
 20
87.2219267748
 30
0.0
 10
92.7837150974
 20
87.1979595016
 30
0.0
 10
93.0115777982
 20
87.0607978994
 30
0.0
 10
93.0966487855
 20
86.9638086498
 30
0.0
 10
93.1293563483
 20
86.9110569877
 30
0.0
  0
SPLINE
  5
3C1
100
AcDbEntity
  8
0
100
AcDbSpline
 62
7
  6
CONTINUOUS
 70
0
 71
3
 72
9
 73
5
 74
0
 42
0.0000001
 43
0.0000001
 44
0.0000000001
 40
0.0
 40
0.0
 40
0.0
 40
0.0
 40
0.2455336739
 40
1.0
 40
1.0
 40
1.0
 40
1.0
 10
93.9665118073
 20
84.4326017407
 30
0.0
 10
93.9241586801
 20
84.6427837075
 30
0.0
 10
93.721666863
 20
85.4927709821
 30
0.0
 10
93.4074339733
 20
86.3137982315
 30
0.0
 10
93.1293563523
 20
86.9110565586
 30
0.0
  0
SPLINE
  5
3C2
100
AcDbEntity
  8
0
100
AcDbSpline
 62
7
  6
CONTINUOUS
 70
0
 71
3
 72
9
 73
5
 74
0
 42
0.0000001
 43
0.0000001
 44
0.0000000001
 40
0.0
 40
0.0
 40
0.0
 40
0.0
 40
0.4935753826
 40
1.0
 40
1.0
 40
1.0
 40
1.0
 10
93.9665118069
 20
47.9275152981
 30
0.0
 10
94.0366055493
 20
48.0417424484
 30
0.0
 10
94.2456494548
 20
48.2366568866
 30
0.0
 10
94.5218212094
 20
48.3038617203
 30
0.0
 10
94.6593286717
 20
48.3038631738
 30
0.0
  0
SPLINE
  5
3C3
100
AcDbEntity
  8
0
100
AcDbSpline
 62
7
  6
CONTINUOUS
 70
0
 71
3
 72
11
 73
7
 74
0
 42
0.0000001
 43
0.0000001
 44
0.0000000001
 40
0.0
 40
0.0
 40
0.0
 40
0.0
 40
0.2794530119
 40
0.5393288504
 40
0.7796601908
 40
1.0
 40
1.0
 40
1.0
 40
1.0
 10
93.9665015166
 20
51.3613551623
 30
0.0
 10
93.9938875274
 20
51.0423648624
 30
0.0
 10
94.0231028687
 20
50.4247159146
 30
0.0
 10
94.0298011196
 20
49.5314394072
 30
0.0
 10
94.0244806639
 20
48.7060540641
 30
0.0
 10
93.9962029239
 20
48.178204809
 30
0.0
 10
93.9665025585
 20
47.927519172
 30
0.0
  0
SPLINE
  5
3C4
100
AcDbEntity
  8
0
100
AcDbSpline
 62
7
  6
CONTINUOUS
 70
0
 71
3
 72
9
 73
5
 74
0
 42
0.0000001
 43
0.0000001
 44
0.0000000001
 40
0.0
 40
0.0
 40
0.0
 40
0.0
 40
0.4743644856
 40
1.0
 40
1.0
 40
1.0
 40
1.0
 10
93.9665117452
 20
51.3613462223
 30
0.0
 10
94.0405696637
 20
51.4593322584
 30
0.0
 10
94.2614267229
 20
51.6177512605
 30
0.0
 10
94.523228649
 20
51.666885976
 30
0.0
 10
94.6593283783
 20
51.6668840231
 30
0.0
  0
SPLINE
  5
3C5
100
AcDbEntity
  8
0
100
AcDbSpline
 62
7
  6
CONTINUOUS
 70
0
 71
3
 72
13
 73
9
 74
0
 42
0.0000001
 43
0.0000001
 44
0.0000000001
 40
0.0
 40
0.0
 40
0.0
 40
0.0
 40
0.3068458471
 40
0.5771445547
 40
0.6978918473
 40
0.8088026569
 40
0.9096135231
 40
1.0
 40
1.0
 40
1.0
 40
1.0
 10
94.6593283783
 20
51.6668840229
 30
0.0
 10
94.6593059146
 20
51.3227325705
 30
0.0
 10
94.6336765873
 20
50.6757669371
 30
0.0
 10
94.603634455
 20
49.8933852503
 30
0.0
 10
94.6130996013
 20
49.330328
 30
0.0
 10
94.6309656683
 20
48.9578337575
 30
0.0
 10
94.6511665588
 20
48.6196312636
 30
0.0
 10
94.6593194517
 20
48.4052386286
 30
0.0
 10
94.6593286717
 20
48.303863174
 30
0.0
  0
SPLINE
  5
3C6
100
AcDbEntity
  8
0
100
AcDbSpline
 62
7
  6
CONTINUOUS
 70
0
 71
3
 72
10
 73
6
 74
0
 42
0.0000001
 43
0.0000001
 44
0.0000000001
 40
0.0
 40
0.0
 40
0.0
 40
0.0
 40
0.1868408791
 40
0.426376958
 40
1.0
 40
1.0
 40
1.0
 40
1.0
 10
93.966511784
 20
62.7462196302
 30
0.0
 10
94.0080813209
 20
62.7589649179
 30
0.0
 10
94.1054456901
 20
62.7795865522
 30
0.0
 10
94.3362690632
 20
62.8095180431
 30
0.0
 10
94.5258414309
 20
62.8170282719
 30
0.0
 10
94.6593285739
 20
62.8170298582
 30
0.0
  0
SPLINE
  5
3C7
100
AcDbEntity
  8
0
100
AcDbSpline
 62
7
  6
CONTINUOUS
 70
0
 71
3
 72
11
 73
7
 74
0
 42
0.0000001
 43
0.0000001
 44
0.0000000001
 40
0.0
 40
0.0
 40
0.0
 40
0.0
 40
0.2497333023
 40
0.5000000638
 40
0.7502667885
 40
1.0
 40
1.0
 40
1.0
 40
1.0
 10
93.9665018777
 20
69.6138909346
 30
0.0
 10
93.9949310441
 20
69.0427710839
 30
0.0
 10
94.0237909029
 20
67.8979626583
 30
0.0
 10
94.0298279014
 20
66.180055313
 30
0.0
 10
94.0237907366
 20
64.4621481843
 30
0.0
 10
93.9949314562
 20
63.3173400333
 30
0.0
 10
93.9665023031
 20
62.7462203899
 30
0.0
  0
SPLINE
  5
3C8
100
AcDbEntity
  8
0
100
AcDbSpline
 62
7
  6
CONTINUOUS
 70
0
 71
3
 72
10
 73
6
 74
0
 42
0.0000001
 43
0.0000001
 44
0.0000000001
 40
0.0
 40
0.0
 40
0.0
 40
0.0
 40
0.1868387866
 40
0.4263753048
 40
1.0
 40
1.0
 40
1.0
 40
1.0
 10
93.9665117841
 20
69.6138821473
 30
0.0
 10
94.0080819751
 20
69.6011409373
 30
0.0
 10
94.1054464832
 20
69.5805244382
 30
0.0
 10
94.3362690153
 20
69.5505905708
 30
0.0
 10
94.5258413006
 20
69.5430762465
 30
0.0
 10
94.6593285742
 20
69.5430719195
 30
0.0
  0
SPLINE
  5
3C9
100
AcDbEntity
  8
0
100
AcDbSpline
 62
7
  6
CONTINUOUS
 70
0
 71
3
 72
11
 73
7
 74
0
 42
0.0000001
 43
0.0000001
 44
0.0000000001
 40
0.0
 40
0.0
 40
0.0
 40
0.0
 40
0.2490058539
 40
0.5000001964
 40
0.7509943979
 40
1.0
 40
1.0
 40
1.0
 40
1.0
 10
94.6593285742
 20
69.5430719191
 30
0.0
 10
94.6593042633
 20
68.984733855
 30
0.0
 10
94.6303174521
 20
67.8638655371
 30
0.0
 10
94.5979420055
 20
66.180049885
 30
0.0
 10
94.6303171003
 20
64.4962347882
 30
0.0
 10
94.6593042012
 20
63.3753673582
 30
0.0
 10
94.6593285739
 20
62.8170298587
 30
0.0
  0
SPLINE
  5
3CA
100
AcDbEntity
  8
0
100
AcDbSpline
 62
7
  6
CONTINUOUS
 70
0
 71
3
 72
9
 73
5
 74
0
 42
0.0000001
 43
0.0000001
 44
0.0000000001
 40
0.0
 40
0.0
 40
0.0
 40
0.0
 40
0.47436194
 40
1.0
 40
1.0
 40
1.0
 40
1.0
 10
93.9665117449
 20
80.9987555561
 30
0.0
 10
94.0405714618
 20
80.9007720979
 30
0.0
 10
94.2614283935
 20
80.7423569083
 30
0.0
 10
94.5232283359
 20
80.6932176271
 30
0.0
 10
94.6593283774
 20
80.6932177552
 30
0.0
  0
SPLINE
  5
3CB
100
AcDbEntity
  8
0
100
AcDbSpline
 62
7
  6
CONTINUOUS
 70
0
 71
3
 72
11
 73
7
 74
0
 42
0.0000001
 43
0.0000001
 44
0.0000000001
 40
0.0
 40
0.0
 40
0.0
 40
0.0
 40
0.2203399107
 40
0.4606712668
 40
0.7205470564
 40
1.0
 40
1.0
 40
1.0
 40
1.0
 10
93.9665019345
 20
84.4325864444
 30
0.0
 10
93.9962030774
 20
84.1819009028
 30
0.0
 10
94.0244811245
 20
83.6540517187
 30
0.0
 10
94.029800909
 20
82.8286667015
 30
0.0
 10
94.0231030013
 20
81.9353907325
 30
0.0
 10
93.9938879067
 20
81.3177421976
 30
0.0
 10
93.9665019649
 20
80.9987521226
 30
0.0
  0
SPLINE
  5
3CC
100
AcDbEntity
  8
0
100
AcDbSpline
 62
7
  6
CONTINUOUS
 70
0
 71
3
 72
9
 73
5
 74
0
 42
0.0000001
 43
0.0000001
 44
0.0000000001
 40
0.0
 40
0.0
 40
0.0
 40
0.0
 40
0.4935738288
 40
1.0
 40
1.0
 40
1.0
 40
1.0
 10
93.966511807
 20
84.432586479
 30
0.0
 10
94.0366063445
 20
84.3183605327
 30
0.0
 10
94.2456505729
 20
84.1234482209
 30
0.0
 10
94.5218209812
 20
84.056241043
 30
0.0
 10
94.659328672
 20
84.0562386034
 30
0.0
  0
SPLINE
  5
3CD
100
AcDbEntity
  8
0
100
AcDbSpline
 62
7
  6
CONTINUOUS
 70
0
 71
3
 72
13
 73
9
 74
0
 42
0.0000001
 43
0.0000001
 44
0.0000000001
 40
0.0
 40
0.0
 40
0.0
 40
0.0
 40
0.0903866437
 40
0.1911977373
 40
0.3021085994
 40
0.4228558922
 40
0.6931543963
 40
1.0
 40
1.0
 40
1.0
 40
1.0
 10
94.659328672
 20
84.0562386031
 30
0.0
 10
94.6593198383
 20
83.9548629612
 30
0.0
 10
94.6511657621
 20
83.740469907
 30
0.0
 10
94.6309666684
 20
83.4022668333
 30
0.0
 10
94.6130989783
 20
83.0297723483
 30
0.0
 10
94.6036343859
 20
82.4667152373
 30
0.0
 10
94.6336766105
 20
81.6843340773
 30
0.0
 10
94.6593059393
 20
81.0373689357
 30
0.0
 10
94.6593283774
 20
80.6932177554
 30
0.0
  0
SPLINE
  5
3CE
100
AcDbEntity
  8
0
100
AcDbSpline
 62
7
  6
CONTINUOUS
 70
0
 71
3
 72
20
 73
16
 74
0
 42
0.0000001
 43
0.0000001
 44
0.0000000001
 40
0.0
 40
0.0
 40
0.0
 40
0.0
 40
0.2204774664
 40
0.4178936309
 40
0.5898359018
 40
0.734178123
 40
0.7953684694
 40
0.8489321588
 40
0.8946659502
 40
0.9323665146
 40
0.961840736
 40
0.9829813296
 40
0.9904060434
 40
0.9957228314
 40
1.0
 40
1.0
 40
1.0
 40
1.0
 10
121.8187746939
 20
88.2193114822
 30
0.0
 10
121.9922155362
 20
88.2841525377
 30
0.0
 10
122.3199953478
 20
88.4096393092
 30
0.0
 10
122.7800289773
 20
88.593403919
 30
0.0
 10
123.1787269375
 20
88.7582521927
 30
0.0
 10
123.4704381317
 20
88.8823783137
 30
0.0
 10
123.6701309792
 20
88.9688197827
 30
0.0
 10
123.7936429895
 20
89.0227762435
 30
0.0
 10
123.8989260954
 20
89.0691851441
 30
0.0
 10
123.9856133605
 20
89.1076053152
 30
0.0
 10
124.0533154971
 20
89.1379313683
 30
0.0
 10
124.0978885342
 20
89.1575918598
 30
0.0
 10
124.1237384758
 20
89.1695831745
 30
0.0
 10
124.1369682285
 20
89.1748480281
 30
0.0
 10
124.1439385135
 20
89.1793145221
 30
0.0
 10
124.1474543503
 20
89.1800508885
 30
0.0
  0
SPLINE
  5
3CF
100
AcDbEntity
  8
0
100
AcDbSpline
 62
7
  6
CONTINUOUS
 70
0
 71
3
 72
11
 73
7
 74
0
 42
0.0000001
 43
0.0000001
 44
0.0000000001
 40
0.0
 40
0.0
 40
0.0
 40
0.0
 40
0.2277896056
 40
0.4755568744
 40
0.7368114563
 40
1.0
 40
1.0
 40
1.0
 40
1.0
 10
121.8187746937
 20
88.2193002913
 30
0.0
 10
121.7013365865
 20
88.243719692
 30
0.0
 10
121.465668038
 20
88.3462969487
 30
0.0
 10
121.1752975055
 20
88.6119192658
 30
0.0
 10
120.9605972346
 20
88.9629421645
 30
0.0
 10
120.8825281659
 20
89.2320049274
 30
0.0
 10
120.8628126654
 20
89.3691859478
 30
0.0
  0
SPLINE
  5
3D0
100
AcDbEntity
  8
0
100
AcDbSpline
 62
7
  6
CONTINUOUS
 70
0
 71
3
 72
22
 73
18
 74
0
 42
0.0000001
 43
0.0000001
 44
0.0000000001
 40
0.0
 40
0.0
 40
0.0
 40
0.0
 40
0.221099228
 40
0.4187662549
 40
0.5907016205
 40
0.7348766888
 40
0.795950972
 40
0.849391003
 40
0.8950025368
 40
0.9325910681
 40
0.9619722656
 40
0.9735507136
 40
0.983043647
 40
0.9904430556
 40
0.9957409266
 40
0.998929245
 40
1.0
 40
1.0
 40
1.0
 40
1.0
 10
120.862828457
 20
89.369185948
 30
0.0
 10
121.0191863255
 20
89.437880854
 30
0.0
 10
121.3141792527
 20
89.570630542
 30
0.0
 10
121.7271755133
 20
89.7646239893
 30
0.0
 10
122.0840994601
 20
89.9381390339
 30
0.0
 10
122.3446633474
 20
90.0684950729
 30
0.0
 10
122.5227479546
 20
90.1591235466
 30
0.0
 10
122.6327666794
 20
90.2156382381
 30
0.0
 10
122.7264876968
 20
90.2641801584
 30
0.0
 10
122.8035785898
 20
90.3044108379
 30
0.0
 10
122.8573444635
 20
90.332543914
 30
0.0
 10
122.8918118667
 20
90.3507012433
 30
0.0
 10
122.9113422735
 20
90.3608716751
 30
0.0
 10
122.9263236329
 20
90.3690528342
 30
0.0
 10
122.9375806708
 20
90.3743643082
 30
0.0
 10
122.9433841209
 20
90.3785642033
 30
0.0
 10
122.9470361049
 20
90.3793373545
 30
0.0
 10
122.9474543503
 20
90.3800508885
 30
0.0
  0
SPLINE
  5
3D1
100
AcDbEntity
  8
0
100
AcDbSpline
 62
7
  6
CONTINUOUS
 70
0
 71
3
 72
9
 73
5
 74
0
 42
0.0000001
 43
0.0000001
 44
0.0000000001
 40
0.0
 40
0.0
 40
0.0
 40
0.0
 40
0.5607622816
 40
1.0
 40
1.0
 40
1.0
 40
1.0
 10
120.7581145221
 20
87.0492939682
 30
0.0
 10
120.9040242582
 20
87.308110551
 30
0.0
 10
121.2215045423
 20
87.7399241926
 30
0.0
 10
121.625701761
 20
88.0893755429
 30
0.0
 10
121.8187746939
 20
88.2193114822
 30
0.0
  0
SPLINE
  5
3D2
100
AcDbEntity
  8
0
100
AcDbSpline
 62
7
  6
CONTINUOUS
 70
0
 71
3
 72
13
 73
9
 74
0
 42
0.0000001
 43
0.0000001
 44
0.0000000001
 40
0.0
 40
0.0
 40
0.0
 40
0.0
 40
0.0816246131
 40
0.1821446531
 40
0.3004711856
 40
0.4332869439
 40
0.7212464277
 40
1.0
 40
1.0
 40
1.0
 40
1.0
 10
120.758124537
 20
87.0492847052
 30
0.0
 10
120.7102802887
 20
87.0332637332
 30
0.0
 10
120.5963456079
 20
87.0196921571
 30
0.0
 10
120.4110549804
 20
87.0413573989
 30
0.0
 10
120.2013276457
 20
87.1015632786
 30
0.0
 10
119.894496846
 20
87.2331887591
 30
0.0
 10
119.5262697409
 20
87.4648606829
 30
0.0
 10
119.2655557909
 20
87.7031151144
 30
0.0
 10
119.1537286181
 20
87.8342062813
 30
0.0
  0
SPLINE
  5
3D3
100
AcDbEntity
  8
0
100
AcDbSpline
 62
7
  6
CONTINUOUS
 70
0
 71
3
 72
9
 73
5
 74
0
 42
0.0000001
 43
0.0000001
 44
0.0000000001
 40
0.0
 40
0.0
 40
0.0
 40
0.0
 40
0.2836912254
 40
1.0
 40
1.0
 40
1.0
 40
1.0
 10
119.1537297522
 20
87.8342062813
 30
0.0
 10
119.2708619858
 20
88.0192524251
 30
0.0
 10
119.7284378069
 20
88.6407534176
 30
0.0
 10
120.3565667851
 20
89.1467512508
 30
0.0
 10
120.862828457
 20
89.369185948
 30
0.0
  0
LINE
  5
3D4
100
AcDbEntity
  8
0
100
AcDbLine
 62
7
  6
CONTINUOUS
 10
120.6367941785
 20
86.8798959377
 11
120.7581145221
 21
87.0492939682
  0
SPLINE
  5
3D5
100
AcDbEntity
  8
0
100
AcDbSpline
 62
7
  6
CONTINUOUS
 70
0
 71
3
 72
13
 73
9
 74
0
 42
0.0000001
 43
0.0000001
 44
0.0000000001
 40
0.0
 40
0.0
 40
0.0
 40
0.0
 40
0.0810679825
 40
0.1812566449
 40
0.2993909906
 40
0.4321251345
 40
0.720331139
 40
1.0
 40
1.0
 40
1.0
 40
1.0
 10
120.6367941785
 20
86.8798959377
 30
0.0
 10
120.5894384205
 20
86.8649218042
 30
0.0
 10
120.476927847
 20
86.853260744
 30
0.0
 10
120.2942247086
 20
86.8765552373
 30
0.0
 10
120.0871464332
 20
86.9374867139
 30
0.0
 10
119.7835319857
 20
87.0689620039
 30
0.0
 10
119.4179606752
 20
87.2986013348
 30
0.0
 10
119.1577170538
 20
87.5334930538
 30
0.0
 10
119.0451242046
 20
87.6626462815
 30
0.0
  0
LINE
  5
3D6
100
AcDbEntity
  8
0
100
AcDbLine
 62
7
  6
CONTINUOUS
 10
119.0451242045
 20
87.6626462815
 11
119.1537297522
 21
87.8342062813
  0
SPLINE
  5
3D7
100
AcDbEntity
  8
0
100
AcDbSpline
 62
7
  6
CONTINUOUS
 70
0
 71
3
 72
9
 73
5
 74
0
 42
0.0000001
 43
0.0000001
 44
0.0000000001
 40
0.0
 40
0.0
 40
0.0
 40
0.0
 40
0.4995296861
 40
1.0
 40
1.0
 40
1.0
 40
1.0
 10
119.5761340067
 20
86.3953203141
 30
0.0
 10
119.7732027208
 20
86.4074162401
 30
0.0
 10
120.1662204269
 20
86.5064468686
 30
0.0
 10
120.4981438626
 20
86.7388093423
 30
0.0
 10
120.6367941785
 20
86.8798959377
 30
0.0
  0
SPLINE
  5
3D8
100
AcDbEntity
  8
0
100
AcDbSpline
 62
7
  6
CONTINUOUS
 70
0
 71
3
 72
11
 73
7
 74
0
 42
0.0000001
 43
0.0000001
 44
0.0000000001
 40
0.0
 40
0.0
 40
0.0
 40
0.0
 40
0.2113489689
 40
0.4564264707
 40
0.7246488476
 40
1.0
 40
1.0
 40
1.0
 40
1.0
 10
119.5761340068
 20
86.3953194493
 30
0.0
 10
119.4901014571
 20
86.4368242557
 30
0.0
 10
119.3218612644
 20
86.5629270213
 30
0.0
 10
119.1162079283
 20
86.820699089
 30
0.0
 10
118.9523400939
 20
87.139572945
 30
0.0
 10
118.8803582692
 20
87.3760886277
 30
0.0
 10
118.8552243216
 20
87.4979713737
 30
0.0
  0
SPLINE
  5
3D9
100
AcDbEntity
  8
0
100
AcDbSpline
 62
7
  6
CONTINUOUS
 70
0
 71
3
 72
9
 73
5
 74
0
 42
0.0000001
 43
0.0000001
 44
0.0000000001
 40
0.0
 40
0.0
 40
0.0
 40
0.0
 40
0.2399193967
 40
1.0
 40
1.0
 40
1.0
 40
1.0
 10
118.8552243484
 20
87.4979713737
 30
0.0
 10
118.8743394767
 20
87.5048593672
 30
0.0
 10
118.9506599067
 20
87.5428439404
 30
0.0
 10
119.0106958068
 20
87.608257499
 30
0.0
 10
119.0451242045
 20
87.6626462815
 30
0.0
  0
SPLINE
  5
3DA
100
AcDbEntity
  8
0
100
AcDbSpline
 62
7
  6
CONTINUOUS
 70
0
 71
3
 72
14
 73
10
 74
0
 42
0.0000001
 43
0.0000001
 44
0.0000000001
 40
0.0
 40
0.0
 40
0.0
 40
0.0
 40
0.1857696107
 40
0.3094485822
 40
0.4458705015
 40
0.5894120421
 40
0.7337886103
 40
0.8725727735
 40
1.0
 40
1.0
 40
1.0
 40
1.0
 10
102.2187746939
 20
87.7403539238
 30
0.0
 10
103.2296774747
 20
87.298599948
 30
0.0
 10
104.9461472801
 20
86.6319609769
 30
0.0
 10
107.494498313
 20
85.9037865863
 30
0.0
 10
109.853771937
 20
85.4563314794
 30
0.0
 10
112.3724352018
 20
85.2645016031
 30
0.0
 10
114.9101135126
 20
85.3800312708
 30
0.0
 10
117.3215423184
 20
85.7709399753
 30
0.0
 10
118.8525108077
 20
86.1739116389
 30
0.0
 10
119.5761340067
 20
86.3953203141
 30
0.0
  0
SPLINE
  5
3DB
100
AcDbEntity
  8
0
100
AcDbSpline
 62
7
  6
CONTINUOUS
 70
0
 71
3
 72
12
 73
8
 74
0
 42
0.0000001
 43
0.0000001
 44
0.0000000001
 40
0.0
 40
0.0
 40
0.0
 40
0.0
 40
0.2400398354
 40
0.3641823187
 40
0.4902484271
 40
0.7453062709
 40
1.0
 40
1.0
 40
1.0
 40
1.0
 10
102.2187746921
 20
87.740325734
 30
0.0
 10
102.3573742423
 20
87.752220858
 30
0.0
 10
102.5662057819
 20
87.8137688025
 30
0.0
 10
102.8077876312
 20
87.9651324287
 30
0.0
 10
103.0262812857
 20
88.1621919844
 30
0.0
 10
103.2322499126
 20
88.4764134459
 30
0.0
 10
103.3059980162
 20
88.7691808675
 30
0.0
 10
103.317015468
 20
88.916370455
 30
0.0
  0
SPLINE
  5
3DC
100
AcDbEntity
  8
0
100
AcDbSpline
 62
7
  6
CONTINUOUS
 70
0
 71
3
 72
14
 73
10
 74
0
 42
0.0000001
 43
0.0000001
 44
0.0000000001
 40
0.0
 40
0.0
 40
0.0
 40
0.0
 40
0.183458502
 40
0.3062361992
 40
0.4427029499
 40
0.5872952061
 40
0.7330244001
 40
0.8725801792
 40
1.0
 40
1.0
 40
1.0
 40
1.0
 10
103.3169769286
 20
88.916370453
 30
0.0
 10
104.1924223153
 20
88.4655102718
 30
0.0
 10
105.6895162503
 20
87.7774155768
 30
0.0
 10
107.9407437246
 20
87.0080990775
 30
0.0
 10
110.0583731211
 20
86.5217385949
 30
0.0
 10
112.3466421107
 20
86.3045031708
 30
0.0
 10
114.6592816631
 20
86.423311889
 30
0.0
 10
116.8408388756
 20
86.8401798005
 30
0.0
 10
118.2118100761
 20
87.2660623848
 30
0.0
 10
118.8552243484
 20
87.4979713737
 30
0.0
  0
SPLINE
  5
3DD
100
AcDbEntity
  8
0
100
AcDbSpline
 62
7
  6
CONTINUOUS
 70
0
 71
3
 72
19
 73
15
 74
0
 42
0.0000001
 43
0.0000001
 44
0.0000000001
 40
0.0
 40
0.0
 40
0.0
 40
0.0
 40
0.0035352588
 40
0.0079856034
 40
0.0142360826
 40
0.0321726364
 40
0.057416
 40
0.0900392173
 40
0.1301695147
 40
0.2337998184
 40
0.3701354329
 40
0.5414332459
 40
0.7503966581
 40
1.0
 40
1.0
 40
1.0
 40
1.0
 10
101.6791522808
 20
88.0796249849
 30
0.0
 10
101.6791944315
 20
88.0803765302
 30
0.0
 10
101.6817755384
 20
88.0780268987
 30
0.0
 10
101.6839905763
 20
88.0776155838
 30
0.0
 10
101.6898222792
 20
88.0745387705
 30
0.0
 10
101.6990922245
 20
88.0703790357
 30
0.0
 10
101.7137208249
 20
88.0631451458
 30
0.0
 10
101.732380428
 20
88.0539650405
 30
0.0
 10
101.765917961
 20
88.0369864678
 30
0.0
 10
101.8185527785
 20
88.0089767419
 30
0.0
 10
101.8945849396
 20
87.9654840193
 30
0.0
 10
101.9879956063
 20
87.9073585043
 30
0.0
 10
102.0988810939
 20
87.8318522754
 30
0.0
 10
102.1770030395
 20
87.7732107575
 30
0.0
 10
102.2187746939
 20
87.7403539238
 30
0.0
  0
SPLINE
  5
3DE
100
AcDbEntity
  8
0
100
AcDbSpline
 62
7
  6
CONTINUOUS
 70
0
 71
3
 72
21
 73
17
 74
0
 42
0.0000001
 43
0.0000001
 44
0.0000000001
 40
0.0
 40
0.0
 40
0.0
 40
0.0
 40
0.0009493074
 40
0.0038022479
 40
0.0085606549
 40
0.0152259092
 40
0.0342829102
 40
0.0609869315
 40
0.0953542969
 40
0.1374119002
 40
0.187207119
 40
0.2448061459
 40
0.3837599215
 40
0.5551475576
 40
0.7601955195
 40
1.0
 40
1.0
 40
1.0
 40
1.0
 10
102.4474543503
 20
89.199284262
 30
0.0
 10
102.4474653365
 20
89.1995748413
 30
0.0
 10
102.4493089961
 20
89.1987557046
 30
0.0
 10
102.4512549949
 20
89.1991618052
 30
0.0
 10
102.4559719676
 20
89.1982524246
 30
0.0
 10
102.4650057061
 20
89.1973106996
 30
0.0
 10
102.4810828296
 20
89.1949271602
 30
0.0
 10
102.5052718276
 20
89.1913563651
 30
0.0
 10
102.5364896629
 20
89.1862812441
 30
0.0
 10
102.5745552929
 20
89.1795774294
 30
0.0
 10
102.6194795534
 20
89.1707268204
 30
0.0
 10
102.6931748953
 20
89.1544870494
 30
0.0
 10
102.8022933711
 20
89.1260507643
 30
0.0
 10
102.9526329966
 20
89.077557128
 30
0.0
 10
103.1284063586
 20
89.0083922435
 30
0.0
 10
103.2516669205
 20
88.9499909544
 30
0.0
 10
103.3169769286
 20
88.916370453
 30
0.0
  0
SPLINE
  5
3DF
100
AcDbEntity
  8
0
100
AcDbSpline
 62
7
  6
CONTINUOUS
 70
0
 71
3
 72
10
 73
6
 74
0
 42
0.0000001
 43
0.0000001
 44
0.0000000001
 40
0.0
 40
0.0
 40
0.0
 40
0.0
 40
0.5088400374
 40
0.7557534734
 40
1.0
 40
1.0
 40
1.0
 40
1.0
 10
80.1697209794
 20
53.4311694131
 30
0.0
 10
79.8711984598
 20
52.7695151696
 30
0.0
 10
79.5009210221
 20
51.7477832692
 30
0.0
 10
79.2413114747
 20
50.3424366246
 30
0.0
 10
79.1974543504
 20
49.6409827233
 30
0.0
 10
79.1974543503
 20
49.292555518
 30
0.0
  0
SPLINE
  5
3E0
100
AcDbEntity
  8
0
100
AcDbSpline
 62
7
  6
CONTINUOUS
 70
0
 71
3
 72
10
 73
6
 74
0
 42
0.0000001
 43
0.0000001
 44
0.0000000001
 40
0.0
 40
0.0
 40
0.0
 40
0.0
 40
0.2442465429
 40
0.4911599925
 40
1.0
 40
1.0
 40
1.0
 40
1.0
 10
79.1974543503
 20
49.292555518
 30
0.0
 10
79.1974543502
 20
48.944128289
 30
0.0
 10
79.241311593
 20
48.2426743551
 30
0.0
 10
79.5009209286
 20
46.8373276742
 30
0.0
 10
79.871198477
 20
45.8155958215
 30
0.0
 10
80.1697209794
 20
45.1539416163
 30
0.0
  0
SPLINE
  5
3E1
100
AcDbEntity
  8
0
100
AcDbSpline
 62
7
  6
CONTINUOUS
 70
0
 71
3
 72
9
 73
5
 74
0
 42
0.0000001
 43
0.0000001
 44
0.0000000001
 40
0.0
 40
0.0
 40
0.0
 40
0.0
 40
0.4999664399
 40
1.0
 40
1.0
 40
1.0
 40
1.0
 10
79.1974543503
 20
66.1800508885
 30
0.0
 10
79.1974543503
 20
64.7889394275
 30
0.0
 10
79.3724763025
 20
62.0040592625
 30
0.0
 10
79.8635545211
 20
59.2600160873
 30
0.0
 10
80.1697209794
 20
57.9028230917
 30
0.0
  0
SPLINE
  5
3E2
100
AcDbEntity
  8
0
100
AcDbSpline
 62
7
  6
CONTINUOUS
 70
0
 71
3
 72
9
 73
5
 74
0
 42
0.0000001
 43
0.0000001
 44
0.0000000001
 40
0.0
 40
0.0
 40
0.0
 40
0.0
 40
0.5000335703
 40
1.0
 40
1.0
 40
1.0
 40
1.0
 10
80.1697209794
 20
74.4572786853
 30
0.0
 10
79.8635545148
 20
73.1000856618
 30
0.0
 10
79.3724762981
 20
70.356042486
 30
0.0
 10
79.1974543503
 20
67.5711623209
 30
0.0
 10
79.1974543503
 20
66.1800508885
 30
0.0
  0
SPLINE
  5
3E3
100
AcDbEntity
  8
0
100
AcDbSpline
 62
7
  6
CONTINUOUS
 70
0
 71
3
 72
10
 73
6
 74
0
 42
0.0000001
 43
0.0000001
 44
0.0000000001
 40
0.0
 40
0.0
 40
0.0
 40
0.0
 40
0.5088400374
 40
0.7557534734
 40
1.0
 40
1.0
 40
1.0
 40
1.0
 10
80.1697209794
 20
87.2061601607
 30
0.0
 10
79.8711984598
 20
86.5445059172
 30
0.0
 10
79.5009210221
 20
85.5227740168
 30
0.0
 10
79.2413114747
 20
84.1174273722
 30
0.0
 10
79.1974543504
 20
83.4159734709
 30
0.0
 10
79.1974543503
 20
83.0675462656
 30
0.0
  0
SPLINE
  5
3E4
100
AcDbEntity
  8
0
100
AcDbSpline
 62
7
  6
CONTINUOUS
 70
0
 71
3
 72
10
 73
6
 74
0
 42
0.0000001
 43
0.0000001
 44
0.0000000001
 40
0.0
 40
0.0
 40
0.0
 40
0.0
 40
0.2442465429
 40
0.4911599925
 40
1.0
 40
1.0
 40
1.0
 40
1.0
 10
79.1974543503
 20
83.0675462656
 30
0.0
 10
79.1974543502
 20
82.7191190366
 30
0.0
 10
79.241311593
 20
82.0176651027
 30
0.0
 10
79.5009209286
 20
80.6123184218
 30
0.0
 10
79.871198477
 20
79.5905865691
 30
0.0
 10
80.1697209794
 20
78.9289323639
 30
0.0
  0
SPLINE
  5
3E5
100
AcDbEntity
  8
0
100
AcDbSpline
 62
7
  6
CONTINUOUS
 70
0
 71
3
 72
10
 73
6
 74
0
 42
0.0000001
 43
0.0000001
 44
0.0000000001
 40
0.0
 40
0.0
 40
0.0
 40
0.0
 40
0.199707329
 40
0.4408602623
 40
1.0
 40
1.0
 40
1.0
 40
1.0
 10
93.1293563523
 20
74.6191804514
 30
0.0
 10
93.0901046635
 20
74.6466366053
 30
0.0
 10
92.9944264662
 20
74.6941655865
 30
0.0
 10
92.7641473419
 20
74.7629969313
 30
0.0
 10
92.5706499098
 20
74.7810484983
 30
0.0
 10
92.4365360293
 20
74.7810822176
 30
0.0
  0
SPLINE
  5
3E6
100
AcDbEntity
  8
0
100
AcDbSpline
 62
7
  6
CONTINUOUS
 70
0
 71
3
 72
9
 73
5
 74
0
 42
0.0000001
 43
0.0000001
 44
0.0000000001
 40
0.0
 40
0.0
 40
0.0
 40
0.0
 40
0.4563202357
 40
1.0
 40
1.0
 40
1.0
 40
1.0
 10
93.1293563523
 20
78.4719274179
 30
0.0
 10
93.0501378892
 20
78.5529277704
 30
0.0
 10
92.820505098
 20
78.6725288315
 30
0.0
 10
92.5715251618
 20
78.7077727747
 30
0.0
 10
92.4365360293
 20
78.707742795
 30
0.0
  0
SPLINE
  5
3E7
100
AcDbEntity
  8
0
100
AcDbSpline
 62
7
  6
CONTINUOUS
 70
0
 71
3
 72
9
 73
5
 74
0
 42
0.0000001
 43
0.0000001
 44
0.0000000001
 40
0.0
 40
0.0
 40
0.0
 40
0.0
 40
0.4981368696
 40
1.0
 40
1.0
 40
1.0
 40
1.0
 10
101.787575905
 20
138.8186542917
 30
0.0
 10
101.8141459393
 20
138.8033009931
 30
0.0
 10
101.8626658649
 20
138.7632792639
 30
0.0
 10
101.8954244542
 20
138.7096421344
 30
0.0
 10
101.9071370717
 20
138.6810301401
 30
0.0
  0
LINE
  5
3E8
100
AcDbEntity
  8
0
100
AcDbLine
 62
7
  6
CONTINUOUS
 10
101.907161748
 20
138.6810413214
 11
101.7104358297
 21
138.7533818824
  0
LINE
  5
3E9
100
AcDbEntity
  8
0
100
AcDbLine
 62
7
  6
CONTINUOUS
 10
101.7104358297
 20
138.7533818824
 11
101.707623028
 21
138.7543848347
  0
SPLINE
  5
3EA
100
AcDbEntity
  8
0
100
AcDbSpline
 62
7
  6
CONTINUOUS
 70
0
 71
3
 72
17
 73
13
 74
0
 42
0.0000001
 43
0.0000001
 44
0.0000000001
 40
0.0
 40
0.0
 40
0.0
 40
0.0
 40
0.3725402867
 40
0.5363095509
 40
0.6789111497
 40
0.7916685824
 40
0.8337675019
 40
0.8656310347
 40
0.8903478273
 40
0.9172873896
 40
0.9533232462
 40
1.0
 40
1.0
 40
1.0
 40
1.0
 10
101.8000092482
 20
139.0130753037
 30
0.0
 10
101.7993853879
 20
138.9847396862
 30
0.0
 10
101.8019079098
 20
138.943838859
 30
0.0
 10
101.8093586743
 20
138.8927184568
 30
0.0
 10
101.8145247065
 20
138.8612903289
 30
0.0
 10
101.8176777144
 20
138.8387841858
 30
0.0
 10
101.8174427775
 20
138.8245814092
 30
0.0
 10
101.8159495274
 20
138.8170760613
 30
0.0
 10
101.8113603114
 20
138.8119810381
 30
0.0
 10
101.8042597437
 20
138.81152977
 30
0.0
 10
101.7962738208
 20
138.8139678072
 30
0.0
 10
101.7906331486
 20
138.8168473854
 30
0.0
 10
101.787560226
 20
138.8186271601
 30
0.0
  0
SPLINE
  5
3EB
100
AcDbEntity
  8
0
100
AcDbSpline
 62
7
  6
CONTINUOUS
 70
0
 71
3
 72
9
 73
5
 74
0
 42
0.0000001
 43
0.0000001
 44
0.0000000001
 40
0.0
 40
0.0
 40
0.0
 40
0.0
 40
0.2904934412
 40
1.0
 40
1.0
 40
1.0
 40
1.0
 10
101.8000093671
 20
139.0130755096
 30
0.0
 10
101.8240522503
 20
139.0048787855
 30
0.0
 10
101.9033090039
 20
138.9707428387
 30
0.0
 10
101.9780301413
 20
138.9038740186
 30
0.0
 10
101.9942998544
 20
138.844003698
 30
0.0
  0
SPLINE
  5
3EC
100
AcDbEntity
  8
0
100
AcDbSpline
 62
7
  6
CONTINUOUS
 70
0
 71
3
 72
13
 73
9
 74
0
 42
0.0000001
 43
0.0000001
 44
0.0000000001
 40
0.0
 40
0.0
 40
0.0
 40
0.0
 40
0.4008092506
 40
0.6826994588
 40
0.7804137676
 40
0.8551735346
 40
0.9222336799
 40
1.0
 40
1.0
 40
1.0
 40
1.0
 10
101.9942999229
 20
138.844003698
 30
0.0
 10
101.9856899322
 20
138.8182083867
 30
0.0
 10
101.9729678139
 20
138.7736938458
 30
0.0
 10
101.9604761491
 20
138.7220434699
 30
0.0
 10
101.9480811114
 20
138.6937364645
 30
0.0
 10
101.9370572667
 20
138.6809760468
 30
0.0
 10
101.9219431795
 20
138.6767195463
 30
0.0
 10
101.9120996368
 20
138.6791820522
 30
0.0
 10
101.907161748
 20
138.6810413214
 30
0.0
  0
SPLINE
  5
3ED
100
AcDbEntity
  8
0
100
AcDbSpline
 62
7
  6
CONTINUOUS
 70
0
 71
3
 72
9
 73
5
 74
0
 42
0.0000001
 43
0.0000001
 44
0.0000000001
 40
0.0
 40
0.0
 40
0.0
 40
0.0
 40
0.5244085733
 40
1.0
 40
1.0
 40
1.0
 40
1.0
 10
101.749851873
 20
139.417748357
 30
0.0
 10
101.7655880218
 20
139.3481074311
 30
0.0
 10
101.7902746508
 20
139.214119122
 30
0.0
 10
101.8014416362
 20
139.0778098217
 30
0.0
 10
101.8000092482
 20
139.0130753037
 30
0.0
  0
SPLINE
  5
3EE
100
AcDbEntity
  8
0
100
AcDbSpline
 62
7
  6
CONTINUOUS
 70
0
 71
3
 72
9
 73
5
 74
0
 42
0.0000001
 43
0.0000001
 44
0.0000000001
 40
0.0
 40
0.0
 40
0.0
 40
0.0
 40
0.5278167463
 40
1.0
 40
1.0
 40
1.0
 40
1.0
 10
102.0404961866
 20
139.417748357
 30
0.0
 10
102.04049538
 20
139.3163752913
 30
0.0
 10
102.0337390383
 20
139.12428576
 30
0.0
 10
102.0112941858
 20
138.9330852049
 30
0.0
 10
101.9942999229
 20
138.844003698
 30
0.0
  0
SPLINE
  5
3EF
100
AcDbEntity
  8
0
100
AcDbSpline
 62
7
  6
CONTINUOUS
 70
0
 71
3
 72
12
 73
8
 74
0
 42
0.0000001
 43
0.0000001
 44
0.0000000001
 40
0.0
 40
0.0
 40
0.0
 40
0.0
 40
0.1248555395
 40
0.2215608754
 40
0.3419940704
 40
0.644509108
 40
1.0
 40
1.0
 40
1.0
 40
1.0
 10
101.5758537461
 20
145.1800508885
 30
0.0
 10
101.598872318
 20
145.1800509242
 30
0.0
 10
101.6344258304
 20
145.1478328716
 30
0.0
 10
101.6666086509
 20
145.0956240074
 30
0.0
 10
101.7058248414
 20
145.0070751186
 30
0.0
 10
101.7400632151
 20
144.8671927868
 30
0.0
 10
101.7498500836
 20
144.745589772
 30
0.0
 10
101.749851873
 20
144.6800508885
 30
0.0
  0
SPLINE
  5
3F0
100
AcDbEntity
  8
0
100
AcDbSpline
 62
7
  6
CONTINUOUS
 70
0
 71
3
 72
11
 73
7
 74
0
 42
0.0000001
 43
0.0000001
 44
0.0000000001
 40
0.0
 40
0.0
 40
0.0
 40
0.0
 40
0.2479071285
 40
0.4973981157
 40
0.7484233382
 40
1.0
 40
1.0
 40
1.0
 40
1.0
 10
101.5758537461
 20
145.1800508885
 30
0.0
 10
101.6142348573
 20
145.1800508885
 30
0.0
 10
101.6920239178
 20
145.1959342265
 30
0.0
 10
101.7904332758
 20
145.2625719998
 30
0.0
 10
101.855652447
 20
145.3625332077
 30
0.0
 10
101.8711174796
 20
145.4411016582
 30
0.0
 10
101.8711174789
 20
145.4800508885
 30
0.0
  0
SPLINE
  5
3F1
100
AcDbEntity
  8
0
100
AcDbSpline
 62
7
  6
CONTINUOUS
 70
0
 71
3
 72
12
 73
8
 74
0
 42
0.0000001
 43
0.0000001
 44
0.0000000001
 40
0.0
 40
0.0
 40
0.0
 40
0.0
 40
0.0388683173
 40
0.1040050831
 40
0.3217788246
 40
0.6347126904
 40
1.0
 40
1.0
 40
1.0
 40
1.0
 10
101.8711174789
 20
145.4800508885
 30
0.0
 10
101.8819735847
 20
145.4800509082
 30
0.0
 10
101.908077239
 20
145.4602687432
 30
0.0
 10
101.9498740932
 20
145.3817917942
 30
0.0
 10
101.9954722509
 20
145.2190767566
 30
0.0
 10
102.031588172
 20
144.9719041335
 30
0.0
 10
102.0404903843
 20
144.7820773703
 30
0.0
 10
102.0404961866
 20
144.6800508885
 30
0.0
  0
SPLINE
  5
3F2
100
AcDbEntity
  8
0
100
AcDbSpline
 62
7
  6
CONTINUOUS
 70
0
 71
3
 72
9
 73
5
 74
0
 42
0.0000001
 43
0.0000001
 44
0.0000000001
 40
0.0
 40
0.0
 40
0.0
 40
0.0
 40
0.4563202357
 40
1.0
 40
1.0
 40
1.0
 40
1.0
 10
93.1293563523
 20
53.888174359
 30
0.0
 10
93.0501378892
 20
53.8071740065
 30
0.0
 10
92.820505098
 20
53.6875729454
 30
0.0
 10
92.5715251618
 20
53.6523290023
 30
0.0
 10
92.4365360293
 20
53.652358982
 30
0.0
  0
SPLINE
  5
3F3
100
AcDbEntity
  8
0
100
AcDbSpline
 62
7
  6
CONTINUOUS
 70
0
 71
3
 72
10
 73
6
 74
0
 42
0.0000001
 43
0.0000001
 44
0.0000000001
 40
0.0
 40
0.0
 40
0.0
 40
0.0
 40
0.199707329
 40
0.4408602623
 40
1.0
 40
1.0
 40
1.0
 40
1.0
 10
93.1293563523
 20
57.7409213255
 30
0.0
 10
93.0901046635
 20
57.7134651716
 30
0.0
 10
92.9944264662
 20
57.6659361905
 30
0.0
 10
92.7641473419
 20
57.5971048457
 30
0.0
 10
92.5706499098
 20
57.5790532786
 30
0.0
 10
92.4365360293
 20
57.5790195593
 30
0.0
  0
SPLINE
  5
3F4
100
AcDbEntity
  8
0
100
AcDbSpline
 62
7
  6
CONTINUOUS
 70
0
 71
3
 72
9
 73
5
 74
0
 42
0.0000001
 43
0.0000001
 44
0.0000000001
 40
0.0
 40
0.0
 40
0.0
 40
0.0
 40
0.7499414197
 40
1.0
 40
1.0
 40
1.0
 40
1.0
 10
93.1293563523
 20
57.7409248264
 30
0.0
 10
93.4137298439
 20
58.977745247
 30
0.0
 10
93.72587887
 20
60.6443037015
 30
0.0
 10
93.9243534362
 20
62.325116517
 30
0.0
 10
93.9665117843
 20
62.7461738797
 30
0.0
  0
SPLINE
  5
3F5
100
AcDbEntity
  8
0
100
AcDbSpline
 62
7
  6
CONTINUOUS
 70
0
 71
3
 72
11
 73
7
 74
0
 42
0.0000001
 43
0.0000001
 44
0.0000000001
 40
0.0
 40
0.0
 40
0.0
 40
0.0
 40
0.2500194305
 40
0.4999999999
 40
0.7499805693
 40
1.0
 40
1.0
 40
1.0
 40
1.0
 10
92.4365320379
 20
57.9028230917
 30
0.0
 10
92.7533347259
 20
59.2585247383
 30
0.0
 10
93.2638531587
 20
62.0015313301
 30
0.0
 10
93.5383674558
 20
66.1800508872
 30
0.0
 10
93.2638531633
 20
70.3585704472
 30
0.0
 10
92.7533347156
 20
73.1015770366
 30
0.0
 10
92.4365320307
 20
74.4572786853
 30
0.0
  0
SPLINE
  5
3F6
100
AcDbEntity
  8
0
100
AcDbSpline
 62
7
  6
CONTINUOUS
 70
0
 71
3
 72
10
 73
6
 74
0
 42
0.0000001
 43
0.0000001
 44
0.0000000001
 40
0.0
 40
0.0
 40
0.0
 40
0.0
 40
0.6665531115
 40
0.8765090183
 40
1.0
 40
1.0
 40
1.0
 40
1.0
 10
80.1697209794
 20
87.2061601607
 30
0.0
 10
80.1797485206
 20
87.228385503
 30
0.0
 10
80.1928432427
 20
87.2578094855
 30
0.0
 10
80.2046534705
 20
87.2922683036
 30
0.0
 10
80.2078173214
 20
87.3042567842
 30
0.0
 10
80.2078173214
 20
87.3087741241
 30
0.0
  0
SPLINE
  5
3F7
100
AcDbEntity
  8
0
100
AcDbSpline
 62
7
  6
CONTINUOUS
 70
0
 71
3
 72
9
 73
5
 74
0
 42
0.0000001
 43
0.0000001
 44
0.0000000001
 40
0.0
 40
0.0
 40
0.0
 40
0.0
 40
0.250058581
 40
1.0
 40
1.0
 40
1.0
 40
1.0
 10
93.9665117844
 20
69.6139278255
 30
0.0
 10
93.9243534356
 20
70.0349851946
 30
0.0
 10
93.7258788831
 20
71.7157980329
 30
0.0
 10
93.413729845
 20
73.3823565073
 30
0.0
 10
93.1293563523
 20
74.6191769427
 30
0.0
  0
SPLINE
  5
3F8
100
AcDbEntity
  8
0
100
AcDbSpline
 62
7
  6
CONTINUOUS
 70
0
 71
3
 72
9
 73
5
 74
0
 42
0.0000001
 43
0.0000001
 44
0.0000000001
 40
0.0
 40
0.0
 40
0.0
 40
0.0
 40
0.4479760682
 40
1.0
 40
1.0
 40
1.0
 40
1.0
 10
80.1697209794
 20
78.9289323639
 30
0.0
 10
80.1835771466
 20
78.8982211404
 30
0.0
 10
80.2030613791
 20
78.8245989662
 30
0.0
 10
80.2078173214
 20
78.7492605675
 30
0.0
 10
80.2078173214
 20
78.707742795
 30
0.0
  0
SPLINE
  5
3F9
100
AcDbEntity
  8
0
100
AcDbSpline
 62
7
  6
CONTINUOUS
 70
0
 71
3
 72
9
 73
5
 74
0
 42
0.0000001
 43
0.0000001
 44
0.0000000001
 40
0.0
 40
0.0
 40
0.0
 40
0.0
 40
0.2553629703
 40
1.0
 40
1.0
 40
1.0
 40
1.0
 10
93.1293563523
 20
45.4490452176
 30
0.0
 10
93.2234622567
 20
45.6511669649
 30
0.0
 10
93.5731696917
 20
46.4510070296
 30
0.0
 10
93.8380861434
 20
47.2901738117
 30
0.0
 10
93.9665118072
 20
47.9275000363
 30
0.0
  0
SPLINE
  5
3FA
100
AcDbEntity
  8
0
100
AcDbSpline
 62
7
  6
CONTINUOUS
 70
0
 71
3
 72
10
 73
6
 74
0
 42
0.0000001
 43
0.0000001
 44
0.0000000001
 40
0.0
 40
0.0
 40
0.0
 40
0.0
 40
0.5192243404
 40
0.7638923127
 40
1.0
 40
1.0
 40
1.0
 40
1.0
 10
92.4365360291
 20
45.153941618
 30
0.0
 10
92.5721176038
 20
45.1381750069
 30
0.0
 10
92.7837150986
 20
45.1621422843
 30
0.0
 10
93.0115777996
 20
45.299303883
 30
0.0
 10
93.0966487865
 20
45.3962931292
 30
0.0
 10
93.1293563483
 20
45.4490447892
 30
0.0
  0
SPLINE
  5
3FB
100
AcDbEntity
  8
0
100
AcDbSpline
 62
7
  6
CONTINUOUS
 70
0
 71
3
 72
9
 73
5
 74
0
 42
0.0000001
 43
0.0000001
 44
0.0000000001
 40
0.0
 40
0.0
 40
0.0
 40
0.0
 40
0.2570401635
 40
1.0
 40
1.0
 40
1.0
 40
1.0
 10
80.1697209794
 20
74.4572786853
 30
0.0
 10
80.1758749901
 20
74.4845585518
 30
0.0
 10
80.1971420075
 20
74.5912495215
 30
0.0
 10
80.2078173214
 20
74.700249867
 30
0.0
 10
80.2078173214
 20
74.7810822176
 30
0.0
  0
SPLINE
  5
3FC
100
AcDbEntity
  8
0
100
AcDbSpline
 62
7
  6
CONTINUOUS
 70
0
 71
3
 72
13
 73
9
 74
0
 42
0.0000001
 43
0.0000001
 44
0.0000000001
 40
0.0
 40
0.0
 40
0.0
 40
0.0
 40
0.2547342472
 40
0.3780856799
 40
0.5000000828
 40
0.6219143755
 40
0.7452657453
 40
1.0
 40
1.0
 40
1.0
 40
1.0
 10
92.4365319189
 20
45.1539416163
 30
0.0
 10
92.7450311743
 20
45.8140261735
 30
0.0
 10
93.1298880233
 20
46.8342960567
 30
0.0
 10
93.4010607816
 20
48.2415621327
 30
0.0
 10
93.4696353624
 20
49.2925557525
 30
0.0
 10
93.4010612727
 20
50.3435493647
 30
0.0
 10
93.1298855004
 20
51.7508142633
 30
0.0
 10
92.7450320087
 20
52.7710851045
 30
0.0
 10
92.4365321706
 20
53.4311694131
 30
0.0
  0
SPLINE
  5
3FD
100
AcDbEntity
  8
0
100
AcDbSpline
 62
7
  6
CONTINUOUS
 70
0
 71
3
 72
9
 73
5
 74
0
 42
0.0000001
 43
0.0000001
 44
0.0000000001
 40
0.0
 40
0.0
 40
0.0
 40
0.0
 40
0.5065218615
 40
1.0
 40
1.0
 40
1.0
 40
1.0
 10
92.4365360291
 20
53.4311694113
 30
0.0
 10
92.5796668783
 20
53.4478041219
 30
0.0
 10
92.857450237
 20
53.5493776115
 30
0.0
 10
93.062579261
 20
53.7646900382
 30
0.0
 10
93.1293563482
 20
53.8881743545
 30
0.0
  0
SPLINE
  5
3FE
100
AcDbEntity
  8
0
100
AcDbSpline
 62
7
  6
CONTINUOUS
 70
0
 71
3
 72
9
 73
5
 74
0
 42
0.0000001
 43
0.0000001
 44
0.0000000001
 40
0.0
 40
0.0
 40
0.0
 40
0.0
 40
0.244646591
 40
1.0
 40
1.0
 40
1.0
 40
1.0
 10
93.9665117455
 20
51.3613767588
 30
0.0
 10
93.9240875704
 20
51.5745539992
 30
0.0
 10
93.7207581199
 20
52.439976423
 30
0.0
 10
93.406905267
 20
53.2771565748
 30
0.0
 10
93.1293563523
 20
53.8881714132
 30
0.0
  0
SPLINE
  5
3FF
100
AcDbEntity
  8
0
100
AcDbSpline
 62
7
  6
CONTINUOUS
 70
0
 71
3
 72
9
 73
5
 74
0
 42
0.0000001
 43
0.0000001
 44
0.0000000001
 40
0.0
 40
0.0
 40
0.0
 40
0.0
 40
0.2570401635
 40
1.0
 40
1.0
 40
1.0
 40
1.0
 10
80.1697209794
 20
57.9028230917
 30
0.0
 10
80.1758749901
 20
57.8755432251
 30
0.0
 10
80.1971420075
 20
57.7688522555
 30
0.0
 10
80.2078173214
 20
57.6598519099
 30
0.0
 10
80.2078173214
 20
57.5790195593
 30
0.0
  0
SPLINE
  5
400
100
AcDbEntity
  8
0
100
AcDbSpline
 62
7
  6
CONTINUOUS
 70
0
 71
3
 72
9
 73
5
 74
0
 42
0.0000001
 43
0.0000001
 44
0.0000000001
 40
0.0
 40
0.0
 40
0.0
 40
0.0
 40
0.4479760682
 40
1.0
 40
1.0
 40
1.0
 40
1.0
 10
80.1697209794
 20
53.4311694131
 30
0.0
 10
80.1835771466
 20
53.4618806365
 30
0.0
 10
80.2030613791
 20
53.5355028107
 30
0.0
 10
80.2078173214
 20
53.6108412095
 30
0.0
 10
80.2078173214
 20
53.652358982
 30
0.0
  0
SPLINE
  5
401
100
AcDbEntity
  8
0
100
AcDbSpline
 62
7
  6
CONTINUOUS
 70
0
 71
3
 72
10
 73
6
 74
0
 42
0.0000001
 43
0.0000001
 44
0.0000000001
 40
0.0
 40
0.0
 40
0.0
 40
0.0
 40
0.6665531115
 40
0.8765090183
 40
1.0
 40
1.0
 40
1.0
 40
1.0
 10
80.1697209794
 20
45.1539416163
 30
0.0
 10
80.1797485206
 20
45.1317162739
 30
0.0
 10
80.1928432427
 20
45.1022922914
 30
0.0
 10
80.2046534705
 20
45.0678334733
 30
0.0
 10
80.2078173214
 20
45.0558449928
 30
0.0
 10
80.2078173214
 20
45.0513276528
 30
0.0
  0
ELLIPSE
  5
402
100
AcDbEntity
  8
0
100
AcDbEllipse
 62
7
  6
CONTINUOUS
 10
106.029835327
 20
154.6800508885
 30
0.0
 11
3.0
 21
-0.0
 31
0.0
 40
1.0
 41
-0.0
 42
1.5707963268
  0
ELLIPSE
  5
403
100
AcDbEntity
  8
0
100
AcDbEllipse
 62
7
  6
CONTINUOUS
 10
126.8540786773
 20
154.6800508885
 30
0.0
 11
-0.0
 21
3.0
 31
0.0
 40
0.5773502692
 41
0.1060960822
 42
1.5707963256
  0
ENDSEC
  0
SECTION
  2
OBJECTS
  0
DICTIONARY
  5
404
100
AcDbDictionary
  3
ACAD_GROUP
350
405
  3
ACAD_MLINESTYLE
350
406
  0
DICTIONARY
  5
405
102
{ACAD_REACTORS
330
404
102
}
100
AcDbDictionary
  0
DICTIONARY
  5
406
102
{ACAD_REACTORS
330
404
102
}
100
AcDbDictionary
  3
STANDARD
350
407
  0
MLINESTYLE
  5
407
102
{ACAD_REACTORS
330
406
102
}
100
AcDbMlineStyle
  2
STANDARD
 70
0
  3

 62
256
 51
90.0
 52
90.0
 71
2
 49
0.5
 62
256
  6
BYLAYER
 49
-0.5
 62
256
  6
BYLAYER
  0
ENDSEC
  0
EOF
