999
DXF file: C:\Users\64ciro\Desktop\FILE 3D-2D\ARMATEC\SINGOLI\h34nll020_3077.dxf
999
Pro/ENGINEER 2017260 by Parametric Technology Corporation
  0
SECTION
  2
HEADER
  9
$ACADVER
  1
AC1014
  9
$DWGCODEPAGE
  3
ANSI_1252
  9
$EXTMAX
 10
297.0
 20
210.0
 30
0.0
  9
$EXTMIN
 10
0.0
 20
0.0
 30
0.0
  9
$LIMMIN
 10
0.0
 20
0.0
  9
$LIMMAX
 10
297.0
 20
210.0
  9
$VIEWCTR
 10
148.5
 20
105.0
  9
$VIEWSIZE
 40
210.0
  9
$CLAYER
  8
0
  9
$LTSCALE
 40
16.335
  9
$CELTYPE
  6
BYLAYER
  9
$DIMSCALE
 40
1.0
  9
$DIMASZ
 40
2.5
  9
$DIMEXO
 40
0.0625
  9
$DIMDLI
 40
11.286
  9
$DIMEXE
 40
0.125
  9
$DIMCEN
 40
2.673
  9
$DIMLFAC
 40
1.0
  9
$DIMBLK
  1
_CLOSED
  9
$DIMALT
 70
0
  9
$DIMALTF
 40
25.4
  9
$DIMTXT
 40
2.5
  9
$DIMTOL
 70
1
  9
$DIMLIM
 70
0
  9
$DIMTFAC
 40
1.0
  9
$DIMTP
 40
0.01
  9
$DIMTM
 40
0.01
  9
$DIMGAP
 40
0.625
  9
$AUNITS
 70
0
  9
$PDMODE
 70
3
  9
$PDSIZE
 40
0.3125
  9
$HANDSEED
  5
423
  9
$TILEMODE
 70
1
  9
$MEASUREMENT
 70
1
  0
ENDSEC
  0
SECTION
  2
CLASSES
  0
ENDSEC
  0
SECTION
  2
TABLES
  0
TABLE
  2
VPORT
  5
8
100
AcDbSymbolTable
 70
2
  0
VPORT
  5
1F4
100
AcDbSymbolTableRecord
100
AcDbViewportTableRecord
  2
*ACTIVE
 70
0
 10
0.0
 20
0.0
 11
1.0
 21
1.0
 12
148.5
 22
105.0
 13
0.0
 23
0.0
 14
1.0
 24
1.0
 15
0.0
 25
0.0
 16
0.0
 26
0.0
 36
1.0
 17
0.0
 27
0.0
 37
0.0
 40
210.0
 41
1.4142857143
 42
50.0
 43
0.0
 44
0.0
 50
0.0
 51
0.0
 71
0
 72
100
 73
1
 74
1
 75
0
 76
0
 77
0
 78
0
  0
ENDTAB
  0
TABLE
  2
LTYPE
  5
5
100
AcDbSymbolTable
 70
6
  0
LTYPE
  5
14
100
AcDbSymbolTableRecord
100
AcDbLinetypeTableRecord
  2
BYBLOCK
 70
0
  3

 72
65
 73
0
 40
0.0
  0
LTYPE
  5
15
100
AcDbSymbolTableRecord
100
AcDbLinetypeTableRecord
  2
BYLAYER
 70
0
  3

 72
65
 73
0
 40
0.0
  0
LTYPE
  5
16
100
AcDbSymbolTableRecord
100
AcDbLinetypeTableRecord
  2
CONTINUOUS
 70
64
  3
Solid line
 72
65
 73
0
 40
0.0
  0
LTYPE
  5
1F5
100
AcDbSymbolTableRecord
100
AcDbLinetypeTableRecord
  2
CENTER
 70
64
  3
____ _ ____ _ ____ _ ____ _ ____ _ ____ _ ____
 72
65
 73
4
 40
0.6
 49
0.375
 74
0
 49
-0.075
 74
0
 49
0.075
 74
0
 49
-0.075
 74
0
  0
LTYPE
  5
1F6
100
AcDbSymbolTableRecord
100
AcDbLinetypeTableRecord
  2
HIDDEN
 70
64
  3
- - - - - - - - - - - - - - - - - - - -
 72
65
 73
2
 40
0.2
 49
0.1
 74
0
 49
-0.1
 74
0
  0
LTYPE
  5
1F7
100
AcDbSymbolTableRecord
100
AcDbLinetypeTableRecord
  2
PHANTOM
 70
64
  3
_____ _ _ _____ _ _ _____ _ _ _____
 72
65
 73
6
 40
0.8
 49
0.45
 74
0
 49
-0.05
 74
0
 49
0.1
 74
0
 49
-0.05
 74
0
 49
0.1
 74
0
 49
-0.05
 74
0
  0
LTYPE
  5
1F8
100
AcDbSymbolTableRecord
100
AcDbLinetypeTableRecord
  2
DOT
 70
64
  3
. . . . . . . . . . . . . . . . . . . .
 72
65
 73
2
 40
0.2
 49
0.1
 74
0
 49
-0.1
 74
0
  0
LTYPE
  5
1F9
100
AcDbSymbolTableRecord
100
AcDbLinetypeTableRecord
  2
DASHED
 70
64
  3
- - - - - - - - - - - - - - - - - - - -
 72
65
 73
2
 40
0.2
 49
0.1
 74
0
 49
-0.1
 74
0
  0
ENDTAB
  0
TABLE
  2
LAYER
  5
2
100
AcDbSymbolTable
 70
36
  0
LAYER
  5
10
100
AcDbSymbolTableRecord
100
AcDbLayerTableRecord
  2
0
 70
0
 62
7
  6
CONTINUOUS
  0
LAYER
  5
1FA
100
AcDbSymbolTableRecord
100
AcDbLayerTableRecord
  2
DEFAULT_1
 70
0
 62
7
  6
CENTER
  0
LAYER
  5
1FB
100
AcDbSymbolTableRecord
100
AcDbLayerTableRecord
  2
DEFAULT_2
 70
0
 62
8
  6
HIDDEN
  0
LAYER
  5
1FC
100
AcDbSymbolTableRecord
100
AcDbLayerTableRecord
  2
DEFAULT_3
 70
0
 62
7
  6
PHANTOM
  0
LAYER
  5
1FD
100
AcDbSymbolTableRecord
100
AcDbLayerTableRecord
  2
ASSI
 70
0
 62
7
  6
CONTINUOUS
  0
LAYER
  5
1FE
100
AcDbSymbolTableRecord
100
AcDbLayerTableRecord
  2
COSMETICA
 70
0
 62
7
  6
CONTINUOUS
  0
LAYER
  5
1FF
100
AcDbSymbolTableRecord
100
AcDbLayerTableRecord
  2
CSYS
 70
0
 62
7
  6
CONTINUOUS
  0
LAYER
  5
200
100
AcDbSymbolTableRecord
100
AcDbLayerTableRecord
  2
CURVE
 70
0
 62
7
  6
CONTINUOUS
  0
LAYER
  5
201
100
AcDbSymbolTableRecord
100
AcDbLayerTableRecord
  2
DETTAGLI
 70
0
 62
7
  6
CONTINUOUS
  0
LAYER
  5
202
100
AcDbSymbolTableRecord
100
AcDbLayerTableRecord
  2
FILETTI
 70
0
 62
7
  6
CONTINUOUS
  0
LAYER
  5
203
100
AcDbSymbolTableRecord
100
AcDbLayerTableRecord
  2
GEOM
 70
0
 62
7
  6
CONTINUOUS
  0
LAYER
  5
204
100
AcDbSymbolTableRecord
100
AcDbLayerTableRecord
  2
GEOMETRIA_SOLIDA
 70
0
 62
7
  6
CONTINUOUS
  0
LAYER
  5
205
100
AcDbSymbolTableRecord
100
AcDbLayerTableRecord
  2
LAY0001
 70
0
 62
7
  6
CONTINUOUS
  0
LAYER
  5
206
100
AcDbSymbolTableRecord
100
AcDbLayerTableRecord
  2
LAY0002
 70
0
 62
7
  6
CONTINUOUS
  0
LAYER
  5
207
100
AcDbSymbolTableRecord
100
AcDbLayerTableRecord
  2
LAY0003
 70
0
 62
7
  6
CONTINUOUS
  0
LAYER
  5
208
100
AcDbSymbolTableRecord
100
AcDbLayerTableRecord
  2
NOGEOM
 70
0
 62
7
  6
CONTINUOUS
  0
LAYER
  5
209
100
AcDbSymbolTableRecord
100
AcDbLayerTableRecord
  2
PIANI
 70
0
 62
7
  6
CONTINUOUS
  0
LAYER
  5
20A
100
AcDbSymbolTableRecord
100
AcDbLayerTableRecord
  2
QUOTE
 70
0
 62
7
  6
CONTINUOUS
  0
LAYER
  5
20B
100
AcDbSymbolTableRecord
100
AcDbLayerTableRecord
  2
RACCORDI
 70
0
 62
7
  6
CONTINUOUS
  0
LAYER
  5
20C
100
AcDbSymbolTableRecord
100
AcDbLayerTableRecord
  2
SKETCH
 70
0
 62
7
  6
CONTINUOUS
  0
LAYER
  5
20D
100
AcDbSymbolTableRecord
100
AcDbLayerTableRecord
  2
TABELLE
 70
0
 62
7
  6
CONTINUOUS
  0
ENDTAB
  0
TABLE
  2
STYLE
  5
3
100
AcDbSymbolTable
 70
1
  0
STYLE
  5
11
100
AcDbSymbolTableRecord
100
AcDbTextStyleTableRecord
  2
STANDARD
 70
0
 40
0.0
 41
1.0
 50
0.0
 71
0
 42
0.2
  3
arial.ttf
  4

  0
STYLE
  5
20E
100
AcDbSymbolTableRecord
100
AcDbTextStyleTableRecord
  2
TEXTSTYLE_1
 70
0
 40
0.0
 41
0.8
 50
0.0
 71
0
 42
0.2
  3
gdt
  4

  0
ENDTAB
  0
TABLE
  2
VIEW
  5
6
100
AcDbSymbolTable
 70
0
  0
ENDTAB
  0
TABLE
  2
UCS
  5
7
100
AcDbSymbolTable
 70
0
  0
ENDTAB
  0
TABLE
  2
APPID
  5
9
100
AcDbSymbolTable
 70
1
  0
APPID
  5
20F
100
AcDbSymbolTableRecord
100
AcDbRegAppTableRecord
  2
ACAD
 70
0
  0
ENDTAB
  0
TABLE
  2
BLOCK_RECORD
  5
1
100
AcDbSymbolTable
 70
0
  0
BLOCK_RECORD
  5
1F
100
AcDbSymbolTableRecord
100
AcDbBlockTableRecord
  2
*MODEL_SPACE
  0
BLOCK_RECORD
  5
1B
100
AcDbSymbolTableRecord
100
AcDbBlockTableRecord
  2
*PAPER_SPACE
  0
ENDTAB
  0
TABLE
  2
DIMSTYLE
  5
A
100
AcDbSymbolTable
 70
1
  0
DIMSTYLE
105
210
100
AcDbSymbolTableRecord
100
AcDbDimStyleTableRecord
  2
STANDARD
 70
0
  3

  4

  5
_CLOSED
  6
_CLOSED
  7
_CLOSED
 40
1.0
 41
2.5
 42
0.0625
 43
0.38
 44
0.125
 45
0.0
 46
0.0
 47
0.01
 48
0.01
140
2.5
141
0.09
142
0.0
143
25.4
144
1.0
145
0.0
146
1.0
147
0.625
 71
1.0
 72
0.0
 73
0
 74
0
 75
0
 76
0
 77
1
 78
8
 79
2
170
0
171
1
172
0
173
0
174
0
175
0
176
0
177
0
178
0
270
2
179
2
271
2
272
2
273
2
274
2
275
0
280
0
281
0
282
0
283
1
284
8
285
0
286
0
287
3
288
0
340
11
  0
ENDTAB
  0
ENDSEC
  0
SECTION
  2
BLOCKS
  0
BLOCK
  5
20
100
AcDbEntity
  8
0
100
AcDbBlockBegin
  2
*MODEL_SPACE
 70
0
 10
0.0
 20
0.0
 30
0.0
  3
*MODEL_SPACE
  1

  0
ENDBLK
  5
21
100
AcDbEntity
  8
0
100
AcDbBlockEnd
  0
BLOCK
  5
1C
100
AcDbEntity
  8
0
100
AcDbBlockBegin
  2
*PAPER_SPACE
 70
0
 10
0.0
 20
0.0
 30
0.0
  3
*PAPER_SPACE
  1

  0
ENDBLK
  5
1D
100
AcDbEntity
  8
0
100
AcDbBlockEnd
  0
ENDSEC
  0
SECTION
  2
ENTITIES
  0
LINE
  5
211
100
AcDbEntity
  8
0
100
AcDbLine
 62
7
  6
CONTINUOUS
 10
0.0
 20
0.0
 11
0.0
 21
210.0
  0
LINE
  5
212
100
AcDbEntity
  8
0
100
AcDbLine
 62
7
  6
CONTINUOUS
 10
0.0
 20
0.0
 11
297.0
 21
0.0
  0
LINE
  5
213
100
AcDbEntity
  8
0
100
AcDbLine
 62
7
  6
CONTINUOUS
 10
0.0
 20
210.0
 11
297.0
 21
210.0
  0
LINE
  5
214
100
AcDbEntity
  8
0
100
AcDbLine
 62
7
  6
CONTINUOUS
 10
297.0
 20
0.0
 11
297.0
 21
210.0
  0
LINE
  5
215
100
AcDbEntity
  8
GEOM
100
AcDbLine
 62
7
  6
CONTINUOUS
 10
84.8989771481
 20
51.921462259
 11
85.9093401192
 21
50.171462259
  0
LINE
  5
216
100
AcDbEntity
  8
0
100
AcDbLine
 62
7
  6
CONTINUOUS
 10
102.0383169764
 20
51.7321224308
 11
104.2596373199
 21
49.5108020872
  0
LINE
  5
217
100
AcDbEntity
  8
GEOM
100
AcDbLine
 62
7
  6
CONTINUOUS
 10
84.8989771481
 20
51.921462259
 11
84.8989771481
 21
82.421462259
  0
LINE
  5
218
100
AcDbEntity
  8
GEOM
100
AcDbLine
 62
7
  6
CONTINUOUS
 10
85.9093401192
 20
50.171462259
 11
85.9093401192
 21
50.2570084894
  0
LINE
  5
219
100
AcDbEntity
  8
GEOM
100
AcDbLine
 62
7
  6
CONTINUOUS
 10
85.9093401192
 20
57.2391285113
 11
85.9093401192
 21
60.1893422371
  0
LINE
  5
21A
100
AcDbEntity
  8
GEOM
100
AcDbLine
 62
7
  6
CONTINUOUS
 10
85.9093401192
 20
74.1535822809
 11
85.9093401192
 21
77.1037960067
  0
LINE
  5
21B
100
AcDbEntity
  8
GEOM
100
AcDbLine
 62
7
  6
CONTINUOUS
 10
85.9093401192
 20
84.0859160286
 11
85.9093401192
 21
84.171462259
  0
LINE
  5
21C
100
AcDbEntity
  8
0
100
AcDbLine
 62
7
  6
CONTINUOUS
 10
101.6158591563
 20
146.771462259
 11
100.3989771481
 21
145.4665160696
  0
LINE
  5
21D
100
AcDbEntity
  8
0
100
AcDbLine
 62
7
  6
CONTINUOUS
 10
102.2873994267
 20
146.771462259
 11
100.3989771481
 21
144.7463772962
  0
LINE
  5
21E
100
AcDbEntity
  8
0
100
AcDbLine
 62
7
  6
CONTINUOUS
 10
109.2801749946
 20
154.6141966691
 11
109.8989771481
 21
154.971462259
  0
LINE
  5
21F
100
AcDbEntity
  8
0
100
AcDbLine
 62
7
  6
CONTINUOUS
 10
121.5202974917
 20
48.171462259
 11
130.048873379
 21
48.171462259
  0
LINE
  5
220
100
AcDbEntity
  8
0
100
AcDbLine
 62
7
  6
CONTINUOUS
 10
105.3202974917
 20
49.071462259
 11
119.3776568046
 21
49.071462259
  0
LINE
  5
221
100
AcDbEntity
  8
0
100
AcDbLine
 62
7
  6
CONTINUOUS
 10
142.0329517443
 20
50.171462259
 11
131.4770213858
 21
50.171462259
  0
LINE
  5
222
100
AcDbEntity
  8
0
100
AcDbLine
 62
7
  6
CONTINUOUS
 10
95.5556014752
 20
50.171462259
 11
85.9093401192
 21
50.171462259
  0
LINE
  5
223
100
AcDbEntity
  8
GEOM
100
AcDbLine
 62
7
  6
CONTINUOUS
 10
142.0329517443
 20
50.2570084894
 11
131.4926408165
 21
50.2570084894
  0
LINE
  5
224
100
AcDbEntity
  8
GEOM
100
AcDbLine
 62
7
  6
CONTINUOUS
 10
95.5293943295
 20
50.2570084894
 11
85.9093401192
 21
50.2570084894
  0
LINE
  5
225
100
AcDbEntity
  8
0
100
AcDbLine
 62
7
  6
CONTINUOUS
 10
97.4608573635
 20
52.171462259
 11
100.9776568046
 21
52.171462259
  0
LINE
  5
226
100
AcDbEntity
  8
0
100
AcDbLine
 62
7
  6
CONTINUOUS
 10
120.4383169764
 20
48.6321224308
 11
120.4596373199
 21
48.6108020872
  0
LINE
  5
227
100
AcDbEntity
  8
GEOM
100
AcDbLine
 62
7
  6
CONTINUOUS
 10
100.0489771481
 20
133.5848597186
 11
100.1989771481
 21
133.8446673398
  0
LINE
  5
228
100
AcDbEntity
  8
0
100
AcDbLine
 62
7
  6
CONTINUOUS
 10
109.8851743467
 20
146.7576594575
 11
109.4989771481
 21
146.371462259
  0
LINE
  5
229
100
AcDbEntity
  8
0
100
AcDbLine
 62
7
  6
CONTINUOUS
 10
106.5989771481
 20
143.171462259
 11
106.5371314229
 21
143.1096165338
  0
LINE
  5
22A
100
AcDbEntity
  8
0
100
AcDbLine
 62
7
  6
CONTINUOUS
 10
106.1428534199
 20
142.7153385307
 11
105.8989771481
 21
142.471462259
  0
LINE
  5
22B
100
AcDbEntity
  8
0
100
AcDbLine
 62
7
  6
CONTINUOUS
 10
109.2801749946
 20
151.7688972075
 11
108.1989771481
 21
151.1446673398
  0
LINE
  5
22C
100
AcDbEntity
  8
0
100
AcDbLine
 62
7
  6
CONTINUOUS
 10
107.3989771481
 20
146.171462259
 11
106.6489771481
 21
145.7384495571
  0
LINE
  5
22D
100
AcDbEntity
  8
GEOM
100
AcDbLine
 62
7
  6
CONTINUOUS
 10
142.0329517443
 20
57.2391285113
 11
131.4926408268
 21
57.2391285113
  0
LINE
  5
22E
100
AcDbEntity
  8
GEOM
100
AcDbLine
 62
7
  6
CONTINUOUS
 10
95.5293943295
 20
57.2391285113
 11
85.9093401192
 21
57.2391285113
  0
LINE
  5
22F
100
AcDbEntity
  8
0
100
AcDbLine
 62
7
  6
CONTINUOUS
 10
95.9886141771
 20
83.921462259
 11
96.7680370405
 21
82.571462259
  0
LINE
  5
230
100
AcDbEntity
  8
0
100
AcDbLine
 62
7
  6
CONTINUOUS
 10
107.1589771481
 20
68.231462259
 11
108.5319283536
 21
65.5368937997
  0
LINE
  5
231
100
AcDbEntity
  8
0
100
AcDbLine
 62
7
  6
CONTINUOUS
 10
107.8884892026
 20
68.231462259
 11
108.8966843808
 21
66.2527678106
  0
LINE
  5
232
100
AcDbEntity
  8
0
100
AcDbLine
 62
7
  6
CONTINUOUS
 10
95.5556014752
 20
77.1024782861
 11
95.5556014752
 21
74.1550625682
  0
LINE
  5
233
100
AcDbEntity
  8
0
100
AcDbLine
 62
7
  6
CONTINUOUS
 10
95.5556014752
 20
60.1878619206
 11
95.5556014752
 21
57.2404462065
  0
LINE
  5
234
100
AcDbEntity
  8
0
100
AcDbLine
 62
7
  6
CONTINUOUS
 10
95.5556014752
 20
50.171462259
 11
95.5556014752
 21
50.2568458894
  0
LINE
  5
235
100
AcDbEntity
  8
0
100
AcDbLine
 62
7
  6
CONTINUOUS
 10
95.5556014752
 20
84.0860786258
 11
95.5556014752
 21
84.171462259
  0
LINE
  5
236
100
AcDbEntity
  8
0
100
AcDbLine
 62
7
  6
CONTINUOUS
 10
95.9886141771
 20
76.8696627317
 11
95.9886141771
 21
74.1494732221
  0
LINE
  5
237
100
AcDbEntity
  8
0
100
AcDbLine
 62
7
  6
CONTINUOUS
 10
95.9886141771
 20
60.1934514437
 11
95.9886141771
 21
57.4732619152
  0
LINE
  5
238
100
AcDbEntity
  8
0
100
AcDbLine
 62
7
  6
CONTINUOUS
 10
95.9886141771
 20
50.421462259
 11
95.9886141771
 21
50.4952509761
  0
LINE
  5
239
100
AcDbEntity
  8
0
100
AcDbLine
 62
7
  6
CONTINUOUS
 10
95.9886141771
 20
83.8476735554
 11
95.9886141771
 21
83.921462259
  0
LINE
  5
23A
100
AcDbEntity
  8
0
100
AcDbLine
 62
7
  6
CONTINUOUS
 10
96.768034366
 20
52.8858137198
 11
96.7680370405
 21
51.771462259
  0
LINE
  5
23B
100
AcDbEntity
  8
0
100
AcDbLine
 62
7
  6
CONTINUOUS
 10
96.768034422
 20
79.2952829701
 11
96.7680345184
 21
69.3332912204
  0
LINE
  5
23C
100
AcDbEntity
  8
0
100
AcDbLine
 62
7
  6
CONTINUOUS
 10
96.7680343625
 20
65.0096340871
 11
96.768034568
 21
55.0476423963
  0
LINE
  5
23D
100
AcDbEntity
  8
0
100
AcDbLine
 62
7
  6
CONTINUOUS
 10
96.7680370405
 20
82.571462259
 11
96.7680345069
 21
81.4571110299
  0
LINE
  5
23E
100
AcDbEntity
  8
0
100
AcDbLine
 62
7
  6
CONTINUOUS
 10
97.4608516458
 20
53.256924104
 11
97.4608573635
 21
52.171462259
  0
LINE
  5
23F
100
AcDbEntity
  8
0
100
AcDbLine
 62
7
  6
CONTINUOUS
 10
97.4608518639
 20
78.9804545178
 11
97.4608521552
 21
69.2770091049
  0
LINE
  5
240
100
AcDbEntity
  8
0
100
AcDbLine
 62
7
  6
CONTINUOUS
 10
97.4608516624
 20
65.0659167835
 11
97.4608523259
 21
55.3624707919
  0
LINE
  5
241
100
AcDbEntity
  8
0
100
AcDbLine
 62
7
  6
CONTINUOUS
 10
97.4608573635
 20
82.171462259
 11
97.4608520994
 21
81.0860008842
  0
LINE
  5
242
100
AcDbEntity
  8
GEOM
100
AcDbLine
 62
7
  6
CONTINUOUS
 10
99.8989771481
 20
136.871462259
 11
99.8989771481
 21
133.8446673398
  0
LINE
  5
243
100
AcDbEntity
  8
GEOM
100
AcDbLine
 62
7
  6
CONTINUOUS
 10
100.1989771481
 20
133.8446673398
 11
100.1989771481
 21
137.171462259
  0
LWPOLYLINE
  5
244
100
AcDbEntity
  8
0
100
AcDbPolyline
 62
7
  6
CONTINUOUS
 90
6
 70
0
 10
106.5945487397
 20
141.6499363192
 10
106.5868209726
 20
141.6322875078
 10
106.5784406362
 20
141.619799617
 10
106.5703983346
 20
141.6109590677
 10
106.563539244
 20
141.6051183043
 10
106.5615503793
 20
141.603680942
  0
LINE
  5
245
100
AcDbEntity
  8
GEOM
100
AcDbLine
 62
7
  6
CONTINUOUS
 10
104.4813886498
 20
131.3722159065
 11
104.6847239113
 21
131.5843479769
  0
LINE
  5
246
100
AcDbEntity
  8
GEOM
100
AcDbLine
 62
7
  6
CONTINUOUS
 10
104.2305738118
 20
131.6128836152
 11
104.4343332106
 21
131.8250156436
  0
LWPOLYLINE
  5
247
100
AcDbEntity
  8
0
100
AcDbPolyline
 62
7
  6
CONTINUOUS
 90
3
 70
0
 10
106.5615503793
 20
141.603680942
 10
106.5589263011
 20
141.6019620954
 10
106.5566853966
 20
141.600673411
  0
LWPOLYLINE
  5
248
100
AcDbEntity
  8
0
100
AcDbPolyline
 62
7
  6
CONTINUOUS
 90
3
 70
0
 10
106.5611086638
 20
142.9393776537
 10
106.5586306484
 20
142.937782218
 10
106.5564414319
 20
142.9365454722
  0
LINE
  5
249
100
AcDbEntity
  8
0
100
AcDbLine
 62
7
  6
CONTINUOUS
 10
106.5564696155
 20
142.9365601754
 11
106.177024015
 21
142.7387437412
  0
LINE
  5
24A
100
AcDbEntity
  8
0
100
AcDbLine
 62
7
  6
CONTINUOUS
 10
106.5566853966
 20
141.600673411
 11
105.9093843092
 21
141.2632312486
  0
LINE
  5
24B
100
AcDbEntity
  8
GEOM
100
AcDbLine
 62
7
  6
CONTINUOUS
 10
142.0329517443
 20
60.1893422371
 11
131.4926407895
 21
60.1893422371
  0
LINE
  5
24C
100
AcDbEntity
  8
GEOM
100
AcDbLine
 62
7
  6
CONTINUOUS
 10
95.5293943295
 20
60.1893422371
 11
85.9093401192
 21
60.1893422371
  0
LINE
  5
24D
100
AcDbEntity
  8
0
100
AcDbLine
 62
7
  6
CONTINUOUS
 10
105.5989771481
 20
63.291462259
 11
118.5989771481
 21
63.291462259
  0
LINE
  5
24E
100
AcDbEntity
  8
0
100
AcDbLine
 62
7
  6
CONTINUOUS
 10
106.2489771481
 20
63.941462259
 11
117.9489771481
 21
63.941462259
  0
LINE
  5
24F
100
AcDbEntity
  8
0
100
AcDbLine
 62
7
  6
CONTINUOUS
 10
100.3989771481
 20
132.771462259
 11
100.3989771481
 21
133.3827871244
  0
LINE
  5
250
100
AcDbEntity
  8
0
100
AcDbLine
 62
7
  6
CONTINUOUS
 10
100.3989771481
 20
137.171462259
 11
100.3989771481
 21
146.771462259
  0
LINE
  5
251
100
AcDbEntity
  8
0
100
AcDbLine
 62
7
  6
CONTINUOUS
 10
100.9776568046
 20
82.171462259
 11
100.9776568046
 21
52.171462259
  0
LINE
  5
252
100
AcDbEntity
  8
0
100
AcDbLine
 62
7
  6
CONTINUOUS
 10
102.0383169764
 20
82.6108020872
 11
102.0383169764
 21
51.7321224308
  0
LINE
  5
253
100
AcDbEntity
  8
0
100
AcDbLine
 62
7
  6
CONTINUOUS
 10
103.3989771481
 20
137.171462259
 11
103.3989771481
 21
146.271462259
  0
LINE
  5
254
100
AcDbEntity
  8
0
100
AcDbLine
 62
7
  6
CONTINUOUS
 10
103.8989771481
 20
140.871462259
 11
103.8989771481
 21
137.471462259
  0
LINE
  5
255
100
AcDbEntity
  8
GEOM
100
AcDbLine
 62
7
  6
CONTINUOUS
 10
103.8989771481
 20
137.471462259
 11
103.8989771481
 21
140.871462259
  0
LINE
  5
256
100
AcDbEntity
  8
GEOM
100
AcDbLine
 62
7
  6
CONTINUOUS
 10
103.9868633473
 20
136.871462259
 11
103.9868633473
 21
132.1785690402
  0
LINE
  5
257
100
AcDbEntity
  8
0
100
AcDbLine
 62
7
  6
CONTINUOUS
 10
104.2596373199
 20
49.5108020872
 11
104.2596373199
 21
84.8321224308
  0
LINE
  5
258
100
AcDbEntity
  8
GEOM
100
AcDbLine
 62
7
  6
CONTINUOUS
 10
104.275565691
 20
136.871462259
 11
104.275565691
 21
132.1785690402
  0
LINE
  5
259
100
AcDbEntity
  8
0
100
AcDbLine
 62
7
  6
CONTINUOUS
 10
104.6989771481
 20
130.7269758861
 11
104.6989771481
 21
85.674438965
  0
LINE
  5
25A
100
AcDbEntity
  8
GEOM
100
AcDbLine
 62
7
  6
CONTINUOUS
 10
104.6989771481
 20
85.674438965
 11
104.6989771481
 21
130.7269758861
  0
LINE
  5
25B
100
AcDbEntity
  8
0
100
AcDbLine
 62
7
  6
CONTINUOUS
 10
105.3202974917
 20
49.071462259
 11
105.3202974917
 21
84.4997159613
  0
LINE
  5
25C
100
AcDbEntity
  8
0
100
AcDbLine
 62
7
  6
CONTINUOUS
 10
105.5989771481
 20
71.091462259
 11
105.5989771481
 21
63.291462259
  0
LINE
  5
25D
100
AcDbEntity
  8
0
100
AcDbLine
 62
7
  6
CONTINUOUS
 10
105.8989771481
 20
142.471462259
 11
105.8989771481
 21
142.1025411771
  0
LINE
  5
25E
100
AcDbEntity
  8
0
100
AcDbLine
 62
7
  6
CONTINUOUS
 10
105.8989771481
 20
141.2523842353
 11
105.8989771481
 21
141.171462259
  0
LINE
  5
25F
100
AcDbEntity
  8
0
100
AcDbLine
 62
7
  6
CONTINUOUS
 10
104.6984160963
 20
85.6409086274
 11
104.6989800768
 21
85.6744389649
  0
LINE
  5
260
100
AcDbEntity
  8
0
100
AcDbLine
 62
7
  6
CONTINUOUS
 10
104.6983726527
 20
85.6396396487
 11
104.6984160963
 21
85.6409086274
  0
LINE
  5
261
100
AcDbEntity
  8
0
100
AcDbLine
 62
7
  6
CONTINUOUS
 10
113.8989771481
 20
149.971462259
 11
113.8474905887
 21
149.771462259
  0
LINE
  5
262
100
AcDbEntity
  8
0
100
AcDbLine
 62
7
  6
CONTINUOUS
 10
115.7530791144
 20
149.971462259
 11
115.6731413652
 21
149.771462259
  0
LINE
  5
263
100
AcDbEntity
  8
0
100
AcDbLine
 62
7
  6
CONTINUOUS
 10
119.8989771481
 20
149.971462259
 11
119.7987524942
 21
149.771462259
  0
LINE
  5
264
100
AcDbEntity
  8
0
100
AcDbLine
 62
7
  6
CONTINUOUS
 10
117.4256886619
 20
149.971462259
 11
117.3251245868
 21
149.771462259
  0
LINE
  5
265
100
AcDbEntity
  8
0
100
AcDbLine
 62
7
  6
CONTINUOUS
 10
119.6053162459
 20
149.971462259
 11
119.4940867139
 21
149.771462259
  0
LINE
  5
266
100
AcDbEntity
  8
0
100
AcDbLine
 62
7
  6
CONTINUOUS
 10
118.7530791144
 20
149.971462259
 11
118.6417326258
 21
149.771462259
  0
LINE
  5
267
100
AcDbEntity
  8
0
100
AcDbLine
 62
7
  6
CONTINUOUS
 10
108.8019599648
 20
64.921462259
 11
109.5314720192
 21
64.921462259
  0
LINE
  5
268
100
AcDbEntity
  8
0
100
AcDbLine
 62
7
  6
CONTINUOUS
 10
112.1280012571
 20
64.921462259
 11
112.7780012571
 21
64.921462259
  0
LINE
  5
269
100
AcDbEntity
  8
0
100
AcDbLine
 62
7
  6
CONTINUOUS
 10
113.6880012571
 20
64.921462259
 11
114.3380012571
 21
64.921462259
  0
LINE
  5
26A
100
AcDbEntity
  8
0
100
AcDbLine
 62
7
  6
CONTINUOUS
 10
115.7680012571
 20
67.171462259
 11
116.1580012571
 21
67.171462259
  0
LINE
  5
26B
100
AcDbEntity
  8
0
100
AcDbLine
 62
7
  6
CONTINUOUS
 10
116.1580012571
 20
67.841462259
 11
116.8080012571
 21
67.841462259
  0
LINE
  5
26C
100
AcDbEntity
  8
0
100
AcDbLine
 62
7
  6
CONTINUOUS
 10
107.1589771481
 20
68.231462259
 11
107.8884892026
 21
68.231462259
  0
LINE
  5
26D
100
AcDbEntity
  8
0
100
AcDbLine
 62
7
  6
CONTINUOUS
 10
110.4884892026
 20
68.231462259
 11
111.2180012571
 21
68.231462259
  0
LINE
  5
26E
100
AcDbEntity
  8
0
100
AcDbLine
 62
7
  6
CONTINUOUS
 10
112.1280012571
 20
68.231462259
 11
112.7780012571
 21
68.231462259
  0
LINE
  5
26F
100
AcDbEntity
  8
0
100
AcDbLine
 62
7
  6
CONTINUOUS
 10
113.6880012571
 20
68.231462259
 11
114.3380012571
 21
68.231462259
  0
LINE
  5
270
100
AcDbEntity
  8
0
100
AcDbLine
 62
7
  6
CONTINUOUS
 10
112.1280012571
 20
68.881462259
 11
112.7780012571
 21
68.881462259
  0
LINE
  5
271
100
AcDbEntity
  8
0
100
AcDbLine
 62
7
  6
CONTINUOUS
 10
112.1280012571
 20
69.531462259
 11
112.7780012571
 21
69.531462259
  0
LINE
  5
272
100
AcDbEntity
  8
0
100
AcDbLine
 62
7
  6
CONTINUOUS
 10
106.2489771481
 20
70.441462259
 11
106.2489771481
 21
63.941462259
  0
LINE
  5
273
100
AcDbEntity
  8
0
100
AcDbLine
 62
7
  6
CONTINUOUS
 10
106.6489771481
 20
145.7384495571
 11
106.6489771481
 21
143.171462259
  0
LINE
  5
274
100
AcDbEntity
  8
0
100
AcDbLine
 62
7
  6
CONTINUOUS
 10
106.6641579512
 20
145.7384495571
 11
106.6641579512
 21
143.171462259
  0
LINE
  5
275
100
AcDbEntity
  8
0
100
AcDbLine
 62
7
  6
CONTINUOUS
 10
107.8989771481
 20
150.6250520975
 11
107.8989771481
 21
149.971462259
  0
LINE
  5
276
100
AcDbEntity
  8
0
100
AcDbLine
 62
7
  6
CONTINUOUS
 10
109.2801749946
 20
151.7688972075
 11
109.2801749946
 21
154.6141966691
  0
LINE
  5
277
100
AcDbEntity
  8
0
100
AcDbLine
 62
7
  6
CONTINUOUS
 10
109.4989771481
 20
146.371462259
 11
109.4989771481
 21
146.171462259
  0
LINE
  5
278
100
AcDbEntity
  8
0
100
AcDbLine
 62
7
  6
CONTINUOUS
 10
109.8754660959
 20
145.7384495571
 11
109.8754660959
 21
143.171462259
  0
LINE
  5
279
100
AcDbEntity
  8
0
100
AcDbLine
 62
7
  6
CONTINUOUS
 10
110.6876690035
 20
145.7384495571
 11
110.6876690035
 21
143.171462259
  0
LINE
  5
27A
100
AcDbEntity
  8
0
100
AcDbLine
 62
7
  6
CONTINUOUS
 10
111.4183638933
 20
146.771462259
 11
111.4183638933
 21
145.8205160691
  0
LINE
  5
27B
100
AcDbEntity
  8
0
100
AcDbLine
 62
7
  6
CONTINUOUS
 10
111.5895760714
 20
151.7688972075
 11
111.5895760714
 21
154.6141966691
  0
LINE
  5
27C
100
AcDbEntity
  8
0
100
AcDbLine
 62
7
  6
CONTINUOUS
 10
104.6984160963
 20
85.6409086274
 11
104.6911706908
 21
85.5499281096
  0
LINE
  5
27D
100
AcDbEntity
  8
0
100
AcDbLine
 62
7
  6
CONTINUOUS
 10
112.0448751819
 20
149.971462259
 11
112.0268796753
 21
149.771462259
  0
LINE
  5
27E
100
AcDbEntity
  8
0
100
AcDbLine
 62
7
  6
CONTINUOUS
 10
104.6912491461
 20
85.5503792455
 11
104.6746331335
 21
85.4551700157
  0
LINE
  5
27F
100
AcDbEntity
  8
GEOM
100
AcDbLine
 62
7
  6
CONTINUOUS
 10
85.9093401192
 20
84.171462259
 11
84.8989771481
 21
82.421462259
  0
LINE
  5
280
100
AcDbEntity
  8
0
100
AcDbLine
 62
7
  6
CONTINUOUS
 10
146.7701310276
 20
166.3426126978
 11
133.1650215913
 21
150.1286746493
  0
LINE
  5
281
100
AcDbEntity
  8
0
100
AcDbLine
 62
7
  6
CONTINUOUS
 10
106.2489771481
 20
70.441462259
 11
117.9489771481
 21
70.441462259
  0
LINE
  5
282
100
AcDbEntity
  8
0
100
AcDbLine
 62
7
  6
CONTINUOUS
 10
105.5989771481
 20
71.091462259
 11
118.5989771481
 21
71.091462259
  0
LINE
  5
283
100
AcDbEntity
  8
GEOM
100
AcDbLine
 62
7
  6
CONTINUOUS
 10
142.0329517443
 20
74.1535822809
 11
131.4926407894
 21
74.1535822809
  0
LINE
  5
284
100
AcDbEntity
  8
GEOM
100
AcDbLine
 62
7
  6
CONTINUOUS
 10
95.5293943295
 20
74.1535822809
 11
85.9093401192
 21
74.1535822809
  0
LINE
  5
285
100
AcDbEntity
  8
0
100
AcDbLine
 62
7
  6
CONTINUOUS
 10
110.3722656344
 20
149.971462259
 11
110.3895227063
 21
149.771462259
  0
LINE
  5
286
100
AcDbEntity
  8
0
100
AcDbLine
 62
7
  6
CONTINUOUS
 10
112.1280012571
 20
69.531462259
 11
112.1280012571
 21
68.881462259
  0
LINE
  5
287
100
AcDbEntity
  8
0
100
AcDbLine
 62
7
  6
CONTINUOUS
 10
112.1280012571
 20
68.231462259
 11
112.1280012571
 21
64.921462259
  0
LINE
  5
288
100
AcDbEntity
  8
0
100
AcDbLine
 62
7
  6
CONTINUOUS
 10
112.7780012571
 20
69.531462259
 11
112.7780012571
 21
68.881462259
  0
LINE
  5
289
100
AcDbEntity
  8
0
100
AcDbLine
 62
7
  6
CONTINUOUS
 10
112.7780012571
 20
68.231462259
 11
112.7780012571
 21
64.921462259
  0
LINE
  5
28A
100
AcDbEntity
  8
0
100
AcDbLine
 62
7
  6
CONTINUOUS
 10
113.6880012571
 20
68.231462259
 11
113.6880012571
 21
67.0033092591
  0
LINE
  5
28B
100
AcDbEntity
  8
0
100
AcDbLine
 62
7
  6
CONTINUOUS
 10
113.6880012571
 20
65.091462259
 11
113.6880012571
 21
64.921462259
  0
LINE
  5
28C
100
AcDbEntity
  8
0
100
AcDbLine
 62
7
  6
CONTINUOUS
 10
114.3380012571
 20
68.231462259
 11
114.3380012571
 21
67.581462259
  0
LINE
  5
28D
100
AcDbEntity
  8
0
100
AcDbLine
 62
7
  6
CONTINUOUS
 10
116.1580012571
 20
67.841462259
 11
116.1580012571
 21
67.171462259
  0
LINE
  5
28E
100
AcDbEntity
  8
0
100
AcDbLine
 62
7
  6
CONTINUOUS
 10
116.2083782249
 20
151.7688972075
 11
116.2083782249
 21
154.6141966691
  0
LINE
  5
28F
100
AcDbEntity
  8
0
100
AcDbLine
 62
7
  6
CONTINUOUS
 10
116.3989771481
 20
132.771462259
 11
116.3989771481
 21
139.771462259
  0
LINE
  5
290
100
AcDbEntity
  8
0
100
AcDbLine
 62
7
  6
CONTINUOUS
 10
116.8080012571
 20
67.841462259
 11
116.8080012571
 21
66.976626486
  0
LINE
  5
291
100
AcDbEntity
  8
0
100
AcDbLine
 62
7
  6
CONTINUOUS
 10
104.6748893992
 20
85.4563069938
 11
104.6492830165
 21
85.3631633318
  0
LINE
  5
292
100
AcDbEntity
  8
0
100
AcDbLine
 62
7
  6
CONTINUOUS
 10
104.6497133123
 20
85.3644731659
 11
104.6153961505
 21
85.274263539
  0
LINE
  5
293
100
AcDbEntity
  8
0
100
AcDbLine
 62
7
  6
CONTINUOUS
 10
126.9827176274
 20
146.2333514135
 11
125.7877249554
 21
143.4293890247
  0
LINE
  5
294
100
AcDbEntity
  8
0
100
AcDbLine
 62
7
  6
CONTINUOUS
 10
126.7881117609
 20
145.4166701477
 11
121.3989771481
 21
132.771462259
  0
LINE
  5
295
100
AcDbEntity
  8
0
100
AcDbLine
 62
7
  6
CONTINUOUS
 10
135.4631549206
 20
148.2003118203
 11
148.768527572
 21
164.0570374784
  0
LINE
  5
296
100
AcDbEntity
  8
0
100
AcDbLine
 62
7
  6
CONTINUOUS
 10
123.7525305387
 20
131.8250156496
 11
123.2454237575
 21
131.3179088684
  0
LINE
  5
297
100
AcDbEntity
  8
GEOM
100
AcDbLine
 62
7
  6
CONTINUOUS
 10
142.0329517443
 20
77.1037960067
 11
131.4926408268
 21
77.1037960067
  0
LINE
  5
298
100
AcDbEntity
  8
GEOM
100
AcDbLine
 62
7
  6
CONTINUOUS
 10
95.5293943295
 20
77.1037960067
 11
85.9093401192
 21
77.1037960067
  0
LINE
  5
299
100
AcDbEntity
  8
0
100
AcDbLine
 62
7
  6
CONTINUOUS
 10
117.9489771481
 20
70.441462259
 11
117.9489771481
 21
63.941462259
  0
LINE
  5
29A
100
AcDbEntity
  8
0
100
AcDbLine
 62
7
  6
CONTINUOUS
 10
118.5177793017
 20
151.7688972075
 11
118.5177793017
 21
154.6141966691
  0
LINE
  5
29B
100
AcDbEntity
  8
0
100
AcDbLine
 62
7
  6
CONTINUOUS
 10
118.5989771481
 20
71.091462259
 11
118.5989771481
 21
63.291462259
  0
LINE
  5
29C
100
AcDbEntity
  8
0
100
AcDbLine
 62
7
  6
CONTINUOUS
 10
119.3776568046
 20
49.071462259
 11
119.3776568046
 21
83.3311104891
  0
LINE
  5
29D
100
AcDbEntity
  8
0
100
AcDbLine
 62
7
  6
CONTINUOUS
 10
119.8989771481
 20
150.6250520975
 11
119.8989771481
 21
149.971462259
  0
LINE
  5
29E
100
AcDbEntity
  8
0
100
AcDbLine
 62
7
  6
CONTINUOUS
 10
120.4383169764
 20
83.8667588818
 11
120.4383169764
 21
48.6321224308
  0
LINE
  5
29F
100
AcDbEntity
  8
0
100
AcDbLine
 62
7
  6
CONTINUOUS
 10
120.4596373199
 20
48.6108020872
 11
120.4596373199
 21
83.8971796854
  0
LINE
  5
2A0
100
AcDbEntity
  8
0
100
AcDbLine
 62
7
  6
CONTINUOUS
 10
121.5202974917
 20
48.171462259
 11
121.5202974917
 21
85.0467296056
  0
LINE
  5
2A1
100
AcDbEntity
  8
0
100
AcDbLine
 62
7
  6
CONTINUOUS
 10
123.0989771481
 20
130.9643554778
 11
123.0989771481
 21
87.171462259
  0
LINE
  5
2A2
100
AcDbEntity
  8
0
100
AcDbLine
 62
7
  6
CONTINUOUS
 10
104.6160217974
 20
85.2756921555
 11
104.5733489585
 21
85.1892290529
  0
LINE
  5
2A3
100
AcDbEntity
  8
0
100
AcDbLine
 62
7
  6
CONTINUOUS
 10
104.5741808102
 20
85.1907237114
 11
104.5236009578
 21
85.108805631
  0
LINE
  5
2A4
100
AcDbEntity
  8
0
100
AcDbLine
 62
7
  6
CONTINUOUS
 10
100.9776568046
 20
82.171462259
 11
97.4608573635
 21
82.171462259
  0
LINE
  5
2A5
100
AcDbEntity
  8
GEOM
100
AcDbLine
 62
7
  6
CONTINUOUS
 10
142.0329517443
 20
84.0859160286
 11
131.4926408164
 21
84.0859160286
  0
LINE
  5
2A6
100
AcDbEntity
  8
GEOM
100
AcDbLine
 62
7
  6
CONTINUOUS
 10
95.5293943295
 20
84.0859160286
 11
85.9093401192
 21
84.0859160286
  0
LINE
  5
2A7
100
AcDbEntity
  8
0
100
AcDbLine
 62
7
  6
CONTINUOUS
 10
142.0329517443
 20
84.171462259
 11
131.4770213858
 21
84.171462259
  0
LINE
  5
2A8
100
AcDbEntity
  8
0
100
AcDbLine
 62
7
  6
CONTINUOUS
 10
95.5556014752
 20
84.171462259
 11
85.9093401192
 21
84.171462259
  0
LINE
  5
2A9
100
AcDbEntity
  8
GEOM
100
AcDbLine
 62
7
  6
CONTINUOUS
 10
128.8989771481
 20
86.171462259
 11
124.0989771481
 21
86.171462259
  0
LINE
  5
2AA
100
AcDbEntity
  8
0
100
AcDbLine
 62
7
  6
CONTINUOUS
 10
124.0989771481
 20
86.171462259
 11
130.048873379
 21
86.171462259
  0
LINE
  5
2AB
100
AcDbEntity
  8
0
100
AcDbLine
 62
7
  6
CONTINUOUS
 10
109.0448751819
 20
149.971462259
 11
109.0956955898
 21
149.771462259
  0
LINE
  5
2AC
100
AcDbEntity
  8
0
100
AcDbLine
 62
7
  6
CONTINUOUS
 10
123.8989771481
 20
138.6375283333
 11
123.8989771481
 21
132.1785690402
  0
LINE
  5
2AD
100
AcDbEntity
  8
0
100
AcDbLine
 62
7
  6
CONTINUOUS
 10
125.7877249554
 20
146.771462259
 11
125.7877249554
 21
143.4293890247
  0
LINE
  5
2AE
100
AcDbEntity
  8
0
100
AcDbLine
 62
7
  6
CONTINUOUS
 10
127.7758274142
 20
149.771462259
 11
127.7758274142
 21
146.771462259
  0
LINE
  5
2AF
100
AcDbEntity
  8
0
100
AcDbLine
 62
7
  6
CONTINUOUS
 10
128.2426176274
 20
149.771462259
 11
128.2426176274
 21
146.771462259
  0
LINE
  5
2B0
100
AcDbEntity
  8
0
100
AcDbLine
 62
7
  6
CONTINUOUS
 10
104.5246377833
 20
85.1103125843
 11
104.466705414
 21
85.0337129689
  0
LINE
  5
2B1
100
AcDbEntity
  8
0
100
AcDbLine
 62
7
  6
CONTINUOUS
 10
108.1926380504
 20
149.971462259
 11
108.2720471387
 21
149.771462259
  0
LINE
  5
2B2
100
AcDbEntity
  8
0
100
AcDbLine
 62
7
  6
CONTINUOUS
 10
131.0071750754
 20
84.5004521873
 11
130.5187196913
 21
85.8424723256
  0
LINE
  5
2B3
100
AcDbEntity
  8
GEOM
100
AcDbLine
 62
7
  6
CONTINUOUS
 10
128.8989771481
 20
86.171462259
 11
128.8989771481
 21
48.171462259
  0
LINE
  5
2B4
100
AcDbEntity
  8
0
100
AcDbLine
 62
7
  6
CONTINUOUS
 10
128.8989771481
 20
48.171731293
 11
128.8989771481
 21
86.171193225
  0
LINE
  5
2B5
100
AcDbEntity
  8
0
100
AcDbLine
 62
7
  6
CONTINUOUS
 10
130.048873379
 20
86.171462259
 11
130.048873379
 21
48.171462259
  0
LINE
  5
2B6
100
AcDbEntity
  8
0
100
AcDbLine
 62
7
  6
CONTINUOUS
 10
130.5187196916
 20
85.8424723246
 11
130.5187196916
 21
48.5004521934
  0
LINE
  5
2B7
100
AcDbEntity
  8
0
100
AcDbLine
 62
7
  6
CONTINUOUS
 10
131.0071750754
 20
49.8424723307
 11
131.0071750754
 21
49.9407344567
  0
LINE
  5
2B8
100
AcDbEntity
  8
0
100
AcDbLine
 62
7
  6
CONTINUOUS
 10
131.0071750754
 20
56.9601868616
 11
131.0071750754
 21
60.1520098541
  0
LINE
  5
2B9
100
AcDbEntity
  8
0
100
AcDbLine
 62
7
  6
CONTINUOUS
 10
131.0071750754
 20
74.1909146639
 11
131.0071750754
 21
77.3827376564
  0
LINE
  5
2BA
100
AcDbEntity
  8
0
100
AcDbLine
 62
7
  6
CONTINUOUS
 10
131.0071750754
 20
84.4021900613
 11
131.0071750754
 21
84.5004521873
  0
LINE
  5
2BB
100
AcDbEntity
  8
0
100
AcDbLine
 62
7
  6
CONTINUOUS
 10
131.4770213858
 20
50.171462259
 11
131.4770213858
 21
50.2570673277
  0
LINE
  5
2BC
100
AcDbEntity
  8
0
100
AcDbLine
 62
7
  6
CONTINUOUS
 10
131.4770213858
 20
57.238652014
 11
131.4770213858
 21
60.189877578
  0
LINE
  5
2BD
100
AcDbEntity
  8
0
100
AcDbLine
 62
7
  6
CONTINUOUS
 10
131.4770213858
 20
74.15304694
 11
131.4770213858
 21
77.104272504
  0
LINE
  5
2BE
100
AcDbEntity
  8
0
100
AcDbLine
 62
7
  6
CONTINUOUS
 10
131.4770213858
 20
84.0858571903
 11
131.4770213858
 21
84.171462259
  0
LINE
  5
2BF
100
AcDbEntity
  8
0
100
AcDbLine
 62
7
  6
CONTINUOUS
 10
108.8966843808
 20
66.2527678106
 11
108.5319283536
 21
65.5368937997
  0
LINE
  5
2C0
100
AcDbEntity
  8
0
100
AcDbLine
 62
7
  6
CONTINUOUS
 10
110.4884892026
 20
68.231462259
 11
108.8019599648
 21
64.921462259
  0
LINE
  5
2C1
100
AcDbEntity
  8
0
100
AcDbLine
 62
7
  6
CONTINUOUS
 10
111.2180012571
 20
68.231462259
 11
109.5314720192
 21
64.921462259
  0
LINE
  5
2C2
100
AcDbEntity
  8
0
100
AcDbLine
 62
7
  6
CONTINUOUS
 10
95.9886141771
 20
50.421462259
 11
96.7680370405
 21
51.771462259
  0
LINE
  5
2C3
100
AcDbEntity
  8
0
100
AcDbLine
 62
7
  6
CONTINUOUS
 10
104.4679305048
 20
85.0351760058
 11
104.4033028471
 21
84.9646128189
  0
LINE
  5
2C4
100
AcDbEntity
  8
0
100
AcDbLine
 62
7
  6
CONTINUOUS
 10
104.2596373199
 20
84.8321224308
 11
102.0383169764
 21
82.6108020872
  0
LINE
  5
2C5
100
AcDbEntity
  8
GEOM
100
AcDbLine
 62
7
  6
CONTINUOUS
 10
142.8989771481
 20
82.671462259
 11
142.0329517443
 21
84.171462259
  0
LINE
  5
2C6
100
AcDbEntity
  8
0
100
AcDbLine
 62
7
  6
CONTINUOUS
 10
107.8989771481
 20
149.971462259
 11
107.9992018021
 21
149.771462259
  0
LINE
  5
2C7
100
AcDbEntity
  8
0
100
AcDbLine
 62
7
  6
CONTINUOUS
 10
104.4046809225
 20
84.9659749851
 11
104.2596373199
 21
84.8321224308
  0
LINE
  5
2C8
100
AcDbEntity
  8
0
100
AcDbLine
 62
7
  6
CONTINUOUS
 10
104.3475052856
 20
84.9132482826
 11
104.3476316009
 21
84.9133497612
  0
LWPOLYLINE
  5
2C9
100
AcDbEntity
  8
0
100
AcDbPolyline
 62
7
  6
CONTINUOUS
 90
11
 70
0
 10
106.5748405757
 20
143.0753829276
 10
106.5846333325
 20
143.0623329656
 10
106.5933988195
 20
143.044337637
 10
106.5982640123
 20
143.0244740721
 10
106.5984035903
 20
143.0035939713
 10
106.5934731604
 20
142.9827945327
 10
106.5855033312
 20
142.9660182752
 10
106.5772150682
 20
142.9542901364
 10
106.5694961378
 20
142.9461097646
 10
106.562995237
 20
142.9407142603
 10
106.5611086638
 20
142.9393776537
  0
LINE
  5
2CA
100
AcDbEntity
  8
GEOM
100
AcDbLine
 62
7
  6
CONTINUOUS
 10
142.0329517443
 20
50.171462259
 11
142.0329517443
 21
50.2570084894
  0
LINE
  5
2CB
100
AcDbEntity
  8
GEOM
100
AcDbLine
 62
7
  6
CONTINUOUS
 10
142.0329517443
 20
57.2391285113
 11
142.0329517443
 21
60.1893422371
  0
LINE
  5
2CC
100
AcDbEntity
  8
GEOM
100
AcDbLine
 62
7
  6
CONTINUOUS
 10
142.0329517443
 20
74.1535822809
 11
142.0329517443
 21
77.1037960067
  0
LINE
  5
2CD
100
AcDbEntity
  8
GEOM
100
AcDbLine
 62
7
  6
CONTINUOUS
 10
142.0329517443
 20
84.0859160286
 11
142.0329517443
 21
84.171462259
  0
LINE
  5
2CE
100
AcDbEntity
  8
GEOM
100
AcDbLine
 62
7
  6
CONTINUOUS
 10
142.8989771481
 20
51.6716446147
 11
142.8989771481
 21
82.6712799033
  0
LINE
  5
2CF
100
AcDbEntity
  8
GEOM
100
AcDbLine
 62
7
  6
CONTINUOUS
 10
100.0489771481
 20
133.5848597186
 11
104.8072240677
 21
130.8376845788
  0
LINE
  5
2D0
100
AcDbEntity
  8
GEOM
100
AcDbLine
 62
7
  6
CONTINUOUS
 10
100.1989771481
 20
133.8446673398
 11
104.4813886498
 21
131.3722159065
  0
LINE
  5
2D1
100
AcDbEntity
  8
0
100
AcDbLine
 62
7
  6
CONTINUOUS
 10
106.5670282106
 20
143.083011003
 11
106.5748405757
 21
143.0753829276
  0
LINE
  5
2D2
100
AcDbEntity
  8
0
100
AcDbLine
 62
7
  6
CONTINUOUS
 10
116.3989771481
 20
139.771462259
 11
109.8713715452
 21
146.771462259
  0
LINE
  5
2D3
100
AcDbEntity
  8
0
100
AcDbLine
 62
7
  6
CONTINUOUS
 10
111.4183638933
 20
145.8205160691
 11
110.5315922251
 21
146.771462259
  0
LINE
  5
2D4
100
AcDbEntity
  8
0
100
AcDbLine
 62
7
  6
CONTINUOUS
 10
148.3989771481
 20
165.1081373009
 11
148.3989771481
 21
167.4347872171
  0
LINE
  5
2D5
100
AcDbEntity
  8
0
100
AcDbLine
 62
7
  6
CONTINUOUS
 10
148.3989771481
 20
167.771462259
 11
148.3989771481
 21
167.971462259
  0
LINE
  5
2D6
100
AcDbEntity
  8
0
100
AcDbLine
 62
7
  6
CONTINUOUS
 10
149.6989771481
 20
163.271462259
 11
149.6989771481
 21
169.271462259
  0
LINE
  5
2D7
100
AcDbEntity
  8
GEOM
100
AcDbLine
 62
7
  6
CONTINUOUS
 10
150.3467383181
 20
169.271462259
 11
150.3467383181
 21
169.3378801695
  0
LINE
  5
2D8
100
AcDbEntity
  8
GEOM
100
AcDbLine
 62
7
  6
CONTINUOUS
 10
151.2113358771
 20
169.271462259
 11
151.2113358771
 21
169.3378801695
  0
LINE
  5
2D9
100
AcDbEntity
  8
0
100
AcDbLine
 62
7
  6
CONTINUOUS
 10
106.5614867434
 20
143.0872890835
 11
106.5670282106
 21
143.083011003
  0
LINE
  5
2DA
100
AcDbEntity
  8
GEOM
100
AcDbLine
 62
7
  6
CONTINUOUS
 10
151.8467383181
 20
169.271462259
 11
151.8467383181
 21
169.3378801695
  0
LINE
  5
2DB
100
AcDbEntity
  8
GEOM
100
AcDbLine
 62
7
  6
CONTINUOUS
 10
152.4434903946
 20
169.271462259
 11
152.4434903946
 21
169.3378801695
  0
LINE
  5
2DC
100
AcDbEntity
  8
GEOM
100
AcDbLine
 62
7
  6
CONTINUOUS
 10
153.6457291987
 20
169.271462259
 11
153.6457291987
 21
169.3378801695
  0
LINE
  5
2DD
100
AcDbEntity
  8
GEOM
100
AcDbLine
 62
7
  6
CONTINUOUS
 10
154.3668469386
 20
169.271462259
 11
154.3668469386
 21
169.3378801695
  0
LINE
  5
2DE
100
AcDbEntity
  8
GEOM
100
AcDbLine
 62
7
  6
CONTINUOUS
 10
157.2414737998
 20
169.271462259
 11
157.2414737998
 21
169.3378801695
  0
LINE
  5
2DF
100
AcDbEntity
  8
0
100
AcDbLine
 62
7
  6
CONTINUOUS
 10
131.0071750754
 20
49.8424723307
 11
130.5187196913
 21
48.5004521924
  0
LINE
  5
2E0
100
AcDbEntity
  8
0
100
AcDbLine
 62
7
  6
CONTINUOUS
 10
105.9093843099
 20
142.0916941633
 11
106.5564696724
 21
141.7543655331
  0
LWPOLYLINE
  5
2E1
100
AcDbEntity
  8
0
100
AcDbPolyline
 62
7
  6
CONTINUOUS
 90
10
 70
0
 10
106.5563383696
 20
141.7544341899
 10
106.5571739914
 20
141.7539868975
 10
106.5605682999
 20
141.7519117018
 10
106.5655825927
 20
141.7482122348
 10
106.5730620077
 20
141.7412998627
 10
106.5828125169
 20
141.7291462348
 10
106.5919459789
 20
141.7120800746
 10
106.5976159073
 20
141.6927027034
 10
106.5987700771
 20
141.6715462968
 10
106.5945487397
 20
141.6499363192
  0
LWPOLYLINE
  5
2E2
100
AcDbEntity
  8
0
100
AcDbPolyline
 62
7
  6
CONTINUOUS
 90
3
 70
0
 10
106.5562858714
 20
143.0904620854
 10
106.5575973155
 20
143.0897497862
 10
106.5614867434
 20
143.0872890835
  0
LINE
  5
2E3
100
AcDbEntity
  8
0
100
AcDbLine
 62
7
  6
CONTINUOUS
 10
119.6053162459
 20
149.971462259
 11
119.7969553655
 21
149.771462259
  0
LINE
  5
2E4
100
AcDbEntity
  8
GEOM
100
AcDbLine
 62
7
  6
CONTINUOUS
 10
157.9747005833
 20
169.271462259
 11
157.9747005833
 21
169.3378801695
  0
LINE
  5
2E5
100
AcDbEntity
  8
GEOM
100
AcDbLine
 62
7
  6
CONTINUOUS
 10
159.270969238
 20
169.271462259
 11
159.270969238
 21
169.3378801695
  0
LINE
  5
2E6
100
AcDbEntity
  8
GEOM
100
AcDbLine
 62
7
  6
CONTINUOUS
 10
159.8351483416
 20
169.271462259
 11
159.8351483416
 21
169.3378801695
  0
LINE
  5
2E7
100
AcDbEntity
  8
GEOM
100
AcDbLine
 62
7
  6
CONTINUOUS
 10
159.9358946101
 20
169.271462259
 11
159.9358946101
 21
169.3378801695
  0
LINE
  5
2E8
100
AcDbEntity
  8
GEOM
100
AcDbLine
 62
7
  6
CONTINUOUS
 10
160.1105214755
 20
169.271462259
 11
160.1105214755
 21
169.3378801695
  0
LINE
  5
2E9
100
AcDbEntity
  8
GEOM
100
AcDbLine
 62
7
  6
CONTINUOUS
 10
160.8076856535
 20
169.271462259
 11
160.8076856535
 21
169.3378801695
  0
LINE
  5
2EA
100
AcDbEntity
  8
GEOM
100
AcDbLine
 62
7
  6
CONTINUOUS
 10
161.3245140109
 20
169.271462259
 11
161.3245140109
 21
169.3378801695
  0
LINE
  5
2EB
100
AcDbEntity
  8
GEOM
100
AcDbLine
 62
7
  6
CONTINUOUS
 10
161.8702229653
 20
169.271462259
 11
161.8702229653
 21
169.3378801695
  0
LINE
  5
2EC
100
AcDbEntity
  8
GEOM
100
AcDbLine
 62
7
  6
CONTINUOUS
 10
162.4142528152
 20
169.271462259
 11
162.4142528152
 21
169.3378801695
  0
LINE
  5
2ED
100
AcDbEntity
  8
GEOM
100
AcDbLine
 62
7
  6
CONTINUOUS
 10
162.7433572923
 20
169.271462259
 11
162.7433572923
 21
169.3378801695
  0
LINE
  5
2EE
100
AcDbEntity
  8
0
100
AcDbLine
 62
7
  6
CONTINUOUS
 10
106.5385261131
 20
143.099721054
 11
106.5516940006
 21
143.0928557455
  0
LINE
  5
2EF
100
AcDbEntity
  8
0
100
AcDbLine
 62
7
  6
CONTINUOUS
 10
106.5564696162
 20
143.0903658947
 11
106.5562858714
 21
143.0904620854
  0
LINE
  5
2F0
100
AcDbEntity
  8
0
100
AcDbLine
 62
7
  6
CONTINUOUS
 10
107.8989771481
 20
149.971462259
 11
108.2419407124
 21
149.771462259
  0
LINE
  5
2F1
100
AcDbEntity
  8
GEOM
100
AcDbLine
 62
7
  6
CONTINUOUS
 10
163.5157453508
 20
169.271462259
 11
163.5157453508
 21
169.3378801695
  0
LINE
  5
2F2
100
AcDbEntity
  8
GEOM
100
AcDbLine
 62
7
  6
CONTINUOUS
 10
164.3351483346
 20
169.271462259
 11
164.3351483346
 21
169.3378801695
  0
LINE
  5
2F3
100
AcDbEntity
  8
GEOM
100
AcDbLine
 62
7
  6
CONTINUOUS
 10
164.3449937768
 20
169.271462259
 11
164.3449937768
 21
169.3378801695
  0
LINE
  5
2F4
100
AcDbEntity
  8
GEOM
100
AcDbLine
 62
7
  6
CONTINUOUS
 10
164.8120140055
 20
169.271462259
 11
164.8120140055
 21
169.3378801695
  0
LINE
  5
2F5
100
AcDbEntity
  8
GEOM
100
AcDbLine
 62
7
  6
CONTINUOUS
 10
165.1075363931
 20
169.271462259
 11
165.1075363931
 21
169.3378801695
  0
LINE
  5
2F6
100
AcDbEntity
  8
GEOM
100
AcDbLine
 62
7
  6
CONTINUOUS
 10
167.129178181
 20
169.271462259
 11
167.129178181
 21
169.3378801695
  0
LINE
  5
2F7
100
AcDbEntity
  8
GEOM
100
AcDbLine
 62
7
  6
CONTINUOUS
 10
168.689662291
 20
169.271462259
 11
168.689662291
 21
169.3378801695
  0
LINE
  5
2F8
100
AcDbEntity
  8
GEOM
100
AcDbLine
 62
7
  6
CONTINUOUS
 10
123.0989771481
 20
130.9643554778
 11
105.0986782624
 21
130.9643554778
  0
LINE
  5
2F9
100
AcDbEntity
  8
GEOM
100
AcDbLine
 62
7
  6
CONTINUOUS
 10
104.9603697503
 20
131.3179088684
 11
123.2454237575
 21
131.3179088684
  0
LINE
  5
2FA
100
AcDbEntity
  8
GEOM
100
AcDbLine
 62
7
  6
CONTINUOUS
 10
123.7525305387
 20
131.8250156496
 11
104.4343332164
 21
131.8250156496
  0
LINE
  5
2FB
100
AcDbEntity
  8
GEOM
100
AcDbLine
 62
7
  6
CONTINUOUS
 10
103.9868633473
 20
132.1785690402
 11
123.8989771481
 21
132.1785690402
  0
LINE
  5
2FC
100
AcDbEntity
  8
GEOM
100
AcDbLine
 62
7
  6
CONTINUOUS
 10
168.7881334023
 20
169.271462259
 11
168.7881334023
 21
169.3378801695
  0
LINE
  5
2FD
100
AcDbEntity
  8
GEOM
100
AcDbLine
 62
7
  6
CONTINUOUS
 10
169.6276856398
 20
169.271462259
 11
169.6276856398
 21
169.3378801695
  0
LINE
  5
2FE
100
AcDbEntity
  8
GEOM
100
AcDbLine
 62
7
  6
CONTINUOUS
 10
169.7754449211
 20
169.3378801695
 11
169.7754449211
 21
169.271462259
  0
LINE
  5
2FF
100
AcDbEntity
  8
GEOM
100
AcDbLine
 62
7
  6
CONTINUOUS
 10
170.2120139971
 20
169.271462259
 11
170.2120139971
 21
169.3378801695
  0
LINE
  5
300
100
AcDbEntity
  8
GEOM
100
AcDbLine
 62
7
  6
CONTINUOUS
 10
171.6627602635
 20
169.271462259
 11
171.6627602635
 21
169.3378801695
  0
LINE
  5
301
100
AcDbEntity
  8
GEOM
100
AcDbLine
 62
7
  6
CONTINUOUS
 10
172.8467383144
 20
169.271462259
 11
172.8467383144
 21
169.3378801695
  0
LINE
  5
302
100
AcDbEntity
  8
GEOM
100
AcDbLine
 62
7
  6
CONTINUOUS
 10
173.4949647968
 20
169.271462259
 11
173.4949647968
 21
169.3378801695
  0
LINE
  5
303
100
AcDbEntity
  8
GEOM
100
AcDbLine
 62
7
  6
CONTINUOUS
 10
173.7686346236
 20
169.271462259
 11
173.7686346236
 21
169.3378801695
  0
LINE
  5
304
100
AcDbEntity
  8
GEOM
100
AcDbLine
 62
7
  6
CONTINUOUS
 10
173.9551225271
 20
169.271462259
 11
173.9551225271
 21
169.3378801695
  0
LINE
  5
305
100
AcDbEntity
  8
GEOM
100
AcDbLine
 62
7
  6
CONTINUOUS
 10
174.0794122413
 20
169.271462259
 11
174.0794122413
 21
169.3378801695
  0
LINE
  5
306
100
AcDbEntity
  8
GEOM
100
AcDbLine
 62
7
  6
CONTINUOUS
 10
174.1304355031
 20
169.271462259
 11
174.1304355031
 21
169.3378801695
  0
LINE
  5
307
100
AcDbEntity
  8
GEOM
100
AcDbLine
 62
7
  6
CONTINUOUS
 10
174.2217154834
 20
169.271462259
 11
174.2217154834
 21
169.3378801695
  0
LINE
  5
308
100
AcDbEntity
  8
GEOM
100
AcDbLine
 62
7
  6
CONTINUOUS
 10
142.8989771481
 20
51.671462259
 11
142.0329517443
 21
50.171462259
  0
LINE
  5
309
100
AcDbEntity
  8
0
100
AcDbLine
 62
7
  6
CONTINUOUS
 10
100.3989771481
 20
132.771462259
 11
101.4578228749
 21
132.771462259
  0
LINE
  5
30A
100
AcDbEntity
  8
0
100
AcDbLine
 62
7
  6
CONTINUOUS
 10
116.3989771481
 20
132.771462259
 11
121.3989771481
 21
132.771462259
  0
LINE
  5
30B
100
AcDbEntity
  8
GEOM
100
AcDbLine
 62
7
  6
CONTINUOUS
 10
100.1989771481
 20
133.8446673398
 11
99.8989771481
 21
133.8446673398
  0
LINE
  5
30C
100
AcDbEntity
  8
GEOM
100
AcDbLine
 62
7
  6
CONTINUOUS
 10
99.8989771481
 20
136.871462259
 11
104.275565691
 21
136.871462259
  0
LINE
  5
30D
100
AcDbEntity
  8
GEOM
100
AcDbLine
 62
7
  6
CONTINUOUS
 10
103.8367193285
 20
137.171462259
 11
100.1989771481
 21
137.171462259
  0
LINE
  5
30E
100
AcDbEntity
  8
GEOM
100
AcDbLine
 62
7
  6
CONTINUOUS
 10
103.8989771481
 20
137.471462259
 11
104.1297481202
 21
137.471462259
  0
LINE
  5
30F
100
AcDbEntity
  8
0
100
AcDbLine
 62
7
  6
CONTINUOUS
 10
118.5177793017
 20
151.7688972075
 11
119.5989771481
 21
151.1446673398
  0
LINE
  5
310
100
AcDbEntity
  8
0
100
AcDbLine
 62
7
  6
CONTINUOUS
 10
118.5177793017
 20
154.6141966691
 11
117.8989771481
 21
154.971462259
  0
LINE
  5
311
100
AcDbEntity
  8
GEOM
100
AcDbLine
 62
7
  6
CONTINUOUS
 10
174.4087437158
 20
169.271462259
 11
174.4087437158
 21
169.3378801695
  0
LINE
  5
312
100
AcDbEntity
  8
GEOM
100
AcDbLine
 62
7
  6
CONTINUOUS
 10
174.617474926
 20
169.271462259
 11
174.617474926
 21
169.3378801695
  0
LINE
  5
313
100
AcDbEntity
  8
GEOM
100
AcDbLine
 62
7
  6
CONTINUOUS
 10
174.8227273469
 20
169.271462259
 11
174.8227273469
 21
169.3378801695
  0
LINE
  5
314
100
AcDbEntity
  8
GEOM
100
AcDbLine
 62
7
  6
CONTINUOUS
 10
174.908539105
 20
169.271462259
 11
174.908539105
 21
169.3378801695
  0
LINE
  5
315
100
AcDbEntity
  8
GEOM
100
AcDbLine
 62
7
  6
CONTINUOUS
 10
174.9317314392
 20
169.271462259
 11
174.9317314392
 21
169.3378801695
  0
LINE
  5
316
100
AcDbEntity
  8
GEOM
100
AcDbLine
 62
7
  6
CONTINUOUS
 10
175.0662472611
 20
169.271462259
 11
175.0662472611
 21
169.3378801695
  0
LINE
  5
317
100
AcDbEntity
  8
GEOM
100
AcDbLine
 62
7
  6
CONTINUOUS
 10
175.2376884605
 20
169.271462259
 11
175.2376884605
 21
169.3378801695
  0
LINE
  5
318
100
AcDbEntity
  8
GEOM
100
AcDbLine
 62
7
  6
CONTINUOUS
 10
175.3654981807
 20
169.271462259
 11
175.3654981807
 21
169.3378801695
  0
LINE
  5
319
100
AcDbEntity
  8
GEOM
100
AcDbLine
 62
7
  6
CONTINUOUS
 10
175.4825500851
 20
169.271462259
 11
175.4825500851
 21
169.3378801695
  0
LINE
  5
31A
100
AcDbEntity
  8
GEOM
100
AcDbLine
 62
7
  6
CONTINUOUS
 10
175.9510357624
 20
169.271462259
 11
175.9510357624
 21
169.3378801695
  0
LINE
  5
31B
100
AcDbEntity
  8
GEOM
100
AcDbLine
 62
7
  6
CONTINUOUS
 10
175.9939416414
 20
169.271462259
 11
175.9939416414
 21
169.3378801695
  0
LINE
  5
31C
100
AcDbEntity
  8
GEOM
100
AcDbLine
 62
7
  6
CONTINUOUS
 10
176.178320921
 20
169.271462259
 11
176.178320921
 21
169.3378801695
  0
LINE
  5
31D
100
AcDbEntity
  8
GEOM
100
AcDbLine
 62
7
  6
CONTINUOUS
 10
176.3858923321
 20
169.271462259
 11
176.3858923321
 21
169.3378801695
  0
LINE
  5
31E
100
AcDbEntity
  8
GEOM
100
AcDbLine
 62
7
  6
CONTINUOUS
 10
176.6259332543
 20
169.271462259
 11
176.6259332543
 21
169.3378801695
  0
LINE
  5
31F
100
AcDbEntity
  8
GEOM
100
AcDbLine
 62
7
  6
CONTINUOUS
 10
176.6827546959
 20
169.271462259
 11
176.6827546959
 21
169.3378801695
  0
LINE
  5
320
100
AcDbEntity
  8
GEOM
100
AcDbLine
 62
7
  6
CONTINUOUS
 10
176.7140642052
 20
169.271462259
 11
176.7140642052
 21
169.3378801695
  0
LINE
  5
321
100
AcDbEntity
  8
GEOM
100
AcDbLine
 62
7
  6
CONTINUOUS
 10
176.7551483153
 20
169.271462259
 11
176.7551483153
 21
169.3378801695
  0
LINE
  5
322
100
AcDbEntity
  8
GEOM
100
AcDbLine
 62
7
  6
CONTINUOUS
 10
176.7859608059
 20
169.271462259
 11
176.7859608059
 21
169.3378801695
  0
LINE
  5
323
100
AcDbEntity
  8
GEOM
100
AcDbLine
 62
7
  6
CONTINUOUS
 10
176.9946918135
 20
169.271462259
 11
176.9946918135
 21
169.3378801695
  0
LINE
  5
324
100
AcDbEntity
  8
GEOM
100
AcDbLine
 62
7
  6
CONTINUOUS
 10
177.0294007874
 20
169.271462259
 11
177.0294007874
 21
169.3378801695
  0
LINE
  5
325
100
AcDbEntity
  8
GEOM
100
AcDbLine
 62
7
  6
CONTINUOUS
 10
177.1069607365
 20
169.271462259
 11
177.1069607365
 21
169.3378801695
  0
LINE
  5
326
100
AcDbEntity
  8
GEOM
100
AcDbLine
 62
7
  6
CONTINUOUS
 10
177.2300943499
 20
169.271462259
 11
177.2300943499
 21
169.3378801695
  0
LINE
  5
327
100
AcDbEntity
  8
GEOM
100
AcDbLine
 62
7
  6
CONTINUOUS
 10
177.3831639176
 20
169.271462259
 11
177.3831639176
 21
169.3378801695
  0
LINE
  5
328
100
AcDbEntity
  8
GEOM
100
AcDbLine
 62
7
  6
CONTINUOUS
 10
177.455060113
 20
169.271462259
 11
177.455060113
 21
169.3378801695
  0
LINE
  5
329
100
AcDbEntity
  8
GEOM
100
AcDbLine
 62
7
  6
CONTINUOUS
 10
177.5802989607
 20
169.271462259
 11
177.5802989607
 21
169.3378801695
  0
LINE
  5
32A
100
AcDbEntity
  8
GEOM
100
AcDbLine
 62
7
  6
CONTINUOUS
 10
177.7890303736
 20
169.271462259
 11
177.7890303736
 21
169.3378801695
  0
LINE
  5
32B
100
AcDbEntity
  8
0
100
AcDbLine
 62
7
  6
CONTINUOUS
 10
100.3989771481
 20
139.771462259
 11
103.3989771481
 21
139.771462259
  0
LINE
  5
32C
100
AcDbEntity
  8
0
100
AcDbLine
 62
7
  6
CONTINUOUS
 10
103.8989771481
 20
140.871462259
 11
115.3732105534
 21
140.871462259
  0
LINE
  5
32D
100
AcDbEntity
  8
GEOM
100
AcDbLine
 62
7
  6
CONTINUOUS
 10
115.0934560275
 20
141.171462259
 11
103.9573572994
 21
141.171462259
  0
LINE
  5
32E
100
AcDbEntity
  8
0
100
AcDbLine
 62
7
  6
CONTINUOUS
 10
105.8989771481
 20
142.471462259
 11
113.8811864156
 21
142.471462259
  0
LINE
  5
32F
100
AcDbEntity
  8
0
100
AcDbLine
 62
7
  6
CONTINUOUS
 10
106.5990256379
 20
143.171462259
 11
113.2284258553
 21
143.171462259
  0
LINE
  5
330
100
AcDbEntity
  8
0
100
AcDbLine
 62
7
  6
CONTINUOUS
 10
108.1926380504
 20
149.971462259
 11
109.0366326353
 21
149.771462259
  0
LINE
  5
331
100
AcDbEntity
  8
0
100
AcDbLine
 62
7
  6
CONTINUOUS
 10
118.7530791144
 20
149.971462259
 11
119.4605619456
 21
149.771462259
  0
LINE
  5
332
100
AcDbEntity
  8
0
100
AcDbLine
 62
7
  6
CONTINUOUS
 10
110.6876690035
 20
145.7384495571
 11
109.8754660959
 21
145.7384495571
  0
LINE
  5
333
100
AcDbEntity
  8
0
100
AcDbLine
 62
7
  6
CONTINUOUS
 10
106.6641579512
 20
145.7384495571
 11
106.6489771481
 21
145.7384495571
  0
LINE
  5
334
100
AcDbEntity
  8
0
100
AcDbLine
 62
7
  6
CONTINUOUS
 10
110.4308805969
 20
146.171462259
 11
107.3989771481
 21
146.171462259
  0
LINE
  5
335
100
AcDbEntity
  8
0
100
AcDbLine
 62
7
  6
CONTINUOUS
 10
109.4989771481
 20
146.371462259
 11
110.2443775796
 21
146.371462259
  0
LINE
  5
336
100
AcDbEntity
  8
0
100
AcDbLine
 62
7
  6
CONTINUOUS
 10
101.6158591563
 20
146.771462259
 11
110.5315922251
 21
146.771462259
  0
LINE
  5
337
100
AcDbEntity
  8
0
100
AcDbLine
 62
7
  6
CONTINUOUS
 10
111.4183638933
 20
146.771462259
 11
125.7877249554
 21
146.771462259
  0
LINE
  5
338
100
AcDbEntity
  8
0
100
AcDbLine
 62
7
  6
CONTINUOUS
 10
127.3231810956
 20
146.771462259
 11
132.3989771481
 21
146.771462259
  0
LINE
  5
339
100
AcDbEntity
  8
0
100
AcDbLine
 62
7
  6
CONTINUOUS
 10
112.0448751819
 20
149.971462259
 11
113.7445331531
 21
149.771462259
  0
LINE
  5
33A
100
AcDbEntity
  8
0
100
AcDbLine
 62
7
  6
CONTINUOUS
 10
113.8989771481
 20
149.971462259
 11
115.5746676819
 21
149.771462259
  0
LINE
  5
33B
100
AcDbEntity
  8
0
100
AcDbLine
 62
7
  6
CONTINUOUS
 10
110.3722656344
 20
149.971462259
 11
111.9295166787
 21
149.771462259
  0
LINE
  5
33C
100
AcDbEntity
  8
0
100
AcDbLine
 62
7
  6
CONTINUOUS
 10
115.7530791144
 20
149.971462259
 11
117.240773946
 21
149.771462259
  0
LINE
  5
33D
100
AcDbEntity
  8
0
100
AcDbLine
 62
7
  6
CONTINUOUS
 10
109.0448751819
 20
149.971462259
 11
110.307284717
 21
149.771462259
  0
LINE
  5
33E
100
AcDbEntity
  8
0
100
AcDbLine
 62
7
  6
CONTINUOUS
 10
117.4256886619
 20
149.971462259
 11
118.5797618559
 21
149.771462259
  0
LINE
  5
33F
100
AcDbEntity
  8
GEOM
100
AcDbLine
 62
7
  6
CONTINUOUS
 10
187.4283218206
 20
169.271462259
 11
187.4283218206
 21
169.3378801695
  0
LINE
  5
340
100
AcDbEntity
  8
GEOM
100
AcDbLine
 62
7
  6
CONTINUOUS
 10
187.584758777
 20
169.271462259
 11
187.584758777
 21
169.3378801695
  0
LINE
  5
341
100
AcDbEntity
  8
GEOM
100
AcDbLine
 62
7
  6
CONTINUOUS
 10
187.9985904905
 20
169.271462259
 11
187.9985904905
 21
169.3378801695
  0
LINE
  5
342
100
AcDbEntity
  8
GEOM
100
AcDbLine
 62
7
  6
CONTINUOUS
 10
188.4097713601
 20
169.271462259
 11
188.4097713601
 21
169.3378801695
  0
LINE
  5
343
100
AcDbEntity
  8
GEOM
100
AcDbLine
 62
7
  6
CONTINUOUS
 10
188.5631482825
 20
169.271462259
 11
188.5631482825
 21
169.3378801695
  0
LINE
  5
344
100
AcDbEntity
  8
GEOM
100
AcDbLine
 62
7
  6
CONTINUOUS
 10
188.7581329414
 20
169.271462259
 11
188.7581329414
 21
169.3378801695
  0
LINE
  5
345
100
AcDbEntity
  8
GEOM
100
AcDbLine
 62
7
  6
CONTINUOUS
 10
188.7679229667
 20
169.271462259
 11
188.7679229667
 21
169.3378801695
  0
LINE
  5
346
100
AcDbEntity
  8
GEOM
100
AcDbLine
 62
7
  6
CONTINUOUS
 10
189.0126734562
 20
169.271462259
 11
189.0126734562
 21
169.3378801695
  0
LINE
  5
347
100
AcDbEntity
  8
GEOM
100
AcDbLine
 62
7
  6
CONTINUOUS
 10
189.5372554428
 20
169.271462259
 11
189.5372554428
 21
169.3378801695
  0
LINE
  5
348
100
AcDbEntity
  8
GEOM
100
AcDbLine
 62
7
  6
CONTINUOUS
 10
189.6123122558
 20
169.271462259
 11
189.6123122558
 21
169.3378801695
  0
LINE
  5
349
100
AcDbEntity
  8
GEOM
100
AcDbLine
 62
7
  6
CONTINUOUS
 10
189.7257133226
 20
169.271462259
 11
189.7257133226
 21
169.3378801695
  0
LINE
  5
34A
100
AcDbEntity
  8
GEOM
100
AcDbLine
 62
7
  6
CONTINUOUS
 10
189.7844533312
 20
169.271462259
 11
189.7844533312
 21
169.3378801695
  0
LINE
  5
34B
100
AcDbEntity
  8
GEOM
100
AcDbLine
 62
7
  6
CONTINUOUS
 10
190.0292038207
 20
169.271462259
 11
190.0292038207
 21
169.3378801695
  0
LINE
  5
34C
100
AcDbEntity
  8
GEOM
100
AcDbLine
 62
7
  6
CONTINUOUS
 10
190.5537858073
 20
169.271462259
 11
190.5537858073
 21
169.3378801695
  0
LINE
  5
34D
100
AcDbEntity
  8
GEOM
100
AcDbLine
 62
7
  6
CONTINUOUS
 10
190.6288426203
 20
169.271462259
 11
190.6288426203
 21
169.3378801695
  0
LINE
  5
34E
100
AcDbEntity
  8
0
100
AcDbLine
 62
7
  6
CONTINUOUS
 10
103.3989771481
 20
149.771462259
 11
132.3989771481
 21
149.771462259
  0
LINE
  5
34F
100
AcDbEntity
  8
0
100
AcDbLine
 62
7
  6
CONTINUOUS
 10
119.8989771481
 20
149.971462259
 11
107.8989771568
 21
149.971462259
  0
LINE
  5
350
100
AcDbEntity
  8
0
100
AcDbLine
 62
7
  6
CONTINUOUS
 10
107.8989771481
 20
150.6250520975
 11
119.8989771481
 21
150.6250520975
  0
LINE
  5
351
100
AcDbEntity
  8
0
100
AcDbLine
 62
7
  6
CONTINUOUS
 10
108.1989771481
 20
151.1446673398
 11
119.5989771481
 21
151.1446673398
  0
LINE
  5
352
100
AcDbEntity
  8
0
100
AcDbLine
 62
7
  6
CONTINUOUS
 10
109.899024224
 20
154.971462259
 11
117.8989300723
 21
154.971462259
  0
LINE
  5
353
100
AcDbEntity
  8
GEOM
100
AcDbLine
 62
7
  6
CONTINUOUS
 10
191.7185058111
 20
169.271462259
 11
191.7185058111
 21
169.3378801695
  0
LINE
  5
354
100
AcDbEntity
  8
GEOM
100
AcDbLine
 62
7
  6
CONTINUOUS
 10
193.063293309
 20
169.271462259
 11
193.063293309
 21
169.3378801695
  0
LINE
  5
355
100
AcDbEntity
  8
GEOM
100
AcDbLine
 62
7
  6
CONTINUOUS
 10
194.881363306
 20
169.271462259
 11
194.881363306
 21
169.3378801695
  0
LINE
  5
356
100
AcDbEntity
  8
0
100
AcDbLine
 62
7
  6
CONTINUOUS
 10
195.8989771481
 20
163.271462259
 11
195.8989771481
 21
169.271462259
  0
LINE
  5
357
100
AcDbEntity
  8
0
100
AcDbLine
 62
7
  6
CONTINUOUS
 10
149.6989771481
 20
163.271462259
 11
202.8989771481
 21
163.271462259
  0
LINE
  5
358
100
AcDbEntity
  8
0
100
AcDbLine
 62
7
  6
CONTINUOUS
 10
148.3989771481
 20
165.771462259
 11
205.3989771481
 21
165.771462259
  0
LINE
  5
359
100
AcDbEntity
  8
0
100
AcDbLine
 62
7
  6
CONTINUOUS
 10
205.3989771481
 20
165.771462259
 11
205.3989771481
 21
166.771462259
  0
LINE
  5
35A
100
AcDbEntity
  8
0
100
AcDbLine
 62
7
  6
CONTINUOUS
 10
148.3989771481
 20
166.771462259
 11
205.3989771481
 21
166.771462259
  0
LINE
  5
35B
100
AcDbEntity
  8
0
100
AcDbLine
 62
7
  6
CONTINUOUS
 10
148.3989771481
 20
167.771462259
 11
148.4167476251
 21
167.771462259
  0
LINE
  5
35C
100
AcDbEntity
  8
0
100
AcDbLine
 62
7
  6
CONTINUOUS
 10
149.6989771481
 20
169.271462259
 11
202.8989771481
 21
169.271462259
  0
LINE
  5
35D
100
AcDbEntity
  8
GEOM
100
AcDbLine
 62
7
  6
CONTINUOUS
 10
150.3467383181
 20
169.3378801695
 11
151.8467383181
 21
169.3378801695
  0
LINE
  5
35E
100
AcDbEntity
  8
GEOM
100
AcDbLine
 62
7
  6
CONTINUOUS
 10
152.4434903946
 20
169.3378801695
 11
159.270969238
 21
169.3378801695
  0
LINE
  5
35F
100
AcDbEntity
  8
GEOM
100
AcDbLine
 62
7
  6
CONTINUOUS
 10
159.2828218353
 20
169.3378801695
 11
164.8120140055
 21
169.3378801695
  0
LINE
  5
360
100
AcDbEntity
  8
GEOM
100
AcDbLine
 62
7
  6
CONTINUOUS
 10
165.1075363931
 20
169.3378801695
 11
168.7881334023
 21
169.3378801695
  0
LINE
  5
361
100
AcDbEntity
  8
GEOM
100
AcDbLine
 62
7
  6
CONTINUOUS
 10
168.7986174263
 20
169.3378801695
 11
169.6276856398
 21
169.3378801695
  0
LINE
  5
362
100
AcDbEntity
  8
GEOM
100
AcDbLine
 62
7
  6
CONTINUOUS
 10
169.7754931658
 20
169.3378801695
 11
175.9901271851
 21
169.3378801695
  0
LINE
  5
363
100
AcDbEntity
  8
GEOM
100
AcDbLine
 62
7
  6
CONTINUOUS
 10
175.9939416414
 20
169.3378801695
 11
177.7890303736
 21
169.3378801695
  0
LINE
  5
364
100
AcDbEntity
  8
GEOM
100
AcDbLine
 62
7
  6
CONTINUOUS
 10
187.4283218206
 20
169.3378801695
 11
188.5631482825
 21
169.3378801695
  0
LINE
  5
365
100
AcDbEntity
  8
GEOM
100
AcDbLine
 62
7
  6
CONTINUOUS
 10
188.7581329414
 20
169.3378801695
 11
189.7257133226
 21
169.3378801695
  0
LINE
  5
366
100
AcDbEntity
  8
GEOM
100
AcDbLine
 62
7
  6
CONTINUOUS
 10
189.7844533312
 20
169.3378801695
 11
190.6288426203
 21
169.3378801695
  0
LINE
  5
367
100
AcDbEntity
  8
GEOM
100
AcDbLine
 62
7
  6
CONTINUOUS
 10
191.7185058111
 20
169.3378801695
 11
194.8812798946
 21
169.3378801695
  0
ARC
  5
368
100
AcDbEntity
  8
GEOM
100
AcDbCircle
 62
7
  6
CONTINUOUS
 10
42.4125201083
 20
48.9771803613
 40
103.1575800633
100
AcDbArc
 50
52.8005821725
 51
53.0089798848
  0
ARC
  5
369
100
AcDbEntity
  8
GEOM
100
AcDbCircle
 62
7
  6
CONTINUOUS
 10
66.0223825607
 20
91.3102246326
 40
55.828143837
100
AcDbArc
 50
45.7762981122
 51
46.1697442394
  0
ARC
  5
36A
100
AcDbEntity
  8
0
100
AcDbCircle
 62
7
  6
CONTINUOUS
 10
116.4280012571
 20
64.921462259
 40
2.09
100
AcDbArc
 50
79.5243183036
 51
180.0
  0
ARC
  5
36B
100
AcDbEntity
  8
0
100
AcDbCircle
 62
7
  6
CONTINUOUS
 10
95.5295716113
 20
48.1735273462
 40
2.0834811509
100
AcDbArc
 50
89.2841595231
 51
90.0049200976
  0
ARC
  5
36C
100
AcDbEntity
  8
0
100
AcDbCircle
 62
7
  6
CONTINUOUS
 10
95.5295719084
 20
86.16938608
 40
2.0834700591
100
AcDbArc
 50
269.9950760501
 51
270.7158361173
  0
ARC
  5
36D
100
AcDbEntity
  8
0
100
AcDbCircle
 62
7
  6
CONTINUOUS
 10
115.7680012571
 20
65.091462259
 40
2.08
100
AcDbArc
 50
90.0
 51
180.0
  0
ARC
  5
36E
100
AcDbEntity
  8
0
100
AcDbCircle
 62
7
  6
CONTINUOUS
 10
121.5202974917
 20
49.671462259
 40
1.5
100
AcDbArc
 50
225.0
 51
270.0
  0
ARC
  5
36F
100
AcDbEntity
  8
0
100
AcDbCircle
 62
7
  6
CONTINUOUS
 10
100.9776568046
 20
83.671462259
 40
1.5
100
AcDbArc
 50
270.0
 51
315.0
  0
ARC
  5
370
100
AcDbEntity
  8
0
100
AcDbCircle
 62
7
  6
CONTINUOUS
 10
100.9776568046
 20
50.671462259
 40
1.5
100
AcDbArc
 50
45.0
 51
90.0
  0
ARC
  5
371
100
AcDbEntity
  8
0
100
AcDbCircle
 62
7
  6
CONTINUOUS
 10
119.3776568046
 20
47.571462259
 40
1.5
100
AcDbArc
 50
45.0
 51
90.0
  0
ARC
  5
372
100
AcDbEntity
  8
0
100
AcDbCircle
 62
7
  6
CONTINUOUS
 10
105.3202974917
 20
50.571462259
 40
1.5
100
AcDbArc
 50
225.0
 51
270.0
  0
ARC
  5
373
100
AcDbEntity
  8
0
100
AcDbCircle
 62
7
  6
CONTINUOUS
 10
105.3202974917
 20
83.771462259
 40
1.5
100
AcDbArc
 50
130.4307214483
 51
135.0
  0
ARC
  5
374
100
AcDbEntity
  8
0
100
AcDbCircle
 62
7
  6
CONTINUOUS
 10
114.8764018182
 20
66.3216905195
 40
1.37
100
AcDbArc
 50
113.1408681402
 51
150.1631525185
  0
ARC
  5
375
100
AcDbEntity
  8
0
100
AcDbCircle
 62
7
  6
CONTINUOUS
 10
103.6989803966
 20
85.6744890137
 40
0.9999996815
100
AcDbArc
 50
310.4287201388
 51
358.0028734392
  0
ARC
  5
376
100
AcDbEntity
  8
0
100
AcDbCircle
 62
7
  6
CONTINUOUS
 10
97.4608573635
 20
82.971462259
 40
0.8
100
AcDbArc
 50
210.0
 51
270.0
  0
ARC
  5
377
100
AcDbEntity
  8
0
100
AcDbCircle
 62
7
  6
CONTINUOUS
 10
97.4608573635
 20
51.371462259
 40
0.8
100
AcDbArc
 50
90.0
 51
150.0
  0
ARC
  5
378
100
AcDbEntity
  8
0
100
AcDbCircle
 62
7
  6
CONTINUOUS
 10
95.5556014752
 20
83.671462259
 40
0.5
100
AcDbArc
 50
30.0
 51
90.0
  0
ARC
  5
379
100
AcDbEntity
  8
0
100
AcDbCircle
 62
7
  6
CONTINUOUS
 10
95.5556014752
 20
50.671462259
 40
0.5
100
AcDbArc
 50
270.0
 51
330.0
  0
ARC
  5
37A
100
AcDbEntity
  8
0
100
AcDbCircle
 62
7
  6
CONTINUOUS
 10
95.5295369355
 20
76.8453664909
 40
0.2584295561
100
AcDbArc
 50
84.2114530219
 51
90.0319773278
  0
ARC
  5
37B
100
AcDbEntity
  8
0
100
AcDbCircle
 62
7
  6
CONTINUOUS
 10
95.52953726
 20
57.4975565498
 40
0.2584280789
100
AcDbArc
 50
269.9679876943
 51
275.7885078574
  0
ARC
  5
37C
100
AcDbEntity
  8
0
100
AcDbCircle
 62
7
  6
CONTINUOUS
 10
95.5295253117
 20
59.9589387967
 40
0.2304034785
100
AcDbArc
 50
83.5015644788
 51
90.0329739641
  0
ARC
  5
37D
100
AcDbEntity
  8
0
100
AcDbCircle
 62
7
  6
CONTINUOUS
 10
95.5295256439
 20
74.3839843794
 40
0.2304021367
100
AcDbArc
 50
269.9669855012
 51
276.4983903975
  0
ARC
  5
37E
100
AcDbEntity
  8
0
100
AcDbCircle
 62
7
  6
CONTINUOUS
 10
58.6328059882
 20
155.8987999335
 40
55.5831179998
100
AcDbArc
 50
353.6709999501
 51
353.8783855052
  0
ARC
  5
37F
100
AcDbEntity
  8
0
100
AcDbCircle
 62
7
  6
CONTINUOUS
 10
114.8877158839
 20
129.315886619
 40
16.9511346892
100
AcDbArc
 50
103.9299293666
 51
104.3458155367
  0
ARC
  5
380
100
AcDbEntity
  8
0
100
AcDbCircle
 62
7
  6
CONTINUOUS
 10
103.3989771481
 20
146.771462259
 40
3.0
100
AcDbArc
 50
90.0
 51
180.0
  0
ARC
  5
381
100
AcDbEntity
  8
0
100
AcDbCircle
 62
7
  6
CONTINUOUS
 10
104.6989771481
 20
140.871462259
 40
0.8
100
AcDbArc
 50
157.975687163
 51
180.0
  0
ARC
  5
382
100
AcDbEntity
  8
GEOM
100
AcDbCircle
 62
7
  6
CONTINUOUS
 10
104.6989771481
 20
140.871462259
 40
0.8
100
AcDbArc
 50
157.975687163
 51
180.0
  0
ARC
  5
383
100
AcDbEntity
  8
0
100
AcDbCircle
 62
7
  6
CONTINUOUS
 10
119.2989771481
 20
150.6250520975
 40
0.6
100
AcDbArc
 50
0.0
 51
60.0
  0
ARC
  5
384
100
AcDbEntity
  8
0
100
AcDbCircle
 62
7
  6
CONTINUOUS
 10
108.4989771481
 20
150.6250520975
 40
0.6
100
AcDbArc
 50
120.0
 51
180.0
  0
ARC
  5
385
100
AcDbEntity
  8
0
100
AcDbCircle
 62
7
  6
CONTINUOUS
 10
103.8989771481
 20
146.271462259
 40
0.5
100
AcDbArc
 50
90.0
 51
180.0
  0
ARC
  5
386
100
AcDbEntity
  8
GEOM
100
AcDbCircle
 62
7
  6
CONTINUOUS
 10
103.5989771481
 20
137.471462259
 40
0.3
100
AcDbArc
 50
315.0
 51
360.0
  0
ARC
  5
387
100
AcDbEntity
  8
GEOM
100
AcDbCircle
 62
7
  6
CONTINUOUS
 10
100.1989771481
 20
133.8446673398
 40
0.3
100
AcDbArc
 50
180.0
 51
240.0
  0
ARC
  5
388
100
AcDbEntity
  8
GEOM
100
AcDbCircle
 62
7
  6
CONTINUOUS
 10
100.1989771481
 20
136.871462259
 40
0.3
100
AcDbArc
 50
90.0
 51
180.0
  0
ARC
  5
389
100
AcDbEntity
  8
GEOM
100
AcDbCircle
 62
7
  6
CONTINUOUS
 10
104.3989799312
 20
130.7269742793
 40
0.2999999121
100
AcDbArc
 50
0.0003068801
 51
60.0006137545
  0
ARC
  5
38A
100
AcDbEntity
  8
0
100
AcDbCircle
 62
7
  6
CONTINUOUS
 10
131.4925914875
 20
52.3171393185
 40
2.0601308297
100
AcDbArc
 50
269.566964586
 51
270.001371924
  0
ARC
  5
38B
100
AcDbEntity
  8
0
100
AcDbCircle
 62
7
  6
CONTINUOUS
 10
131.4925914878
 20
82.025785201
 40
2.0601308281
100
AcDbArc
 50
89.998628087
 51
90.4330354242
  0
ARC
  5
38C
100
AcDbEntity
  8
0
100
AcDbCircle
 62
7
  6
CONTINUOUS
 10
124.0989676192
 20
87.1714550898
 40
0.9999990658
100
AcDbArc
 50
179.999589229
 51
270.0005459703
  0
ARC
  5
38D
100
AcDbEntity
  8
0
100
AcDbCircle
 62
7
  6
CONTINUOUS
 10
130.048873379
 20
85.671462259
 40
0.5
100
AcDbArc
 50
19.9999993826
 51
90.0
  0
ARC
  5
38E
100
AcDbEntity
  8
0
100
AcDbCircle
 62
7
  6
CONTINUOUS
 10
130.048873379
 20
48.671462259
 40
0.5
100
AcDbArc
 50
270.0
 51
340.0000006174
  0
ARC
  5
38F
100
AcDbEntity
  8
0
100
AcDbCircle
 62
7
  6
CONTINUOUS
 10
131.4770213858
 20
84.671462259
 40
0.5
100
AcDbArc
 50
200.0
 51
270.0
  0
ARC
  5
390
100
AcDbEntity
  8
0
100
AcDbCircle
 62
7
  6
CONTINUOUS
 10
131.4770213858
 20
49.671462259
 40
0.5
100
AcDbArc
 50
90.0
 51
160.0
  0
ARC
  5
391
100
AcDbEntity
  8
0
100
AcDbCircle
 62
7
  6
CONTINUOUS
 10
131.4926018758
 20
56.9841667137
 40
0.2549618006
100
AcDbArc
 50
89.9912468083
 51
93.5034772077
  0
ARC
  5
392
100
AcDbEntity
  8
0
100
AcDbCircle
 62
7
  6
CONTINUOUS
 10
131.4926018755
 20
77.3587578044
 40
0.2549618007
100
AcDbArc
 50
266.4965228584
 51
270.0087532592
  0
ARC
  5
393
100
AcDbEntity
  8
0
100
AcDbCircle
 62
7
  6
CONTINUOUS
 10
131.492604191
 20
60.4164023216
 40
0.2270600874
100
AcDbArc
 50
266.064780356
 51
270.0092351657
  0
ARC
  5
394
100
AcDbEntity
  8
0
100
AcDbCircle
 62
7
  6
CONTINUOUS
 10
131.4926041914
 20
73.9265221965
 40
0.2270600874
100
AcDbArc
 50
89.9907649419
 51
93.93521974
  0
ARC
  5
395
100
AcDbEntity
  8
0
100
AcDbCircle
 62
7
  6
CONTINUOUS
 10
149.8343088001
 20
163.771462259
 40
4.0
100
AcDbArc
 50
111.0331393818
 51
140.0
  0
ARC
  5
396
100
AcDbEntity
  8
0
100
AcDbCircle
 62
7
  6
CONTINUOUS
 10
132.3989771481
 20
150.771462259
 40
4.0
100
AcDbArc
 50
270.0
 51
320.0
  0
ARC
  5
397
100
AcDbEntity
  8
0
100
AcDbCircle
 62
7
  6
CONTINUOUS
 10
152.2543285929
 20
167.4357758356
 40
3.8553515715
100
AcDbArc
 50
179.0238597861
 51
180.0146922186
  0
ARC
  5
398
100
AcDbEntity
  8
0
100
AcDbCircle
 62
7
  6
CONTINUOUS
 10
202.8989771481
 20
166.771462259
 40
2.5
100
AcDbArc
 50
0.0
 51
90.0
  0
ARC
  5
399
100
AcDbEntity
  8
0
100
AcDbCircle
 62
7
  6
CONTINUOUS
 10
202.8989771481
 20
165.771462259
 40
2.5
100
AcDbArc
 50
270.0
 51
360.0
  0
ARC
  5
39A
100
AcDbEntity
  8
0
100
AcDbCircle
 62
7
  6
CONTINUOUS
 10
149.6989771481
 20
164.571462259
 40
1.3
100
AcDbArc
 50
212.8904173777
 51
270.0
  0
ARC
  5
39B
100
AcDbEntity
  8
0
100
AcDbCircle
 62
7
  6
CONTINUOUS
 10
149.6989771481
 20
167.971462259
 40
1.3
100
AcDbArc
 50
90.0
 51
180.0
  0
ARC
  5
39C
100
AcDbEntity
  8
0
100
AcDbCircle
 62
7
  6
CONTINUOUS
 10
132.3989771481
 20
150.771462259
 40
1.0
100
AcDbArc
 50
270.0
 51
320.0
  0
ARC
  5
39D
100
AcDbEntity
  8
0
100
AcDbCircle
 62
7
  6
CONTINUOUS
 10
123.3989771481
 20
132.1785690402
 40
0.5
100
AcDbArc
 50
315.0
 51
360.0
  0
ARC
  5
39E
100
AcDbEntity
  8
0
100
AcDbCircle
 62
7
  6
CONTINUOUS
 10
123.5989771481
 20
130.9643554778
 40
0.5
100
AcDbArc
 50
135.0
 51
180.0
  0
SPLINE
  5
39F
100
AcDbEntity
  8
0
100
AcDbSpline
 62
7
  6
CONTINUOUS
 70
0
 71
3
 72
9
 73
5
 74
0
 42
0.0000001
 43
0.0000001
 44
0.0000000001
 40
0.0
 40
0.0
 40
0.0
 40
0.0
 40
0.2911605665
 40
1.0
 40
1.0
 40
1.0
 40
1.0
 10
106.1770299255
 20
142.738743673
 30
0.0
 10
106.1734583347
 20
142.7368817
 30
0.0
 10
106.1613698466
 20
142.7302003795
 30
0.0
 10
106.1497869947
 20
142.7222684907
 30
0.0
 10
106.1428525297
 20
142.7153354411
 30
0.0
  0
SPLINE
  5
3A0
100
AcDbEntity
  8
0
100
AcDbSpline
 62
7
  6
CONTINUOUS
 70
0
 71
3
 72
9
 73
5
 74
0
 42
0.0000001
 43
0.0000001
 44
0.0000000001
 40
0.0
 40
0.0
 40
0.0
 40
0.0
 40
0.6123477161
 40
1.0
 40
1.0
 40
1.0
 40
1.0
 10
105.9093857665
 20
141.2632312423
 30
0.0
 10
105.9065775644
 20
141.2617669896
 30
0.0
 10
105.902058245
 20
141.2592546374
 30
0.0
 10
105.8989840555
 20
141.2543894198
 30
0.0
 10
105.8989838452
 20
141.2523845071
 30
0.0
  0
SPLINE
  5
3A1
100
AcDbEntity
  8
0
100
AcDbSpline
 62
7
  6
CONTINUOUS
 70
0
 71
3
 72
11
 73
7
 74
0
 42
0.0000001
 43
0.0000001
 44
0.0000000001
 40
0.0
 40
0.0
 40
0.0
 40
0.0
 40
0.2224350749
 40
0.4109555928
 40
0.653822195
 40
1.0
 40
1.0
 40
1.0
 40
1.0
 10
106.5349922454
 20
143.1074598026
 30
0.0
 10
106.5344520364
 20
143.1069191514
 30
0.0
 10
106.5335137772
 20
143.1057189866
 30
0.0
 10
106.5337935863
 20
143.1032910923
 30
0.0
 10
106.5357497892
 20
143.1013156736
 30
0.0
 10
106.5374758137
 20
143.1002715425
 30
0.0
 10
106.5385302292
 20
143.0997210632
 30
0.0
  0
SPLINE
  5
3A2
100
AcDbEntity
  8
0
100
AcDbSpline
 62
7
  6
CONTINUOUS
 70
0
 71
3
 72
9
 73
5
 74
0
 42
0.0000001
 43
0.0000001
 44
0.0000000001
 40
0.0
 40
0.0
 40
0.0
 40
0.0
 40
0.387611091
 40
1.0
 40
1.0
 40
1.0
 40
1.0
 10
105.8989841324
 20
142.1025411909
 30
0.0
 10
105.8989833627
 20
142.1005365314
 30
0.0
 10
105.902056172
 20
142.0956700035
 30
0.0
 10
105.9065759761
 20
142.0931582513
 30
0.0
 10
105.909384434
 20
142.0916941652
 30
0.0
  0
SPLINE
  5
3A3
100
AcDbEntity
  8
0
100
AcDbSpline
 62
7
  6
CONTINUOUS
 70
0
 71
3
 72
26
 73
22
 74
0
 42
0.0000001
 43
0.0000001
 44
0.0000000001
 40
0.0
 40
0.0
 40
0.0
 40
0.0
 40
0.1889086771
 40
0.3710172411
 40
0.4574645219
 40
0.5397895188
 40
0.6172528544
 40
0.6891563034
 40
0.7548539019
 40
0.813754863
 40
0.8653298029
 40
0.9091193312
 40
0.9279704283
 40
0.9447357272
 40
0.9593775229
 40
0.9718678216
 40
0.982181614
 40
0.9903021931
 40
0.996230011
 40
0.9983798164
 40
1.0
 40
1.0
 40
1.0
 40
1.0
 10
113.8989771481
 20
141.5863844736
 30
0.0
 10
113.3954095072
 20
141.5730002038
 30
0.0
 10
112.4064010779
 20
141.5467142761
 30
0.0
 10
111.1869836444
 20
141.5131468561
 30
0.0
 10
110.2517186906
 20
141.4858893811
 30
0.0
 10
109.5954114382
 20
141.4658122622
 30
0.0
 10
108.9779054828
 20
141.4457511319
 30
0.0
 10
108.4047624443
 20
141.4257110722
 30
0.0
 10
107.8811496261
 20
141.4057006602
 30
0.0
 10
107.4117860624
 20
141.3857376789
 30
0.0
 10
107.000899876
 20
141.365832731
 30
0.0
 10
106.6968134793
 20
141.3485934918
 30
0.0
 10
106.4855359663
 20
141.3345092125
 30
0.0
 10
106.3518898788
 20
141.3244985281
 30
0.0
 10
106.235255245
 20
141.3145158746
 30
0.0
 10
106.1358968127
 20
141.3045677686
 30
0.0
 10
106.0540084582
 20
141.2947071974
 30
0.0
 10
105.9897911827
 20
141.2849088638
 30
0.0
 10
105.9473894715
 20
141.27632839
 30
0.0
 10
105.922590687
 20
141.2689678984
 30
0.0
 10
105.9132166648
 20
141.2652287492
 30
0.0
 10
105.9093857665
 20
141.2632312423
 30
0.0
  0
SPLINE
  5
3A4
100
AcDbEntity
  8
0
100
AcDbSpline
 62
7
  6
CONTINUOUS
 70
0
 71
3
 72
30
 73
26
 74
0
 42
0.0000001
 43
0.0000001
 44
0.0000000001
 40
0.0
 40
0.0
 40
0.0
 40
0.0
 40
0.1946863632
 40
0.2897095847
 40
0.3819543624
 40
0.4705323806
 40
0.5545896219
 40
0.6333162733
 40
0.7059530843
 40
0.7717999838
 40
0.8302249132
 40
0.8806670507
 40
0.9027395721
 40
0.922643146
 40
0.9403300269
 40
0.9557580869
 40
0.9688952554
 40
0.9797124335
 40
0.9881915103
 40
0.9915536753
 40
0.9943327514
 40
0.9965339647
 40
0.9981712276
 40
0.9992831743
 40
1.0
 40
1.0
 40
1.0
 40
1.0
 10
113.9133969448
 20
142.4369246598
 30
0.0
 10
113.3924841991
 20
142.4230793192
 30
0.0
 10
112.6173221831
 20
142.4024852586
 30
0.0
 10
111.5953667437
 20
142.3745368239
 30
0.0
 10
110.8573309759
 20
142.3537508068
 30
0.0
 10
110.1486584483
 20
142.3329743362
 30
0.0
 10
109.4761843214
 20
142.3122109534
 30
0.0
 10
108.8463992045
 20
142.2914666048
 30
0.0
 10
108.2653832625
 20
142.2707479731
 30
0.0
 10
107.7387425868
 20
142.2500691168
 30
0.0
 10
107.2715570916
 20
142.2294407961
 30
0.0
 10
106.9215327917
 20
142.2116298248
 30
0.0
 10
106.6745909253
 20
142.1971238821
 30
0.0
 10
106.5152333927
 20
142.1867482057
 30
0.0
 10
106.3737004149
 20
142.1763938284
 30
0.0
 10
106.2503314273
 20
142.1660637693
 30
0.0
 10
106.1454169398
 20
142.1557845726
 30
0.0
 10
106.059204636
 20
142.1455621456
 30
0.0
 10
105.9992008392
 20
142.1366046747
 30
0.0
 10
105.96077514
 20
142.1291582829
 30
0.0
 10
105.9390381294
 20
142.1240194537
 30
0.0
 10
105.9220376744
 20
142.1189902982
 30
0.0
 10
105.9097706755
 20
142.1138701895
 30
0.0
 10
105.9017888909
 20
142.1090903717
 30
0.0
 10
105.8989848691
 20
142.1044598433
 30
0.0
 10
105.8989841324
 20
142.1025411909
 30
0.0
  0
SPLINE
  5
3A5
100
AcDbEntity
  8
0
100
AcDbSpline
 62
7
  6
CONTINUOUS
 70
0
 71
3
 72
18
 73
14
 74
0
 42
0.0000001
 43
0.0000001
 44
0.0000000001
 40
0.0
 40
0.0
 40
0.0
 40
0.0
 40
0.1986648228
 40
0.3795329183
 40
0.5405561936
 40
0.6800603962
 40
0.7966173612
 40
0.8459377932
 40
0.8891469361
 40
0.9261652256
 40
0.9569553443
 40
0.9815323461
 40
1.0
 40
1.0
 40
1.0
 40
1.0
 10
109.3687195024
 20
143.1176371633
 30
0.0
 10
109.156040604
 20
143.1020873413
 30
0.0
 10
108.7498038738
 20
143.0714161708
 30
0.0
 10
108.1715220113
 20
143.0238159678
 30
0.0
 10
107.6569384264
 20
142.9766421675
 30
0.0
 10
107.2116719699
 20
142.9299239083
 30
0.0
 10
106.886326458
 20
142.8895892031
 30
0.0
 10
106.6643113824
 20
142.8566615824
 30
0.0
 10
106.5271847755
 20
142.8334882134
 30
0.0
 10
106.410250841
 20
142.8104628432
 30
0.0
 10
106.313696368
 20
142.7876324385
 30
0.0
 10
106.2377109416
 20
142.7650455798
 30
0.0
 10
106.1946077951
 20
142.7479075218
 30
0.0
 10
106.1770299255
 20
142.738743673
 30
0.0
  0
SPLINE
  5
3A6
100
AcDbEntity
  8
0
100
AcDbSpline
 62
7
  6
CONTINUOUS
 70
0
 71
3
 72
50
 73
46
 74
0
 42
0.0000001
 43
0.0000001
 44
0.0000000001
 40
0.0
 40
0.0
 40
0.0
 40
0.0
 40
0.1148103796
 40
0.2326901073
 40
0.3534914865
 40
0.4149309721
 40
0.4770238996
 40
0.5397308685
 40
0.6029969998
 40
0.6348149883
 40
0.6667365296
 40
0.6987391431
 40
0.730788249
 40
0.7468133632
 40
0.7628245031
 40
0.7788044398
 40
0.7947253791
 40
0.8026495587
 40
0.8105368878
 40
0.8183713562
 40
0.8261254228
 40
0.8299572374
 40
0.8337440676
 40
0.837464797
 40
0.8410765389
 40
0.8428151301
 40
0.8444660852
 40
0.8460158758
 40
0.846804242
 40
0.8479609531
 40
0.850570241
 40
0.8531008092
 40
0.8555659593
 40
0.8579881796
 40
0.8627476744
 40
0.8674322049
 40
0.8766607546
 40
0.8857670719
 40
0.894789751
 40
0.9037492328
 40
0.9126578774
 40
0.9303527328
 40
0.9479153162
 40
0.9653685907
 40
1.0
 40
1.0
 40
1.0
 40
1.0
 10
108.5253788925
 20
143.171462259
 30
0.0
 10
108.5719230312
 20
143.1714463651
 30
0.0
 10
108.6662556994
 20
143.1713273606
 30
0.0
 10
108.8095598524
 20
143.1706426597
 30
0.0
 10
108.9312247203
 20
143.1695969456
 30
0.0
 10
109.0302701724
 20
143.168369002
 30
0.0
 10
109.105762814
 20
143.1672051513
 30
0.0
 10
109.1819910618
 20
143.165747536
 30
0.0
 10
109.2459417633
 20
143.1642214164
 30
0.0
 10
109.297408658
 20
143.1627399371
 30
0.0
 10
109.3362017759
 20
143.161466467
 30
0.0
 10
109.375081578
 20
143.1599918094
 30
0.0
 10
109.4075128223
 20
143.1585435367
 30
0.0
 10
109.433458223
 20
143.1571968591
 30
0.0
 10
109.4528915225
 20
143.1560702245
 30
0.0
 10
109.4722733409
 20
143.1547945476
 30
0.0
 10
109.4883719751
 20
143.1535637893
 30
0.0
 10
109.5011864706
 20
143.1524306661
 30
0.0
 10
109.5107263809
 20
143.1514886078
 30
0.0
 10
109.5201840667
 20
143.1504234659
 30
0.0
 10
109.5279898344
 20
143.1493902719
 30
0.0
 10
109.5341473198
 20
143.1484248658
 30
0.0
 10
109.5386717793
 20
143.1476131711
 30
0.0
 10
109.5430847235
 20
143.1466736819
 30
0.0
 10
109.5466303951
 20
143.1457212162
 30
0.0
 10
109.549323888
 20
143.1447571821
 30
0.0
 10
109.5510709215
 20
143.1438783721
 30
0.0
 10
109.5525419577
 20
143.1428799345
 30
0.0
 10
109.5526495555
 20
143.1413255796
 30
0.0
 10
109.5512605311
 20
143.1399126488
 30
0.0
 10
109.5490069509
 20
143.1387609684
 30
0.0
 10
109.5460895354
 20
143.1377206443
 30
0.0
 10
109.543206574
 20
143.136872309
 30
0.0
 10
109.5394152624
 20
143.1359067709
 30
0.0
 10
109.5347134795
 20
143.1348857524
 30
0.0
 10
109.5272739694
 20
143.133483609
 30
0.0
 10
109.5180583467
 20
143.132005345
 30
0.0
 10
109.5070739005
 20
143.1304709312
 30
0.0
 10
109.496177684
 20
143.1291013996
 30
0.0
 10
109.4853481486
 20
143.12784945
 30
0.0
 10
109.4710138952
 20
143.1263038087
 30
0.0
 10
109.4531950725
 20
143.1245463073
 30
0.0
 10
109.4319123115
 20
143.1226273966
 30
0.0
 10
109.4037757775
 20
143.1202697041
 30
0.0
 10
109.3827217041
 20
143.1186609214
 30
0.0
 10
109.3687195024
 20
143.1176371633
 30
0.0
  0
LINE
  5
3A7
100
AcDbEntity
  8
0
100
AcDbLine
 62
7
  6
CONTINUOUS
 10
106.5564768349
 20
141.6005598738
 11
106.5615741168
 21
141.6029718451
  0
SPLINE
  5
3A8
100
AcDbEntity
  8
0
100
AcDbSpline
 62
7
  6
CONTINUOUS
 70
0
 71
3
 72
9
 73
5
 74
0
 42
0.0000001
 43
0.0000001
 44
0.0000000001
 40
0.0
 40
0.0
 40
0.0
 40
0.0
 40
0.2070042419
 40
1.0
 40
1.0
 40
1.0
 40
1.0
 10
106.5615741168
 20
141.6029718451
 30
0.0
 10
106.5635894583
 20
141.6038446759
 30
0.0
 10
106.5734665028
 20
141.6077344351
 30
0.0
 10
106.583699585
 20
141.6106423971
 30
0.0
 10
106.5918481831
 20
141.6127364585
 30
0.0
  0
SPLINE
  5
3A9
100
AcDbEntity
  8
0
100
AcDbSpline
 62
7
  6
CONTINUOUS
 70
0
 71
3
 72
20
 73
16
 74
0
 42
0.0000001
 43
0.0000001
 44
0.0000000001
 40
0.0
 40
0.0
 40
0.0
 40
0.0
 40
0.0062493177
 40
0.0145733264
 40
0.0374162907
 40
0.0683744652
 40
0.1071873774
 40
0.1535101612
 40
0.2069281489
 40
0.2669625655
 40
0.33307018
 40
0.4810672636
 40
0.6455790698
 40
0.8206650722
 40
1.0
 40
1.0
 40
1.0
 40
1.0
 10
106.5918481831
 20
141.6127364585
 30
0.0
 10
106.6075792546
 20
141.6167790962
 30
0.0
 10
106.6447548922
 20
141.6242399926
 30
0.0
 10
106.7408879011
 20
141.6389533941
 30
0.0
 10
106.9015093608
 20
141.6560867831
 30
0.0
 10
107.141410635
 20
141.6757148121
 30
0.0
 10
107.4425113363
 20
141.6954655952
 30
0.0
 10
107.8020673022
 20
141.7153914302
 30
0.0
 10
108.2168511167
 20
141.7353818458
 30
0.0
 10
108.6831048722
 20
141.7554292013
 30
0.0
 10
109.3950605783
 20
141.7832592244
 30
0.0
 10
110.3785148109
 20
141.8172850169
 30
0.0
 10
111.6451729438
 20
141.8569323417
 30
0.0
 10
112.9933139395
 20
141.8966634279
 30
0.0
 10
113.9140856449
 20
141.9231797506
 30
0.0
 10
114.3799883902
 20
141.9366799282
 30
0.0
  0
SPLINE
  5
3AA
100
AcDbEntity
  8
0
100
AcDbSpline
 62
7
  6
CONTINUOUS
 70
0
 71
3
 72
11
 73
7
 74
0
 42
0.0000001
 43
0.0000001
 44
0.0000000001
 40
0.0
 40
0.0
 40
0.0
 40
0.0
 40
0.3477808973
 40
0.5957236378
 40
0.7864378654
 40
1.0
 40
1.0
 40
1.0
 40
1.0
 10
106.5562900936
 20
143.0904620995
 30
0.0
 10
106.553955192
 20
143.091690542
 30
0.0
 10
106.5500958997
 20
143.0940382186
 30
0.0
 10
106.5457247996
 20
143.0983632141
 30
0.0
 10
106.5447001945
 20
143.1036074489
 30
0.0
 10
106.5464993599
 20
143.1063902995
 30
0.0
 10
106.5475719749
 20
143.1076045115
 30
0.0
  0
SPLINE
  5
3AB
100
AcDbEntity
  8
0
100
AcDbSpline
 62
7
  6
CONTINUOUS
 70
0
 71
3
 72
9
 73
5
 74
0
 42
0.0000001
 43
0.0000001
 44
0.0000000001
 40
0.0
 40
0.0
 40
0.0
 40
0.0
 40
0.4119614217
 40
1.0
 40
1.0
 40
1.0
 40
1.0
 10
106.5475719749
 20
143.1076045115
 30
0.0
 10
106.5493800854
 20
143.1096513123
 30
0.0
 10
106.5549497275
 20
143.113489658
 30
0.0
 10
106.5609918397
 20
143.1161965793
 30
0.0
 10
106.5646142326
 20
143.1176371752
 30
0.0
  0
SPLINE
  5
3AC
100
AcDbEntity
  8
0
100
AcDbSpline
 62
7
  6
CONTINUOUS
 70
0
 71
3
 72
36
 73
32
 74
0
 42
0.0000001
 43
0.0000001
 44
0.0000000001
 40
0.0
 40
0.0
 40
0.0
 40
0.0
 40
0.0012717735
 40
0.0020947189
 40
0.002457247
 40
0.0028721171
 40
0.0033873188
 40
0.0040286114
 40
0.0057352607
 40
0.0080447276
 40
0.0109749681
 40
0.014533656
 40
0.0187228315
 40
0.0235421576
 40
0.035064795
 40
0.0490832617
 40
0.065562864
 40
0.0844614282
 40
0.105732109
 40
0.1293158131
 40
0.1551505611
 40
0.1831678475
 40
0.2132898074
 40
0.2795218628
 40
0.3531283983
 40
0.4333114169
 40
0.5192013856
 40
0.6098648224
 40
0.7043163563
 40
0.8015301386
 40
1.0
 40
1.0
 40
1.0
 40
1.0
 10
106.5563436465
 20
141.7544341805
 30
0.0
 10
106.5534498682
 20
141.7559511692
 30
0.0
 10
106.5488007006
 20
141.75861718
 30
0.0
 10
106.5448029302
 20
141.7642662316
 30
0.0
 10
106.5453697632
 20
141.7685131245
 30
0.0
 10
106.5471629555
 20
141.7713811835
 30
0.0
 10
106.5501376613
 20
141.7741497211
 30
0.0
 10
106.5563091684
 20
141.7781929551
 30
0.0
 10
106.5673487288
 20
141.7829648532
 30
0.0
 10
106.5843645438
 20
141.7883578919
 30
0.0
 10
106.6063220045
 20
141.7937876046
 30
0.0
 10
106.6332085282
 20
141.799252834
 30
0.0
 10
106.6650294901
 20
141.8047384228
 30
0.0
 10
106.7171978983
 20
141.8125438974
 30
0.0
 10
106.7946263368
 20
141.8220525074
 30
0.0
 10
106.9020314186
 20
141.8329708294
 30
0.0
 10
107.0284652775
 20
141.843929967
 30
0.0
 10
107.1735871213
 20
141.8549231888
 30
0.0
 10
107.3370047899
 20
141.865934387
 30
0.0
 10
107.5182770054
 20
141.8769621737
 30
0.0
 10
107.7169102393
 20
141.8880002363
 30
0.0
 10
107.9323640961
 20
141.8990461771
 30
0.0
 10
108.2515221517
 20
141.9142694393
 30
0.0
 10
108.6877618923
 20
141.9330813612
 30
0.0
 10
109.2525898604
 20
141.9550527683
 30
0.0
 10
109.8679543641
 20
141.9770548502
 30
0.0
 10
110.5271644668
 20
141.9990806534
 30
0.0
 10
111.2230502929
 20
142.0211224242
 30
0.0
 10
111.9480414786
 20
142.0431756926
 30
0.0
 10
112.9498940669
 20
142.0727931019
 30
0.0
 10
113.7092153779
 20
142.094666168
 30
0.0
 10
114.2188877916
 20
142.1094169697
 30
0.0
  0
SPLINE
  5
3AD
100
AcDbEntity
  8
0
100
AcDbSpline
 62
7
  6
CONTINUOUS
 70
0
 71
3
 72
9
 73
5
 74
0
 42
0.0000001
 43
0.0000001
 44
0.0000000001
 40
0.0
 40
0.0
 40
0.0
 40
0.0
 40
0.1995464834
 40
1.0
 40
1.0
 40
1.0
 40
1.0
 10
106.5564696507
 20
142.9365601744
 30
0.0
 10
106.5583002949
 20
142.9375146852
 30
0.0
 10
106.5677104411
 20
142.9418428186
 30
0.0
 10
106.5776520791
 20
142.9448790354
 30
0.0
 10
106.5856354141
 20
142.9470817572
 30
0.0
  0
SPLINE
  5
3AE
100
AcDbEntity
  8
0
100
AcDbSpline
 62
7
  6
CONTINUOUS
 70
0
 71
3
 72
17
 73
13
 74
0
 42
0.0000001
 43
0.0000001
 44
0.0000000001
 40
0.0
 40
0.0
 40
0.0
 40
0.0
 40
0.0175540708
 40
0.0415356729
 40
0.0719407341
 40
0.108708965
 40
0.2010082319
 40
0.3175679832
 40
0.4572454311
 40
0.6186404528
 40
0.8001994522
 40
1.0
 40
1.0
 40
1.0
 40
1.0
 10
106.5856354141
 20
142.9470817572
 30
0.0
 10
106.6013719208
 20
142.9514236954
 30
0.0
 10
106.6392431452
 20
142.9593026111
 30
0.0
 10
106.7053423977
 20
142.9696336356
 30
0.0
 10
106.7894852191
 20
142.9800515953
 30
0.0
 10
106.9370135139
 20
142.9952248882
 30
0.0
 10
107.164735027
 20
143.013421089
 30
0.0
 10
107.4881921438
 20
143.0342516146
 30
0.0
 10
107.8760133418
 20
143.0551914533
 30
0.0
 10
108.3243479837
 20
143.0762363216
 30
0.0
 10
108.8286469095
 20
143.0973309903
 30
0.0
 10
109.1830387167
 20
143.1108214511
 30
0.0
 10
109.3687195024
 20
143.1176371633
 30
0.0
  0
LINE
  5
3AF
100
AcDbEntity
  8
0
100
AcDbLine
 62
7
  6
CONTINUOUS
 10
114.6870857081
 20
141.6073655645
 11
113.8989771481
 21
141.5863844736
  0
SPLINE
  5
3B0
100
AcDbEntity
  8
0
100
AcDbSpline
 62
7
  6
CONTINUOUS
 70
0
 71
3
 72
11
 73
7
 74
0
 42
0.0000001
 43
0.0000001
 44
0.0000000001
 40
0.0
 40
0.0
 40
0.0
 40
0.0
 40
0.2424504748
 40
0.4884289768
 40
0.7405228275
 40
1.0
 40
1.0
 40
1.0
 40
1.0
 10
108.2698120235
 20
146.171462259
 30
0.0
 10
108.1341994115
 20
146.1714622544
 30
0.0
 10
107.8606196855
 20
146.151461817
 30
0.0
 10
107.4545949348
 20
146.0640058422
 30
0.0
 10
107.0534223217
 20
145.9249548941
 30
0.0
 10
106.7933740141
 20
145.8045386585
 30
0.0
 10
106.6641579512
 20
145.7384495571
 30
0.0
  0
SPLINE
  5
3B1
100
AcDbEntity
  8
0
100
AcDbSpline
 62
7
  6
CONTINUOUS
 70
0
 71
3
 72
16
 73
12
 74
0
 42
0.0000001
 43
0.0000001
 44
0.0000000001
 40
0.0
 40
0.0
 40
0.0
 40
0.0
 40
0.0177345109
 40
0.0416962526
 40
0.10830685
 40
0.1995972123
 40
0.3150359975
 40
0.4538691648
 40
0.6151345376
 40
0.7976559251
 40
1.0
 40
1.0
 40
1.0
 40
1.0
 10
106.5646142326
 20
143.1176371752
 30
0.0
 10
106.5759599595
 20
143.1199906528
 30
0.0
 10
106.6029147288
 20
143.1241254626
 30
0.0
 10
106.6732588782
 20
143.1318494041
 30
0.0
 10
106.7918505225
 20
143.1399131252
 30
0.0
 10
106.9702461014
 20
143.1482093632
 30
0.0
 10
107.1959190307
 20
143.1555022478
 30
0.0
 10
107.4673478714
 20
143.161793915
 30
0.0
 10
107.782640617
 20
143.1668695194
 30
0.0
 10
108.1394512226
 20
143.1704882639
 30
0.0
 10
108.3909125772
 20
143.1714179725
 30
0.0
 10
108.5231187255
 20
143.171462259
 30
0.0
  0
SPLINE
  5
3B2
100
AcDbEntity
  8
0
100
AcDbSpline
 62
7
  6
CONTINUOUS
 70
0
 71
3
 72
9
 73
5
 74
0
 42
0.0000001
 43
0.0000001
 44
0.0000000001
 40
0.0
 40
0.0
 40
0.0
 40
0.0
 40
0.3103520225
 40
1.0
 40
1.0
 40
1.0
 40
1.0
 10
106.5646142326
 20
143.1176371752
 30
0.0
 10
106.5621273123
 20
143.117121306
 30
0.0
 10
106.5541484897
 20
143.1153442015
 30
0.0
 10
106.5461736614
 20
143.1132555585
 30
0.0
 10
106.5409820376
 20
143.1110417012
 30
0.0
  0
SPLINE
  5
3B3
100
AcDbEntity
  8
0
100
AcDbSpline
 62
7
  6
CONTINUOUS
 70
0
 71
3
 72
9
 73
5
 74
0
 42
0.0000001
 43
0.0000001
 44
0.0000000001
 40
0.0
 40
0.0
 40
0.0
 40
0.0
 40
0.306603744
 40
1.0
 40
1.0
 40
1.0
 40
1.0
 10
106.5409820376
 20
143.1110417012
 30
0.0
 10
106.5403242264
 20
143.1107611917
 30
0.0
 10
106.5382124392
 20
143.1097916576
 30
0.0
 10
106.5361353663
 20
143.1086038592
 30
0.0
 10
106.5349922454
 20
143.1074598026
 30
0.0
  0
SPLINE
  5
3B4
100
AcDbEntity
  8
0
100
AcDbSpline
 62
7
  6
CONTINUOUS
 70
0
 71
3
 72
11
 73
7
 74
0
 42
0.0000001
 43
0.0000001
 44
0.0000000001
 40
0.0
 40
0.0
 40
0.0
 40
0.0
 40
0.2594721663
 40
0.5115657909
 40
0.7575467579
 40
1.0
 40
1.0
 40
1.0
 40
1.0
 10
109.8754660959
 20
145.7384495571
 30
0.0
 10
109.7462524792
 20
145.8045374073
 30
0.0
 10
109.4862071142
 20
145.9249530931
 30
0.0
 10
109.0850368893
 20
146.0640066752
 30
0.0
 10
108.6790090961
 20
146.1514636263
 30
0.0
 10
108.4054262322
 20
146.1714622636
 30
0.0
 10
108.2698120235
 20
146.171462259
 30
0.0
  0
SPLINE
  5
3B5
100
AcDbEntity
  8
0
100
AcDbSpline
 62
7
  6
CONTINUOUS
 70
0
 71
3
 72
11
 73
7
 74
0
 42
0.0000001
 43
0.0000001
 44
0.0000000001
 40
0.0
 40
0.0
 40
0.0
 40
0.0
 40
0.2616429466
 40
0.5144970929
 40
0.7595947853
 40
1.0
 40
1.0
 40
1.0
 40
1.0
 10
116.2083782249
 20
154.6141966691
 30
0.0
 10
116.300683342
 20
154.6674890533
 30
0.0
 10
116.4863826097
 20
154.7653582481
 30
0.0
 10
116.7743201564
 20
154.880633768
 30
0.0
 10
117.0670006829
 20
154.9543880474
 30
0.0
 10
117.2651455518
 20
154.971462259
 30
0.0
 10
117.3630787637
 20
154.971462259
 30
0.0
  0
SPLINE
  5
3B6
100
AcDbEntity
  8
0
100
AcDbSpline
 62
7
  6
CONTINUOUS
 70
0
 71
3
 72
11
 73
7
 74
0
 42
0.0000001
 43
0.0000001
 44
0.0000000001
 40
0.0
 40
0.0
 40
0.0
 40
0.0
 40
0.2404052601
 40
0.485503008
 40
0.7383572234
 40
1.0
 40
1.0
 40
1.0
 40
1.0
 10
117.3630787637
 20
154.971462259
 30
0.0
 10
117.4610119939
 20
154.971462259
 30
0.0
 10
117.659156907
 20
154.9543880578
 30
0.0
 10
117.9518374852
 20
154.8806337014
 30
0.0
 10
118.2397750208
 20
154.7653582094
 30
0.0
 10
118.4254742447
 20
154.6674890186
 30
0.0
 10
118.5177793017
 20
154.6141966691
 30
0.0
  0
SPLINE
  5
3B7
100
AcDbEntity
  8
0
100
AcDbSpline
 62
7
  6
CONTINUOUS
 70
0
 71
3
 72
15
 73
11
 74
0
 42
0.0000001
 43
0.0000001
 44
0.0000000001
 40
0.0
 40
0.0
 40
0.0
 40
0.0
 40
0.1308200724
 40
0.2572467341
 40
0.3797970183
 40
0.5000000228
 40
0.620203024
 40
0.7427533002
 40
0.8691799394
 40
1.0
 40
1.0
 40
1.0
 40
1.0
 10
118.5177793017
 20
151.7688972075
 30
0.0
 10
118.4254752547
 20
151.8221889739
 30
0.0
 10
118.2397732485
 20
151.9200572469
 30
0.0
 10
117.9518550364
 20
152.0353342505
 30
0.0
 10
117.6591087979
 20
152.1090857144
 30
0.0
 10
117.363078711
 20
152.1346080441
 30
0.0
 10
117.0670486345
 20
152.1090856817
 30
0.0
 10
116.774302426
 20
152.0353342169
 30
0.0
 10
116.486384244
 20
151.9200572311
 30
0.0
 10
116.3006822635
 20
151.822188969
 30
0.0
 10
116.2083782249
 20
151.7688972075
 30
0.0
  0
SPLINE
  5
3B8
100
AcDbEntity
  8
0
100
AcDbSpline
 62
7
  6
CONTINUOUS
 70
0
 71
3
 72
11
 73
7
 74
0
 42
0.0000001
 43
0.0000001
 44
0.0000000001
 40
0.0
 40
0.0
 40
0.0
 40
0.0
 40
0.2616427032
 40
0.5144968934
 40
0.7595946658
 40
1.0
 40
1.0
 40
1.0
 40
1.0
 10
109.2801749946
 20
154.6141966691
 30
0.0
 10
109.3724800258
 20
154.6674890037
 30
0.0
 10
109.5581792114
 20
154.7653581818
 30
0.0
 10
109.846116717
 20
154.880633665
 30
0.0
 10
110.1387973162
 20
154.9543880658
 30
0.0
 10
110.336942272
 20
154.971462259
 30
0.0
 10
110.4348755326
 20
154.971462259
 30
0.0
  0
SPLINE
  5
3B9
100
AcDbEntity
  8
0
100
AcDbSpline
 62
7
  6
CONTINUOUS
 70
0
 71
3
 72
9
 73
5
 74
0
 42
0.0000001
 43
0.0000001
 44
0.0000000001
 40
0.0
 40
0.0
 40
0.0
 40
0.0
 40
0.2530239619
 40
1.0
 40
1.0
 40
1.0
 40
1.0
 10
113.8989771481
 20
149.971462259
 30
0.0
 10
113.9587876343
 20
149.9543296007
 30
0.0
 10
114.1954291498
 20
149.8875262989
 30
0.0
 10
114.4325571301
 20
149.8224369107
 30
0.0
 10
114.6090155099
 20
149.771462259
 30
0.0
  0
SPLINE
  5
3BA
100
AcDbEntity
  8
0
100
AcDbSpline
 62
7
  6
CONTINUOUS
 70
0
 71
3
 72
11
 73
7
 74
0
 42
0.0000001
 43
0.0000001
 44
0.0000000001
 40
0.0
 40
0.0
 40
0.0
 40
0.0
 40
0.2404053342
 40
0.4855030662
 40
0.7383571529
 40
1.0
 40
1.0
 40
1.0
 40
1.0
 10
110.4348755326
 20
154.971462259
 30
0.0
 10
110.5328087934
 20
154.971462259
 30
0.0
 10
110.7309537318
 20
154.9543880637
 30
0.0
 10
111.023634283
 20
154.8806337079
 30
0.0
 10
111.3115717836
 20
154.765358209
 30
0.0
 10
111.4972709892
 20
154.6674890332
 30
0.0
 10
111.5895760714
 20
154.6141966691
 30
0.0
  0
SPLINE
  5
3BB
100
AcDbEntity
  8
0
100
AcDbSpline
 62
7
  6
CONTINUOUS
 70
0
 71
3
 72
15
 73
11
 74
0
 42
0.0000001
 43
0.0000001
 44
0.0000000001
 40
0.0
 40
0.0
 40
0.0
 40
0.0
 40
0.1308200724
 40
0.2572467341
 40
0.3797970183
 40
0.5000000228
 40
0.620203024
 40
0.7427533002
 40
0.8691799394
 40
1.0
 40
1.0
 40
1.0
 40
1.0
 10
111.5895760714
 20
151.7688972075
 30
0.0
 10
111.4972720244
 20
151.8221889739
 30
0.0
 10
111.3115700182
 20
151.9200572469
 30
0.0
 10
111.0236518062
 20
152.0353342505
 30
0.0
 10
110.7309055677
 20
152.1090857144
 30
0.0
 10
110.4348754808
 20
152.1346080441
 30
0.0
 10
110.1388454043
 20
152.1090856817
 30
0.0
 10
109.8460991957
 20
152.0353342169
 30
0.0
 10
109.5581810138
 20
151.9200572311
 30
0.0
 10
109.3724790333
 20
151.822188969
 30
0.0
 10
109.2801749946
 20
151.7688972075
 30
0.0
  0
LINE
  5
3BC
100
AcDbEntity
  8
0
100
AcDbLine
 62
7
  6
CONTINUOUS
 10
113.1057155071
 20
149.771462259
 11
113.1134825836
 21
149.8457184346
  0
SPLINE
  5
3BD
100
AcDbEntity
  8
0
100
AcDbSpline
 62
7
  6
CONTINUOUS
 70
0
 71
3
 72
10
 73
6
 74
0
 42
0.0000001
 43
0.0000001
 44
0.0000000001
 40
0.0
 40
0.0
 40
0.0
 40
0.0
 40
0.4999011814
 40
0.7499517172
 40
1.0
 40
1.0
 40
1.0
 40
1.0
 10
111.5895760714
 20
154.6141966691
 30
0.0
 10
111.96480235
 20
154.7225151656
 30
0.0
 10
112.536845305
 20
154.8579279529
 30
0.0
 10
113.3127175675
 20
154.9547907759
 30
0.0
 10
113.7036268795
 20
154.971462259
 30
0.0
 10
113.898977148
 20
154.971462259
 30
0.0
  0
SPLINE
  5
3BE
100
AcDbEntity
  8
0
100
AcDbSpline
 62
7
  6
CONTINUOUS
 70
0
 71
3
 72
10
 73
6
 74
0
 42
0.0000001
 43
0.0000001
 44
0.0000000001
 40
0.0
 40
0.0
 40
0.0
 40
0.0
 40
0.2500483041
 40
0.5000988454
 40
1.0
 40
1.0
 40
1.0
 40
1.0
 10
113.898977148
 20
154.971462259
 30
0.0
 10
114.0943274332
 20
154.971462259
 30
0.0
 10
114.4852367665
 20
154.9547907789
 30
0.0
 10
115.2611090277
 20
154.8579279417
 30
0.0
 10
115.8331519663
 20
154.7225151598
 30
0.0
 10
116.2083782249
 20
154.6141966691
 30
0.0
  0
SPLINE
  5
3BF
100
AcDbEntity
  8
0
100
AcDbSpline
 62
7
  6
CONTINUOUS
 70
0
 71
3
 72
10
 73
6
 74
0
 42
0.0000001
 43
0.0000001
 44
0.0000000001
 40
0.0
 40
0.0
 40
0.0
 40
0.0
 40
0.4999007856
 40
0.7499513904
 40
1.0
 40
1.0
 40
1.0
 40
1.0
 10
116.2083782249
 20
151.7688972075
 30
0.0
 10
115.8331522426
 20
151.8772156184
 30
0.0
 10
115.2611095385
 20
152.0126283119
 30
0.0
 10
114.4852373002
 20
152.109491366
 30
0.0
 10
114.0943276724
 20
152.1261627974
 30
0.0
 10
113.8989771481
 20
152.1261627974
 30
0.0
  0
SPLINE
  5
3C0
100
AcDbEntity
  8
0
100
AcDbSpline
 62
7
  6
CONTINUOUS
 70
0
 71
3
 72
10
 73
6
 74
0
 42
0.0000001
 43
0.0000001
 44
0.0000000001
 40
0.0
 40
0.0
 40
0.0
 40
0.0
 40
0.2500490219
 40
0.5000997455
 40
1.0
 40
1.0
 40
1.0
 40
1.0
 10
113.8989771481
 20
152.1261627974
 30
0.0
 10
113.7036263012
 20
152.1261627974
 30
0.0
 10
113.3127162515
 20
152.1094914094
 30
0.0
 10
112.5368440375
 20
152.0126281137
 30
0.0
 10
111.9648016561
 20
151.8772155037
 30
0.0
 10
111.5895760714
 20
151.7688972075
 30
0.0
  0
SPLINE
  5
3C1
100
AcDbEntity
  8
0
100
AcDbSpline
 62
7
  6
CONTINUOUS
 70
0
 71
3
 72
8
 73
4
 74
0
 42
0.0000001
 43
0.0000001
 44
0.0000000001
 40
0.0
 40
0.0
 40
0.0
 40
0.0
 40
1.0
 40
1.0
 40
1.0
 40
1.0
 10
148.3989771481
 20
165.1081373009
 30
0.0
 10
148.3989771481
 20
164.995756068
 30
0.0
 10
148.4035635209
 20
164.8830674601
 30
0.0
 10
148.4167476251
 20
164.771462259
 30
0.0
  0
SPLINE
  5
3C2
100
AcDbEntity
  8
0
100
AcDbSpline
 62
7
  6
CONTINUOUS
 70
0
 71
3
 72
8
 73
4
 74
0
 42
0.0000001
 43
0.0000001
 44
0.0000000001
 40
0.0
 40
0.0
 40
0.0
 40
0.0
 40
1.0
 40
1.0
 40
1.0
 40
1.0
 10
148.4167476251
 20
167.771462259
 30
0.0
 10
148.4061675111
 20
167.6819001826
 30
0.0
 10
148.4010960685
 20
167.5916270948
 30
0.0
 10
148.3995365247
 20
167.5014557458
 30
0.0
  0
SPLINE
  5
3C3
100
AcDbEntity
  8
0
100
AcDbSpline
 62
7
  6
CONTINUOUS
 70
0
 71
3
 72
9
 73
5
 74
0
 42
0.0000001
 43
0.0000001
 44
0.0000000001
 40
0.0
 40
0.0
 40
0.0
 40
0.0
 40
0.5000128738
 40
1.0
 40
1.0
 40
1.0
 40
1.0
 10
131.4926407895
 20
60.1893422371
 30
0.0
 10
131.660874385
 20
61.3450068452
 30
0.0
 10
131.9284851154
 20
63.6671699161
 30
0.0
 10
132.0229763345
 20
66.0036768457
 30
0.0
 10
132.0229767372
 20
67.171462259
 30
0.0
  0
SPLINE
  5
3C4
100
AcDbEntity
  8
0
100
AcDbSpline
 62
7
  6
CONTINUOUS
 70
0
 71
3
 72
12
 73
8
 74
0
 42
0.0000001
 43
0.0000001
 44
0.0000000001
 40
0.0
 40
0.0
 40
0.0
 40
0.0
 40
0.3199248472
 40
0.6077179167
 40
0.8395841064
 40
0.92935266
 40
1.0
 40
1.0
 40
1.0
 40
1.0
 10
131.4770213858
 20
60.189877578
 30
0.0
 10
131.426504759
 20
60.193361871
 30
0.0
 10
131.330282695
 20
60.1969513605
 30
0.0
 10
131.1974084546
 20
60.1925836045
 30
0.0
 10
131.1013192534
 20
60.181101456
 30
0.0
 10
131.0410084679
 20
60.1661246064
 30
0.0
 10
131.0171175877
 20
60.1571255424
 30
0.0
 10
131.0071750754
 20
60.1520089316
 30
0.0
  0
SPLINE
  5
3C5
100
AcDbEntity
  8
0
100
AcDbSpline
 62
7
  6
CONTINUOUS
 70
0
 71
3
 72
9
 73
5
 74
0
 42
0.0000001
 43
0.0000001
 44
0.0000000001
 40
0.0
 40
0.0
 40
0.0
 40
0.0
 40
0.5000133889
 40
1.0
 40
1.0
 40
1.0
 40
1.0
 10
131.0071750754
 20
60.1520098541
 30
0.0
 10
131.179833555
 20
61.3135353831
 30
0.0
 10
131.4554355018
 20
63.6478015447
 30
0.0
 10
131.553130208
 20
65.9972370627
 30
0.0
 10
131.5531304268
 20
67.171462259
 30
0.0
  0
SPLINE
  5
3C6
100
AcDbEntity
  8
0
100
AcDbSpline
 62
7
  6
CONTINUOUS
 70
0
 71
3
 72
11
 73
7
 74
0
 42
0.0000001
 43
0.0000001
 44
0.0000000001
 40
0.0
 40
0.0
 40
0.0
 40
0.0
 40
0.2705879587
 40
0.5321946123
 40
0.7763651892
 40
1.0
 40
1.0
 40
1.0
 40
1.0
 10
131.4770213858
 20
57.238652014
 30
0.0
 10
131.4257067273
 20
57.2355017383
 30
0.0
 10
131.325118128
 20
57.2175808986
 30
0.0
 10
131.1884615725
 20
57.1584881386
 30
0.0
 10
131.0776380394
 20
57.0726809247
 30
0.0
 10
131.0251103437
 20
56.998707138
 30
0.0
 10
131.0071750754
 20
56.9601876988
 30
0.0
  0
SPLINE
  5
3C7
100
AcDbEntity
  8
0
100
AcDbSpline
 62
7
  6
CONTINUOUS
 70
0
 71
3
 72
13
 73
9
 74
0
 42
0.0000001
 43
0.0000001
 44
0.0000000001
 40
0.0
 40
0.0
 40
0.0
 40
0.0
 40
0.2519340657
 40
0.3762497658
 40
0.4999999765
 40
0.6237501904
 40
0.7480659021
 40
1.0
 40
1.0
 40
1.0
 40
1.0
 10
131.4926408165
 20
50.2570084894
 30
0.0
 10
131.6589156443
 20
50.828112993
 30
0.0
 10
131.8602065449
 20
51.696746149
 30
0.0
 10
131.9994447875
 20
52.8699572809
 30
0.0
 10
132.03466772
 20
53.7480683297
 30
0.0
 10
131.9994446742
 20
54.6261793989
 30
0.0
 10
131.8602064422
 20
55.7993906403
 30
0.0
 10
131.6589156131
 20
56.6680239165
 30
0.0
 10
131.4926408268
 20
57.2391285113
 30
0.0
  0
SPLINE
  5
3C8
100
AcDbEntity
  8
0
100
AcDbSpline
 62
7
  6
CONTINUOUS
 70
0
 71
3
 72
11
 73
7
 74
0
 42
0.0000001
 43
0.0000001
 44
0.0000000001
 40
0.0
 40
0.0
 40
0.0
 40
0.0
 40
0.255334014
 40
0.5071437825
 40
0.7550407329
 40
1.0
 40
1.0
 40
1.0
 40
1.0
 10
131.4770213858
 20
50.2570673277
 30
0.0
 10
131.4258981145
 20
50.2574549449
 30
0.0
 10
131.323571683
 20
50.2428671291
 30
0.0
 10
131.1850094411
 20
50.1769914536
 30
0.0
 10
131.0739389686
 20
50.0741622021
 30
0.0
 10
131.0244214698
 20
49.9866496276
 30
0.0
 10
131.0071750754
 20
49.9407343472
 30
0.0
  0
SPLINE
  5
3C9
100
AcDbEntity
  8
0
100
AcDbSpline
 62
7
  6
CONTINUOUS
 70
0
 71
3
 72
13
 73
9
 74
0
 42
0.0000001
 43
0.0000001
 44
0.0000000001
 40
0.0
 40
0.0
 40
0.0
 40
0.0
 40
0.2532721236
 40
0.3779247197
 40
0.5017449033
 40
0.6253106729
 40
0.7492335989
 40
1.0
 40
1.0
 40
1.0
 40
1.0
 10
131.0071750754
 20
49.9407344567
 30
0.0
 10
131.177616317
 20
50.5176626571
 30
0.0
 10
131.3848035947
 20
51.3945743857
 30
0.0
 10
131.5287517231
 20
52.578607699
 30
0.0
 10
131.5652301515
 20
53.4625418793
 30
0.0
 10
131.5288928952
 20
54.3447555424
 30
0.0
 10
131.3852619255
 20
55.520491536
 30
0.0
 10
131.1779014244
 20
56.3895525391
 30
0.0
 10
131.0071750754
 20
56.9601868616
 30
0.0
  0
SPLINE
  5
3CA
100
AcDbEntity
  8
GEOM
100
AcDbSpline
 62
7
  6
CONTINUOUS
 70
0
 71
3
 72
11
 73
7
 74
0
 42
0.0000001
 43
0.0000001
 44
0.0000000001
 40
0.0
 40
0.0
 40
0.0
 40
0.0
 40
0.2582940867
 40
0.5100287959
 40
0.7564993184
 40
1.0
 40
1.0
 40
1.0
 40
1.0
 10
142.0329517443
 20
50.2570084894
 30
0.0
 10
142.1667012006
 20
50.5390313206
 30
0.0
 10
142.4093219023
 20
51.1065771553
 30
0.0
 10
142.6866192392
 20
51.9794364182
 30
0.0
 10
142.8596266663
 20
52.8610230945
 30
0.0
 10
142.8989771481
 20
53.4538142834
 30
0.0
 10
142.8989771481
 20
53.7480685003
 30
0.0
  0
SPLINE
  5
3CB
100
AcDbEntity
  8
GEOM
100
AcDbSpline
 62
7
  6
CONTINUOUS
 70
0
 71
3
 72
11
 73
7
 74
0
 42
0.0000001
 43
0.0000001
 44
0.0000000001
 40
0.0
 40
0.0
 40
0.0
 40
0.0
 40
0.2435006897
 40
0.4899712202
 40
0.7417059179
 40
1.0
 40
1.0
 40
1.0
 40
1.0
 10
142.8989771481
 20
53.7480685003
 30
0.0
 10
142.8989771481
 20
54.042322727
 30
0.0
 10
142.8596266624
 20
54.6351139352
 30
0.0
 10
142.6866192311
 20
55.5167006164
 30
0.0
 10
142.4093218906
 20
56.3895598678
 30
0.0
 10
142.1667011982
 20
56.9571056851
 30
0.0
 10
142.0329517443
 20
57.2391285113
 30
0.0
  0
SPLINE
  5
3CC
100
AcDbEntity
  8
GEOM
100
AcDbSpline
 62
7
  6
CONTINUOUS
 70
0
 71
3
 72
11
 73
7
 74
0
 42
0.0000001
 43
0.0000001
 44
0.0000000001
 40
0.0
 40
0.0
 40
0.0
 40
0.0
 40
0.2582940867
 40
0.5100287959
 40
0.7564993184
 40
1.0
 40
1.0
 40
1.0
 40
1.0
 10
142.0329517443
 20
77.1037960067
 30
0.0
 10
142.1667012006
 20
77.3858188379
 30
0.0
 10
142.4093219023
 20
77.9533646726
 30
0.0
 10
142.6866192392
 20
78.8262239355
 30
0.0
 10
142.8596266663
 20
79.7078106118
 30
0.0
 10
142.8989771481
 20
80.3006018007
 30
0.0
 10
142.8989771481
 20
80.5948560177
 30
0.0
  0
SPLINE
  5
3CD
100
AcDbEntity
  8
GEOM
100
AcDbSpline
 62
7
  6
CONTINUOUS
 70
0
 71
3
 72
11
 73
7
 74
0
 42
0.0000001
 43
0.0000001
 44
0.0000000001
 40
0.0
 40
0.0
 40
0.0
 40
0.0
 40
0.2435006897
 40
0.4899712202
 40
0.7417059179
 40
1.0
 40
1.0
 40
1.0
 40
1.0
 10
142.8989771481
 20
80.5948560177
 30
0.0
 10
142.8989771481
 20
80.8891102443
 30
0.0
 10
142.8596266624
 20
81.4819014525
 30
0.0
 10
142.6866192311
 20
82.3634881338
 30
0.0
 10
142.4093218906
 20
83.2363473851
 30
0.0
 10
142.1667011982
 20
83.8038932024
 30
0.0
 10
142.0329517443
 20
84.0859160286
 30
0.0
  0
SPLINE
  5
3CE
100
AcDbEntity
  8
GEOM
100
AcDbSpline
 62
7
  6
CONTINUOUS
 70
0
 71
3
 72
10
 73
6
 74
0
 42
0.0000001
 43
0.0000001
 44
0.0000000001
 40
0.0
 40
0.0
 40
0.0
 40
0.0
 40
0.4999146076
 40
0.7499572993
 40
1.0
 40
1.0
 40
1.0
 40
1.0
 10
142.0329517443
 20
60.1893422371
 30
0.0
 10
142.3039947508
 20
61.3323796477
 30
0.0
 10
142.6320293401
 20
63.0684127507
 30
0.0
 10
142.8601823145
 20
65.4083626465
 30
0.0
 10
142.8989771481
 20
66.5838948297
 30
0.0
 10
142.8989771481
 20
67.171462259
 30
0.0
  0
SPLINE
  5
3CF
100
AcDbEntity
  8
GEOM
100
AcDbSpline
 62
7
  6
CONTINUOUS
 70
0
 71
3
 72
10
 73
6
 74
0
 42
0.0000001
 43
0.0000001
 44
0.0000000001
 40
0.0
 40
0.0
 40
0.0
 40
0.0
 40
0.2500427089
 40
0.5000854085
 40
1.0
 40
1.0
 40
1.0
 40
1.0
 10
142.8989771481
 20
67.171462259
 30
0.0
 10
142.8989771481
 20
67.7590297076
 30
0.0
 10
142.8601823108
 20
68.9345619287
 30
0.0
 10
142.6320293312
 20
71.2745118242
 30
0.0
 10
142.3039947421
 20
73.0105449073
 30
0.0
 10
142.0329517443
 20
74.1535822809
 30
0.0
  0
SPLINE
  5
3D0
100
AcDbEntity
  8
0
100
AcDbSpline
 62
7
  6
CONTINUOUS
 70
0
 71
3
 72
11
 73
7
 74
0
 42
0.0000001
 43
0.0000001
 44
0.0000000001
 40
0.0
 40
0.0
 40
0.0
 40
0.0
 40
0.2553340134
 40
0.5071437825
 40
0.7550407336
 40
1.0
 40
1.0
 40
1.0
 40
1.0
 10
131.4770213858
 20
84.0858571903
 30
0.0
 10
131.4258981146
 20
84.0854695731
 30
0.0
 10
131.3235716832
 20
84.1000573888
 30
0.0
 10
131.1850094411
 20
84.1659330644
 30
0.0
 10
131.0739389685
 20
84.268762316
 30
0.0
 10
131.0244214698
 20
84.3562748905
 30
0.0
 10
131.0071750754
 20
84.4021901708
 30
0.0
  0
SPLINE
  5
3D1
100
AcDbEntity
  8
0
100
AcDbSpline
 62
7
  6
CONTINUOUS
 70
0
 71
3
 72
13
 73
9
 74
0
 42
0.0000001
 43
0.0000001
 44
0.0000000001
 40
0.0
 40
0.0
 40
0.0
 40
0.0
 40
0.2519340979
 40
0.3762498096
 40
0.5000000235
 40
0.6237502342
 40
0.7480659343
 40
1.0
 40
1.0
 40
1.0
 40
1.0
 10
131.4926408268
 20
77.1037960067
 30
0.0
 10
131.6589156132
 20
77.6749006015
 30
0.0
 10
131.8602064424
 20
78.5435338776
 30
0.0
 10
131.999444674
 20
79.7167451191
 30
0.0
 10
132.03466772
 20
80.5948561883
 30
0.0
 10
131.9994447875
 20
81.4729672371
 30
0.0
 10
131.8602065447
 20
82.6461783689
 30
0.0
 10
131.6589156443
 20
83.514811525
 30
0.0
 10
131.4926408164
 20
84.0859160286
 30
0.0
  0
SPLINE
  5
3D2
100
AcDbEntity
  8
0
100
AcDbSpline
 62
7
  6
CONTINUOUS
 70
0
 71
3
 72
11
 73
7
 74
0
 42
0.0000001
 43
0.0000001
 44
0.0000000001
 40
0.0
 40
0.0
 40
0.0
 40
0.0
 40
0.2705879593
 40
0.5321946123
 40
0.7763651887
 40
1.0
 40
1.0
 40
1.0
 40
1.0
 10
131.4770213858
 20
77.104272504
 30
0.0
 10
131.4257067272
 20
77.1074227797
 30
0.0
 10
131.3251181278
 20
77.1253436195
 30
0.0
 10
131.1884615724
 20
77.1844363794
 30
0.0
 10
131.0776380395
 20
77.2702435932
 30
0.0
 10
131.0251103437
 20
77.3442173799
 30
0.0
 10
131.0071750754
 20
77.3827368192
 30
0.0
  0
SPLINE
  5
3D3
100
AcDbEntity
  8
0
100
AcDbSpline
 62
7
  6
CONTINUOUS
 70
0
 71
3
 72
13
 73
9
 74
0
 42
0.0000001
 43
0.0000001
 44
0.0000000001
 40
0.0
 40
0.0
 40
0.0
 40
0.0
 40
0.2507664011
 40
0.3746893271
 40
0.4982550967
 40
0.6220752803
 40
0.7467278764
 40
1.0
 40
1.0
 40
1.0
 40
1.0
 10
131.0071750754
 20
77.3827376564
 30
0.0
 10
131.1779014245
 20
77.9533719789
 30
0.0
 10
131.3852619256
 20
78.8224329819
 30
0.0
 10
131.5288928951
 20
79.9981689756
 30
0.0
 10
131.5652301515
 20
80.8803826387
 30
0.0
 10
131.528751723
 20
81.764316819
 30
0.0
 10
131.3848035947
 20
82.9483501323
 30
0.0
 10
131.1776163169
 20
83.8252618609
 30
0.0
 10
131.0071750754
 20
84.4021900613
 30
0.0
  0
SPLINE
  5
3D4
100
AcDbEntity
  8
0
100
AcDbSpline
 62
7
  6
CONTINUOUS
 70
0
 71
3
 72
9
 73
5
 74
0
 42
0.0000001
 43
0.0000001
 44
0.0000000001
 40
0.0
 40
0.0
 40
0.0
 40
0.0
 40
0.4999871261
 40
1.0
 40
1.0
 40
1.0
 40
1.0
 10
132.0229767372
 20
67.171462259
 30
0.0
 10
132.0229763325
 20
68.3392476722
 30
0.0
 10
131.9284851157
 20
70.6757546017
 30
0.0
 10
131.660874385
 20
72.9979176726
 30
0.0
 10
131.4926407894
 20
74.1535822809
 30
0.0
  0
SPLINE
  5
3D5
100
AcDbEntity
  8
0
100
AcDbSpline
 62
7
  6
CONTINUOUS
 70
0
 71
3
 72
9
 73
5
 74
0
 42
0.0000001
 43
0.0000001
 44
0.0000000001
 40
0.0
 40
0.0
 40
0.0
 40
0.0
 40
0.499986611
 40
1.0
 40
1.0
 40
1.0
 40
1.0
 10
131.5531304268
 20
67.171462259
 30
0.0
 10
131.553130207
 20
68.3456874551
 30
0.0
 10
131.4554355023
 20
70.6951229731
 30
0.0
 10
131.179833555
 20
73.0293891348
 30
0.0
 10
131.0071750754
 20
74.1909146639
 30
0.0
  0
SPLINE
  5
3D6
100
AcDbEntity
  8
0
100
AcDbSpline
 62
7
  6
CONTINUOUS
 70
0
 71
3
 72
12
 73
8
 74
0
 42
0.0000001
 43
0.0000001
 44
0.0000000001
 40
0.0
 40
0.0
 40
0.0
 40
0.0
 40
0.3199248473
 40
0.6077179168
 40
0.8395841066
 40
0.9293526602
 40
1.0
 40
1.0
 40
1.0
 40
1.0
 10
131.4770213858
 20
74.15304694
 30
0.0
 10
131.426504759
 20
74.149562647
 30
0.0
 10
131.330282695
 20
74.1459731576
 30
0.0
 10
131.1974084545
 20
74.1503409135
 30
0.0
 10
131.1013192534
 20
74.1618230623
 30
0.0
 10
131.0410084679
 20
74.1767999117
 30
0.0
 10
131.0171175877
 20
74.1857989756
 30
0.0
 10
131.0071750754
 20
74.1909155864
 30
0.0
  0
SPLINE
  5
3D7
100
AcDbEntity
  8
0
100
AcDbSpline
 62
7
  6
CONTINUOUS
 70
0
 71
3
 72
9
 73
5
 74
0
 42
0.0000001
 43
0.0000001
 44
0.0000000001
 40
0.0
 40
0.0
 40
0.0
 40
0.0
 40
0.2373325247
 40
1.0
 40
1.0
 40
1.0
 40
1.0
 10
126.9827176274
 20
146.2333514135
 30
0.0
 10
126.9754422403
 20
146.1969570596
 30
0.0
 10
126.9478645789
 20
146.0430185012
 30
0.0
 10
126.9253077294
 20
145.8881293708
 30
0.0
 10
126.9005402891
 20
145.771462259
 30
0.0
  0
LINE
  5
3D8
100
AcDbEntity
  8
GEOM
100
AcDbLine
 62
7
  6
CONTINUOUS
 10
104.4343332164
 20
131.8250156496
 11
104.6847238768
 21
131.5843479408
  0
SPLINE
  5
3D9
100
AcDbEntity
  8
GEOM
100
AcDbSpline
 62
7
  6
CONTINUOUS
 70
0
 71
3
 72
15
 73
11
 74
0
 42
0.0000001
 43
0.0000001
 44
0.0000000001
 40
0.0
 40
0.0
 40
0.0
 40
0.0
 40
0.1975762301
 40
0.382840113
 40
0.5495720373
 40
0.6922921128
 40
0.8064713367
 40
0.890668544
 40
0.9492422223
 40
1.0
 40
1.0
 40
1.0
 40
1.0
 10
105.0986782624
 20
130.9643554778
 30
0.0
 10
105.0960808958
 20
130.9350483986
 30
0.0
 10
105.0897991525
 20
130.8783608291
 30
0.0
 10
105.0767419314
 20
130.7975297281
 30
0.0
 10
105.0603602283
 20
130.7256337032
 30
0.0
 10
105.0414809513
 20
130.6653700271
 30
0.0
 10
105.020469202
 20
130.6188415771
 30
0.0
 10
104.9987907008
 20
130.5872090066
 30
0.0
 10
104.9732294763
 20
130.570029872
 30
0.0
 10
104.9555585858
 20
130.5740019205
 30
0.0
 10
104.9490689018
 20
130.5778769576
 30
0.0
  0
LINE
  5
3DA
100
AcDbEntity
  8
GEOM
100
AcDbLine
 62
7
  6
CONTINUOUS
 10
104.9490689018
 20
130.5778769576
 11
104.6989771476
 21
130.7269758874
  0
SPLINE
  5
3DB
100
AcDbEntity
  8
GEOM
100
AcDbSpline
 62
7
  6
CONTINUOUS
 70
0
 71
3
 72
14
 73
10
 74
0
 42
0.0000001
 43
0.0000001
 44
0.0000000001
 40
0.0
 40
0.0
 40
0.0
 40
0.0
 40
0.0442038377
 40
0.1117228208
 40
0.2072740825
 40
0.3296412713
 40
0.4752343106
 40
0.6393747131
 40
1.0
 40
1.0
 40
1.0
 40
1.0
 10
104.1297481202
 20
137.471462259
 30
0.0
 10
104.1391396534
 20
137.4714550497
 30
0.0
 10
104.1615767252
 20
137.4580150217
 30
0.0
 10
104.185408274
 20
137.4209201185
 30
0.0
 10
104.2096537587
 20
137.3650145773
 30
0.0
 10
104.2313919032
 20
137.290806109
 30
0.0
 10
104.2501913542
 20
137.2008602862
 30
0.0
 10
104.2698540046
 20
137.0597303099
 30
0.0
 10
104.2755784588
 20
136.9480806137
 30
0.0
 10
104.275565691
 20
136.871462259
 30
0.0
  0
SPLINE
  5
3DC
100
AcDbEntity
  8
GEOM
100
AcDbSpline
 62
7
  6
CONTINUOUS
 70
0
 71
3
 72
13
 73
9
 74
0
 42
0.0000001
 43
0.0000001
 44
0.0000000001
 40
0.0
 40
0.0
 40
0.0
 40
0.0
 40
0.2548668583
 40
0.3781741759
 40
0.5000000188
 40
0.6218258612
 40
0.745133168
 40
1.0
 40
1.0
 40
1.0
 40
1.0
 10
85.9093401192
 20
50.2570084894
 30
0.0
 10
85.645547439
 20
50.8132392257
 30
0.0
 10
85.3156921764
 20
51.6733548015
 30
0.0
 10
85.0827343821
 20
52.861056918
 30
0.0
 10
85.0237239523
 20
53.7480686411
 30
0.0
 10
85.0827345706
 20
54.635080307
 30
0.0
 10
85.315692019
 20
55.8227823995
 30
0.0
 10
85.6455474663
 20
56.6828978325
 30
0.0
 10
85.9093401192
 20
57.2391285113
 30
0.0
  0
SPLINE
  5
3DD
100
AcDbEntity
  8
GEOM
100
AcDbSpline
 62
7
  6
CONTINUOUS
 70
0
 71
3
 72
11
 73
7
 74
0
 42
0.0000001
 43
0.0000001
 44
0.0000000001
 40
0.0
 40
0.0
 40
0.0
 40
0.0
 40
0.2500189982
 40
0.5000000191
 40
0.7499810308
 40
1.0
 40
1.0
 40
1.0
 40
1.0
 10
85.9093401192
 20
60.1893422371
 30
0.0
 10
85.6382992554
 20
61.3323706118
 30
0.0
 10
85.2007035397
 20
63.6456741644
 30
0.0
 10
84.9646262947
 20
67.1714624868
 30
0.0
 10
85.2007034769
 20
70.697250687
 30
0.0
 10
85.6382992868
 20
73.0105540386
 30
0.0
 10
85.9093401192
 20
74.1535822809
 30
0.0
  0
SPLINE
  5
3DE
100
AcDbEntity
  8
GEOM
100
AcDbSpline
 62
7
  6
CONTINUOUS
 70
0
 71
3
 72
13
 73
9
 74
0
 42
0.0000001
 43
0.0000001
 44
0.0000000001
 40
0.0
 40
0.0
 40
0.0
 40
0.0
 40
0.2548668583
 40
0.3781741759
 40
0.5000000188
 40
0.6218258612
 40
0.745133168
 40
1.0
 40
1.0
 40
1.0
 40
1.0
 10
85.9093401192
 20
77.1037960067
 30
0.0
 10
85.645547439
 20
77.660026743
 30
0.0
 10
85.3156921764
 20
78.5201423188
 30
0.0
 10
85.0827343821
 20
79.7078444353
 30
0.0
 10
85.0237239523
 20
80.5948561585
 30
0.0
 10
85.0827345706
 20
81.4818678244
 30
0.0
 10
85.315692019
 20
82.6695699168
 30
0.0
 10
85.6455474663
 20
83.5296853498
 30
0.0
 10
85.9093401192
 20
84.0859160286
 30
0.0
  0
SPLINE
  5
3DF
100
AcDbEntity
  8
0
100
AcDbSpline
 62
7
  6
CONTINUOUS
 70
0
 71
3
 72
14
 73
10
 74
0
 42
0.0000001
 43
0.0000001
 44
0.0000000001
 40
0.0
 40
0.0
 40
0.0
 40
0.0
 40
0.2043691028
 40
0.3283972741
 40
0.4616686603
 40
0.6000694765
 40
0.7389754934
 40
0.8736795235
 40
1.0
 40
1.0
 40
1.0
 40
1.0
 10
105.3202974917
 20
84.4997159613
 30
0.0
 10
106.219177759
 20
84.1000875571
 30
0.0
 10
107.6948158017
 20
83.522422455
 30
0.0
 10
109.8366173964
 20
82.9219195273
 30
0.0
 10
111.7133393491
 20
82.5776209168
 30
0.0
 10
113.6890300533
 20
82.4361276406
 30
0.0
 10
115.6746829473
 20
82.5293080821
 30
0.0
 10
117.5787141235
 20
82.8357404792
 30
0.0
 10
118.7959850766
 20
83.1540208786
 30
0.0
 10
119.3776568046
 20
83.3311104891
 30
0.0
  0
SPLINE
  5
3E0
100
AcDbEntity
  8
0
100
AcDbSpline
 62
7
  6
CONTINUOUS
 70
0
 71
3
 72
11
 73
7
 74
0
 42
0.0000001
 43
0.0000001
 44
0.0000000001
 40
0.0
 40
0.0
 40
0.0
 40
0.0
 40
0.2331882557
 40
0.4824027964
 40
0.7413808497
 40
1.0
 40
1.0
 40
1.0
 40
1.0
 10
105.3202974917
 20
84.4997132499
 30
0.0
 10
105.4237341411
 20
84.5181134579
 30
0.0
 10
105.6312175846
 20
84.5996052456
 30
0.0
 10
105.8891019
 20
84.8197910098
 30
0.0
 10
106.078382328
 20
85.1142559843
 30
0.0
 10
106.1454989584
 20
85.3416427363
 30
0.0
 10
106.1613470288
 20
85.4570780443
 30
0.0
  0
SPLINE
  5
3E1
100
AcDbEntity
  8
0
100
AcDbSpline
 62
7
  6
CONTINUOUS
 70
0
 71
3
 72
14
 73
10
 74
0
 42
0.0000001
 43
0.0000001
 44
0.0000000001
 40
0.0
 40
0.0
 40
0.0
 40
0.0
 40
0.2024355702
 40
0.3258355324
 40
0.4592220348
 40
0.5984656306
 40
0.73840612
 40
0.8737024764
 40
1.0
 40
1.0
 40
1.0
 40
1.0
 10
106.1613445168
 20
85.4570780443
 30
0.0
 10
106.9484266793
 20
85.0476716243
 30
0.0
 10
108.2494655217
 20
84.4488260611
 30
0.0
 10
110.1614375428
 20
83.8124811069
 30
0.0
 10
111.8604339401
 20
83.4382619256
 30
0.0
 10
113.6672808939
 20
83.2786858806
 30
0.0
 10
115.4872977199
 20
83.3750487077
 30
0.0
 10
117.2209596778
 20
83.7016679146
 30
0.0
 10
118.3191086552
 20
84.0381863312
 30
0.0
 10
118.8405313481
 20
84.2239087339
 30
0.0
  0
SPLINE
  5
3E2
100
AcDbEntity
  8
0
100
AcDbSpline
 62
7
  6
CONTINUOUS
 70
0
 71
3
 72
14
 73
10
 74
0
 42
0.0000001
 43
0.0000001
 44
0.0000000001
 40
0.0
 40
0.0
 40
0.0
 40
0.0
 40
0.0163467799
 40
0.0642995174
 40
0.1435679237
 40
0.2538623928
 40
0.3949069317
 40
0.5664406159
 40
1.0
 40
1.0
 40
1.0
 40
1.0
 10
104.6989771481
 20
85.674438965
 30
0.0
 10
104.6989841129
 20
85.6749031142
 30
0.0
 10
104.7016679709
 20
85.6749543042
 30
0.0
 10
104.7045737673
 20
85.6769047132
 30
0.0
 10
104.7114931475
 20
85.6787302001
 30
0.0
 10
104.7202053331
 20
85.6817310622
 30
0.0
 10
104.7317849158
 20
85.6851653502
 30
0.0
 10
104.7521007844
 20
85.6910641341
 30
0.0
 10
104.7687339759
 20
85.6954494361
 30
0.0
 10
104.7806721035
 20
85.6984598302
 30
0.0
  0
SPLINE
  5
3E3
100
AcDbEntity
  8
0
100
AcDbSpline
 62
7
  6
CONTINUOUS
 70
0
 71
3
 72
11
 73
7
 74
0
 42
0.0000001
 43
0.0000001
 44
0.0000000001
 40
0.0
 40
0.0
 40
0.0
 40
0.0
 40
0.1347461784
 40
0.3432313887
 40
0.6290496376
 40
1.0
 40
1.0
 40
1.0
 40
1.0
 10
104.7806721035
 20
85.6984598302
 30
0.0
 10
104.8429540603
 20
85.7141652442
 30
0.0
 10
105.0047135994
 20
85.7426823962
 30
0.0
 10
105.3064700909
 20
85.7420271388
 30
0.0
 10
105.7134090273
 20
85.6602734268
 30
0.0
 10
106.0044700937
 20
85.5386755946
 30
0.0
 10
106.1613445168
 20
85.4570780443
 30
0.0
  0
SPLINE
  5
3E4
100
AcDbEntity
  8
0
100
AcDbSpline
 62
7
  6
CONTINUOUS
 70
0
 71
3
 72
21
 73
17
 74
0
 42
0.0000001
 43
0.0000001
 44
0.0000000001
 40
0.0
 40
0.0
 40
0.0
 40
0.0
 40
0.2169740146
 40
0.4126480083
 40
0.5843555615
 40
0.7295804345
 40
0.7914854949
 40
0.845842008
 40
0.892356944
 40
0.9307955169
 40
0.9609363674
 40
0.98257997
 40
0.9901821038
 40
0.9956255909
 40
0.9989012757
 40
1.0
 40
1.0
 40
1.0
 40
1.0
 10
121.5202974917
 20
85.0467296056
 30
0.0
 10
121.710248668
 20
85.1198206602
 30
0.0
 10
122.07005937
 20
85.2626121677
 30
0.0
 10
122.5756947671
 20
85.4743231231
 30
0.0
 10
123.0162610722
 20
85.6670014561
 30
0.0
 10
123.3399873015
 20
85.8135921227
 30
0.0
 10
123.5626050787
 20
85.9165728702
 30
0.0
 10
123.7008919336
 20
85.9813108767
 30
0.0
 10
123.8190449986
 20
86.0371335571
 30
0.0
 10
123.916499528
 20
86.0835988158
 30
0.0
 10
123.9928217975
 20
86.1201544011
 30
0.0
 10
124.042961722
 20
86.1444620896
 30
0.0
 10
124.0723204869
 20
86.1584479891
 30
0.0
 10
124.0860010955
 20
86.165401394
 30
0.0
 10
124.0944652846
 20
86.1689164896
 30
0.0
 10
124.0979731912
 20
86.1712292716
 30
0.0
 10
124.0989771481
 20
86.171462259
 30
0.0
  0
SPLINE
  5
3E5
100
AcDbEntity
  8
0
100
AcDbSpline
 62
7
  6
CONTINUOUS
 70
0
 71
3
 72
10
 73
6
 74
0
 42
0.0000001
 43
0.0000001
 44
0.0000000001
 40
0.0
 40
0.0
 40
0.0
 40
0.0
 40
0.4688649625
 40
0.7333362491
 40
1.0
 40
1.0
 40
1.0
 40
1.0
 10
121.5202974916
 20
85.046723916
 30
0.0
 10
121.3324031487
 20
85.100017612
 30
0.0
 10
121.0732117463
 20
85.3059493554
 30
0.0
 10
120.8599241752
 20
85.664126946
 30
0.0
 10
120.7926656675
 20
85.8781902469
 30
0.0
 10
120.7731033021
 20
85.9875331501
 30
0.0
  0
SPLINE
  5
3E6
100
AcDbEntity
  8
0
100
AcDbSpline
 62
7
  6
CONTINUOUS
 70
0
 71
3
 72
23
 73
19
 74
0
 42
0.0000001
 43
0.0000001
 44
0.0000000001
 40
0.0
 40
0.0
 40
0.0
 40
0.0
 40
0.2176718381
 40
0.4136383995
 40
0.5853474335
 40
0.6613517502
 40
0.7303885039
 40
0.7921621686
 40
0.8463765805
 40
0.892750616
 40
0.9310593397
 40
0.9610897473
 40
0.9729364839
 40
0.9826505373
 40
0.9902229133
 40
0.9956446153
 40
0.9989066439
 40
1.0
 40
1.0
 40
1.0
 40
1.0
 10
120.7731092227
 20
85.9875331501
 30
0.0
 10
120.9459161564
 20
86.0651307026
 30
0.0
 10
121.2725744549
 20
86.2164593296
 30
0.0
 10
121.7302272105
 20
86.4402262321
 30
0.0
 10
122.0741187569
 20
86.6158289232
 30
0.0
 10
122.3182010158
 20
86.7439275013
 30
0.0
 10
122.4770455103
 20
86.8285565496
 30
0.0
 10
122.6187223229
 20
86.9050742108
 30
0.0
 10
122.7427107021
 20
86.9728346649
 30
0.0
 10
122.8485549959
 20
87.0312160875
 30
0.0
 10
122.9357858203
 20
87.0797534374
 30
0.0
 10
122.9966951788
 20
87.1138270476
 30
0.0
 10
123.0357997811
 20
87.1358547336
 30
0.0
 10
123.0579787582
 20
87.1482057134
 30
0.0
 10
123.0749786725
 20
87.1581201715
 30
0.0
 10
123.0877862548
 20
87.1645978871
 30
0.0
 10
123.0943303888
 20
87.1696311019
 30
0.0
 10
123.0985207731
 20
87.1706273526
 30
0.0
 10
123.0989771481
 20
87.171462259
 30
0.0
  0
SPLINE
  5
3E7
100
AcDbEntity
  8
0
100
AcDbSpline
 62
7
  6
CONTINUOUS
 70
0
 71
3
 72
9
 73
5
 74
0
 42
0.0000001
 43
0.0000001
 44
0.0000000001
 40
0.0
 40
0.0
 40
0.0
 40
0.0
 40
0.2871294006
 40
1.0
 40
1.0
 40
1.0
 40
1.0
 10
120.4596373199
 20
83.8971796854
 30
0.0
 10
120.5334589201
 20
84.0283979371
 30
0.0
 10
120.8193910639
 20
84.4682969325
 30
0.0
 10
121.2056646866
 20
84.8449079377
 30
0.0
 10
121.5202974917
 20
85.0467296056
 30
0.0
  0
SPLINE
  5
3E8
100
AcDbEntity
  8
0
100
AcDbSpline
 62
7
  6
CONTINUOUS
 70
0
 71
3
 72
13
 73
9
 74
0
 42
0.0000001
 43
0.0000001
 44
0.0000000001
 40
0.0
 40
0.0
 40
0.0
 40
0.0
 40
0.0797409343
 40
0.1793779034
 40
0.2971752246
 40
0.4296297766
 40
0.7179941792
 40
1.0
 40
1.0
 40
1.0
 40
1.0
 10
120.4596698058
 20
83.8971504071
 30
0.0
 10
120.4214688658
 20
83.8890394249
 30
0.0
 10
120.33233806
 20
83.8869014213
 30
0.0
 10
120.1886266843
 20
83.9123724081
 30
0.0
 10
120.0251806459
 20
83.9654118571
 30
0.0
 10
119.7839781473
 20
84.0730491419
 30
0.0
 10
119.4895568373
 20
84.2542302227
 30
0.0
 10
119.2748246668
 20
84.4352603447
 30
0.0
 10
119.1786496724
 20
84.5343805234
 30
0.0
  0
SPLINE
  5
3E9
100
AcDbEntity
  8
0
100
AcDbSpline
 62
7
  6
CONTINUOUS
 70
0
 71
3
 72
9
 73
5
 74
0
 42
0.0000001
 43
0.0000001
 44
0.0000000001
 40
0.0
 40
0.0
 40
0.0
 40
0.0
 40
0.2771935947
 40
1.0
 40
1.0
 40
1.0
 40
1.0
 10
119.1786527553
 20
84.5343805232
 30
0.0
 10
119.2849559068
 20
84.7048807063
 30
0.0
 10
119.7093647225
 20
85.2921252771
 30
0.0
 10
120.2951655964
 20
85.7728923507
 30
0.0
 10
120.7731092227
 20
85.9875331501
 30
0.0
  0
LINE
  5
3EA
100
AcDbEntity
  8
0
100
AcDbLine
 62
7
  6
CONTINUOUS
 10
120.4383169764
 20
83.8667588818
 11
120.4596373199
 21
83.8971796854
  0
SPLINE
  5
3EB
100
AcDbEntity
  8
0
100
AcDbSpline
 62
7
  6
CONTINUOUS
 70
0
 71
3
 72
13
 73
9
 74
0
 42
0.0000001
 43
0.0000001
 44
0.0000000001
 40
0.0
 40
0.0
 40
0.0
 40
0.0
 40
0.0796675689
 40
0.1792584537
 40
0.2970225657
 40
0.4294549652
 40
0.7178379473
 40
1.0
 40
1.0
 40
1.0
 40
1.0
 10
120.4383169763
 20
83.8667588818
 30
0.0
 10
120.4001904194
 20
83.8588052151
 30
0.0
 10
120.3112814126
 20
83.8569359013
 30
0.0
 10
120.1679540121
 20
83.8826246971
 30
0.0
 10
120.0049137772
 20
83.935750083
 30
0.0
 10
119.7642262169
 20
84.0433361861
 30
0.0
 10
119.4702556261
 20
84.2241899327
 30
0.0
 10
119.255663057
 20
84.4047110285
 30
0.0
 10
119.1594226421
 20
84.5035322278
 30
0.0
  0
LINE
  5
3EC
100
AcDbEntity
  8
0
100
AcDbLine
 62
7
  6
CONTINUOUS
 10
119.1594226415
 20
84.5035322278
 11
119.1786527553
 21
84.5343805232
  0
SPLINE
  5
3ED
100
AcDbEntity
  8
0
100
AcDbSpline
 62
7
  6
CONTINUOUS
 70
0
 71
3
 72
9
 73
5
 74
0
 42
0.0000001
 43
0.0000001
 44
0.0000000001
 40
0.0
 40
0.0
 40
0.0
 40
0.0
 40
0.4975449229
 40
1.0
 40
1.0
 40
1.0
 40
1.0
 10
119.3776568046
 20
83.3311104891
 30
0.0
 10
119.5769125672
 20
83.3512372918
 30
0.0
 10
119.9723483192
 20
83.4700381172
 30
0.0
 10
120.3005823786
 20
83.7186620696
 30
0.0
 10
120.4383169764
 20
83.8667588818
 30
0.0
  0
SPLINE
  5
3EE
100
AcDbEntity
  8
0
100
AcDbSpline
 62
7
  6
CONTINUOUS
 70
0
 71
3
 72
11
 73
7
 74
0
 42
0.0000001
 43
0.0000001
 44
0.0000000001
 40
0.0
 40
0.0
 40
0.0
 40
0.0
 40
0.2094514909
 40
0.4545763992
 40
0.7236300112
 40
1.0
 40
1.0
 40
1.0
 40
1.0
 10
119.3776568044
 20
83.3310951401
 30
0.0
 10
119.3148678491
 20
83.3707494029
 30
0.0
 10
119.1935800108
 20
83.4803768667
 30
0.0
 10
119.043248645
 20
83.6897775308
 30
0.0
 10
118.9202589578
 20
83.9429809671
 30
0.0
 10
118.8623647052
 20
84.1283834195
 30
0.0
 10
118.8405304626
 20
84.2239087338
 30
0.0
  0
SPLINE
  5
3EF
100
AcDbEntity
  8
0
100
AcDbSpline
 62
7
  6
CONTINUOUS
 70
0
 71
3
 72
9
 73
5
 74
0
 42
0.0000001
 43
0.0000001
 44
0.0000000001
 40
0.0
 40
0.0
 40
0.0
 40
0.0
 40
0.2427897851
 40
1.0
 40
1.0
 40
1.0
 40
1.0
 10
118.8405313481
 20
84.2239087339
 30
0.0
 10
118.8732286812
 20
84.2355603006
 30
0.0
 10
119.002014046
 20
84.3000737884
 30
0.0
 10
119.1021536854
 20
84.4116633095
 30
0.0
 10
119.1594226415
 20
84.5035322278
 30
0.0
  0
LINE
  5
3F0
100
AcDbEntity
  8
0
100
AcDbLine
 62
7
  6
CONTINUOUS
 10
104.3475127656
 20
84.9132531884
 11
104.3538362148
 21
84.9132136608
  0
SPLINE
  5
3F1
100
AcDbEntity
  8
0
100
AcDbSpline
 62
7
  6
CONTINUOUS
 70
0
 71
3
 72
9
 73
5
 74
0
 42
0.0000001
 43
0.0000001
 44
0.0000000001
 40
0.0
 40
0.0
 40
0.0
 40
0.0
 40
0.1385197625
 40
1.0
 40
1.0
 40
1.0
 40
1.0
 10
104.3538362148
 20
84.9132136608
 30
0.0
 10
104.3579173024
 20
84.9131007192
 30
0.0
 10
104.3873613335
 20
84.9117305784
 30
0.0
 10
104.4167284737
 20
84.9087644868
 30
0.0
 10
104.4418962081
 20
84.9054065159
 30
0.0
  0
SPLINE
  5
3F2
100
AcDbEntity
  8
0
100
AcDbSpline
 62
7
  6
CONTINUOUS
 70
0
 71
3
 72
10
 73
6
 74
0
 42
0.0000001
 43
0.0000001
 44
0.0000000001
 40
0.0
 40
0.0
 40
0.0
 40
0.0
 40
0.3407119718
 40
0.6245134813
 40
1.0
 40
1.0
 40
1.0
 40
1.0
 10
104.4418962081
 20
84.9054065159
 30
0.0
 10
104.5517523506
 20
84.8907491089
 30
0.0
 10
104.7488980467
 20
84.8322070881
 30
0.0
 10
105.0420461027
 20
84.6904377159
 30
0.0
 10
105.2221672602
 20
84.5724413435
 30
0.0
 10
105.3202974917
 20
84.4997159613
 30
0.0
  0
SPLINE
  5
3F3
100
AcDbEntity
  8
GEOM
100
AcDbSpline
 62
7
  6
CONTINUOUS
 70
0
 71
3
 72
9
 73
5
 74
0
 42
0.0000001
 43
0.0000001
 44
0.0000000001
 40
0.0
 40
0.0
 40
0.0
 40
0.0
 40
0.495906885
 40
1.0
 40
1.0
 40
1.0
 40
1.0
 10
104.8072239652
 20
130.8376844013
 30
0.0
 10
104.8511945673
 20
130.8122986293
 30
0.0
 10
104.926879041
 20
130.7347570334
 30
0.0
 10
104.9506684789
 20
130.6294629213
 30
0.0
 10
104.9490715026
 20
130.5778769576
 30
0.0
  0
SPLINE
  5
3F4
100
AcDbEntity
  8
GEOM
100
AcDbSpline
 62
7
  6
CONTINUOUS
 70
0
 71
3
 72
10
 73
6
 74
0
 42
0.0000001
 43
0.0000001
 44
0.0000000001
 40
0.0
 40
0.0
 40
0.0
 40
0.0
 40
0.6018711764
 40
0.8332238234
 40
1.0
 40
1.0
 40
1.0
 40
1.0
 10
104.8587261935
 20
131.0457864589
 30
0.0
 10
104.9097406879
 20
131.0391422485
 30
0.0
 10
104.9804104148
 20
131.0253004329
 30
0.0
 10
105.0597219864
 20
130.9935420664
 30
0.0
 10
105.0890235802
 20
130.9748090435
 30
0.0
 10
105.0987156874
 20
130.964355486
 30
0.0
  0
SPLINE
  5
3F5
100
AcDbEntity
  8
GEOM
100
AcDbSpline
 62
7
  6
CONTINUOUS
 70
0
 71
3
 72
11
 73
7
 74
0
 42
0.0000001
 43
0.0000001
 44
0.0000000001
 40
0.0
 40
0.0
 40
0.0
 40
0.0
 40
0.3472373765
 40
0.6470256636
 40
0.8711829767
 40
1.0
 40
1.0
 40
1.0
 40
1.0
 10
104.7806667831
 20
131.1459128277
 30
0.0
 10
104.8008620165
 20
131.1664504353
 30
0.0
 10
104.8387257857
 20
131.2044799901
 30
0.0
 10
104.8903001213
 20
131.2551420887
 30
0.0
 10
104.9298745227
 20
131.2920218566
 30
0.0
 10
104.9516762583
 20
131.3116978826
 30
0.0
 10
104.9603705791
 20
131.3179097351
 30
0.0
  0
SPLINE
  5
3F6
100
AcDbEntity
  8
GEOM
100
AcDbSpline
 62
7
  6
CONTINUOUS
 70
0
 71
3
 72
11
 73
7
 74
0
 42
0.0000001
 43
0.0000001
 44
0.0000000001
 40
0.0
 40
0.0
 40
0.0
 40
0.0
 40
0.2470473131
 40
0.4961833296
 40
0.7475698004
 40
1.0
 40
1.0
 40
1.0
 40
1.0
 10
103.8366712494
 20
137.171462259
 30
0.0
 10
103.8747794372
 20
137.171462259
 30
0.0
 10
103.9521025353
 20
137.1873870622
 30
0.0
 10
104.0497850022
 20
137.2541106404
 30
0.0
 10
104.1144350878
 20
137.3540614502
 30
0.0
 10
104.1297482013
 20
137.4325237361
 30
0.0
 10
104.1297481202
 20
137.471462259
 30
0.0
  0
SPLINE
  5
3F7
100
AcDbEntity
  8
GEOM
100
AcDbSpline
 62
7
  6
CONTINUOUS
 70
0
 71
3
 72
12
 73
8
 74
0
 42
0.0000001
 43
0.0000001
 44
0.0000000001
 40
0.0
 40
0.0
 40
0.0
 40
0.0
 40
0.1542940318
 40
0.254984456
 40
0.3737576794
 40
0.6624661076
 40
1.0
 40
1.0
 40
1.0
 40
1.0
 10
103.8368206279
 20
137.1714620745
 30
0.0
 10
103.8552602715
 20
137.1714343988
 30
0.0
 10
103.8849647372
 20
137.1558348468
 30
0.0
 10
103.9150609572
 20
137.1231602731
 30
0.0
 10
103.9481905316
 20
137.0717510906
 30
0.0
 10
103.9783698271
 20
136.9869011444
 30
0.0
 10
103.9868693236
 20
136.9118009004
 30
0.0
 10
103.9868633473
 20
136.871462259
 30
0.0
  0
SPLINE
  5
3F8
100
AcDbEntity
  8
GEOM
100
AcDbSpline
 62
7
  6
CONTINUOUS
 70
0
 71
3
 72
13
 73
9
 74
0
 42
0.0000001
 43
0.0000001
 44
0.0000000001
 40
0.0
 40
0.0
 40
0.0
 40
0.0
 40
0.3635669772
 40
0.5254044482
 40
0.6634311759
 40
0.8447728601
 40
0.9158456343
 40
1.0
 40
1.0
 40
1.0
 40
1.0
 10
104.8587259494
 20
131.0457860366
 30
0.0
 10
104.8657142632
 20
131.0147665639
 30
0.0
 10
104.8739708715
 20
130.969568521
 30
0.0
 10
104.8758921602
 20
130.9109086285
 30
0.0
 10
104.8724773272
 20
130.8703624773
 30
0.0
 10
104.8577872468
 20
130.8320668762
 30
0.0
 10
104.8262440619
 20
130.8280665516
 30
0.0
 10
104.8135974991
 20
130.8340037034
 30
0.0
 10
104.8072240677
 20
130.8376845788
 30
0.0
  0
SPLINE
  5
3F9
100
AcDbEntity
  8
GEOM
100
AcDbSpline
 62
7
  6
CONTINUOUS
 70
0
 71
3
 72
9
 73
5
 74
0
 42
0.0000001
 43
0.0000001
 44
0.0000000001
 40
0.0
 40
0.0
 40
0.0
 40
0.0
 40
0.503937877
 40
1.0
 40
1.0
 40
1.0
 40
1.0
 10
104.7806668069
 20
131.1459128689
 30
0.0
 10
104.7978681441
 20
131.1328530266
 30
0.0
 10
104.8296312387
 20
131.104203735
 30
0.0
 10
104.8540469448
 20
131.0665245686
 30
0.0
 10
104.8587259494
 20
131.0457860366
 30
0.0
  0
SPLINE
  5
3FA
100
AcDbEntity
  8
0
100
AcDbSpline
 62
7
  6
CONTINUOUS
 70
0
 71
3
 72
9
 73
5
 74
0
 42
0.0000001
 43
0.0000001
 44
0.0000000001
 40
0.0
 40
0.0
 40
0.0
 40
0.0
 40
0.5079139879
 40
1.0
 40
1.0
 40
1.0
 40
1.0
 10
95.9886141771
 20
50.4952509761
 30
0.0
 10
96.1732494155
 20
50.8800689401
 30
0.0
 10
96.496018187
 20
51.6585296658
 30
0.0
 10
96.702679643
 20
52.4774920642
 30
0.0
 10
96.768034366
 20
52.8858137198
 30
0.0
  0
SPLINE
  5
3FB
100
AcDbEntity
  8
0
100
AcDbSpline
 62
7
  6
CONTINUOUS
 70
0
 71
3
 72
9
 73
5
 74
0
 42
0.0000001
 43
0.0000001
 44
0.0000000001
 40
0.0
 40
0.0
 40
0.0
 40
0.0
 40
0.5064851666
 40
1.0
 40
1.0
 40
1.0
 40
1.0
 10
95.5556014752
 20
50.2568458894
 30
0.0
 10
95.6419846202
 20
50.2557590871
 30
0.0
 10
95.8163524741
 20
50.2980009484
 30
0.0
 10
95.9455175162
 20
50.422942217
 30
0.0
 10
95.9886141771
 20
50.4952509761
 30
0.0
  0
SPLINE
  5
3FC
100
AcDbEntity
  8
0
100
AcDbSpline
 62
7
  6
CONTINUOUS
 70
0
 71
3
 72
13
 73
9
 74
0
 42
0.0000001
 43
0.0000001
 44
0.0000000001
 40
0.0
 40
0.0
 40
0.0
 40
0.0
 40
0.2551267626
 40
0.3783511396
 40
0.4999997433
 40
0.6216485375
 40
0.744872953
 40
1.0
 40
1.0
 40
1.0
 40
1.0
 10
95.5293943295
 20
50.2570084894
 30
0.0
 10
95.799906239
 20
50.8121733702
 30
0.0
 10
96.139737193
 20
51.6712614637
 30
0.0
 10
96.3807938284
 20
52.8601715198
 30
0.0
 10
96.4419118273
 20
53.7480671769
 30
0.0
 10
96.3807944808
 20
54.6359629496
 30
0.0
 10
96.1397389699
 20
55.8248745598
 30
0.0
 10
95.7999065529
 20
56.6839630177
 30
0.0
 10
95.5293943295
 20
57.2391285113
 30
0.0
  0
SPLINE
  5
3FD
100
AcDbEntity
  8
0
100
AcDbSpline
 62
7
  6
CONTINUOUS
 70
0
 71
3
 72
9
 73
5
 74
0
 42
0.0000001
 43
0.0000001
 44
0.0000000001
 40
0.0
 40
0.0
 40
0.0
 40
0.0
 40
0.5234012013
 40
1.0
 40
1.0
 40
1.0
 40
1.0
 10
95.5556014752
 20
57.2404462065
 30
0.0
 10
95.6427810584
 20
57.2493393919
 30
0.0
 10
95.8074507491
 20
57.2982913723
 30
0.0
 10
95.9424096585
 20
57.4082039412
 30
0.0
 10
95.9886141771
 20
57.4732619152
 30
0.0
  0
SPLINE
  5
3FE
100
AcDbEntity
  8
0
100
AcDbSpline
 62
7
  6
CONTINUOUS
 70
0
 71
3
 72
9
 73
5
 74
0
 42
0.0000001
 43
0.0000001
 44
0.0000000001
 40
0.0
 40
0.0
 40
0.0
 40
0.0
 40
0.491040336
 40
1.0
 40
1.0
 40
1.0
 40
1.0
 10
96.768034568
 20
55.0476423963
 30
0.0
 10
96.702465794
 20
55.4605309438
 30
0.0
 10
96.4951076728
 20
56.2905785858
 30
0.0
 10
96.1730816182
 20
57.0811690685
 30
0.0
 10
95.9886141771
 20
57.4732619152
 30
0.0
  0
SPLINE
  5
3FF
100
AcDbEntity
  8
0
100
AcDbSpline
 62
7
  6
CONTINUOUS
 70
0
 71
3
 72
9
 73
5
 74
0
 42
0.0000001
 43
0.0000001
 44
0.0000000001
 40
0.0
 40
0.0
 40
0.0
 40
0.0
 40
0.5000113839
 40
1.0
 40
1.0
 40
1.0
 40
1.0
 10
95.9886141771
 20
60.1934514437
 30
0.0
 10
96.1766853706
 20
60.9851835441
 30
0.0
 10
96.5023072836
 20
62.5812401664
 30
0.0
 10
96.7033746053
 20
64.1984810171
 30
0.0
 10
96.7680343625
 20
65.0096340871
 30
0.0
  0
SPLINE
  5
400
100
AcDbEntity
  8
0
100
AcDbSpline
 62
7
  6
CONTINUOUS
 70
0
 71
3
 72
10
 73
6
 74
0
 42
0.0000001
 43
0.0000001
 44
0.0000000001
 40
0.0
 40
0.0
 40
0.0
 40
0.0
 40
0.5791858287
 40
0.8162548601
 40
1.0
 40
1.0
 40
1.0
 40
1.0
 10
95.5556014752
 20
60.1878619206
 30
0.0
 10
95.6389897189
 20
60.1783063122
 30
0.0
 10
95.7575045457
 20
60.1704493752
 30
0.0
 10
95.9023103043
 20
60.177337222
 30
0.0
 10
95.962905507
 20
60.1865156587
 30
0.0
 10
95.9886141771
 20
60.1934514437
 30
0.0
  0
SPLINE
  5
401
100
AcDbEntity
  8
0
100
AcDbSpline
 62
7
  6
CONTINUOUS
 70
0
 71
3
 72
11
 73
7
 74
0
 42
0.0000001
 43
0.0000001
 44
0.0000000001
 40
0.0
 40
0.0
 40
0.0
 40
0.0
 40
0.2500219793
 40
0.5000000093
 40
0.749978021
 40
1.0
 40
1.0
 40
1.0
 40
1.0
 10
95.5293943295
 20
60.1893422371
 30
0.0
 10
95.8076200018
 20
61.3313338404
 30
0.0
 10
96.2585868
 20
63.643606453
 30
0.0
 10
96.5031395215
 20
67.1714623149
 30
0.0
 10
96.2585876723
 20
70.6993183127
 30
0.0
 10
95.8076201028
 20
73.0115907038
 30
0.0
 10
95.5293943295
 20
74.1535822809
 30
0.0
  0
SPLINE
  5
402
100
AcDbEntity
  8
0
100
AcDbSpline
 62
7
  6
CONTINUOUS
 70
0
 71
3
 72
10
 73
6
 74
0
 42
0.0000001
 43
0.0000001
 44
0.0000000001
 40
0.0
 40
0.0
 40
0.0
 40
0.0
 40
0.5791862424
 40
0.8162553193
 40
1.0
 40
1.0
 40
1.0
 40
1.0
 10
95.5556014752
 20
74.1550625682
 30
0.0
 10
95.6389897576
 20
74.1646181141
 30
0.0
 10
95.7575046879
 20
74.172474686
 30
0.0
 10
95.9023102831
 20
74.1655864428
 30
0.0
 10
95.962905581
 20
74.1564089912
 30
0.0
 10
95.9886141771
 20
74.1494732221
 30
0.0
  0
SPLINE
  5
403
100
AcDbEntity
  8
0
100
AcDbSpline
 62
7
  6
CONTINUOUS
 70
0
 71
3
 72
9
 73
5
 74
0
 42
0.0000001
 43
0.0000001
 44
0.0000000001
 40
0.0
 40
0.0
 40
0.0
 40
0.0
 40
0.4999886158
 40
1.0
 40
1.0
 40
1.0
 40
1.0
 10
96.7680345184
 20
69.3332912204
 30
0.0
 10
96.7033738958
 20
70.1444441174
 30
0.0
 10
96.5023075258
 20
71.761684822
 30
0.0
 10
96.176685307
 20
73.3577412123
 30
0.0
 10
95.9886141771
 20
74.1494732221
 30
0.0
  0
SPLINE
  5
404
100
AcDbEntity
  8
0
100
AcDbSpline
 62
7
  6
CONTINUOUS
 70
0
 71
3
 72
9
 73
5
 74
0
 42
0.0000001
 43
0.0000001
 44
0.0000000001
 40
0.0
 40
0.0
 40
0.0
 40
0.0
 40
0.5089595695
 40
1.0
 40
1.0
 40
1.0
 40
1.0
 10
95.9886141771
 20
76.8696627317
 30
0.0
 10
96.1730816802
 20
77.2617555865
 30
0.0
 10
96.4951075701
 20
78.0523463062
 30
0.0
 10
96.7024664656
 20
78.8823940998
 30
0.0
 10
96.768034422
 20
79.2952829701
 30
0.0
  0
SPLINE
  5
405
100
AcDbEntity
  8
0
100
AcDbSpline
 62
7
  6
CONTINUOUS
 70
0
 71
3
 72
9
 73
5
 74
0
 42
0.0000001
 43
0.0000001
 44
0.0000000001
 40
0.0
 40
0.0
 40
0.0
 40
0.0
 40
0.5234014867
 40
1.0
 40
1.0
 40
1.0
 40
1.0
 10
95.5556014752
 20
77.1024782861
 30
0.0
 10
95.6427810527
 20
77.0935850398
 30
0.0
 10
95.8074503053
 20
77.0446323808
 30
0.0
 10
95.9424097133
 20
76.9347206332
 30
0.0
 10
95.9886141771
 20
76.8696627316
 30
0.0
  0
SPLINE
  5
406
100
AcDbEntity
  8
0
100
AcDbSpline
 62
7
  6
CONTINUOUS
 70
0
 71
3
 72
13
 73
9
 74
0
 42
0.0000001
 43
0.0000001
 44
0.0000000001
 40
0.0
 40
0.0
 40
0.0
 40
0.0
 40
0.2551270388
 40
0.378351458
 40
0.5000002492
 40
0.6216488608
 40
0.7448732415
 40
1.0
 40
1.0
 40
1.0
 40
1.0
 10
95.5293943295
 20
77.1037960067
 30
0.0
 10
95.79990647
 20
77.6589615184
 30
0.0
 10
96.1397381128
 20
78.5180502257
 30
0.0
 10
96.3807941751
 20
79.7069616664
 30
0.0
 10
96.4419118561
 20
80.5948574537
 30
0.0
 10
96.3807940759
 20
81.4827531311
 30
0.0
 10
96.1397380622
 20
82.6716633683
 30
0.0
 10
95.7999062433
 20
83.5307511611
 30
0.0
 10
95.5293943295
 20
84.0859160286
 30
0.0
  0
SPLINE
  5
407
100
AcDbEntity
  8
0
100
AcDbSpline
 62
7
  6
CONTINUOUS
 70
0
 71
3
 72
9
 73
5
 74
0
 42
0.0000001
 43
0.0000001
 44
0.0000000001
 40
0.0
 40
0.0
 40
0.0
 40
0.0
 40
0.5064854865
 40
1.0
 40
1.0
 40
1.0
 40
1.0
 10
95.5556014752
 20
84.0860786258
 30
0.0
 10
95.6419846676
 20
84.0871654216
 30
0.0
 10
95.8163524664
 20
84.0449234305
 30
0.0
 10
95.9455175493
 20
83.9199822625
 30
0.0
 10
95.9886141771
 20
83.8476735554
 30
0.0
  0
SPLINE
  5
408
100
AcDbEntity
  8
0
100
AcDbSpline
 62
7
  6
CONTINUOUS
 70
0
 71
3
 72
9
 73
5
 74
0
 42
0.0000001
 43
0.0000001
 44
0.0000000001
 40
0.0
 40
0.0
 40
0.0
 40
0.0
 40
0.492086154
 40
1.0
 40
1.0
 40
1.0
 40
1.0
 10
96.7680345069
 20
81.4571110299
 30
0.0
 10
96.7026790519
 20
81.86543266
 30
0.0
 10
96.4960184582
 20
82.6843951266
 30
0.0
 10
96.1732493027
 20
83.4628557023
 30
0.0
 10
95.9886141771
 20
83.8476735554
 30
0.0
  0
SPLINE
  5
409
100
AcDbEntity
  8
0
100
AcDbSpline
 62
7
  6
CONTINUOUS
 70
0
 71
3
 72
9
 73
5
 74
0
 42
0.0000001
 43
0.0000001
 44
0.0000000001
 40
0.0
 40
0.0
 40
0.0
 40
0.0
 40
0.4921360587
 40
1.0
 40
1.0
 40
1.0
 40
1.0
 10
96.7680343658
 20
52.8858599214
 30
0.0
 10
96.8383838715
 20
52.9988940682
 30
0.0
 10
97.0483789564
 20
53.1911979172
 30
0.0
 10
97.3234585964
 20
53.2569223092
 30
0.0
 10
97.4608516458
 20
53.2569241042
 30
0.0
  0
SPLINE
  5
40A
100
AcDbEntity
  8
0
100
AcDbSpline
 62
7
  6
CONTINUOUS
 70
0
 71
3
 72
10
 73
6
 74
0
 42
0.0000001
 43
0.0000001
 44
0.0000000001
 40
0.0
 40
0.0
 40
0.0
 40
0.0
 40
0.5239704111
 40
0.7679149459
 40
1.0
 40
1.0
 40
1.0
 40
1.0
 10
96.7680260741
 20
55.0475809522
 30
0.0
 10
96.8015773031
 20
54.6710837998
 30
0.0
 10
96.8225396396
 20
54.1165404077
 30
0.0
 10
96.8094366441
 20
53.395225916
 30
0.0
 10
96.7860547062
 20
53.0523145495
 30
0.0
 10
96.7680258671
 20
52.8858633027
 30
0.0
  0
SPLINE
  5
40B
100
AcDbEntity
  8
0
100
AcDbSpline
 62
7
  6
CONTINUOUS
 70
0
 71
3
 72
9
 73
5
 74
0
 42
0.0000001
 43
0.0000001
 44
0.0000000001
 40
0.0
 40
0.0
 40
0.0
 40
0.0
 40
0.4768823014
 40
1.0
 40
1.0
 40
1.0
 40
1.0
 10
96.7680345669
 20
55.0475698985
 30
0.0
 10
96.841495408
 20
55.1477473315
 30
0.0
 10
97.0609293836
 20
55.3111760467
 30
0.0
 10
97.3245825623
 20
55.3624743068
 30
0.0
 10
97.4608523259
 20
55.3624707917
 30
0.0
  0
SPLINE
  5
40C
100
AcDbEntity
  8
0
100
AcDbSpline
 62
7
  6
CONTINUOUS
 70
0
 71
3
 72
11
 73
7
 74
0
 42
0.0000001
 43
0.0000001
 44
0.0000000001
 40
0.0
 40
0.0
 40
0.0
 40
0.0
 40
0.2951650417
 40
0.5610687964
 40
0.7963990068
 40
1.0
 40
1.0
 40
1.0
 40
1.0
 10
97.4608523259
 20
55.3624707919
 30
0.0
 10
97.4608298744
 20
55.1552891336
 30
0.0
 10
97.4528613904
 20
54.7615232307
 30
0.0
 10
97.4435293334
 20
54.2025496351
 30
0.0
 10
97.4510160966
 20
53.7078262344
 30
0.0
 10
97.4608290433
 20
53.3998353067
 30
0.0
 10
97.4608516458
 20
53.256924104
 30
0.0
  0
SPLINE
  5
40D
100
AcDbEntity
  8
0
100
AcDbSpline
 62
7
  6
CONTINUOUS
 70
0
 71
3
 72
10
 73
6
 74
0
 42
0.0000001
 43
0.0000001
 44
0.0000000001
 40
0.0
 40
0.0
 40
0.0
 40
0.0
 40
0.1856032846
 40
0.4250030068
 40
1.0
 40
1.0
 40
1.0
 40
1.0
 10
96.7680343624
 20
65.0097534571
 30
0.0
 10
96.8098852192
 20
65.0199302543
 30
0.0
 10
96.907349862
 20
65.0362542422
 30
0.0
 10
97.1382139512
 20
65.0599932123
 30
0.0
 10
97.3274199491
 20
65.0659143546
 30
0.0
 10
97.4608516624
 20
65.0659167835
 30
0.0
  0
SPLINE
  5
40E
100
AcDbEntity
  8
0
100
AcDbSpline
 62
7
  6
CONTINUOUS
 70
0
 71
3
 72
9
 73
5
 74
0
 42
0.0000001
 43
0.0000001
 44
0.0000000001
 40
0.0
 40
0.0
 40
0.0
 40
0.0
 40
0.4999997459
 40
1.0
 40
1.0
 40
1.0
 40
1.0
 10
96.7680255711
 20
69.3331868956
 30
0.0
 10
96.8032200462
 20
68.6132993991
 30
0.0
 10
96.8282603796
 20
67.171470856
 30
0.0
 10
96.8032212226
 20
65.7296421786
 30
0.0
 10
96.7680251871
 20
65.009754025
 30
0.0
  0
SPLINE
  5
40F
100
AcDbEntity
  8
0
100
AcDbSpline
 62
7
  6
CONTINUOUS
 70
0
 71
3
 72
10
 73
6
 74
0
 42
0.0000001
 43
0.0000001
 44
0.0000000001
 40
0.0
 40
0.0
 40
0.0
 40
0.0
 40
0.1856006554
 40
0.4250009831
 40
1.0
 40
1.0
 40
1.0
 40
1.0
 10
96.7680345172
 20
69.3331720514
 30
0.0
 10
96.8098862866
 20
69.3230019559
 30
0.0
 10
96.9073511312
 20
69.3066860916
 30
0.0
 10
97.1382142695
 20
69.2829432775
 30
0.0
 10
97.3274202391
 20
69.2770157504
 30
0.0
 10
97.4608521552
 20
69.2770091054
 30
0.0
  0
SPLINE
  5
410
100
AcDbEntity
  8
0
100
AcDbSpline
 62
7
  6
CONTINUOUS
 70
0
 71
3
 72
11
 73
7
 74
0
 42
0.0000001
 43
0.0000001
 44
0.0000000001
 40
0.0
 40
0.0
 40
0.0
 40
0.0
 40
0.2493782115
 40
0.4999991402
 40
0.7506205105
 40
1.0
 40
1.0
 40
1.0
 40
1.0
 10
97.4608521552
 20
69.2770091049
 30
0.0
 10
97.4608278894
 20
68.9269491201
 30
0.0
 10
97.4520555763
 20
68.2251228049
 30
0.0
 10
97.4434489783
 20
67.1714659473
 30
0.0
 10
97.4520544034
 20
66.1178072933
 30
0.0
 10
97.4608296211
 20
65.4159785624
 30
0.0
 10
97.4608516624
 20
65.0659167835
 30
0.0
  0
SPLINE
  5
411
100
AcDbEntity
  8
0
100
AcDbSpline
 62
7
  6
CONTINUOUS
 70
0
 71
3
 72
9
 73
5
 74
0
 42
0.0000001
 43
0.0000001
 44
0.0000000001
 40
0.0
 40
0.0
 40
0.0
 40
0.0
 40
0.4768782794
 40
1.0
 40
1.0
 40
1.0
 40
1.0
 10
96.7680344217
 20
79.2953554098
 30
0.0
 10
96.8414979029
 20
79.1951818746
 30
0.0
 10
97.0609317084
 20
79.0317590483
 30
0.0
 10
97.3245816385
 20
78.9804538074
 30
0.0
 10
97.4608518639
 20
78.9804545178
 30
0.0
  0
SPLINE
  5
412
100
AcDbEntity
  8
0
100
AcDbSpline
 62
7
  6
CONTINUOUS
 70
0
 71
3
 72
10
 73
6
 74
0
 42
0.0000001
 43
0.0000001
 44
0.0000000001
 40
0.0
 40
0.0
 40
0.0
 40
0.0
 40
0.2320841687
 40
0.4760287236
 40
1.0
 40
1.0
 40
1.0
 40
1.0
 10
96.7680250338
 20
81.4570679493
 30
0.0
 10
96.786053787
 20
81.2906174766
 30
0.0
 10
96.809436507
 20
80.9477071171
 30
0.0
 10
96.8225424525
 20
80.2263932243
 30
0.0
 10
96.80157691
 20
79.6718497323
 30
0.0
 10
96.7680254386
 20
79.2953522924
 30
0.0
  0
SPLINE
  5
413
100
AcDbEntity
  8
0
100
AcDbSpline
 62
7
  6
CONTINUOUS
 70
0
 71
3
 72
9
 73
5
 74
0
 42
0.0000001
 43
0.0000001
 44
0.0000000001
 40
0.0
 40
0.0
 40
0.0
 40
0.0
 40
0.492133446
 40
1.0
 40
1.0
 40
1.0
 40
1.0
 10
96.7680345064
 20
81.4570647315
 30
0.0
 10
96.8383854804
 20
81.3440326836
 30
0.0
 10
97.0483811898
 20
81.1517325486
 30
0.0
 10
97.3234586522
 20
81.0860042508
 30
0.0
 10
97.4608520994
 20
81.0860008847
 30
0.0
  0
SPLINE
  5
414
100
AcDbEntity
  8
0
100
AcDbSpline
 62
7
  6
CONTINUOUS
 70
0
 71
3
 72
11
 73
7
 74
0
 42
0.0000001
 43
0.0000001
 44
0.0000000001
 40
0.0
 40
0.0
 40
0.0
 40
0.0
 40
0.2035996422
 40
0.4389293182
 40
0.7048335495
 40
1.0
 40
1.0
 40
1.0
 40
1.0
 10
97.4608520994
 20
81.0860008842
 30
0.0
 10
97.460826903
 20
80.9430906535
 30
0.0
 10
97.4510191234
 20
80.6351010804
 30
0.0
 10
97.4435290227
 20
80.140378762
 30
0.0
 10
97.4528638458
 20
79.5814043253
 30
0.0
 10
97.4608293111
 20
79.1876371311
 30
0.0
 10
97.4608518639
 20
78.9804545178
 30
0.0
  0
LINE
  5
415
100
AcDbEntity
  8
GEOM
100
AcDbLine
 62
7
  6
CONTINUOUS
 10
104.2305738118
 20
131.6128836152
 11
104.4813886498
 21
131.3722159065
  0
SPLINE
  5
416
100
AcDbEntity
  8
GEOM
100
AcDbSpline
 62
7
  6
CONTINUOUS
 70
0
 71
3
 72
9
 73
5
 74
0
 42
0.0000001
 43
0.0000001
 44
0.0000000001
 40
0.0
 40
0.0
 40
0.0
 40
0.0
 40
0.4998995234
 40
1.0
 40
1.0
 40
1.0
 40
1.0
 10
103.9868633473
 20
132.1785690402
 30
0.0
 10
103.9868047126
 20
132.0738080055
 30
0.0
 10
104.0308674406
 20
131.862022022
 30
0.0
 10
104.1549840418
 20
131.6854776218
 30
0.0
 10
104.2305738118
 20
131.6128836152
 30
0.0
  0
SPLINE
  5
417
100
AcDbEntity
  8
GEOM
100
AcDbSpline
 62
7
  6
CONTINUOUS
 70
0
 71
3
 72
9
 73
5
 74
0
 42
0.0000001
 43
0.0000001
 44
0.0000000001
 40
0.0
 40
0.0
 40
0.0
 40
0.0
 40
0.5005532024
 40
1.0
 40
1.0
 40
1.0
 40
1.0
 10
104.275565691
 20
132.1785690402
 30
0.0
 10
104.2755448251
 20
132.1124855396
 30
0.0
 10
104.3048437182
 20
131.978943532
 30
0.0
 10
104.3858099388
 20
131.8696613315
 30
0.0
 10
104.4343332164
 20
131.8250156496
 30
0.0
  0
SPLINE
  5
418
100
AcDbEntity
  8
GEOM
100
AcDbSpline
 62
7
  6
CONTINUOUS
 70
0
 71
3
 72
9
 73
5
 74
0
 42
0.0000001
 43
0.0000001
 44
0.0000000001
 40
0.0
 40
0.0
 40
0.0
 40
0.0
 40
0.4995829293
 40
1.0
 40
1.0
 40
1.0
 40
1.0
 10
104.9603697503
 20
131.3179088684
 30
0.0
 10
105.0056624297
 20
131.2719132087
 30
0.0
 10
105.0786118595
 20
131.1604592229
 30
0.0
 10
105.1010071993
 20
131.0289738216
 30
0.0
 10
105.0986782624
 20
130.9643554778
 30
0.0
  0
ELLIPSE
  5
419
100
AcDbEntity
  8
0
100
AcDbEllipse
 62
7
  6
CONTINUOUS
 10
125.8681720669
 20
145.8087300402
 30
0.0
 11
0.5486916773
 21
1.2874646535
 31
0.0
 40
0.7145358838
 41
-1.5707963268
 42
-1.3028918007
  0
ELLIPSE
  5
41A
100
AcDbEntity
  8
0
100
AcDbEllipse
 62
7
  6
CONTINUOUS
 10
127.3231810956
 20
145.771462259
 30
0.0
 11
-0.0
 21
1.0
 31
0.0
 40
0.383864035
 41
0.0
 42
1.0906723322
  0
ELLIPSE
  5
41B
100
AcDbEntity
  8
0
100
AcDbEllipse
 62
7
  6
CONTINUOUS
 10
112.8325774557
 20
145.0622368823
 30
0.0
 11
-1.2104221425
 21
1.2980188316
 31
0.0
 40
0.563438437
 41
0.5435120867
 42
1.5707963268
  0
ELLIPSE
  5
41C
100
AcDbEntity
  8
0
100
AcDbEllipse
 62
7
  6
CONTINUOUS
 10
126.9393170605
 20
146.771462259
 30
0.0
 11
0.0
 21
3.0
 31
0.0
 40
0.383864035
 41
0.0
 42
1.5707963268
  0
ELLIPSE
  5
41D
100
AcDbEntity
  8
0
100
AcDbEllipse
 62
7
  6
CONTINUOUS
 10
108.4183638933
 20
146.771462259
 30
0.0
 11
3.0
 21
0.0
 31
0.0
 40
1.0
 41
-0.0
 42
1.5707963268
  0
ELLIPSE
  5
41E
100
AcDbEntity
  8
0
100
AcDbEllipse
 62
7
  6
CONTINUOUS
 10
124.7165799618
 20
143.1066038886
 30
0.0
 11
-0.5486916773
 21
-1.2874646535
 31
0.0
 40
0.7145358838
 41
1.5707963268
 42
2.1085963504
  0
ENDSEC
  0
SECTION
  2
OBJECTS
  0
DICTIONARY
  5
41F
100
AcDbDictionary
  3
ACAD_GROUP
350
420
  3
ACAD_MLINESTYLE
350
421
  0
DICTIONARY
  5
420
102
{ACAD_REACTORS
330
41F
102
}
100
AcDbDictionary
  0
DICTIONARY
  5
421
102
{ACAD_REACTORS
330
41F
102
}
100
AcDbDictionary
  3
STANDARD
350
422
  0
MLINESTYLE
  5
422
102
{ACAD_REACTORS
330
421
102
}
100
AcDbMlineStyle
  2
STANDARD
 70
0
  3

 62
256
 51
90.0
 52
90.0
 71
2
 49
0.5
 62
256
  6
BYLAYER
 49
-0.5
 62
256
  6
BYLAYER
  0
ENDSEC
  0
EOF
