999
DXF file: C:\Users\64ciro\Desktop\FILE 3D-2D\ARMATEC\SINGOLI\h34nll015_3077.dxf
999
Pro/ENGINEER 2017260 by Parametric Technology Corporation
  0
SECTION
  2
HEADER
  9
$ACADVER
  1
AC1014
  9
$DWGCODEPAGE
  3
ANSI_1252
  9
$EXTMAX
 10
297.0
 20
210.0
 30
0.0
  9
$EXTMIN
 10
0.0
 20
0.0
 30
0.0
  9
$LIMMIN
 10
0.0
 20
0.0
  9
$LIMMAX
 10
297.0
 20
210.0
  9
$VIEWCTR
 10
148.5
 20
105.0
  9
$VIEWSIZE
 40
210.0
  9
$CLAYER
  8
0
  9
$LTSCALE
 40
16.335
  9
$CELTYPE
  6
BYLAYER
  9
$DIMSCALE
 40
1.0
  9
$DIMASZ
 40
2.5
  9
$DIMEXO
 40
0.0625
  9
$DIMDLI
 40
11.286
  9
$DIMEXE
 40
0.125
  9
$DIMCEN
 40
2.673
  9
$DIMLFAC
 40
1.0
  9
$DIMBLK
  1
_CLOSED
  9
$DIMALT
 70
0
  9
$DIMALTF
 40
25.4
  9
$DIMTXT
 40
2.5
  9
$DIMTOL
 70
1
  9
$DIMLIM
 70
0
  9
$DIMTFAC
 40
1.0
  9
$DIMTP
 40
0.01
  9
$DIMTM
 40
0.01
  9
$DIMGAP
 40
0.625
  9
$AUNITS
 70
0
  9
$PDMODE
 70
3
  9
$PDSIZE
 40
0.3125
  9
$HANDSEED
  5
3FD
  9
$TILEMODE
 70
1
  9
$MEASUREMENT
 70
1
  0
ENDSEC
  0
SECTION
  2
CLASSES
  0
ENDSEC
  0
SECTION
  2
TABLES
  0
TABLE
  2
VPORT
  5
8
100
AcDbSymbolTable
 70
2
  0
VPORT
  5
1F4
100
AcDbSymbolTableRecord
100
AcDbViewportTableRecord
  2
*ACTIVE
 70
0
 10
0.0
 20
0.0
 11
1.0
 21
1.0
 12
148.5
 22
105.0
 13
0.0
 23
0.0
 14
1.0
 24
1.0
 15
0.0
 25
0.0
 16
0.0
 26
0.0
 36
1.0
 17
0.0
 27
0.0
 37
0.0
 40
210.0
 41
1.4142857143
 42
50.0
 43
0.0
 44
0.0
 50
0.0
 51
0.0
 71
0
 72
100
 73
1
 74
1
 75
0
 76
0
 77
0
 78
0
  0
ENDTAB
  0
TABLE
  2
LTYPE
  5
5
100
AcDbSymbolTable
 70
6
  0
LTYPE
  5
14
100
AcDbSymbolTableRecord
100
AcDbLinetypeTableRecord
  2
BYBLOCK
 70
0
  3

 72
65
 73
0
 40
0.0
  0
LTYPE
  5
15
100
AcDbSymbolTableRecord
100
AcDbLinetypeTableRecord
  2
BYLAYER
 70
0
  3

 72
65
 73
0
 40
0.0
  0
LTYPE
  5
16
100
AcDbSymbolTableRecord
100
AcDbLinetypeTableRecord
  2
CONTINUOUS
 70
64
  3
Solid line
 72
65
 73
0
 40
0.0
  0
LTYPE
  5
1F5
100
AcDbSymbolTableRecord
100
AcDbLinetypeTableRecord
  2
CENTER
 70
64
  3
____ _ ____ _ ____ _ ____ _ ____ _ ____ _ ____
 72
65
 73
4
 40
0.6
 49
0.375
 74
0
 49
-0.075
 74
0
 49
0.075
 74
0
 49
-0.075
 74
0
  0
LTYPE
  5
1F6
100
AcDbSymbolTableRecord
100
AcDbLinetypeTableRecord
  2
HIDDEN
 70
64
  3
- - - - - - - - - - - - - - - - - - - -
 72
65
 73
2
 40
0.2
 49
0.1
 74
0
 49
-0.1
 74
0
  0
LTYPE
  5
1F7
100
AcDbSymbolTableRecord
100
AcDbLinetypeTableRecord
  2
PHANTOM
 70
64
  3
_____ _ _ _____ _ _ _____ _ _ _____
 72
65
 73
6
 40
0.8
 49
0.45
 74
0
 49
-0.05
 74
0
 49
0.1
 74
0
 49
-0.05
 74
0
 49
0.1
 74
0
 49
-0.05
 74
0
  0
LTYPE
  5
1F8
100
AcDbSymbolTableRecord
100
AcDbLinetypeTableRecord
  2
DOT
 70
64
  3
. . . . . . . . . . . . . . . . . . . .
 72
65
 73
2
 40
0.2
 49
0.1
 74
0
 49
-0.1
 74
0
  0
LTYPE
  5
1F9
100
AcDbSymbolTableRecord
100
AcDbLinetypeTableRecord
  2
DASHED
 70
64
  3
- - - - - - - - - - - - - - - - - - - -
 72
65
 73
2
 40
0.2
 49
0.1
 74
0
 49
-0.1
 74
0
  0
ENDTAB
  0
TABLE
  2
LAYER
  5
2
100
AcDbSymbolTable
 70
36
  0
LAYER
  5
10
100
AcDbSymbolTableRecord
100
AcDbLayerTableRecord
  2
0
 70
0
 62
7
  6
CONTINUOUS
  0
LAYER
  5
1FA
100
AcDbSymbolTableRecord
100
AcDbLayerTableRecord
  2
DEFAULT_1
 70
0
 62
7
  6
CENTER
  0
LAYER
  5
1FB
100
AcDbSymbolTableRecord
100
AcDbLayerTableRecord
  2
DEFAULT_2
 70
0
 62
8
  6
HIDDEN
  0
LAYER
  5
1FC
100
AcDbSymbolTableRecord
100
AcDbLayerTableRecord
  2
DEFAULT_3
 70
0
 62
7
  6
PHANTOM
  0
LAYER
  5
1FD
100
AcDbSymbolTableRecord
100
AcDbLayerTableRecord
  2
ASSI
 70
0
 62
7
  6
CONTINUOUS
  0
LAYER
  5
1FE
100
AcDbSymbolTableRecord
100
AcDbLayerTableRecord
  2
COSMETICA
 70
0
 62
7
  6
CONTINUOUS
  0
LAYER
  5
1FF
100
AcDbSymbolTableRecord
100
AcDbLayerTableRecord
  2
CSYS
 70
0
 62
7
  6
CONTINUOUS
  0
LAYER
  5
200
100
AcDbSymbolTableRecord
100
AcDbLayerTableRecord
  2
CURVE
 70
0
 62
7
  6
CONTINUOUS
  0
LAYER
  5
201
100
AcDbSymbolTableRecord
100
AcDbLayerTableRecord
  2
DETTAGLI
 70
0
 62
7
  6
CONTINUOUS
  0
LAYER
  5
202
100
AcDbSymbolTableRecord
100
AcDbLayerTableRecord
  2
FILETTI
 70
0
 62
7
  6
CONTINUOUS
  0
LAYER
  5
203
100
AcDbSymbolTableRecord
100
AcDbLayerTableRecord
  2
GEOM
 70
0
 62
7
  6
CONTINUOUS
  0
LAYER
  5
204
100
AcDbSymbolTableRecord
100
AcDbLayerTableRecord
  2
GEOMETRIA_SOLIDA
 70
0
 62
7
  6
CONTINUOUS
  0
LAYER
  5
205
100
AcDbSymbolTableRecord
100
AcDbLayerTableRecord
  2
LAY0001
 70
0
 62
7
  6
CONTINUOUS
  0
LAYER
  5
206
100
AcDbSymbolTableRecord
100
AcDbLayerTableRecord
  2
LAY0002
 70
0
 62
7
  6
CONTINUOUS
  0
LAYER
  5
207
100
AcDbSymbolTableRecord
100
AcDbLayerTableRecord
  2
LAY0003
 70
0
 62
7
  6
CONTINUOUS
  0
LAYER
  5
208
100
AcDbSymbolTableRecord
100
AcDbLayerTableRecord
  2
NOGEOM
 70
0
 62
7
  6
CONTINUOUS
  0
LAYER
  5
209
100
AcDbSymbolTableRecord
100
AcDbLayerTableRecord
  2
PIANI
 70
0
 62
7
  6
CONTINUOUS
  0
LAYER
  5
20A
100
AcDbSymbolTableRecord
100
AcDbLayerTableRecord
  2
QUOTE
 70
0
 62
7
  6
CONTINUOUS
  0
LAYER
  5
20B
100
AcDbSymbolTableRecord
100
AcDbLayerTableRecord
  2
SKETCH
 70
0
 62
7
  6
CONTINUOUS
  0
LAYER
  5
20C
100
AcDbSymbolTableRecord
100
AcDbLayerTableRecord
  2
TABELLE
 70
0
 62
7
  6
CONTINUOUS
  0
ENDTAB
  0
TABLE
  2
STYLE
  5
3
100
AcDbSymbolTable
 70
1
  0
STYLE
  5
11
100
AcDbSymbolTableRecord
100
AcDbTextStyleTableRecord
  2
STANDARD
 70
0
 40
0.0
 41
1.0
 50
0.0
 71
0
 42
0.2
  3
trium.ttf
  4

  0
STYLE
  5
20D
100
AcDbSymbolTableRecord
100
AcDbTextStyleTableRecord
  2
TEXTSTYLE_1
 70
0
 40
0.0
 41
0.8
 50
0.0
 71
0
 42
0.2
  3
gdt
  4

  0
ENDTAB
  0
TABLE
  2
VIEW
  5
6
100
AcDbSymbolTable
 70
0
  0
ENDTAB
  0
TABLE
  2
UCS
  5
7
100
AcDbSymbolTable
 70
0
  0
ENDTAB
  0
TABLE
  2
APPID
  5
9
100
AcDbSymbolTable
 70
1
  0
APPID
  5
20E
100
AcDbSymbolTableRecord
100
AcDbRegAppTableRecord
  2
ACAD
 70
0
  0
ENDTAB
  0
TABLE
  2
BLOCK_RECORD
  5
1
100
AcDbSymbolTable
 70
0
  0
BLOCK_RECORD
  5
1F
100
AcDbSymbolTableRecord
100
AcDbBlockTableRecord
  2
*MODEL_SPACE
  0
BLOCK_RECORD
  5
1B
100
AcDbSymbolTableRecord
100
AcDbBlockTableRecord
  2
*PAPER_SPACE
  0
ENDTAB
  0
TABLE
  2
DIMSTYLE
  5
A
100
AcDbSymbolTable
 70
1
  0
DIMSTYLE
105
20F
100
AcDbSymbolTableRecord
100
AcDbDimStyleTableRecord
  2
STANDARD
 70
0
  3

  4

  5
_CLOSED
  6
_CLOSED
  7
_CLOSED
 40
1.0
 41
2.5
 42
0.0625
 43
0.38
 44
0.125
 45
0.0
 46
0.0
 47
0.01
 48
0.01
140
2.5
141
0.09
142
0.0
143
25.4
144
1.0
145
0.0
146
1.0
147
0.625
 71
1.0
 72
0.0
 73
0
 74
0
 75
0
 76
0
 77
1
 78
8
 79
2
170
0
171
1
172
0
173
0
174
0
175
0
176
0
177
0
178
0
270
2
179
2
271
2
272
2
273
2
274
2
275
0
280
0
281
0
282
0
283
1
284
8
285
0
286
0
287
3
288
0
340
11
  0
ENDTAB
  0
ENDSEC
  0
SECTION
  2
BLOCKS
  0
BLOCK
  5
20
100
AcDbEntity
  8
0
100
AcDbBlockBegin
  2
*MODEL_SPACE
 70
0
 10
0.0
 20
0.0
 30
0.0
  3
*MODEL_SPACE
  1

  0
ENDBLK
  5
21
100
AcDbEntity
  8
0
100
AcDbBlockEnd
  0
BLOCK
  5
1C
100
AcDbEntity
  8
0
100
AcDbBlockBegin
  2
*PAPER_SPACE
 70
0
 10
0.0
 20
0.0
 30
0.0
  3
*PAPER_SPACE
  1

  0
ENDBLK
  5
1D
100
AcDbEntity
  8
0
100
AcDbBlockEnd
  0
ENDSEC
  0
SECTION
  2
ENTITIES
  0
LINE
  5
210
100
AcDbEntity
  8
0
100
AcDbLine
 62
7
  6
CONTINUOUS
 10
0.0
 20
0.0
 11
0.0
 21
210.0
  0
LINE
  5
211
100
AcDbEntity
  8
0
100
AcDbLine
 62
7
  6
CONTINUOUS
 10
0.0
 20
0.0
 11
297.0
 21
0.0
  0
LINE
  5
212
100
AcDbEntity
  8
0
100
AcDbLine
 62
7
  6
CONTINUOUS
 10
0.0
 20
210.0
 11
297.0
 21
210.0
  0
LINE
  5
213
100
AcDbEntity
  8
0
100
AcDbLine
 62
7
  6
CONTINUOUS
 10
297.0
 20
0.0
 11
297.0
 21
210.0
  0
LINE
  5
214
100
AcDbEntity
  8
0
100
AcDbLine
 62
7
  6
CONTINUOUS
 10
97.7593338715
 20
52.4311502167
 11
98.4521541946
 21
51.2311502167
  0
LINE
  5
215
100
AcDbEntity
  8
0
100
AcDbLine
 62
7
  6
CONTINUOUS
 10
113.8986736997
 20
52.9918103885
 11
115.3199940433
 21
51.5704900449
  0
LINE
  5
216
100
AcDbEntity
  8
0
100
AcDbLine
 62
7
  6
CONTINUOUS
 10
126.3986736997
 20
50.6918103885
 11
126.7199940433
 21
50.3704900449
  0
LINE
  5
217
100
AcDbEntity
  8
0
100
AcDbLine
 62
7
  6
CONTINUOUS
 10
97.7593338715
 20
52.4311502167
 11
97.7593338715
 21
78.4311502167
  0
LINE
  5
218
100
AcDbEntity
  8
0
100
AcDbLine
 62
7
  6
CONTINUOUS
 10
98.4521541946
 20
51.2311502167
 11
98.4521541946
 21
51.3162485961
  0
LINE
  5
219
100
AcDbEntity
  8
0
100
AcDbLine
 62
7
  6
CONTINUOUS
 10
98.4521541946
 20
57.0293913389
 11
98.4521541946
 21
59.7180074739
  0
LINE
  5
21A
100
AcDbEntity
  8
0
100
AcDbLine
 62
7
  6
CONTINUOUS
 10
98.4521541946
 20
71.1442929595
 11
98.4521541946
 21
73.8329090945
  0
LINE
  5
21B
100
AcDbEntity
  8
0
100
AcDbLine
 62
7
  6
CONTINUOUS
 10
98.4521541946
 20
79.5460518373
 11
98.4521541946
 21
79.6311502167
  0
LINE
  5
21C
100
AcDbEntity
  8
0
100
AcDbLine
 62
7
  6
CONTINUOUS
 10
109.9762158797
 20
141.5311502167
 11
108.7593338715
 21
140.2262040273
  0
LINE
  5
21D
100
AcDbEntity
  8
0
100
AcDbLine
 62
7
  6
CONTINUOUS
 10
110.6477561501
 20
141.5311502167
 11
108.7593338715
 21
139.5060652539
  0
LINE
  5
21E
100
AcDbEntity
  8
0
100
AcDbLine
 62
7
  6
CONTINUOUS
 10
117.640531718
 20
149.3738846268
 11
118.2593338715
 21
149.7311502167
  0
LINE
  5
21F
100
AcDbEntity
  8
0
100
AcDbLine
 62
7
  6
CONTINUOUS
 10
134.699167841
 20
49.9311502167
 11
127.7806542151
 21
49.9311502167
  0
LINE
  5
220
100
AcDbEntity
  8
0
100
AcDbLine
 62
7
  6
CONTINUOUS
 10
116.3806542151
 20
51.1311502167
 11
125.338013528
 21
51.1311502167
  0
LINE
  5
221
100
AcDbEntity
  8
0
100
AcDbLine
 62
7
  6
CONTINUOUS
 10
146.0665135485
 20
51.2311502167
 11
136.0825989452
 21
51.2311502167
  0
LINE
  5
222
100
AcDbEntity
  8
0
100
AcDbLine
 62
7
  6
CONTINUOUS
 10
107.7004881447
 20
51.2311502167
 11
98.4521541946
 21
51.2311502167
  0
LINE
  5
223
100
AcDbEntity
  8
0
100
AcDbLine
 62
7
  6
CONTINUOUS
 10
146.0665135485
 20
51.3162485961
 11
136.0974761192
 21
51.3162485961
  0
LINE
  5
224
100
AcDbEntity
  8
0
100
AcDbLine
 62
7
  6
CONTINUOUS
 10
107.6752430185
 20
51.3162485961
 11
98.4521541946
 21
51.3162485961
  0
LINE
  5
225
100
AcDbEntity
  8
0
100
AcDbLine
 62
7
  6
CONTINUOUS
 10
112.838013528
 20
53.4311502167
 11
109.7212140869
 21
53.4311502167
  0
LINE
  5
226
100
AcDbEntity
  8
0
100
AcDbLine
 62
7
  6
CONTINUOUS
 10
109.0283937639
 20
77.8311502167
 11
108.1335008466
 21
79.3811502167
  0
LWPOLYLINE
  5
227
100
AcDbEntity
  8
0
100
AcDbPolyline
 62
7
  6
CONTINUOUS
 90
6
 70
0
 10
114.9549054631
 20
136.0096242769
 10
114.947177696
 20
135.9919754655
 10
114.9387973596
 20
135.9794875747
 10
114.930755058
 20
135.9706470254
 10
114.9238959674
 20
135.964806262
 10
114.9219071027
 20
135.9633688996
  0
LINE
  5
228
100
AcDbEntity
  8
0
100
AcDbLine
 62
7
  6
CONTINUOUS
 10
117.8593338715
 20
141.1311502167
 11
118.24553107
 21
141.5173474152
  0
LINE
  5
229
100
AcDbEntity
  8
0
100
AcDbLine
 62
7
  6
CONTINUOUS
 10
114.9593338715
 20
137.5311502167
 11
114.8974881463
 21
137.4693044915
  0
LINE
  5
22A
100
AcDbEntity
  8
0
100
AcDbLine
 62
7
  6
CONTINUOUS
 10
114.5032101435
 20
137.0750264886
 11
114.2593338715
 21
136.8311502167
  0
LINE
  5
22B
100
AcDbEntity
  8
0
100
AcDbLine
 62
7
  6
CONTINUOUS
 10
117.640531718
 20
146.5285851652
 11
116.5593338715
 21
145.9043552975
  0
LINE
  5
22C
100
AcDbEntity
  8
0
100
AcDbLine
 62
7
  6
CONTINUOUS
 10
115.7593338715
 20
140.5311502167
 11
115.0093338715
 21
140.0981375148
  0
LINE
  5
22D
100
AcDbEntity
  8
0
100
AcDbLine
 62
7
  6
CONTINUOUS
 10
146.0665135485
 20
57.0293913389
 11
136.0974755552
 21
57.0293913389
  0
LINE
  5
22E
100
AcDbEntity
  8
0
100
AcDbLine
 62
7
  6
CONTINUOUS
 10
107.6752430185
 20
57.0293913389
 11
98.4521541946
 21
57.0293913389
  0
LINE
  5
22F
100
AcDbEntity
  8
0
100
AcDbLine
 62
7
  6
CONTINUOUS
 10
117.7623469008
 20
66.1111502167
 11
118.6472399503
 21
64.3744498215
  0
LINE
  5
230
100
AcDbEntity
  8
0
100
AcDbLine
 62
7
  6
CONTINUOUS
 10
118.2337239206
 20
66.1111502167
 11
118.8829284602
 21
64.8370145671
  0
LINE
  5
231
100
AcDbEntity
  8
0
100
AcDbLine
 62
7
  6
CONTINUOUS
 10
107.7004881447
 20
73.831668055
 11
107.7004881447
 21
71.1457021722
  0
LINE
  5
232
100
AcDbEntity
  8
0
100
AcDbLine
 62
7
  6
CONTINUOUS
 10
107.7004881447
 20
59.7165982389
 11
107.7004881447
 21
57.0306323591
  0
LINE
  5
233
100
AcDbEntity
  8
0
100
AcDbLine
 62
7
  6
CONTINUOUS
 10
107.7004881447
 20
51.2311502167
 11
107.7004881447
 21
51.316080404
  0
LINE
  5
234
100
AcDbEntity
  8
0
100
AcDbLine
 62
7
  6
CONTINUOUS
 10
107.7004881447
 20
79.5462200267
 11
107.7004881447
 21
79.6311502167
  0
LINE
  5
235
100
AcDbEntity
  8
0
100
AcDbLine
 62
7
  6
CONTINUOUS
 10
108.1335008466
 20
79.3811502167
 11
108.1335008466
 21
79.308739
  0
LINE
  5
236
100
AcDbEntity
  8
0
100
AcDbLine
 62
7
  6
CONTINUOUS
 10
108.1335008466
 20
73.5992827783
 11
108.1335008466
 21
71.1406065221
  0
LINE
  5
237
100
AcDbEntity
  8
0
100
AcDbLine
 62
7
  6
CONTINUOUS
 10
108.1335008466
 20
59.7216940224
 11
108.1335008466
 21
57.263017753
  0
LINE
  5
238
100
AcDbEntity
  8
0
100
AcDbLine
 62
7
  6
CONTINUOUS
 10
108.1335008466
 20
51.5535614459
 11
108.1335008466
 21
51.4811502167
  0
LINE
  5
239
100
AcDbEntity
  8
0
100
AcDbLine
 62
7
  6
CONTINUOUS
 10
108.2593338715
 20
131.7311502167
 11
108.2593338715
 21
129.0466202705
  0
LINE
  5
23A
100
AcDbEntity
  8
0
100
AcDbLine
 62
7
  6
CONTINUOUS
 10
108.4593338715
 20
129.0466202705
 11
108.4593338715
 21
131.9311502167
  0
LINE
  5
23B
100
AcDbEntity
  8
0
100
AcDbLine
 62
7
  6
CONTINUOUS
 10
108.7593338715
 20
127.5311502167
 11
108.7593338715
 21
128.6424750821
  0
LINE
  5
23C
100
AcDbEntity
  8
0
100
AcDbLine
 62
7
  6
CONTINUOUS
 10
108.7593338715
 20
131.9311502167
 11
108.7593338715
 21
141.5311502167
  0
LINE
  5
23D
100
AcDbEntity
  8
0
100
AcDbLine
 62
7
  6
CONTINUOUS
 10
109.0283937639
 20
77.8311502167
 11
109.0283937639
 21
53.0311502167
  0
LINE
  5
23E
100
AcDbEntity
  8
0
100
AcDbLine
 62
7
  6
CONTINUOUS
 10
109.7212140869
 20
77.4311502167
 11
109.7212140869
 21
53.4311502167
  0
LINE
  5
23F
100
AcDbEntity
  8
0
100
AcDbLine
 62
7
  6
CONTINUOUS
 10
111.7593338715
 20
131.9311502167
 11
111.7593338715
 21
141.0311502167
  0
LINE
  5
240
100
AcDbEntity
  8
GEOM
100
AcDbLine
 62
7
  6
CONTINUOUS
 10
112.5093338715
 20
132.1311502167
 11
112.5093338715
 21
135.9311502167
  0
LINE
  5
241
100
AcDbEntity
  8
0
100
AcDbLine
 62
7
  6
CONTINUOUS
 10
112.6826695253
 20
131.7311502167
 11
112.6826695253
 21
127.6882569979
  0
LINE
  5
242
100
AcDbEntity
  8
0
100
AcDbLine
 62
7
  6
CONTINUOUS
 10
112.838013528
 20
77.0252784721
 11
112.838013528
 21
53.4311502167
  0
LINE
  5
243
100
AcDbEntity
  8
0
100
AcDbLine
 62
7
  6
CONTINUOUS
 10
112.8751652911
 20
131.7311502167
 11
112.8751652911
 21
127.6882569979
  0
LINE
  5
244
100
AcDbEntity
  8
0
100
AcDbLine
 62
7
  6
CONTINUOUS
 10
124.1134358378
 20
144.7311502167
 11
124.0334980886
 21
144.5311502167
  0
LINE
  5
245
100
AcDbEntity
  8
0
100
AcDbLine
 62
7
  6
CONTINUOUS
 10
125.7860453853
 20
144.7311502167
 11
125.6854813102
 21
144.5311502167
  0
LINE
  5
246
100
AcDbEntity
  8
0
100
AcDbLine
 62
7
  6
CONTINUOUS
 10
127.1134358378
 20
144.7311502167
 11
127.0020893492
 21
144.5311502167
  0
LINE
  5
247
100
AcDbEntity
  8
0
100
AcDbLine
 62
7
  6
CONTINUOUS
 10
113.3725745439
 20
126.7361754699
 11
113.5078884377
 21
126.8775968287
  0
LINE
  5
248
100
AcDbEntity
  8
0
100
AcDbLine
 62
7
  6
CONTINUOUS
 10
112.8958658806
 20
127.1932822511
 11
113.0317507171
 21
127.3347036028
  0
LWPOLYLINE
  5
249
100
AcDbEntity
  8
0
100
AcDbPolyline
 62
7
  6
CONTINUOUS
 90
4
 70
0
 10
114.9219071027
 20
135.9633688996
 10
114.9192830245
 20
135.9616500531
 10
114.91704212
 20
135.9603613687
 10
114.9168165179
 20
135.9602426857
  0
LWPOLYLINE
  5
24A
100
AcDbEntity
  8
0
100
AcDbPolyline
 62
7
  6
CONTINUOUS
 90
3
 70
0
 10
114.9214653872
 20
137.2990656114
 10
114.9189873718
 20
137.2974701756
 10
114.9167981553
 20
137.2962334299
  0
LINE
  5
24B
100
AcDbEntity
  8
0
100
AcDbLine
 62
7
  6
CONTINUOUS
 10
114.9168263389
 20
137.2962481331
 11
114.5373807384
 21
137.0984316989
  0
LINE
  5
24C
100
AcDbEntity
  8
0
100
AcDbLine
 62
7
  6
CONTINUOUS
 10
146.0665135485
 20
59.7180074739
 11
136.0974761976
 21
59.7180074739
  0
LINE
  5
24D
100
AcDbEntity
  8
0
100
AcDbLine
 62
7
  6
CONTINUOUS
 10
107.6752430185
 20
59.7180074739
 11
98.4521541946
 21
59.7180074739
  0
LINE
  5
24E
100
AcDbEntity
  8
0
100
AcDbLine
 62
7
  6
CONTINUOUS
 10
116.7523469008
 20
62.9211502167
 11
125.1523469008
 21
62.9211502167
  0
LINE
  5
24F
100
AcDbEntity
  8
0
100
AcDbLine
 62
7
  6
CONTINUOUS
 10
117.1723469008
 20
63.3411502167
 11
124.7323469008
 21
63.3411502167
  0
LINE
  5
250
100
AcDbEntity
  8
0
100
AcDbLine
 62
7
  6
CONTINUOUS
 10
118.8284347131
 20
63.9811502167
 11
119.299811733
 21
63.9811502167
  0
LINE
  5
251
100
AcDbEntity
  8
0
100
AcDbLine
 62
7
  6
CONTINUOUS
 10
120.9751009404
 20
63.9811502167
 11
121.3951009404
 21
63.9811502167
  0
LINE
  5
252
100
AcDbEntity
  8
0
100
AcDbLine
 62
7
  6
CONTINUOUS
 10
121.9851009404
 20
63.9811502167
 11
122.4051009404
 21
63.9811502167
  0
LINE
  5
253
100
AcDbEntity
  8
0
100
AcDbLine
 62
7
  6
CONTINUOUS
 10
113.2593338715
 20
78.4311502167
 11
113.2593338715
 21
125.9289288169
  0
LINE
  5
254
100
AcDbEntity
  8
0
100
AcDbLine
 62
7
  6
CONTINUOUS
 10
113.4644489945
 20
126.5240434355
 11
113.4644489945
 21
126.156915707
  0
LINE
  5
255
100
AcDbEntity
  8
0
100
AcDbLine
 62
7
  6
CONTINUOUS
 10
113.655642144
 20
126.5240434355
 11
113.655642144
 21
126.156915707
  0
LINE
  5
256
100
AcDbEntity
  8
0
100
AcDbLine
 62
7
  6
CONTINUOUS
 10
113.8982410951
 20
77.2132469492
 11
113.8986736997
 21
52.9918103885
  0
LINE
  5
257
100
AcDbEntity
  8
0
100
AcDbLine
 62
7
  6
CONTINUOUS
 10
114.2593338715
 20
136.8311502167
 11
114.2593338715
 21
136.4622291348
  0
LINE
  5
258
100
AcDbEntity
  8
0
100
AcDbLine
 62
7
  6
CONTINUOUS
 10
115.0093338715
 20
140.0981375148
 11
115.0093338715
 21
137.5311502167
  0
LINE
  5
259
100
AcDbEntity
  8
0
100
AcDbLine
 62
7
  6
CONTINUOUS
 10
115.0245146746
 20
140.0981375148
 11
115.0245146746
 21
137.5311502167
  0
LINE
  5
25A
100
AcDbEntity
  8
0
100
AcDbLine
 62
7
  6
CONTINUOUS
 10
115.3199940433
 20
51.5704900449
 11
115.3199940433
 21
77.861759033
  0
LINE
  5
25B
100
AcDbEntity
  8
0
100
AcDbLine
 62
7
  6
CONTINUOUS
 10
116.2593338715
 20
145.3847400552
 11
116.2593338715
 21
144.7311502167
  0
LINE
  5
25C
100
AcDbEntity
  8
0
100
AcDbLine
 62
7
  6
CONTINUOUS
 10
116.3806542151
 20
77.5688482927
 11
116.3806542151
 21
51.1311502167
  0
LINE
  5
25D
100
AcDbEntity
  8
0
100
AcDbLine
 62
7
  6
CONTINUOUS
 10
116.7523469008
 20
67.9611502167
 11
116.7523469008
 21
62.9211502167
  0
LINE
  5
25E
100
AcDbEntity
  8
0
100
AcDbLine
 62
7
  6
CONTINUOUS
 10
117.1723469008
 20
67.5411502167
 11
117.1723469008
 21
63.3411502167
  0
LINE
  5
25F
100
AcDbEntity
  8
0
100
AcDbLine
 62
7
  6
CONTINUOUS
 10
117.640531718
 20
146.5285851652
 11
117.640531718
 21
149.3738846268
  0
LINE
  5
260
100
AcDbEntity
  8
0
100
AcDbLine
 62
7
  6
CONTINUOUS
 10
117.8593338715
 20
140.5311502167
 11
117.8593338715
 21
141.1311502167
  0
LINE
  5
261
100
AcDbEntity
  8
0
100
AcDbLine
 62
7
  6
CONTINUOUS
 10
118.2358228193
 20
140.0981375148
 11
118.2358228193
 21
137.5311502167
  0
LINE
  5
262
100
AcDbEntity
  8
0
100
AcDbLine
 62
7
  6
CONTINUOUS
 10
120.4052319053
 20
144.7311502167
 11
120.3872363987
 21
144.5311502167
  0
LINE
  5
263
100
AcDbEntity
  8
0
100
AcDbLine
 62
7
  6
CONTINUOUS
 10
122.2593338715
 20
144.7311502167
 11
122.2078473121
 21
144.5311502167
  0
LINE
  5
264
100
AcDbEntity
  8
0
100
AcDbLine
 62
7
  6
CONTINUOUS
 10
128.2593338715
 20
144.7311502167
 11
128.1591092176
 21
144.5311502167
  0
LINE
  5
265
100
AcDbEntity
  8
0
100
AcDbLine
 62
7
  6
CONTINUOUS
 10
127.9656729693
 20
144.7311502167
 11
127.8544434372
 21
144.5311502167
  0
LINE
  5
266
100
AcDbEntity
  8
0
100
AcDbLine
 62
7
  6
CONTINUOUS
 10
123.3251009404
 20
65.4311502167
 11
123.5851009404
 21
65.4311502167
  0
LINE
  5
267
100
AcDbEntity
  8
0
100
AcDbLine
 62
7
  6
CONTINUOUS
 10
123.5851009404
 20
65.8611502167
 11
124.0051009404
 21
65.8611502167
  0
LINE
  5
268
100
AcDbEntity
  8
0
100
AcDbLine
 62
7
  6
CONTINUOUS
 10
117.7623469008
 20
66.1111502167
 11
118.2337239206
 21
66.1111502167
  0
LINE
  5
269
100
AcDbEntity
  8
0
100
AcDbLine
 62
7
  6
CONTINUOUS
 10
119.9137239206
 20
66.1111502167
 11
120.3851009404
 21
66.1111502167
  0
LINE
  5
26A
100
AcDbEntity
  8
0
100
AcDbLine
 62
7
  6
CONTINUOUS
 10
120.9751009404
 20
66.1111502167
 11
121.3951009404
 21
66.1111502167
  0
LINE
  5
26B
100
AcDbEntity
  8
0
100
AcDbLine
 62
7
  6
CONTINUOUS
 10
121.9851009404
 20
66.1111502167
 11
122.4051009404
 21
66.1111502167
  0
LINE
  5
26C
100
AcDbEntity
  8
0
100
AcDbLine
 62
7
  6
CONTINUOUS
 10
120.9751009404
 20
66.5311502167
 11
121.3951009404
 21
66.5311502167
  0
LINE
  5
26D
100
AcDbEntity
  8
0
100
AcDbLine
 62
7
  6
CONTINUOUS
 10
120.9751009404
 20
66.9511502167
 11
121.3951009404
 21
66.9511502167
  0
LINE
  5
26E
100
AcDbEntity
  8
0
100
AcDbLine
 62
7
  6
CONTINUOUS
 10
117.1723469008
 20
67.5411502167
 11
124.7323469008
 21
67.5411502167
  0
LINE
  5
26F
100
AcDbEntity
  8
0
100
AcDbLine
 62
7
  6
CONTINUOUS
 10
116.7523469008
 20
67.9611502167
 11
125.1523469008
 21
67.9611502167
  0
LINE
  5
270
100
AcDbEntity
  8
0
100
AcDbLine
 62
7
  6
CONTINUOUS
 10
118.7326223578
 20
144.7311502167
 11
118.7498794297
 21
144.5311502167
  0
LINE
  5
271
100
AcDbEntity
  8
0
100
AcDbLine
 62
7
  6
CONTINUOUS
 10
119.0480257269
 20
140.0981375148
 11
119.0480257269
 21
137.5311502167
  0
LINE
  5
272
100
AcDbEntity
  8
0
100
AcDbLine
 62
7
  6
CONTINUOUS
 10
119.7787206167
 20
141.5311502167
 11
119.7787206167
 21
140.5802040267
  0
LINE
  5
273
100
AcDbEntity
  8
0
100
AcDbLine
 62
7
  6
CONTINUOUS
 10
119.9499327948
 20
146.5285851652
 11
119.9499327948
 21
149.3738846268
  0
LINE
  5
274
100
AcDbEntity
  8
0
100
AcDbLine
 62
7
  6
CONTINUOUS
 10
120.9751009404
 20
66.9511502167
 11
120.9751009404
 21
66.5311502167
  0
LINE
  5
275
100
AcDbEntity
  8
0
100
AcDbLine
 62
7
  6
CONTINUOUS
 10
120.9751009404
 20
66.1111502167
 11
120.9751009404
 21
63.9811502167
  0
LINE
  5
276
100
AcDbEntity
  8
0
100
AcDbLine
 62
7
  6
CONTINUOUS
 10
121.3951009404
 20
66.9511502167
 11
121.3951009404
 21
66.5311502167
  0
LINE
  5
277
100
AcDbEntity
  8
0
100
AcDbLine
 62
7
  6
CONTINUOUS
 10
121.3951009404
 20
66.1111502167
 11
121.3951009404
 21
63.9811502167
  0
LINE
  5
278
100
AcDbEntity
  8
0
100
AcDbLine
 62
7
  6
CONTINUOUS
 10
121.9851009404
 20
66.1111502167
 11
121.9851009404
 21
65.4311502167
  0
LINE
  5
279
100
AcDbEntity
  8
0
100
AcDbLine
 62
7
  6
CONTINUOUS
 10
121.9851009404
 20
64.0911502167
 11
121.9851009404
 21
63.9811502167
  0
LINE
  5
27A
100
AcDbEntity
  8
0
100
AcDbLine
 62
7
  6
CONTINUOUS
 10
122.4051009404
 20
66.1111502167
 11
122.4051009404
 21
65.6911502167
  0
LINE
  5
27B
100
AcDbEntity
  8
0
100
AcDbLine
 62
7
  6
CONTINUOUS
 10
123.5851009404
 20
65.8611502167
 11
123.5851009404
 21
65.4311502167
  0
LINE
  5
27C
100
AcDbEntity
  8
0
100
AcDbLine
 62
7
  6
CONTINUOUS
 10
135.3430743508
 20
140.9930393712
 11
134.1480816788
 21
138.1890769824
  0
LINE
  5
27D
100
AcDbEntity
  8
0
100
AcDbLine
 62
7
  6
CONTINUOUS
 10
135.1484684843
 20
140.1763581053
 11
129.7593338715
 21
127.5311502167
  0
LINE
  5
27E
100
AcDbEntity
  8
0
100
AcDbLine
 62
7
  6
CONTINUOUS
 10
97.7593338715
 20
78.4311502167
 11
98.4521541946
 21
79.6311502167
  0
LINE
  5
27F
100
AcDbEntity
  8
0
100
AcDbLine
 62
7
  6
CONTINUOUS
 10
155.130487751
 20
161.1023006554
 11
141.5253783146
 21
144.888362607
  0
LINE
  5
280
100
AcDbEntity
  8
0
100
AcDbLine
 62
7
  6
CONTINUOUS
 10
143.823511644
 20
142.959999778
 11
157.1288842954
 21
158.8167254361
  0
LINE
  5
281
100
AcDbEntity
  8
0
100
AcDbLine
 62
7
  6
CONTINUOUS
 10
146.0665135485
 20
71.1442929595
 11
136.0974761965
 21
71.1442929595
  0
LINE
  5
282
100
AcDbEntity
  8
0
100
AcDbLine
 62
7
  6
CONTINUOUS
 10
107.6752430185
 20
71.1442929595
 11
98.4521541946
 21
71.1442929595
  0
LINE
  5
283
100
AcDbEntity
  8
0
100
AcDbLine
 62
7
  6
CONTINUOUS
 10
146.0665135485
 20
73.8329090945
 11
136.0974755552
 21
73.8329090945
  0
LINE
  5
284
100
AcDbEntity
  8
0
100
AcDbLine
 62
7
  6
CONTINUOUS
 10
107.6752430185
 20
73.8329090945
 11
98.4521541946
 21
73.8329090945
  0
LINE
  5
285
100
AcDbEntity
  8
0
100
AcDbLine
 62
7
  6
CONTINUOUS
 10
124.0051009404
 20
65.8611502167
 11
124.0051009404
 21
65.3198062592
  0
LINE
  5
286
100
AcDbEntity
  8
0
100
AcDbLine
 62
7
  6
CONTINUOUS
 10
124.5687349483
 20
146.5285851652
 11
124.5687349483
 21
149.3738846268
  0
LINE
  5
287
100
AcDbEntity
  8
0
100
AcDbLine
 62
7
  6
CONTINUOUS
 10
124.7323469008
 20
67.5411502167
 11
124.7323469008
 21
63.3411502167
  0
LINE
  5
288
100
AcDbEntity
  8
0
100
AcDbLine
 62
7
  6
CONTINUOUS
 10
124.7593338715
 20
127.5311502167
 11
124.7593338715
 21
134.5311502167
  0
LINE
  5
289
100
AcDbEntity
  8
0
100
AcDbLine
 62
7
  6
CONTINUOUS
 10
125.1523469008
 20
67.9611502167
 11
125.1523469008
 21
62.9211502167
  0
LINE
  5
28A
100
AcDbEntity
  8
0
100
AcDbLine
 62
7
  6
CONTINUOUS
 10
125.338013528
 20
51.1311502167
 11
125.338013528
 21
76.6300107943
  0
LINE
  5
28B
100
AcDbEntity
  8
0
100
AcDbLine
 62
7
  6
CONTINUOUS
 10
126.3986736997
 20
77.1324548193
 11
126.3986736997
 21
50.6918103885
  0
LINE
  5
28C
100
AcDbEntity
  8
0
100
AcDbLine
 62
7
  6
CONTINUOUS
 10
126.7199940433
 20
50.3704900449
 11
126.7199940433
 21
77.6149604179
  0
LINE
  5
28D
100
AcDbEntity
  8
0
100
AcDbLine
 62
7
  6
CONTINUOUS
 10
126.878136025
 20
146.5285851652
 11
126.878136025
 21
149.3738846268
  0
LINE
  5
28E
100
AcDbEntity
  8
0
100
AcDbLine
 62
7
  6
CONTINUOUS
 10
127.7806542151
 20
49.9311502167
 11
127.7806542151
 21
78.8067139924
  0
LINE
  5
28F
100
AcDbEntity
  8
0
100
AcDbLine
 62
7
  6
CONTINUOUS
 10
128.2593338715
 20
145.3847400552
 11
128.2593338715
 21
144.7311502167
  0
LINE
  5
290
100
AcDbEntity
  8
0
100
AcDbLine
 62
7
  6
CONTINUOUS
 10
131.8628872621
 20
127.3347036073
 11
131.4057804809
 21
126.8775968261
  0
LINE
  5
291
100
AcDbEntity
  8
0
100
AcDbLine
 62
7
  6
CONTINUOUS
 10
112.2593338715
 20
77.4311502167
 11
109.7212140869
 21
77.4311502167
  0
LINE
  5
292
100
AcDbEntity
  8
0
100
AcDbLine
 62
7
  6
CONTINUOUS
 10
146.0665135485
 20
79.5460518373
 11
136.097476116
 21
79.5460518373
  0
LINE
  5
293
100
AcDbEntity
  8
0
100
AcDbLine
 62
7
  6
CONTINUOUS
 10
107.6752430185
 20
79.5460518373
 11
98.4521541946
 21
79.5460518373
  0
LINE
  5
294
100
AcDbEntity
  8
0
100
AcDbLine
 62
7
  6
CONTINUOUS
 10
146.0665135485
 20
79.6311502167
 11
136.0825989452
 21
79.6311502167
  0
LINE
  5
295
100
AcDbEntity
  8
0
100
AcDbLine
 62
7
  6
CONTINUOUS
 10
107.7004881447
 20
79.6311502167
 11
98.4521541946
 21
79.6311502167
  0
LINE
  5
296
100
AcDbEntity
  8
0
100
AcDbLine
 62
7
  6
CONTINUOUS
 10
135.6127526348
 20
79.960140145
 11
135.4509219376
 21
80.4047663314
  0
LINE
  5
297
100
AcDbEntity
  8
0
100
AcDbLine
 62
7
  6
CONTINUOUS
 10
117.4052319053
 20
144.7311502167
 11
117.4560523132
 21
144.5311502167
  0
LINE
  5
298
100
AcDbEntity
  8
0
100
AcDbLine
 62
7
  6
CONTINUOUS
 10
131.2593338715
 20
81.9311502167
 11
131.2593338715
 21
126.5240434355
  0
LINE
  5
299
100
AcDbEntity
  8
GEOM
100
AcDbLine
 62
7
  6
CONTINUOUS
 10
132.0093338715
 20
127.6882569979
 11
132.0093338715
 21
132.8106096835
  0
LINE
  5
29A
100
AcDbEntity
  8
0
100
AcDbLine
 62
7
  6
CONTINUOUS
 10
133.7593338715
 20
80.9311502167
 11
133.7593338715
 21
49.9311502167
  0
LINE
  5
29B
100
AcDbEntity
  8
0
100
AcDbLine
 62
7
  6
CONTINUOUS
 10
134.1480816788
 20
141.5311502167
 11
134.1480816788
 21
138.1890769824
  0
LINE
  5
29C
100
AcDbEntity
  8
0
100
AcDbLine
 62
7
  6
CONTINUOUS
 10
134.699167841
 20
80.9311502167
 11
134.699167841
 21
49.9311502167
  0
LINE
  5
29D
100
AcDbEntity
  8
0
100
AcDbLine
 62
7
  6
CONTINUOUS
 10
134.699167841
 20
80.9311502167
 11
132.2593338715
 21
80.9311502167
  0
LINE
  5
29E
100
AcDbEntity
  8
0
100
AcDbLine
 62
7
  6
CONTINUOUS
 10
146.7593338715
 20
78.4311502167
 11
146.0665135485
 21
79.6311502167
  0
LINE
  5
29F
100
AcDbEntity
  8
0
100
AcDbLine
 62
7
  6
CONTINUOUS
 10
116.5529947738
 20
144.7311502167
 11
116.6324038621
 21
144.5311502167
  0
LINE
  5
2A0
100
AcDbEntity
  8
0
100
AcDbLine
 62
7
  6
CONTINUOUS
 10
135.4509219389
 20
80.4047663279
 11
135.4509219389
 21
50.4575341055
  0
LINE
  5
2A1
100
AcDbEntity
  8
0
100
AcDbLine
 62
7
  6
CONTINUOUS
 10
135.6127526348
 20
50.9021602884
 11
135.6127526348
 21
51.0010455174
  0
LINE
  5
2A2
100
AcDbEntity
  8
0
100
AcDbLine
 62
7
  6
CONTINUOUS
 10
135.6127526348
 20
56.7505875712
 11
135.6127526348
 21
59.681608027
  0
LINE
  5
2A3
100
AcDbEntity
  8
0
100
AcDbLine
 62
7
  6
CONTINUOUS
 10
135.6127526348
 20
71.1806924064
 11
135.6127526348
 21
74.1117128623
  0
LINE
  5
2A4
100
AcDbEntity
  8
0
100
AcDbLine
 62
7
  6
CONTINUOUS
 10
135.6127526348
 20
79.861254916
 11
135.6127526348
 21
79.960140145
  0
LINE
  5
2A5
100
AcDbEntity
  8
0
100
AcDbLine
 62
7
  6
CONTINUOUS
 10
136.0825989452
 20
51.2311502167
 11
136.0825989452
 21
51.3163080777
  0
LINE
  5
2A6
100
AcDbEntity
  8
0
100
AcDbLine
 62
7
  6
CONTINUOUS
 10
136.0825989452
 20
57.0289523952
 11
136.0825989452
 21
59.7185056229
  0
LINE
  5
2A7
100
AcDbEntity
  8
0
100
AcDbLine
 62
7
  6
CONTINUOUS
 10
136.0825989452
 20
71.1437948104
 11
136.0825989452
 21
73.8333480382
  0
LINE
  5
2A8
100
AcDbEntity
  8
0
100
AcDbLine
 62
7
  6
CONTINUOUS
 10
136.0825989452
 20
79.5459923557
 11
136.0825989452
 21
79.6311502167
  0
LINE
  5
2A9
100
AcDbEntity
  8
0
100
AcDbLine
 62
7
  6
CONTINUOUS
 10
136.1361841376
 20
144.5311502167
 11
136.1361841376
 21
141.5311502167
  0
LINE
  5
2AA
100
AcDbEntity
  8
0
100
AcDbLine
 62
7
  6
CONTINUOUS
 10
136.6029743508
 20
144.5311502167
 11
136.6029743508
 21
141.5311502167
  0
LINE
  5
2AB
100
AcDbEntity
  8
0
100
AcDbLine
 62
7
  6
CONTINUOUS
 10
116.2593338715
 20
144.7311502167
 11
116.3595585254
 21
144.5311502167
  0
LINE
  5
2AC
100
AcDbEntity
  8
0
100
AcDbLine
 62
7
  6
CONTINUOUS
 10
118.8829284602
 20
64.8370145671
 11
118.6472399503
 21
64.3744498215
  0
LINE
  5
2AD
100
AcDbEntity
  8
0
100
AcDbLine
 62
7
  6
CONTINUOUS
 10
119.9137239206
 20
66.1111502167
 11
118.8284347131
 21
63.9811502167
  0
LINE
  5
2AE
100
AcDbEntity
  8
0
100
AcDbLine
 62
7
  6
CONTINUOUS
 10
120.3851009404
 20
66.1111502167
 11
119.299811733
 21
63.9811502167
  0
LINE
  5
2AF
100
AcDbEntity
  8
0
100
AcDbLine
 62
7
  6
CONTINUOUS
 10
109.0283937639
 20
53.0311502167
 11
108.1335008466
 21
51.4811502167
  0
LWPOLYLINE
  5
2B0
100
AcDbEntity
  8
0
100
AcDbPolyline
 62
7
  6
CONTINUOUS
 90
11
 70
0
 10
114.9351972991
 20
137.4350708853
 10
114.9449900559
 20
137.4220209233
 10
114.9537555429
 20
137.4040255947
 10
114.9586207357
 20
137.3841620298
 10
114.9587603137
 20
137.363281929
 10
114.9538298838
 20
137.3424824904
 10
114.9458600546
 20
137.3257062329
 10
114.9375717916
 20
137.3139780941
 10
114.9298528612
 20
137.3057977223
 10
114.9233519604
 20
137.300402218
 10
114.9214653872
 20
137.2990656114
  0
LINE
  5
2B1
100
AcDbEntity
  8
0
100
AcDbLine
 62
7
  6
CONTINUOUS
 10
146.0665135485
 20
51.2311502167
 11
146.0665135485
 21
51.3162485961
  0
LINE
  5
2B2
100
AcDbEntity
  8
0
100
AcDbLine
 62
7
  6
CONTINUOUS
 10
146.0665135485
 20
57.0293913389
 11
146.0665135485
 21
59.7180074739
  0
LINE
  5
2B3
100
AcDbEntity
  8
0
100
AcDbLine
 62
7
  6
CONTINUOUS
 10
146.0665135485
 20
71.1442929595
 11
146.0665135485
 21
73.8329090945
  0
LINE
  5
2B4
100
AcDbEntity
  8
0
100
AcDbLine
 62
7
  6
CONTINUOUS
 10
146.0665135485
 20
79.5460518373
 11
146.0665135485
 21
79.6311502167
  0
LINE
  5
2B5
100
AcDbEntity
  8
0
100
AcDbLine
 62
7
  6
CONTINUOUS
 10
146.7593338715
 20
52.4313031628
 11
146.7593338715
 21
78.4311502167
  0
LINE
  5
2B6
100
AcDbEntity
  8
0
100
AcDbLine
 62
7
  6
CONTINUOUS
 10
108.3593338715
 20
128.8734151898
 11
113.4514705892
 21
125.9334686851
  0
LINE
  5
2B7
100
AcDbEntity
  8
0
100
AcDbLine
 62
7
  6
CONTINUOUS
 10
113.545126472
 20
125.7602612323
 11
113.2593338715
 21
125.9289288169
  0
LINE
  5
2B8
100
AcDbEntity
  8
0
100
AcDbLine
 62
7
  6
CONTINUOUS
 10
114.9273849339
 20
137.4426989607
 11
114.9351972991
 21
137.4350708853
  0
LINE
  5
2B9
100
AcDbEntity
  8
0
100
AcDbLine
 62
7
  6
CONTINUOUS
 10
135.6127526348
 20
50.9021602884
 11
135.4509219376
 21
50.457534102
  0
LINE
  5
2BA
100
AcDbEntity
  8
0
100
AcDbLine
 62
7
  6
CONTINUOUS
 10
108.4593338715
 20
129.0466202705
 11
113.4644489945
 21
126.156915707
  0
LINE
  5
2BB
100
AcDbEntity
  8
0
100
AcDbLine
 62
7
  6
CONTINUOUS
 10
114.9218434668
 20
137.4469770412
 11
114.9273849339
 21
137.4426989607
  0
LINE
  5
2BC
100
AcDbEntity
  8
0
100
AcDbLine
 62
7
  6
CONTINUOUS
 10
124.7593338715
 20
134.5311502167
 11
118.2317282686
 21
141.5311502167
  0
LINE
  5
2BD
100
AcDbEntity
  8
0
100
AcDbLine
 62
7
  6
CONTINUOUS
 10
119.7787206167
 20
140.5802040267
 11
118.8919489485
 21
141.5311502167
  0
LINE
  5
2BE
100
AcDbEntity
  8
0
100
AcDbLine
 62
7
  6
CONTINUOUS
 10
156.7593338715
 20
159.8678252586
 11
156.7593338715
 21
162.1944751748
  0
LINE
  5
2BF
100
AcDbEntity
  8
0
100
AcDbLine
 62
7
  6
CONTINUOUS
 10
156.7593338715
 20
162.5311502167
 11
156.7593338715
 21
162.7311502167
  0
LINE
  5
2C0
100
AcDbEntity
  8
0
100
AcDbLine
 62
7
  6
CONTINUOUS
 10
158.0593338715
 20
158.0311502167
 11
158.0593338715
 21
164.0311502167
  0
LINE
  5
2C1
100
AcDbEntity
  8
GEOM
100
AcDbLine
 62
7
  6
CONTINUOUS
 10
158.7070950415
 20
164.0311502167
 11
158.7070950415
 21
164.0775681272
  0
LINE
  5
2C2
100
AcDbEntity
  8
GEOM
100
AcDbLine
 62
7
  6
CONTINUOUS
 10
159.5716926005
 20
164.0311502167
 11
159.5716926005
 21
164.0775681272
  0
LINE
  5
2C3
100
AcDbEntity
  8
GEOM
100
AcDbLine
 62
7
  6
CONTINUOUS
 10
160.2070950415
 20
164.0311502167
 11
160.2070950415
 21
164.0775681272
  0
LINE
  5
2C4
100
AcDbEntity
  8
GEOM
100
AcDbLine
 62
7
  6
CONTINUOUS
 10
160.803847118
 20
164.0311502167
 11
160.803847118
 21
164.0775681272
  0
LINE
  5
2C5
100
AcDbEntity
  8
0
100
AcDbLine
 62
7
  6
CONTINUOUS
 10
127.9656729693
 20
144.7311502167
 11
128.1573120889
 21
144.5311502167
  0
LINE
  5
2C6
100
AcDbEntity
  8
GEOM
100
AcDbLine
 62
7
  6
CONTINUOUS
 10
162.0060859221
 20
164.0311502167
 11
162.0060859221
 21
164.0775681272
  0
LINE
  5
2C7
100
AcDbEntity
  8
GEOM
100
AcDbLine
 62
7
  6
CONTINUOUS
 10
162.727203662
 20
164.0311502167
 11
162.727203662
 21
164.0775681272
  0
LINE
  5
2C8
100
AcDbEntity
  8
GEOM
100
AcDbLine
 62
7
  6
CONTINUOUS
 10
165.6018305232
 20
164.0311502167
 11
165.6018305232
 21
164.0775681272
  0
LINE
  5
2C9
100
AcDbEntity
  8
GEOM
100
AcDbLine
 62
7
  6
CONTINUOUS
 10
166.3350573067
 20
164.0311502167
 11
166.3350573067
 21
164.0775681272
  0
LINE
  5
2CA
100
AcDbEntity
  8
0
100
AcDbLine
 62
7
  6
CONTINUOUS
 10
114.2697410333
 20
136.451382121
 11
114.9168263958
 21
136.1140534908
  0
LINE
  5
2CB
100
AcDbEntity
  8
0
100
AcDbLine
 62
7
  6
CONTINUOUS
 10
114.8988828365
 20
137.4594090117
 11
114.912050724
 21
137.4525437031
  0
LINE
  5
2CC
100
AcDbEntity
  8
0
100
AcDbLine
 62
7
  6
CONTINUOUS
 10
114.9168263396
 20
137.4500538524
 11
114.9166425948
 21
137.4501500431
  0
LWPOLYLINE
  5
2CD
100
AcDbEntity
  8
0
100
AcDbPolyline
 62
7
  6
CONTINUOUS
 90
10
 70
0
 10
114.916695093
 20
136.1141221476
 10
114.9175307148
 20
136.1136748552
 10
114.9209250233
 20
136.1115996595
 10
114.9259393161
 20
136.1079001925
 10
114.9334187311
 20
136.1009878204
 10
114.9431692403
 20
136.0888341925
 10
114.9523027023
 20
136.0717680323
 10
114.9579726307
 20
136.0523906611
 10
114.9591268005
 20
136.0312342544
 10
114.9549054631
 20
136.0096242769
  0
LWPOLYLINE
  5
2CE
100
AcDbEntity
  8
0
100
AcDbPolyline
 62
7
  6
CONTINUOUS
 90
3
 70
0
 10
114.9166425948
 20
137.4501500431
 10
114.9179540389
 20
137.4494377439
 10
114.9218434668
 20
137.4469770412
  0
LINE
  5
2CF
100
AcDbEntity
  8
GEOM
100
AcDbLine
 62
7
  6
CONTINUOUS
 10
167.6313259614
 20
164.0311502167
 11
167.6313259614
 21
164.0775681272
  0
LINE
  5
2D0
100
AcDbEntity
  8
GEOM
100
AcDbLine
 62
7
  6
CONTINUOUS
 10
168.195505065
 20
164.0311502167
 11
168.195505065
 21
164.0775681272
  0
LINE
  5
2D1
100
AcDbEntity
  8
GEOM
100
AcDbLine
 62
7
  6
CONTINUOUS
 10
168.2962513335
 20
164.0311502167
 11
168.2962513335
 21
164.0775681272
  0
LINE
  5
2D2
100
AcDbEntity
  8
GEOM
100
AcDbLine
 62
7
  6
CONTINUOUS
 10
168.4708781989
 20
164.0311502167
 11
168.4708781989
 21
164.0775681272
  0
LINE
  5
2D3
100
AcDbEntity
  8
GEOM
100
AcDbLine
 62
7
  6
CONTINUOUS
 10
169.1680423769
 20
164.0311502167
 11
169.1680423769
 21
164.0775681272
  0
LINE
  5
2D4
100
AcDbEntity
  8
GEOM
100
AcDbLine
 62
7
  6
CONTINUOUS
 10
169.6848707343
 20
164.0311502167
 11
169.6848707343
 21
164.0775681272
  0
LINE
  5
2D5
100
AcDbEntity
  8
GEOM
100
AcDbLine
 62
7
  6
CONTINUOUS
 10
170.2305796887
 20
164.0311502167
 11
170.2305796887
 21
164.0775681272
  0
LINE
  5
2D6
100
AcDbEntity
  8
GEOM
100
AcDbLine
 62
7
  6
CONTINUOUS
 10
170.7746095386
 20
164.0311502167
 11
170.7746095386
 21
164.0775681272
  0
LINE
  5
2D7
100
AcDbEntity
  8
GEOM
100
AcDbLine
 62
7
  6
CONTINUOUS
 10
171.1037140157
 20
164.0311502167
 11
171.1037140157
 21
164.0775681272
  0
LINE
  5
2D8
100
AcDbEntity
  8
GEOM
100
AcDbLine
 62
7
  6
CONTINUOUS
 10
171.8761020742
 20
164.0311502167
 11
171.8761020742
 21
164.0775681272
  0
LINE
  5
2D9
100
AcDbEntity
  8
GEOM
100
AcDbLine
 62
7
  6
CONTINUOUS
 10
172.695505058
 20
164.0311502167
 11
172.695505058
 21
164.0775681272
  0
LINE
  5
2DA
100
AcDbEntity
  8
GEOM
100
AcDbLine
 62
7
  6
CONTINUOUS
 10
172.7053505002
 20
164.0311502167
 11
172.7053505002
 21
164.0775681272
  0
LINE
  5
2DB
100
AcDbEntity
  8
0
100
AcDbLine
 62
7
  6
CONTINUOUS
 10
116.2593338715
 20
144.7311502167
 11
116.6022974358
 21
144.5311502167
  0
LINE
  5
2DC
100
AcDbEntity
  8
GEOM
100
AcDbLine
 62
7
  6
CONTINUOUS
 10
173.1723707289
 20
164.0311502167
 11
173.1723707289
 21
164.0775681272
  0
LINE
  5
2DD
100
AcDbEntity
  8
GEOM
100
AcDbLine
 62
7
  6
CONTINUOUS
 10
173.4678931165
 20
164.0311502167
 11
173.4678931165
 21
164.0775681272
  0
LINE
  5
2DE
100
AcDbEntity
  8
GEOM
100
AcDbLine
 62
7
  6
CONTINUOUS
 10
175.4895349044
 20
164.0311502167
 11
175.4895349044
 21
164.0775681272
  0
LINE
  5
2DF
100
AcDbEntity
  8
GEOM
100
AcDbLine
 62
7
  6
CONTINUOUS
 10
177.0500190144
 20
164.0311502167
 11
177.0500190144
 21
164.0775681272
  0
LINE
  5
2E0
100
AcDbEntity
  8
GEOM
100
AcDbLine
 62
7
  6
CONTINUOUS
 10
177.1484901257
 20
164.0311502167
 11
177.1484901257
 21
164.0775681272
  0
LINE
  5
2E1
100
AcDbEntity
  8
GEOM
100
AcDbLine
 62
7
  6
CONTINUOUS
 10
177.9880423632
 20
164.0311502167
 11
177.9880423632
 21
164.0775681272
  0
LINE
  5
2E2
100
AcDbEntity
  8
GEOM
100
AcDbLine
 62
7
  6
CONTINUOUS
 10
178.1358016445
 20
164.0775681272
 11
178.1358016445
 21
164.0311502167
  0
LINE
  5
2E3
100
AcDbEntity
  8
0
100
AcDbLine
 62
7
  6
CONTINUOUS
 10
146.7593338715
 20
52.4311502167
 11
146.0665135485
 21
51.2311502167
  0
LINE
  5
2E4
100
AcDbEntity
  8
0
100
AcDbLine
 62
7
  6
CONTINUOUS
 10
113.4644489945
 20
126.156915707
 11
113.655642144
 21
126.156915707
  0
LINE
  5
2E5
100
AcDbEntity
  8
0
100
AcDbLine
 62
7
  6
CONTINUOUS
 10
113.4644489945
 20
126.5240434355
 11
131.2593338715
 21
126.5240434355
  0
LINE
  5
2E6
100
AcDbEntity
  8
0
100
AcDbLine
 62
7
  6
CONTINUOUS
 10
113.5078884352
 20
126.8775968261
 11
131.4057804809
 21
126.8775968261
  0
LINE
  5
2E7
100
AcDbEntity
  8
0
100
AcDbLine
 62
7
  6
CONTINUOUS
 10
131.8628872621
 20
127.3347036073
 11
113.0317507215
 21
127.3347036073
  0
LINE
  5
2E8
100
AcDbEntity
  8
0
100
AcDbLine
 62
7
  6
CONTINUOUS
 10
108.7593338715
 20
127.5311502167
 11
110.6842050021
 21
127.5311502167
  0
LINE
  5
2E9
100
AcDbEntity
  8
0
100
AcDbLine
 62
7
  6
CONTINUOUS
 10
124.7593338715
 20
127.5311502167
 11
129.7593338715
 21
127.5311502167
  0
LINE
  5
2EA
100
AcDbEntity
  8
0
100
AcDbLine
 62
7
  6
CONTINUOUS
 10
112.6826695253
 20
127.6882569979
 11
124.7593338715
 21
127.6882569979
  0
LINE
  5
2EB
100
AcDbEntity
  8
0
100
AcDbLine
 62
7
  6
CONTINUOUS
 10
129.8262896385
 20
127.6882569979
 11
132.0093338715
 21
127.6882569979
  0
LINE
  5
2EC
100
AcDbEntity
  8
0
100
AcDbLine
 62
7
  6
CONTINUOUS
 10
126.878136025
 20
146.5285851652
 11
127.9593338715
 21
145.9043552975
  0
LINE
  5
2ED
100
AcDbEntity
  8
0
100
AcDbLine
 62
7
  6
CONTINUOUS
 10
126.878136025
 20
149.3738846268
 11
126.2593338715
 21
149.7311502167
  0
LINE
  5
2EE
100
AcDbEntity
  8
GEOM
100
AcDbLine
 62
7
  6
CONTINUOUS
 10
178.5723707205
 20
164.0311502167
 11
178.5723707205
 21
164.0775681272
  0
LINE
  5
2EF
100
AcDbEntity
  8
GEOM
100
AcDbLine
 62
7
  6
CONTINUOUS
 10
180.0231169869
 20
164.0311502167
 11
180.0231169869
 21
164.0775681272
  0
LINE
  5
2F0
100
AcDbEntity
  8
GEOM
100
AcDbLine
 62
7
  6
CONTINUOUS
 10
181.2070950378
 20
164.0311502167
 11
181.2070950378
 21
164.0775681272
  0
LINE
  5
2F1
100
AcDbEntity
  8
GEOM
100
AcDbLine
 62
7
  6
CONTINUOUS
 10
181.8553215202
 20
164.0311502167
 11
181.8553215202
 21
164.0775681272
  0
LINE
  5
2F2
100
AcDbEntity
  8
GEOM
100
AcDbLine
 62
7
  6
CONTINUOUS
 10
182.128991347
 20
164.0311502167
 11
182.128991347
 21
164.0775681272
  0
LINE
  5
2F3
100
AcDbEntity
  8
GEOM
100
AcDbLine
 62
7
  6
CONTINUOUS
 10
182.3154792505
 20
164.0311502167
 11
182.3154792505
 21
164.0775681272
  0
LINE
  5
2F4
100
AcDbEntity
  8
GEOM
100
AcDbLine
 62
7
  6
CONTINUOUS
 10
182.4397689647
 20
164.0311502167
 11
182.4397689647
 21
164.0775681272
  0
LINE
  5
2F5
100
AcDbEntity
  8
GEOM
100
AcDbLine
 62
7
  6
CONTINUOUS
 10
182.4907922264
 20
164.0311502167
 11
182.4907922264
 21
164.0775681272
  0
LINE
  5
2F6
100
AcDbEntity
  8
GEOM
100
AcDbLine
 62
7
  6
CONTINUOUS
 10
182.5820722068
 20
164.0311502167
 11
182.5820722068
 21
164.0775681272
  0
LINE
  5
2F7
100
AcDbEntity
  8
GEOM
100
AcDbLine
 62
7
  6
CONTINUOUS
 10
182.7691004392
 20
164.0311502167
 11
182.7691004392
 21
164.0775681272
  0
LINE
  5
2F8
100
AcDbEntity
  8
GEOM
100
AcDbLine
 62
7
  6
CONTINUOUS
 10
182.9778316494
 20
164.0311502167
 11
182.9778316494
 21
164.0775681272
  0
LINE
  5
2F9
100
AcDbEntity
  8
GEOM
100
AcDbLine
 62
7
  6
CONTINUOUS
 10
183.1830840703
 20
164.0311502167
 11
183.1830840703
 21
164.0775681272
  0
LINE
  5
2FA
100
AcDbEntity
  8
GEOM
100
AcDbLine
 62
7
  6
CONTINUOUS
 10
183.2688958284
 20
164.0311502167
 11
183.2688958284
 21
164.0775681272
  0
LINE
  5
2FB
100
AcDbEntity
  8
GEOM
100
AcDbLine
 62
7
  6
CONTINUOUS
 10
183.2920881626
 20
164.0311502167
 11
183.2920881626
 21
164.0775681272
  0
LINE
  5
2FC
100
AcDbEntity
  8
GEOM
100
AcDbLine
 62
7
  6
CONTINUOUS
 10
183.4266039845
 20
164.0311502167
 11
183.4266039845
 21
164.0775681272
  0
LINE
  5
2FD
100
AcDbEntity
  8
GEOM
100
AcDbLine
 62
7
  6
CONTINUOUS
 10
183.5980451839
 20
164.0311502167
 11
183.5980451839
 21
164.0775681272
  0
LINE
  5
2FE
100
AcDbEntity
  8
0
100
AcDbLine
 62
7
  6
CONTINUOUS
 10
108.2593338715
 20
131.7311502167
 11
112.8751652911
 21
131.7311502167
  0
LINE
  5
2FF
100
AcDbEntity
  8
0
100
AcDbLine
 62
7
  6
CONTINUOUS
 10
112.5788121914
 20
131.9311502167
 11
108.4593338715
 21
131.9311502167
  0
LINE
  5
300
100
AcDbEntity
  8
0
100
AcDbLine
 62
7
  6
CONTINUOUS
 10
112.5093338715
 20
132.1311502167
 11
112.7733955417
 21
132.1311502167
  0
LINE
  5
301
100
AcDbEntity
  8
0
100
AcDbLine
 62
7
  6
CONTINUOUS
 10
108.7593338715
 20
134.5311502167
 11
111.7593338715
 21
134.5311502167
  0
LINE
  5
302
100
AcDbEntity
  8
0
100
AcDbLine
 62
7
  6
CONTINUOUS
 10
116.5529947738
 20
144.7311502167
 11
117.3969893587
 21
144.5311502167
  0
LINE
  5
303
100
AcDbEntity
  8
GEOM
100
AcDbLine
 62
7
  6
CONTINUOUS
 10
183.7258549041
 20
164.0311502167
 11
183.7258549041
 21
164.0775681272
  0
LINE
  5
304
100
AcDbEntity
  8
GEOM
100
AcDbLine
 62
7
  6
CONTINUOUS
 10
183.8429068085
 20
164.0311502167
 11
183.8429068085
 21
164.0775681272
  0
LINE
  5
305
100
AcDbEntity
  8
GEOM
100
AcDbLine
 62
7
  6
CONTINUOUS
 10
184.3113924858
 20
164.0311502167
 11
184.3113924858
 21
164.0775681272
  0
LINE
  5
306
100
AcDbEntity
  8
GEOM
100
AcDbLine
 62
7
  6
CONTINUOUS
 10
184.3542983648
 20
164.0311502167
 11
184.3542983648
 21
164.0775681272
  0
LINE
  5
307
100
AcDbEntity
  8
GEOM
100
AcDbLine
 62
7
  6
CONTINUOUS
 10
184.5386776444
 20
164.0311502167
 11
184.5386776444
 21
164.0775681272
  0
LINE
  5
308
100
AcDbEntity
  8
GEOM
100
AcDbLine
 62
7
  6
CONTINUOUS
 10
184.7462490555
 20
164.0311502167
 11
184.7462490555
 21
164.0775681272
  0
LINE
  5
309
100
AcDbEntity
  8
GEOM
100
AcDbLine
 62
7
  6
CONTINUOUS
 10
184.9862899777
 20
164.0311502167
 11
184.9862899777
 21
164.0775681272
  0
LINE
  5
30A
100
AcDbEntity
  8
GEOM
100
AcDbLine
 62
7
  6
CONTINUOUS
 10
185.0431114193
 20
164.0311502167
 11
185.0431114193
 21
164.0775681272
  0
LINE
  5
30B
100
AcDbEntity
  8
GEOM
100
AcDbLine
 62
7
  6
CONTINUOUS
 10
185.0744209286
 20
164.0311502167
 11
185.0744209286
 21
164.0775681272
  0
LINE
  5
30C
100
AcDbEntity
  8
GEOM
100
AcDbLine
 62
7
  6
CONTINUOUS
 10
185.1155050387
 20
164.0311502167
 11
185.1155050387
 21
164.0775681272
  0
LINE
  5
30D
100
AcDbEntity
  8
GEOM
100
AcDbLine
 62
7
  6
CONTINUOUS
 10
185.1463175293
 20
164.0311502167
 11
185.1463175293
 21
164.0775681272
  0
LINE
  5
30E
100
AcDbEntity
  8
GEOM
100
AcDbLine
 62
7
  6
CONTINUOUS
 10
185.3550485369
 20
164.0311502167
 11
185.3550485369
 21
164.0775681272
  0
LINE
  5
30F
100
AcDbEntity
  8
GEOM
100
AcDbLine
 62
7
  6
CONTINUOUS
 10
185.3897575108
 20
164.0311502167
 11
185.3897575108
 21
164.0775681272
  0
LINE
  5
310
100
AcDbEntity
  8
GEOM
100
AcDbLine
 62
7
  6
CONTINUOUS
 10
185.4673174599
 20
164.0311502167
 11
185.4673174599
 21
164.0775681272
  0
LINE
  5
311
100
AcDbEntity
  8
GEOM
100
AcDbLine
 62
7
  6
CONTINUOUS
 10
185.5904510733
 20
164.0311502167
 11
185.5904510733
 21
164.0775681272
  0
LINE
  5
312
100
AcDbEntity
  8
GEOM
100
AcDbLine
 62
7
  6
CONTINUOUS
 10
185.743520641
 20
164.0311502167
 11
185.743520641
 21
164.0775681272
  0
LINE
  5
313
100
AcDbEntity
  8
GEOM
100
AcDbLine
 62
7
  6
CONTINUOUS
 10
185.8154168364
 20
164.0311502167
 11
185.8154168364
 21
164.0775681272
  0
LINE
  5
314
100
AcDbEntity
  8
GEOM
100
AcDbLine
 62
7
  6
CONTINUOUS
 10
185.9406556841
 20
164.0311502167
 11
185.9406556841
 21
164.0775681272
  0
LINE
  5
315
100
AcDbEntity
  8
GEOM
100
AcDbLine
 62
7
  6
CONTINUOUS
 10
186.149387097
 20
164.0311502167
 11
186.149387097
 21
164.0775681272
  0
LINE
  5
316
100
AcDbEntity
  8
GEOM
100
AcDbLine
 62
7
  6
CONTINUOUS
 10
123.4538127509
 20
135.9311502167
 11
112.5093338715
 21
135.9311502167
  0
LINE
  5
317
100
AcDbEntity
  8
0
100
AcDbLine
 62
7
  6
CONTINUOUS
 10
114.2593338715
 20
136.8311502167
 11
122.6145491734
 21
136.8311502167
  0
LINE
  5
318
100
AcDbEntity
  8
0
100
AcDbLine
 62
7
  6
CONTINUOUS
 10
114.9593824003
 20
137.5311502167
 11
121.9617886131
 21
137.5311502167
  0
LINE
  5
319
100
AcDbEntity
  8
0
100
AcDbLine
 62
7
  6
CONTINUOUS
 10
119.0480257269
 20
140.0981375148
 11
118.2358228193
 21
140.0981375148
  0
LINE
  5
31A
100
AcDbEntity
  8
0
100
AcDbLine
 62
7
  6
CONTINUOUS
 10
115.0245146746
 20
140.0981375148
 11
115.0093338715
 21
140.0981375148
  0
LINE
  5
31B
100
AcDbEntity
  8
0
100
AcDbLine
 62
7
  6
CONTINUOUS
 10
118.7326223578
 20
144.7311502167
 11
120.289873402
 21
144.5311502167
  0
LINE
  5
31C
100
AcDbEntity
  8
0
100
AcDbLine
 62
7
  6
CONTINUOUS
 10
124.1134358378
 20
144.7311502167
 11
125.6011306694
 21
144.5311502167
  0
LINE
  5
31D
100
AcDbEntity
  8
0
100
AcDbLine
 62
7
  6
CONTINUOUS
 10
117.4052319053
 20
144.7311502167
 11
118.6676414404
 21
144.5311502167
  0
LINE
  5
31E
100
AcDbEntity
  8
0
100
AcDbLine
 62
7
  6
CONTINUOUS
 10
125.7860453853
 20
144.7311502167
 11
126.9401185792
 21
144.5311502167
  0
LINE
  5
31F
100
AcDbEntity
  8
0
100
AcDbLine
 62
7
  6
CONTINUOUS
 10
127.1134358378
 20
144.7311502167
 11
127.820918669
 21
144.5311502167
  0
LINE
  5
320
100
AcDbEntity
  8
0
100
AcDbLine
 62
7
  6
CONTINUOUS
 10
119.1642433547
 20
140.5311502167
 11
115.7593338715
 21
140.5311502167
  0
LINE
  5
321
100
AcDbEntity
  8
0
100
AcDbLine
 62
7
  6
CONTINUOUS
 10
117.8593338715
 20
141.1311502167
 11
118.604734303
 21
141.1311502167
  0
LINE
  5
322
100
AcDbEntity
  8
0
100
AcDbLine
 62
7
  6
CONTINUOUS
 10
109.9762158797
 20
141.5311502167
 11
118.8919489485
 21
141.5311502167
  0
LINE
  5
323
100
AcDbEntity
  8
0
100
AcDbLine
 62
7
  6
CONTINUOUS
 10
119.7787206167
 20
141.5311502167
 11
134.1480816788
 21
141.5311502167
  0
LINE
  5
324
100
AcDbEntity
  8
0
100
AcDbLine
 62
7
  6
CONTINUOUS
 10
135.683537819
 20
141.5311502167
 11
140.7593338715
 21
141.5311502167
  0
LINE
  5
325
100
AcDbEntity
  8
0
100
AcDbLine
 62
7
  6
CONTINUOUS
 10
111.7593338715
 20
144.5311502167
 11
140.7593338715
 21
144.5311502167
  0
LINE
  5
326
100
AcDbEntity
  8
0
100
AcDbLine
 62
7
  6
CONTINUOUS
 10
128.2593338715
 20
144.7311502167
 11
116.2593338802
 21
144.7311502167
  0
LINE
  5
327
100
AcDbEntity
  8
0
100
AcDbLine
 62
7
  6
CONTINUOUS
 10
116.2593338715
 20
145.3847400552
 11
128.2593338715
 21
145.3847400552
  0
LINE
  5
328
100
AcDbEntity
  8
0
100
AcDbLine
 62
7
  6
CONTINUOUS
 10
120.4052319053
 20
144.7311502167
 11
122.1048898765
 21
144.5311502167
  0
LINE
  5
329
100
AcDbEntity
  8
0
100
AcDbLine
 62
7
  6
CONTINUOUS
 10
122.2593338715
 20
144.7311502167
 11
123.9350244053
 21
144.5311502167
  0
LINE
  5
32A
100
AcDbEntity
  8
GEOM
100
AcDbLine
 62
7
  6
CONTINUOUS
 10
195.788678544
 20
164.0311502167
 11
195.788678544
 21
164.0775681272
  0
LINE
  5
32B
100
AcDbEntity
  8
GEOM
100
AcDbLine
 62
7
  6
CONTINUOUS
 10
195.9451155004
 20
164.0311502167
 11
195.9451155004
 21
164.0775681272
  0
LINE
  5
32C
100
AcDbEntity
  8
GEOM
100
AcDbLine
 62
7
  6
CONTINUOUS
 10
196.3589472139
 20
164.0311502167
 11
196.3589472139
 21
164.0775681272
  0
LINE
  5
32D
100
AcDbEntity
  8
GEOM
100
AcDbLine
 62
7
  6
CONTINUOUS
 10
196.7701280835
 20
164.0311502167
 11
196.7701280835
 21
164.0775681272
  0
LINE
  5
32E
100
AcDbEntity
  8
GEOM
100
AcDbLine
 62
7
  6
CONTINUOUS
 10
196.9235050059
 20
164.0311502167
 11
196.9235050059
 21
164.0775681272
  0
LINE
  5
32F
100
AcDbEntity
  8
GEOM
100
AcDbLine
 62
7
  6
CONTINUOUS
 10
197.1184896648
 20
164.0311502167
 11
197.1184896648
 21
164.0775681272
  0
LINE
  5
330
100
AcDbEntity
  8
GEOM
100
AcDbLine
 62
7
  6
CONTINUOUS
 10
197.1282796901
 20
164.0311502167
 11
197.1282796901
 21
164.0775681272
  0
LINE
  5
331
100
AcDbEntity
  8
GEOM
100
AcDbLine
 62
7
  6
CONTINUOUS
 10
197.3730301796
 20
164.0311502167
 11
197.3730301796
 21
164.0775681272
  0
LINE
  5
332
100
AcDbEntity
  8
GEOM
100
AcDbLine
 62
7
  6
CONTINUOUS
 10
197.8976121662
 20
164.0311502167
 11
197.8976121662
 21
164.0775681272
  0
LINE
  5
333
100
AcDbEntity
  8
GEOM
100
AcDbLine
 62
7
  6
CONTINUOUS
 10
197.9726689792
 20
164.0311502167
 11
197.9726689792
 21
164.0775681272
  0
LINE
  5
334
100
AcDbEntity
  8
GEOM
100
AcDbLine
 62
7
  6
CONTINUOUS
 10
198.086070046
 20
164.0311502167
 11
198.086070046
 21
164.0775681272
  0
LINE
  5
335
100
AcDbEntity
  8
GEOM
100
AcDbLine
 62
7
  6
CONTINUOUS
 10
198.1448100546
 20
164.0311502167
 11
198.1448100546
 21
164.0775681272
  0
LINE
  5
336
100
AcDbEntity
  8
GEOM
100
AcDbLine
 62
7
  6
CONTINUOUS
 10
198.3895605441
 20
164.0311502167
 11
198.3895605441
 21
164.0775681272
  0
LINE
  5
337
100
AcDbEntity
  8
GEOM
100
AcDbLine
 62
7
  6
CONTINUOUS
 10
198.9141425307
 20
164.0311502167
 11
198.9141425307
 21
164.0775681272
  0
LINE
  5
338
100
AcDbEntity
  8
GEOM
100
AcDbLine
 62
7
  6
CONTINUOUS
 10
198.9891993437
 20
164.0311502167
 11
198.9891993437
 21
164.0775681272
  0
LINE
  5
339
100
AcDbEntity
  8
0
100
AcDbLine
 62
7
  6
CONTINUOUS
 10
116.5593338715
 20
145.9043552975
 11
127.9593338715
 21
145.9043552975
  0
LINE
  5
33A
100
AcDbEntity
  8
0
100
AcDbLine
 62
7
  6
CONTINUOUS
 10
118.2593809474
 20
149.7311502167
 11
126.2592867957
 21
149.7311502167
  0
LINE
  5
33B
100
AcDbEntity
  8
GEOM
100
AcDbLine
 62
7
  6
CONTINUOUS
 10
200.0788625345
 20
164.0311502167
 11
200.0788625345
 21
164.0775681272
  0
LINE
  5
33C
100
AcDbEntity
  8
GEOM
100
AcDbLine
 62
7
  6
CONTINUOUS
 10
201.4236500324
 20
164.0311502167
 11
201.4236500324
 21
164.0775681272
  0
LINE
  5
33D
100
AcDbEntity
  8
GEOM
100
AcDbLine
 62
7
  6
CONTINUOUS
 10
203.2417200294
 20
164.0311502167
 11
203.2417200294
 21
164.0775681272
  0
LINE
  5
33E
100
AcDbEntity
  8
0
100
AcDbLine
 62
7
  6
CONTINUOUS
 10
204.2593338715
 20
158.0311502167
 11
204.2593338715
 21
164.0311502167
  0
LINE
  5
33F
100
AcDbEntity
  8
0
100
AcDbLine
 62
7
  6
CONTINUOUS
 10
158.0593338715
 20
158.0311502167
 11
211.2593338715
 21
158.0311502167
  0
LINE
  5
340
100
AcDbEntity
  8
0
100
AcDbLine
 62
7
  6
CONTINUOUS
 10
156.7593338715
 20
160.5311502167
 11
213.7593338715
 21
160.5311502167
  0
LINE
  5
341
100
AcDbEntity
  8
0
100
AcDbLine
 62
7
  6
CONTINUOUS
 10
156.7593338715
 20
161.5311502167
 11
213.7593338715
 21
161.5311502167
  0
LINE
  5
342
100
AcDbEntity
  8
0
100
AcDbLine
 62
7
  6
CONTINUOUS
 10
213.7593338715
 20
160.5311502167
 11
213.7593338715
 21
161.5311502167
  0
LINE
  5
343
100
AcDbEntity
  8
0
100
AcDbLine
 62
7
  6
CONTINUOUS
 10
156.7593338715
 20
162.5311502167
 11
156.7771043485
 21
162.5311502167
  0
LINE
  5
344
100
AcDbEntity
  8
0
100
AcDbLine
 62
7
  6
CONTINUOUS
 10
158.0593338715
 20
164.0311502167
 11
211.2593338715
 21
164.0311502167
  0
LINE
  5
345
100
AcDbEntity
  8
GEOM
100
AcDbLine
 62
7
  6
CONTINUOUS
 10
158.7070950415
 20
164.0775681272
 11
160.2070950415
 21
164.0775681272
  0
LINE
  5
346
100
AcDbEntity
  8
GEOM
100
AcDbLine
 62
7
  6
CONTINUOUS
 10
160.803847118
 20
164.0775681272
 11
167.6313259614
 21
164.0775681272
  0
LINE
  5
347
100
AcDbEntity
  8
GEOM
100
AcDbLine
 62
7
  6
CONTINUOUS
 10
167.6431785587
 20
164.0775681272
 11
173.1723707289
 21
164.0775681272
  0
LINE
  5
348
100
AcDbEntity
  8
GEOM
100
AcDbLine
 62
7
  6
CONTINUOUS
 10
173.4678931165
 20
164.0775681272
 11
177.1484901257
 21
164.0775681272
  0
LINE
  5
349
100
AcDbEntity
  8
GEOM
100
AcDbLine
 62
7
  6
CONTINUOUS
 10
177.1589741497
 20
164.0775681272
 11
177.9880423632
 21
164.0775681272
  0
LINE
  5
34A
100
AcDbEntity
  8
GEOM
100
AcDbLine
 62
7
  6
CONTINUOUS
 10
178.1358498892
 20
164.0775681272
 11
184.3504839085
 21
164.0775681272
  0
LINE
  5
34B
100
AcDbEntity
  8
GEOM
100
AcDbLine
 62
7
  6
CONTINUOUS
 10
184.3542983648
 20
164.0775681272
 11
186.149387097
 21
164.0775681272
  0
LINE
  5
34C
100
AcDbEntity
  8
GEOM
100
AcDbLine
 62
7
  6
CONTINUOUS
 10
195.788678544
 20
164.0775681272
 11
196.9235050059
 21
164.0775681272
  0
LINE
  5
34D
100
AcDbEntity
  8
GEOM
100
AcDbLine
 62
7
  6
CONTINUOUS
 10
197.1184896648
 20
164.0775681272
 11
198.086070046
 21
164.0775681272
  0
LINE
  5
34E
100
AcDbEntity
  8
GEOM
100
AcDbLine
 62
7
  6
CONTINUOUS
 10
198.1448100546
 20
164.0775681272
 11
198.9891993437
 21
164.0775681272
  0
LINE
  5
34F
100
AcDbEntity
  8
GEOM
100
AcDbLine
 62
7
  6
CONTINUOUS
 10
200.0788625345
 20
164.0775681272
 11
203.241636618
 21
164.0775681272
  0
ARC
  5
350
100
AcDbEntity
  8
0
100
AcDbCircle
 62
7
  6
CONTINUOUS
 10
107.6754078572
 20
49.4462994037
 40
1.8699491998
100
AcDbArc
 50
89.2315097587
 51
90.0050972171
  0
ARC
  5
351
100
AcDbEntity
  8
0
100
AcDbCircle
 62
7
  6
CONTINUOUS
 10
107.6754081192
 20
81.4159920145
 40
1.8699401846
100
AcDbArc
 50
269.9948989784
 51
270.7684859185
  0
ARC
  5
352
100
AcDbEntity
  8
0
100
AcDbCircle
 62
7
  6
CONTINUOUS
 10
112.838013528
 20
51.9311502167
 40
1.5
100
AcDbArc
 50
45.0
 51
90.0
  0
ARC
  5
353
100
AcDbEntity
  8
0
100
AcDbCircle
 62
7
  6
CONTINUOUS
 10
116.3806542151
 20
52.6311502167
 40
1.5
100
AcDbArc
 50
225.0
 51
270.0
  0
ARC
  5
354
100
AcDbEntity
  8
0
100
AcDbCircle
 62
7
  6
CONTINUOUS
 10
123.7651009404
 20
63.9811502167
 40
1.36
100
AcDbArc
 50
79.8357513783
 51
180.0
  0
ARC
  5
355
100
AcDbEntity
  8
0
100
AcDbCircle
 62
7
  6
CONTINUOUS
 10
123.3251009404
 20
64.0911502167
 40
1.34
100
AcDbArc
 50
90.0
 51
180.0
  0
ARC
  5
356
100
AcDbEntity
  8
0
100
AcDbCircle
 62
7
  6
CONTINUOUS
 10
112.2593437915
 20
78.4311409957
 40
0.999999008
100
AcDbArc
 50
269.9994316214
 51
0.0005283291
  0
ARC
  5
357
100
AcDbEntity
  8
0
100
AcDbCircle
 62
7
  6
CONTINUOUS
 10
122.645157221
 20
64.8341362249
 40
0.89
100
AcDbArc
 50
105.6479723129
 51
137.8709878568
  0
ARC
  5
358
100
AcDbEntity
  8
0
100
AcDbCircle
 62
7
  6
CONTINUOUS
 10
109.7212140869
 20
52.6311502167
 40
0.8
100
AcDbArc
 50
90.0
 51
150.0000000027
  0
ARC
  5
359
100
AcDbEntity
  8
0
100
AcDbCircle
 62
7
  6
CONTINUOUS
 10
109.7212140869
 20
78.2311502167
 40
0.8
100
AcDbArc
 50
209.9999999973
 51
270.0
  0
ARC
  5
35A
100
AcDbEntity
  8
0
100
AcDbCircle
 62
7
  6
CONTINUOUS
 10
107.7004881447
 20
79.1311502167
 40
0.5
100
AcDbArc
 50
30.0
 51
90.0
  0
ARC
  5
35B
100
AcDbEntity
  8
0
100
AcDbCircle
 62
7
  6
CONTINUOUS
 10
107.7004881447
 20
51.7311502167
 40
0.5
100
AcDbArc
 50
270.0
 51
330.0
  0
ARC
  5
35C
100
AcDbEntity
  8
0
100
AcDbCircle
 62
7
  6
CONTINUOUS
 10
107.6753767135
 20
73.5782411834
 40
0.254667947
100
AcDbArc
 50
84.3411771551
 51
90.0304149491
  0
ARC
  5
35D
100
AcDbEntity
  8
0
100
AcDbCircle
 62
7
  6
CONTINUOUS
 10
107.6753769689
 20
57.284058024
 40
0.254666721
100
AcDbArc
 50
269.9695582116
 51
275.6587924437
  0
ARC
  5
35E
100
AcDbEntity
  8
0
100
AcDbCircle
 62
7
  6
CONTINUOUS
 10
107.6753647525
 20
59.4933623326
 40
0.224645175
100
AcDbArc
 50
83.5788427946
 51
90.0314324617
  0
ARC
  5
35F
100
AcDbEntity
  8
0
100
AcDbCircle
 62
7
  6
CONTINUOUS
 10
107.6753650119
 20
71.3689370065
 40
0.2246440808
100
AcDbArc
 50
269.9685363207
 51
276.4211220387
  0
ARC
  5
360
100
AcDbEntity
  8
0
100
AcDbCircle
 62
7
  6
CONTINUOUS
 10
123.1093507037
 20
124.2307003784
 40
16.3789475195
100
AcDbArc
 50
102.8287252297
 51
104.3568324195
  0
ARC
  5
361
100
AcDbEntity
  8
0
100
AcDbCircle
 62
7
  6
CONTINUOUS
 10
111.7593338715
 20
141.5311502167
 40
3.0
100
AcDbArc
 50
90.0
 51
180.0
  0
ARC
  5
362
100
AcDbEntity
  8
0
100
AcDbCircle
 62
7
  6
CONTINUOUS
 10
116.8593338715
 20
145.3847400552
 40
0.6
100
AcDbArc
 50
120.0
 51
180.0
  0
ARC
  5
363
100
AcDbEntity
  8
0
100
AcDbCircle
 62
7
  6
CONTINUOUS
 10
112.2593338715
 20
141.0311502167
 40
0.5
100
AcDbArc
 50
90.0
 51
180.0
  0
ARC
  5
364
100
AcDbEntity
  8
0
100
AcDbCircle
 62
7
  6
CONTINUOUS
 10
113.1578759804
 20
126.5236722963
 40
0.4977663019
100
AcDbArc
 50
0.0427202779
 51
45.3184135614
  0
ARC
  5
365
100
AcDbEntity
  8
0
100
AcDbCircle
 62
7
  6
CONTINUOUS
 10
112.3093338715
 20
132.1311502167
 40
0.2
100
AcDbArc
 50
277.5
 51
360.0
  0
ARC
  5
366
100
AcDbEntity
  8
0
100
AcDbCircle
 62
7
  6
CONTINUOUS
 10
108.4593338715
 20
129.0466202705
 40
0.2
100
AcDbArc
 50
180.0
 51
240.0
  0
ARC
  5
367
100
AcDbEntity
  8
0
100
AcDbCircle
 62
7
  6
CONTINUOUS
 10
108.4593338715
 20
131.7311502167
 40
0.2
100
AcDbArc
 50
90.0
 51
180.0
  0
ARC
  5
368
100
AcDbEntity
  8
0
100
AcDbCircle
 62
7
  6
CONTINUOUS
 10
113.0593704623
 20
125.9289076912
 40
0.1999992045
100
AcDbArc
 50
0.0060531762
 51
60.0121041275
  0
ARC
  5
369
100
AcDbEntity
  8
0
100
AcDbCircle
 62
7
  6
CONTINUOUS
 10
136.097430775
 20
77.6968697729
 40
1.849182065
100
AcDbArc
 50
89.9985951371
 51
90.4595601362
  0
ARC
  5
36A
100
AcDbEntity
  8
0
100
AcDbCircle
 62
7
  6
CONTINUOUS
 10
136.0974307796
 20
53.1654306463
 40
1.8491820508
100
AcDbArc
 50
269.5404397178
 51
270.0014048221
  0
ARC
  5
36B
100
AcDbEntity
  8
0
100
AcDbCircle
 62
7
  6
CONTINUOUS
 10
125.338013528
 20
49.6311502167
 40
1.5
100
AcDbArc
 50
45.0
 51
90.0
  0
ARC
  5
36C
100
AcDbEntity
  8
0
100
AcDbCircle
 62
7
  6
CONTINUOUS
 10
127.7806542151
 20
51.4311502167
 40
1.5
100
AcDbArc
 50
225.0
 51
270.0
  0
ARC
  5
36D
100
AcDbEntity
  8
0
100
AcDbCircle
 62
7
  6
CONTINUOUS
 10
132.2593216622
 20
81.9311405575
 40
0.9999987791
100
AcDbArc
 50
179.9994465647
 51
270.000699547
  0
ARC
  5
36E
100
AcDbEntity
  8
0
100
AcDbCircle
 62
7
  6
CONTINUOUS
 10
134.699167841
 20
80.1311502167
 40
0.8
100
AcDbArc
 50
20.0
 51
90.0
  0
ARC
  5
36F
100
AcDbEntity
  8
0
100
AcDbCircle
 62
7
  6
CONTINUOUS
 10
134.699167841
 20
50.7311502167
 40
0.8
100
AcDbArc
 50
270.0
 51
340.0
  0
ARC
  5
370
100
AcDbEntity
  8
0
100
AcDbCircle
 62
7
  6
CONTINUOUS
 10
136.0825989452
 20
80.1311502167
 40
0.5
100
AcDbArc
 50
200.0
 51
270.0
  0
ARC
  5
371
100
AcDbEntity
  8
0
100
AcDbCircle
 62
7
  6
CONTINUOUS
 10
136.0825989452
 20
50.7311502167
 40
0.5
100
AcDbArc
 50
90.0
 51
160.0
  0
ARC
  5
372
100
AcDbEntity
  8
0
100
AcDbCircle
 62
7
  6
CONTINUOUS
 10
136.0974460881
 20
56.7780726945
 40
0.2513186462
100
AcDbArc
 50
89.9933302484
 51
93.3868327922
  0
ARC
  5
373
100
AcDbEntity
  8
0
100
AcDbCircle
 62
7
  6
CONTINUOUS
 10
136.0974460889
 20
74.0842277345
 40
0.2513186417
100
AcDbArc
 50
266.6131669669
 51
270.0066695116
  0
ARC
  5
374
100
AcDbEntity
  8
0
100
AcDbCircle
 62
7
  6
CONTINUOUS
 10
136.0974435667
 20
70.9228633956
 40
0.2214295663
100
AcDbArc
 50
89.9915569147
 51
93.8439878218
  0
ARC
  5
375
100
AcDbEntity
  8
0
100
AcDbCircle
 62
7
  6
CONTINUOUS
 10
136.0974435651
 20
59.9394370377
 40
0.2214295663
100
AcDbArc
 50
266.1560125941
 51
270.0084437758
  0
ARC
  5
376
100
AcDbEntity
  8
0
100
AcDbCircle
 62
7
  6
CONTINUOUS
 10
140.7593338715
 20
145.5311502167
 40
4.0
100
AcDbArc
 50
270.0
 51
320.0
  0
ARC
  5
377
100
AcDbEntity
  8
0
100
AcDbCircle
 62
7
  6
CONTINUOUS
 10
140.7593338715
 20
145.5311502167
 40
1.0
100
AcDbArc
 50
270.0
 51
320.0
  0
ARC
  5
378
100
AcDbEntity
  8
0
100
AcDbCircle
 62
7
  6
CONTINUOUS
 10
127.6593338715
 20
145.3847400552
 40
0.6
100
AcDbArc
 50
0.0
 51
60.0
  0
ARC
  5
379
100
AcDbEntity
  8
0
100
AcDbCircle
 62
7
  6
CONTINUOUS
 10
131.5093338715
 20
127.6882569979
 40
0.5
100
AcDbArc
 50
315.0
 51
360.0
  0
ARC
  5
37A
100
AcDbEntity
  8
0
100
AcDbCircle
 62
7
  6
CONTINUOUS
 10
131.7593338715
 20
126.5240434355
 40
0.5
100
AcDbArc
 50
135.0
 51
180.0
  0
ARC
  5
37B
100
AcDbEntity
  8
0
100
AcDbCircle
 62
7
  6
CONTINUOUS
 10
66.9931627116
 20
150.6584878912
 40
55.5831179998
100
AcDbArc
 50
353.6709999501
 51
353.8783855052
  0
ARC
  5
37C
100
AcDbEntity
  8
0
100
AcDbCircle
 62
7
  6
CONTINUOUS
 10
158.1946655235
 20
158.5311502167
 40
4.0
100
AcDbArc
 50
111.0331393818
 51
140.0
  0
ARC
  5
37D
100
AcDbEntity
  8
0
100
AcDbCircle
 62
7
  6
CONTINUOUS
 10
160.6146853163
 20
162.1954637933
 40
3.8553515715
100
AcDbArc
 50
179.0238597861
 51
180.0146922186
  0
ARC
  5
37E
100
AcDbEntity
  8
0
100
AcDbCircle
 62
7
  6
CONTINUOUS
 10
158.0593338715
 20
159.3311502167
 40
1.3
100
AcDbArc
 50
212.8904173777
 51
270.0
  0
ARC
  5
37F
100
AcDbEntity
  8
0
100
AcDbCircle
 62
7
  6
CONTINUOUS
 10
158.0593338715
 20
162.7311502167
 40
1.3
100
AcDbArc
 50
90.0
 51
180.0
  0
ARC
  5
380
100
AcDbEntity
  8
0
100
AcDbCircle
 62
7
  6
CONTINUOUS
 10
339.9525554794
 20
-64.7336243537
 40
256.3810539863
100
AcDbArc
 50
146.2739438198
 51
146.4034958384
  0
ARC
  5
381
100
AcDbEntity
  8
0
100
AcDbCircle
 62
7
  6
CONTINUOUS
 10
315.2536235484
 20
-33.3298261741
 40
219.9778719477
100
AcDbArc
 50
149.5394061832
 51
149.6883162731
  0
ARC
  5
382
100
AcDbEntity
  8
0
100
AcDbCircle
 62
7
  6
CONTINUOUS
 10
339.8831633658
 20
363.1541894508
 40
327.2191823873
100
AcDbArc
 50
226.1104402935
 51
226.2260128367
  0
ARC
  5
383
100
AcDbEntity
  8
0
100
AcDbCircle
 62
7
  6
CONTINUOUS
 10
330.4536758057
 20
353.6033862581
 40
313.9951207517
100
AcDbArc
 50
226.142271491
 51
226.2627866084
  0
ARC
  5
384
100
AcDbEntity
  8
0
100
AcDbCircle
 62
7
  6
CONTINUOUS
 10
211.2593338715
 20
161.5311502167
 40
2.5
100
AcDbArc
 50
0.0
 51
90.0
  0
ARC
  5
385
100
AcDbEntity
  8
0
100
AcDbCircle
 62
7
  6
CONTINUOUS
 10
211.2593338715
 20
160.5311502167
 40
2.5
100
AcDbArc
 50
270.0
 51
360.0
  0
SPLINE
  5
386
100
AcDbEntity
  8
0
100
AcDbSpline
 62
7
  6
CONTINUOUS
 70
0
 71
3
 72
9
 73
5
 74
0
 42
0.0000001
 43
0.0000001
 44
0.0000000001
 40
0.0
 40
0.0
 40
0.0
 40
0.0
 40
0.2911543659
 40
1.0
 40
1.0
 40
1.0
 40
1.0
 10
114.5373866489
 20
137.0984316307
 30
0.0
 10
114.5338155057
 20
137.096569891
 30
0.0
 10
114.5217282413
 20
137.0898893006
 30
0.0
 10
114.5101465588
 20
137.0819584465
 30
0.0
 10
114.5032123336
 20
137.0750264785
 30
0.0
  0
SPLINE
  5
387
100
AcDbEntity
  8
0
100
AcDbSpline
 62
7
  6
CONTINUOUS
 70
0
 71
3
 72
11
 73
7
 74
0
 42
0.0000001
 43
0.0000001
 44
0.0000000001
 40
0.0
 40
0.0
 40
0.0
 40
0.0
 40
0.2224843366
 40
0.4109972113
 40
0.6538361815
 40
1.0
 40
1.0
 40
1.0
 40
1.0
 10
114.8953505039
 20
137.4671492962
 30
0.0
 10
114.8948099078
 20
137.46660857
 30
0.0
 10
114.8938708655
 20
137.4654084602
 30
0.0
 10
114.8941497115
 20
137.4629798176
 30
0.0
 10
114.896106132
 20
137.4610038505
 30
0.0
 10
114.8978323626
 20
137.4599595913
 30
0.0
 10
114.8988869525
 20
137.4594090209
 30
0.0
  0
SPLINE
  5
388
100
AcDbEntity
  8
0
100
AcDbSpline
 62
7
  6
CONTINUOUS
 70
0
 71
3
 72
9
 73
5
 74
0
 42
0.0000001
 43
0.0000001
 44
0.0000000001
 40
0.0
 40
0.0
 40
0.0
 40
0.0
 40
0.3876111574
 40
1.0
 40
1.0
 40
1.0
 40
1.0
 10
114.2593408558
 20
136.4622291395
 30
0.0
 10
114.2593400893
 20
136.4602244808
 30
0.0
 10
114.2624129004
 20
136.4553579596
 30
0.0
 10
114.2669327013
 20
136.452846208
 30
0.0
 10
114.2697411574
 20
136.4513821229
 30
0.0
  0
SPLINE
  5
389
100
AcDbEntity
  8
0
100
AcDbSpline
 62
7
  6
CONTINUOUS
 70
0
 71
3
 72
30
 73
26
 74
0
 42
0.0000001
 43
0.0000001
 44
0.0000000001
 40
0.0
 40
0.0
 40
0.0
 40
0.0
 40
0.1922364427
 40
0.286590057
 40
0.3784762998
 40
0.4669579766
 40
0.5511329487
 40
0.6301414842
 40
0.7031767035
 40
0.769494601
 40
0.8284202339
 40
0.8793537519
 40
0.9016583714
 40
0.9217789936
 40
0.9396656856
 40
0.9552723173
 40
0.9685641357
 40
0.9795102691
 40
0.9880896352
 40
0.9914906063
 40
0.9943006095
 40
0.996524479
 40
0.9981753812
 40
0.9992907931
 40
1.0
 40
1.0
 40
1.0
 40
1.0
 10
122.637827312
 20
136.8062930949
 30
0.0
 10
122.1001414448
 20
136.7919858913
 30
0.0
 10
121.2985454446
 20
136.7707610313
 30
0.0
 10
120.2399603384
 20
136.7420635524
 30
0.0
 10
119.4715888656
 20
136.7206797789
 30
0.0
 10
118.7317082464
 20
136.6993054003
 30
0.0
 10
118.0278746199
 20
136.677944393
 30
0.0
 10
117.3672804103
 20
136.6566026257
 30
0.0
 10
116.7566771782
 20
136.6352868303
 30
0.0
 10
116.2023011163
 20
136.6140120904
 30
0.0
 10
115.7098140782
 20
136.5927895382
 30
0.0
 10
115.3404701793
 20
136.5744683195
 30
0.0
 10
115.0796782401
 20
136.5595474854
 30
0.0
 10
114.911262664
 20
136.5488713355
 30
0.0
 10
114.7616279056
 20
136.5382179232
 30
0.0
 10
114.6311531036
 20
136.5275893682
 30
0.0
 10
114.5201649928
 20
136.5170126464
 30
0.0
 10
114.4289416059
 20
136.5064958011
 30
0.0
 10
114.3654373552
 20
136.497279345
 30
0.0
 10
114.3247616769
 20
136.4896181662
 30
0.0
 10
114.3017535249
 20
136.4843295819
 30
0.0
 10
114.2837627013
 20
136.4791623152
 30
0.0
 10
114.2707819686
 20
136.473888345
 30
0.0
 10
114.2623559141
 20
136.4690112143
 30
0.0
 10
114.2593416145
 20
136.464213495
 30
0.0
 10
114.2593408558
 20
136.4622291395
 30
0.0
  0
SPLINE
  5
38A
100
AcDbEntity
  8
0
100
AcDbSpline
 62
7
  6
CONTINUOUS
 70
0
 71
3
 72
18
 73
14
 74
0
 42
0.0000001
 43
0.0000001
 44
0.0000000001
 40
0.0
 40
0.0
 40
0.0
 40
0.0
 40
0.1986648228
 40
0.3795329183
 40
0.5405561936
 40
0.6800603962
 40
0.7966173612
 40
0.8459377932
 40
0.8891469361
 40
0.9261652256
 40
0.9569553443
 40
0.9815323461
 40
1.0
 40
1.0
 40
1.0
 40
1.0
 10
117.7290762258
 20
137.477325121
 30
0.0
 10
117.5163973274
 20
137.4617752989
 30
0.0
 10
117.1101605972
 20
137.4311041284
 30
0.0
 10
116.5318787347
 20
137.3835039255
 30
0.0
 10
116.0172951498
 20
137.3363301252
 30
0.0
 10
115.5720286933
 20
137.289611866
 30
0.0
 10
115.2466831814
 20
137.2492771608
 30
0.0
 10
115.0246681058
 20
137.2163495401
 30
0.0
 10
114.8875414989
 20
137.193176171
 30
0.0
 10
114.7706075643
 20
137.1701508009
 30
0.0
 10
114.6740530914
 20
137.1473203962
 30
0.0
 10
114.598067665
 20
137.1247335375
 30
0.0
 10
114.5549645185
 20
137.1075954795
 30
0.0
 10
114.5373866489
 20
137.0984316307
 30
0.0
  0
SPLINE
  5
38B
100
AcDbEntity
  8
0
100
AcDbSpline
 62
7
  6
CONTINUOUS
 70
0
 71
3
 72
50
 73
46
 74
0
 42
0.0000001
 43
0.0000001
 44
0.0000000001
 40
0.0
 40
0.0
 40
0.0
 40
0.0
 40
0.1148103796
 40
0.2326901073
 40
0.3534914865
 40
0.4149309721
 40
0.4770238996
 40
0.5397308685
 40
0.6029969998
 40
0.6348149883
 40
0.6667365296
 40
0.6987391431
 40
0.730788249
 40
0.7468133632
 40
0.7628245031
 40
0.7788044398
 40
0.7947253791
 40
0.8026495587
 40
0.8105368878
 40
0.8183713562
 40
0.8261254228
 40
0.8299572374
 40
0.8337440676
 40
0.837464797
 40
0.8410765389
 40
0.8428151301
 40
0.8444660852
 40
0.8460158758
 40
0.846804242
 40
0.8479609531
 40
0.850570241
 40
0.8531008092
 40
0.8555659593
 40
0.8579881796
 40
0.8627476744
 40
0.8674322049
 40
0.8766607546
 40
0.8857670719
 40
0.894789751
 40
0.9037492328
 40
0.9126578774
 40
0.9303527328
 40
0.9479153162
 40
0.9653685907
 40
1.0
 40
1.0
 40
1.0
 40
1.0
 10
116.8857356159
 20
137.5311502167
 30
0.0
 10
116.9322797546
 20
137.5311343228
 30
0.0
 10
117.0266124228
 20
137.5310153183
 30
0.0
 10
117.1699165758
 20
137.5303306174
 30
0.0
 10
117.2915814437
 20
137.5292849033
 30
0.0
 10
117.3906268958
 20
137.5280569597
 30
0.0
 10
117.4661195374
 20
137.526893109
 30
0.0
 10
117.5423477851
 20
137.5254354937
 30
0.0
 10
117.6062984867
 20
137.5239093741
 30
0.0
 10
117.6577653814
 20
137.5224278948
 30
0.0
 10
117.6965584993
 20
137.5211544247
 30
0.0
 10
117.7354383014
 20
137.5196797671
 30
0.0
 10
117.7678695457
 20
137.5182314944
 30
0.0
 10
117.7938149464
 20
137.5168848168
 30
0.0
 10
117.8132482459
 20
137.5157581822
 30
0.0
 10
117.8326300643
 20
137.5144825053
 30
0.0
 10
117.8487286985
 20
137.513251747
 30
0.0
 10
117.861543194
 20
137.5121186238
 30
0.0
 10
117.8710831043
 20
137.5111765654
 30
0.0
 10
117.8805407901
 20
137.5101114236
 30
0.0
 10
117.8883465578
 20
137.5090782296
 30
0.0
 10
117.8945040432
 20
137.5081128235
 30
0.0
 10
117.8990285027
 20
137.5073011288
 30
0.0
 10
117.9034414469
 20
137.5063616396
 30
0.0
 10
117.9069871185
 20
137.5054091739
 30
0.0
 10
117.9096806114
 20
137.5044451398
 30
0.0
 10
117.9114276449
 20
137.5035663298
 30
0.0
 10
117.9128986811
 20
137.5025678922
 30
0.0
 10
117.9130062789
 20
137.5010135373
 30
0.0
 10
117.9116172545
 20
137.4996006065
 30
0.0
 10
117.9093636743
 20
137.4984489261
 30
0.0
 10
117.9064462588
 20
137.497408602
 30
0.0
 10
117.9035632974
 20
137.4965602667
 30
0.0
 10
117.8997719857
 20
137.4955947286
 30
0.0
 10
117.8950702029
 20
137.4945737101
 30
0.0
 10
117.8876306928
 20
137.4931715667
 30
0.0
 10
117.8784150701
 20
137.4916933027
 30
0.0
 10
117.8674306239
 20
137.4901588889
 30
0.0
 10
117.8565344074
 20
137.4887893573
 30
0.0
 10
117.845704872
 20
137.4875374077
 30
0.0
 10
117.8313706186
 20
137.4859917664
 30
0.0
 10
117.8135517959
 20
137.484234265
 30
0.0
 10
117.7922690349
 20
137.4823153543
 30
0.0
 10
117.7641325009
 20
137.4799576618
 30
0.0
 10
117.7430784275
 20
137.4783488791
 30
0.0
 10
117.7290762258
 20
137.477325121
 30
0.0
  0
LINE
  5
38C
100
AcDbEntity
  8
0
100
AcDbLine
 62
7
  6
CONTINUOUS
 10
114.9168335583
 20
135.9602478315
 11
114.9219308402
 21
135.9626598028
  0
SPLINE
  5
38D
100
AcDbEntity
  8
0
100
AcDbSpline
 62
7
  6
CONTINUOUS
 70
0
 71
3
 72
9
 73
5
 74
0
 42
0.0000001
 43
0.0000001
 44
0.0000000001
 40
0.0
 40
0.0
 40
0.0
 40
0.0
 40
0.2070042419
 40
1.0
 40
1.0
 40
1.0
 40
1.0
 10
114.9219308402
 20
135.9626598028
 30
0.0
 10
114.9239461817
 20
135.9635326336
 30
0.0
 10
114.9338232262
 20
135.9674223928
 30
0.0
 10
114.9440563084
 20
135.9703303547
 30
0.0
 10
114.9522049065
 20
135.9724244162
 30
0.0
  0
SPLINE
  5
38E
100
AcDbEntity
  8
0
100
AcDbSpline
 62
7
  6
CONTINUOUS
 70
0
 71
3
 72
22
 73
18
 74
0
 42
0.0000001
 43
0.0000001
 44
0.0000000001
 40
0.0
 40
0.0
 40
0.0
 40
0.0
 40
0.006198657
 40
0.0145108042
 40
0.0249311241
 40
0.0374436052
 40
0.0686269304
 40
0.1077803836
 40
0.1545333888
 40
0.2084384348
 40
0.2689795603
 40
0.3355741773
 40
0.4075795831
 40
0.4843024732
 40
0.6489025764
 40
0.8230368426
 40
1.0
 40
1.0
 40
1.0
 40
1.0
 10
114.9522049065
 20
135.9724244162
 30
0.0
 10
114.9685357533
 20
135.9766211867
 30
0.0
 10
115.0072930994
 20
135.9843272335
 30
0.0
 10
115.0743479515
 20
135.9944827269
 30
0.0
 10
115.1587335038
 20
136.0047207534
 30
0.0
 10
115.3051926402
 20
136.0195700168
 30
0.0
 10
115.529871444
 20
136.0374250719
 30
0.0
 10
115.8477240917
 20
136.0578666953
 30
0.0
 10
116.2274871416
 20
136.0784146908
 30
0.0
 10
116.665494111
 20
136.0990578877
 30
0.0
 10
117.1575248516
 20
136.1197504255
 30
0.0
 10
117.6988292276
 20
136.1404797235
 30
0.0
 10
118.2841795875
 20
136.1612350161
 30
0.0
 10
119.136018401
 20
136.1895988237
 30
0.0
 10
120.2656019972
 20
136.2244425428
 30
0.0
 10
121.6677942875
 20
136.2654361817
 30
0.0
 10
122.6224481081
 20
136.2929103336
 30
0.0
 10
123.1036164014
 20
136.3069156681
 30
0.0
  0
SPLINE
  5
38F
100
AcDbEntity
  8
0
100
AcDbSpline
 62
7
  6
CONTINUOUS
 70
0
 71
3
 72
11
 73
7
 74
0
 42
0.0000001
 43
0.0000001
 44
0.0000000001
 40
0.0
 40
0.0
 40
0.0
 40
0.0
 40
0.3477808973
 40
0.5957236378
 40
0.7864378654
 40
1.0
 40
1.0
 40
1.0
 40
1.0
 10
114.916646817
 20
137.4501500571
 30
0.0
 10
114.9143119154
 20
137.4513784997
 30
0.0
 10
114.9104526231
 20
137.4537261763
 30
0.0
 10
114.906081523
 20
137.4580511718
 30
0.0
 10
114.9050569179
 20
137.4632954066
 30
0.0
 10
114.9068560833
 20
137.4660782572
 30
0.0
 10
114.9079286983
 20
137.4672924692
 30
0.0
  0
SPLINE
  5
390
100
AcDbEntity
  8
0
100
AcDbSpline
 62
7
  6
CONTINUOUS
 70
0
 71
3
 72
9
 73
5
 74
0
 42
0.0000001
 43
0.0000001
 44
0.0000000001
 40
0.0
 40
0.0
 40
0.0
 40
0.0
 40
0.4119614217
 40
1.0
 40
1.0
 40
1.0
 40
1.0
 10
114.9079286983
 20
137.4672924692
 30
0.0
 10
114.9097368088
 20
137.46933927
 30
0.0
 10
114.9153064509
 20
137.4731776157
 30
0.0
 10
114.9213485631
 20
137.475884537
 30
0.0
 10
114.924970956
 20
137.4773251329
 30
0.0
  0
SPLINE
  5
391
100
AcDbEntity
  8
0
100
AcDbSpline
 62
7
  6
CONTINUOUS
 70
0
 71
3
 72
33
 73
29
 74
0
 42
0.0000001
 43
0.0000001
 44
0.0000000001
 40
0.0
 40
0.0
 40
0.0
 40
0.0
 40
0.0016135057
 40
0.0027672232
 40
0.0036509135
 40
0.0046280383
 40
0.0059884469
 40
0.0078502357
 40
0.0102583359
 40
0.0132326115
 40
0.0167830913
 40
0.0209151465
 40
0.0309296799
 40
0.0432771078
 40
0.0579478943
 40
0.0749270722
 40
0.0941891149
 40
0.1157043065
 40
0.1394421389
 40
0.1934356239
 40
0.2558285629
 40
0.3262292069
 40
0.4041910444
 40
0.4892170205
 40
0.5807687851
 40
0.6782596327
 40
0.7810716272
 40
1.0
 40
1.0
 40
1.0
 40
1.0
 10
114.9167003699
 20
136.1141221382
 30
0.0
 10
114.914373169
 20
136.1153421133
 30
0.0
 10
114.9105195581
 20
136.1176784638
 30
0.0
 10
114.9061405314
 20
136.12194357
 30
0.0
 10
114.9050218995
 20
136.1271340884
 30
0.0
 10
114.9079574513
 20
136.1318881172
 30
0.0
 10
114.9134490309
 20
136.1359966688
 30
0.0
 10
114.921666003
 20
136.1401565533
 30
0.0
 10
114.9327194926
 20
136.1443032677
 30
0.0
 10
114.9466611308
 20
136.1484873868
 30
0.0
 10
114.9635047718
 20
136.1526842373
 30
0.0
 10
114.9916964504
 20
136.1586879532
 30
0.0
 10
115.034235982
 20
136.1659772912
 30
0.0
 10
115.0939664063
 20
136.1743335908
 30
0.0
 10
115.1651276433
 20
136.1827233077
 30
0.0
 10
115.2476115116
 20
136.1911400729
 30
0.0
 10
115.3412903924
 20
136.1995739638
 30
0.0
 10
115.4460138018
 20
136.2080219613
 30
0.0
 10
115.6072070053
 20
136.2198089122
 30
0.0
 10
115.8349419796
 20
136.2343098651
 30
0.0
 10
116.1386612563
 20
136.2511144628
 30
0.0
 10
116.4814636275
 20
136.267955083
 30
0.0
 10
116.8611618629
 20
136.2848250007
 30
0.0
 10
117.2753346242
 20
136.3017150357
 30
0.0
 10
117.7213340509
 20
136.3186186868
 30
0.0
 10
118.1963168584
 20
136.3355345494
 30
0.0
 10
118.8786436341
 20
136.3585836079
 30
0.0
 10
119.4023356848
 20
136.3751192643
 30
0.0
 10
119.7586909129
 20
136.386076066
 30
0.0
  0
SPLINE
  5
392
100
AcDbEntity
  8
0
100
AcDbSpline
 62
7
  6
CONTINUOUS
 70
0
 71
3
 72
9
 73
5
 74
0
 42
0.0000001
 43
0.0000001
 44
0.0000000001
 40
0.0
 40
0.0
 40
0.0
 40
0.0
 40
0.2432042019
 40
1.0
 40
1.0
 40
1.0
 40
1.0
 10
119.7586909129
 20
136.386076066
 30
0.0
 10
120.0167880915
 20
136.394011742
 30
0.0
 10
121.078044872
 20
136.4259833416
 30
0.0
 10
122.1393500223
 20
136.4563103928
 30
0.0
 10
122.9425302996
 20
136.4796346976
 30
0.0
  0
SPLINE
  5
393
100
AcDbEntity
  8
0
100
AcDbSpline
 62
7
  6
CONTINUOUS
 70
0
 71
3
 72
9
 73
5
 74
0
 42
0.0000001
 43
0.0000001
 44
0.0000000001
 40
0.0
 40
0.0
 40
0.0
 40
0.0
 40
0.1995464834
 40
1.0
 40
1.0
 40
1.0
 40
1.0
 10
114.9168263741
 20
137.296248132
 30
0.0
 10
114.9186570183
 20
137.2972026429
 30
0.0
 10
114.9280671645
 20
137.3015307763
 30
0.0
 10
114.9380088025
 20
137.3045669931
 30
0.0
 10
114.9459921375
 20
137.3067697149
 30
0.0
  0
SPLINE
  5
394
100
AcDbEntity
  8
0
100
AcDbSpline
 62
7
  6
CONTINUOUS
 70
0
 71
3
 72
17
 73
13
 74
0
 42
0.0000001
 43
0.0000001
 44
0.0000000001
 40
0.0
 40
0.0
 40
0.0
 40
0.0
 40
0.0175540708
 40
0.0415356729
 40
0.0719407341
 40
0.108708965
 40
0.2010082319
 40
0.3175679832
 40
0.4572454311
 40
0.6186404528
 40
0.8001994522
 40
1.0
 40
1.0
 40
1.0
 40
1.0
 10
114.9459921375
 20
137.3067697149
 30
0.0
 10
114.9617286442
 20
137.3111116531
 30
0.0
 10
114.9995998686
 20
137.3189905688
 30
0.0
 10
115.0656991211
 20
137.3293215933
 30
0.0
 10
115.1498419425
 20
137.3397395529
 30
0.0
 10
115.2973702373
 20
137.3549128459
 30
0.0
 10
115.5250917504
 20
137.3731090467
 30
0.0
 10
115.8485488672
 20
137.3939395723
 30
0.0
 10
116.2363700652
 20
137.414879411
 30
0.0
 10
116.6847047071
 20
137.4359242793
 30
0.0
 10
117.1890036329
 20
137.457018948
 30
0.0
 10
117.5433954401
 20
137.4705094088
 30
0.0
 10
117.7290762258
 20
137.477325121
 30
0.0
  0
LINE
  5
395
100
AcDbEntity
  8
0
100
AcDbLine
 62
7
  6
CONTINUOUS
 10
123.4114222266
 20
135.9768005082
 11
122.2593338715
 21
135.9460724313
  0
SPLINE
  5
396
100
AcDbEntity
  8
0
100
AcDbSpline
 62
7
  6
CONTINUOUS
 70
0
 71
3
 72
11
 73
7
 74
0
 42
0.0000001
 43
0.0000001
 44
0.0000000001
 40
0.0
 40
0.0
 40
0.0
 40
0.0
 40
0.2424504748
 40
0.4884289768
 40
0.7405228275
 40
1.0
 40
1.0
 40
1.0
 40
1.0
 10
116.6301687468
 20
140.5311502167
 30
0.0
 10
116.4945561349
 20
140.5311502121
 30
0.0
 10
116.2209764089
 20
140.5111497747
 30
0.0
 10
115.8149516582
 20
140.4236937999
 30
0.0
 10
115.413779045
 20
140.2846428518
 30
0.0
 10
115.1537307375
 20
140.1642266162
 30
0.0
 10
115.0245146746
 20
140.0981375148
 30
0.0
  0
SPLINE
  5
397
100
AcDbEntity
  8
0
100
AcDbSpline
 62
7
  6
CONTINUOUS
 70
0
 71
3
 72
16
 73
12
 74
0
 42
0.0000001
 43
0.0000001
 44
0.0000000001
 40
0.0
 40
0.0
 40
0.0
 40
0.0
 40
0.0177345109
 40
0.0416962526
 40
0.10830685
 40
0.1995972123
 40
0.3150359975
 40
0.4538691648
 40
0.6151345376
 40
0.7976559251
 40
1.0
 40
1.0
 40
1.0
 40
1.0
 10
114.924970956
 20
137.4773251329
 30
0.0
 10
114.9363166829
 20
137.4796786105
 30
0.0
 10
114.9632714522
 20
137.4838134203
 30
0.0
 10
115.0336156015
 20
137.4915373618
 30
0.0
 10
115.1522072459
 20
137.4996010829
 30
0.0
 10
115.3306028248
 20
137.5078973208
 30
0.0
 10
115.5562757541
 20
137.5151902055
 30
0.0
 10
115.8277045948
 20
137.5214818727
 30
0.0
 10
116.1429973404
 20
137.5265574771
 30
0.0
 10
116.499807946
 20
137.5301762216
 30
0.0
 10
116.7512693006
 20
137.5311059302
 30
0.0
 10
116.8834754488
 20
137.5311502167
 30
0.0
  0
SPLINE
  5
398
100
AcDbEntity
  8
0
100
AcDbSpline
 62
7
  6
CONTINUOUS
 70
0
 71
3
 72
9
 73
5
 74
0
 42
0.0000001
 43
0.0000001
 44
0.0000000001
 40
0.0
 40
0.0
 40
0.0
 40
0.0
 40
0.3103520225
 40
1.0
 40
1.0
 40
1.0
 40
1.0
 10
114.924970956
 20
137.4773251329
 30
0.0
 10
114.9224840357
 20
137.4768092637
 30
0.0
 10
114.9145052131
 20
137.4750321592
 30
0.0
 10
114.9065303848
 20
137.4729435162
 30
0.0
 10
114.901338761
 20
137.4707296589
 30
0.0
  0
SPLINE
  5
399
100
AcDbEntity
  8
0
100
AcDbSpline
 62
7
  6
CONTINUOUS
 70
0
 71
3
 72
9
 73
5
 74
0
 42
0.0000001
 43
0.0000001
 44
0.0000000001
 40
0.0
 40
0.0
 40
0.0
 40
0.0
 40
0.3065741859
 40
1.0
 40
1.0
 40
1.0
 40
1.0
 10
114.901338761
 20
137.4707296589
 30
0.0
 10
114.9006812139
 20
137.470449262
 30
0.0
 10
114.8985700402
 20
137.469480047
 30
0.0
 10
114.8964936551
 20
137.4682927223
 30
0.0
 10
114.8953505039
 20
137.4671492962
 30
0.0
  0
SPLINE
  5
39A
100
AcDbEntity
  8
0
100
AcDbSpline
 62
7
  6
CONTINUOUS
 70
0
 71
3
 72
11
 73
7
 74
0
 42
0.0000001
 43
0.0000001
 44
0.0000000001
 40
0.0
 40
0.0
 40
0.0
 40
0.0
 40
0.2594721663
 40
0.5115657909
 40
0.7575467579
 40
1.0
 40
1.0
 40
1.0
 40
1.0
 10
118.2358228193
 20
140.0981375148
 30
0.0
 10
118.1066092026
 20
140.164225365
 30
0.0
 10
117.8465638376
 20
140.2846410508
 30
0.0
 10
117.4453936127
 20
140.4236946329
 30
0.0
 10
117.0393658195
 20
140.511151584
 30
0.0
 10
116.7657829556
 20
140.5311502213
 30
0.0
 10
116.6301687468
 20
140.5311502167
 30
0.0
  0
SPLINE
  5
39B
100
AcDbEntity
  8
0
100
AcDbSpline
 62
7
  6
CONTINUOUS
 70
0
 71
3
 72
11
 73
7
 74
0
 42
0.0000001
 43
0.0000001
 44
0.0000000001
 40
0.0
 40
0.0
 40
0.0
 40
0.0
 40
0.2616429466
 40
0.5144970929
 40
0.7595947853
 40
1.0
 40
1.0
 40
1.0
 40
1.0
 10
124.5687349483
 20
149.3738846268
 30
0.0
 10
124.6610400654
 20
149.427177011
 30
0.0
 10
124.8467393331
 20
149.5250462058
 30
0.0
 10
125.1346768798
 20
149.6403217257
 30
0.0
 10
125.4273574063
 20
149.7140760051
 30
0.0
 10
125.6255022752
 20
149.7311502167
 30
0.0
 10
125.7234354871
 20
149.7311502167
 30
0.0
  0
SPLINE
  5
39C
100
AcDbEntity
  8
0
100
AcDbSpline
 62
7
  6
CONTINUOUS
 70
0
 71
3
 72
11
 73
7
 74
0
 42
0.0000001
 43
0.0000001
 44
0.0000000001
 40
0.0
 40
0.0
 40
0.0
 40
0.0
 40
0.2404052601
 40
0.485503008
 40
0.7383572234
 40
1.0
 40
1.0
 40
1.0
 40
1.0
 10
125.7234354871
 20
149.7311502167
 30
0.0
 10
125.8213687173
 20
149.7311502167
 30
0.0
 10
126.0195136304
 20
149.7140760155
 30
0.0
 10
126.3121942086
 20
149.6403216591
 30
0.0
 10
126.6001317442
 20
149.5250461671
 30
0.0
 10
126.7858309681
 20
149.4271769763
 30
0.0
 10
126.878136025
 20
149.3738846268
 30
0.0
  0
SPLINE
  5
39D
100
AcDbEntity
  8
0
100
AcDbSpline
 62
7
  6
CONTINUOUS
 70
0
 71
3
 72
15
 73
11
 74
0
 42
0.0000001
 43
0.0000001
 44
0.0000000001
 40
0.0
 40
0.0
 40
0.0
 40
0.0
 40
0.1308200724
 40
0.2572467341
 40
0.3797970183
 40
0.5000000228
 40
0.620203024
 40
0.7427533002
 40
0.8691799394
 40
1.0
 40
1.0
 40
1.0
 40
1.0
 10
126.878136025
 20
146.5285851652
 30
0.0
 10
126.785831978
 20
146.5818769315
 30
0.0
 10
126.6001299719
 20
146.6797452046
 30
0.0
 10
126.3122117598
 20
146.7950222082
 30
0.0
 10
126.0194655213
 20
146.8687736721
 30
0.0
 10
125.7234354344
 20
146.8942960018
 30
0.0
 10
125.4274053579
 20
146.8687736393
 30
0.0
 10
125.1346591493
 20
146.7950221746
 30
0.0
 10
124.8467409674
 20
146.6797451888
 30
0.0
 10
124.6610389869
 20
146.5818769267
 30
0.0
 10
124.5687349483
 20
146.5285851652
 30
0.0
  0
SPLINE
  5
39E
100
AcDbEntity
  8
0
100
AcDbSpline
 62
7
  6
CONTINUOUS
 70
0
 71
3
 72
9
 73
5
 74
0
 42
0.0000001
 43
0.0000001
 44
0.0000000001
 40
0.0
 40
0.0
 40
0.0
 40
0.0
 40
0.2530239619
 40
1.0
 40
1.0
 40
1.0
 40
1.0
 10
122.2593338715
 20
144.7311502167
 30
0.0
 10
122.3191443577
 20
144.7140175584
 30
0.0
 10
122.5557858732
 20
144.6472142566
 30
0.0
 10
122.7929138535
 20
144.5821248684
 30
0.0
 10
122.9693722333
 20
144.5311502167
 30
0.0
  0
SPLINE
  5
39F
100
AcDbEntity
  8
0
100
AcDbSpline
 62
7
  6
CONTINUOUS
 70
0
 71
3
 72
11
 73
7
 74
0
 42
0.0000001
 43
0.0000001
 44
0.0000000001
 40
0.0
 40
0.0
 40
0.0
 40
0.0
 40
0.2616427032
 40
0.5144968934
 40
0.7595946658
 40
1.0
 40
1.0
 40
1.0
 40
1.0
 10
117.640531718
 20
149.3738846268
 30
0.0
 10
117.7328367492
 20
149.4271769614
 30
0.0
 10
117.9185359348
 20
149.5250461395
 30
0.0
 10
118.2064734404
 20
149.6403216227
 30
0.0
 10
118.4991540396
 20
149.7140760235
 30
0.0
 10
118.6972989954
 20
149.7311502167
 30
0.0
 10
118.795232256
 20
149.7311502167
 30
0.0
  0
SPLINE
  5
3A0
100
AcDbEntity
  8
0
100
AcDbSpline
 62
7
  6
CONTINUOUS
 70
0
 71
3
 72
11
 73
7
 74
0
 42
0.0000001
 43
0.0000001
 44
0.0000000001
 40
0.0
 40
0.0
 40
0.0
 40
0.0
 40
0.2404053342
 40
0.4855030662
 40
0.7383571529
 40
1.0
 40
1.0
 40
1.0
 40
1.0
 10
118.795232256
 20
149.7311502167
 30
0.0
 10
118.8931655168
 20
149.7311502167
 30
0.0
 10
119.0913104551
 20
149.7140760214
 30
0.0
 10
119.3839910064
 20
149.6403216656
 30
0.0
 10
119.671928507
 20
149.5250461667
 30
0.0
 10
119.8576277126
 20
149.4271769908
 30
0.0
 10
119.9499327948
 20
149.3738846268
 30
0.0
  0
SPLINE
  5
3A1
100
AcDbEntity
  8
0
100
AcDbSpline
 62
7
  6
CONTINUOUS
 70
0
 71
3
 72
15
 73
11
 74
0
 42
0.0000001
 43
0.0000001
 44
0.0000000001
 40
0.0
 40
0.0
 40
0.0
 40
0.0
 40
0.1308200724
 40
0.2572467341
 40
0.3797970183
 40
0.5000000228
 40
0.620203024
 40
0.7427533002
 40
0.8691799394
 40
1.0
 40
1.0
 40
1.0
 40
1.0
 10
119.9499327948
 20
146.5285851652
 30
0.0
 10
119.8576287478
 20
146.5818769315
 30
0.0
 10
119.6719267416
 20
146.6797452046
 30
0.0
 10
119.3840085296
 20
146.7950222082
 30
0.0
 10
119.0912622911
 20
146.8687736721
 30
0.0
 10
118.7952322042
 20
146.8942960018
 30
0.0
 10
118.4992021277
 20
146.8687736393
 30
0.0
 10
118.2064559191
 20
146.7950221746
 30
0.0
 10
117.9185377372
 20
146.6797451888
 30
0.0
 10
117.7328357566
 20
146.5818769267
 30
0.0
 10
117.640531718
 20
146.5285851652
 30
0.0
  0
LINE
  5
3A2
100
AcDbEntity
  8
0
100
AcDbLine
 62
7
  6
CONTINUOUS
 10
121.4660722305
 20
144.5311502167
 11
121.473839307
 21
144.6054063923
  0
SPLINE
  5
3A3
100
AcDbEntity
  8
0
100
AcDbSpline
 62
7
  6
CONTINUOUS
 70
0
 71
3
 72
10
 73
6
 74
0
 42
0.0000001
 43
0.0000001
 44
0.0000000001
 40
0.0
 40
0.0
 40
0.0
 40
0.0
 40
0.4999011814
 40
0.7499517172
 40
1.0
 40
1.0
 40
1.0
 40
1.0
 10
119.9499327948
 20
149.3738846268
 30
0.0
 10
120.3251590733
 20
149.4822031233
 30
0.0
 10
120.8972020284
 20
149.6176159106
 30
0.0
 10
121.6730742909
 20
149.7144787336
 30
0.0
 10
122.0639836029
 20
149.7311502167
 30
0.0
 10
122.2593338714
 20
149.7311502167
 30
0.0
  0
SPLINE
  5
3A4
100
AcDbEntity
  8
0
100
AcDbSpline
 62
7
  6
CONTINUOUS
 70
0
 71
3
 72
10
 73
6
 74
0
 42
0.0000001
 43
0.0000001
 44
0.0000000001
 40
0.0
 40
0.0
 40
0.0
 40
0.0
 40
0.2500483041
 40
0.5000988454
 40
1.0
 40
1.0
 40
1.0
 40
1.0
 10
122.2593338714
 20
149.7311502167
 30
0.0
 10
122.4546841566
 20
149.7311502167
 30
0.0
 10
122.8455934899
 20
149.7144787366
 30
0.0
 10
123.6214657511
 20
149.6176158994
 30
0.0
 10
124.1935086897
 20
149.4822031175
 30
0.0
 10
124.5687349483
 20
149.3738846268
 30
0.0
  0
SPLINE
  5
3A5
100
AcDbEntity
  8
0
100
AcDbSpline
 62
7
  6
CONTINUOUS
 70
0
 71
3
 72
10
 73
6
 74
0
 42
0.0000001
 43
0.0000001
 44
0.0000000001
 40
0.0
 40
0.0
 40
0.0
 40
0.0
 40
0.4999007856
 40
0.7499513904
 40
1.0
 40
1.0
 40
1.0
 40
1.0
 10
124.5687349483
 20
146.5285851652
 30
0.0
 10
124.193508966
 20
146.6369035761
 30
0.0
 10
123.6214662619
 20
146.7723162696
 30
0.0
 10
122.8455940236
 20
146.8691793237
 30
0.0
 10
122.4546843958
 20
146.8858507551
 30
0.0
 10
122.2593338715
 20
146.8858507551
 30
0.0
  0
SPLINE
  5
3A6
100
AcDbEntity
  8
0
100
AcDbSpline
 62
7
  6
CONTINUOUS
 70
0
 71
3
 72
10
 73
6
 74
0
 42
0.0000001
 43
0.0000001
 44
0.0000000001
 40
0.0
 40
0.0
 40
0.0
 40
0.0
 40
0.2500490219
 40
0.5000997455
 40
1.0
 40
1.0
 40
1.0
 40
1.0
 10
122.2593338715
 20
146.8858507551
 30
0.0
 10
122.0639830246
 20
146.8858507551
 30
0.0
 10
121.6730729749
 20
146.8691793671
 30
0.0
 10
120.8972007609
 20
146.7723160714
 30
0.0
 10
120.3251583795
 20
146.6369034613
 30
0.0
 10
119.9499327948
 20
146.5285851652
 30
0.0
  0
SPLINE
  5
3A7
100
AcDbEntity
  8
0
100
AcDbSpline
 62
7
  6
CONTINUOUS
 70
0
 71
3
 72
8
 73
4
 74
0
 42
0.0000001
 43
0.0000001
 44
0.0000000001
 40
0.0
 40
0.0
 40
0.0
 40
0.0
 40
1.0
 40
1.0
 40
1.0
 40
1.0
 10
156.7593338715
 20
159.8678252586
 30
0.0
 10
156.7593338715
 20
159.7554440257
 30
0.0
 10
156.7639202443
 20
159.6427554178
 30
0.0
 10
156.7771043485
 20
159.5311502167
 30
0.0
  0
SPLINE
  5
3A8
100
AcDbEntity
  8
0
100
AcDbSpline
 62
7
  6
CONTINUOUS
 70
0
 71
3
 72
8
 73
4
 74
0
 42
0.0000001
 43
0.0000001
 44
0.0000000001
 40
0.0
 40
0.0
 40
0.0
 40
0.0
 40
1.0
 40
1.0
 40
1.0
 40
1.0
 10
156.7771043485
 20
162.5311502167
 30
0.0
 10
156.7665242345
 20
162.4415881402
 30
0.0
 10
156.7614527919
 20
162.3513150525
 30
0.0
 10
156.759893248
 20
162.2611437035
 30
0.0
  0
SPLINE
  5
3A9
100
AcDbEntity
  8
0
100
AcDbSpline
 62
7
  6
CONTINUOUS
 70
0
 71
3
 72
9
 73
5
 74
0
 42
0.0000001
 43
0.0000001
 44
0.0000000001
 40
0.0
 40
0.0
 40
0.0
 40
0.0
 40
0.500011969
 40
1.0
 40
1.0
 40
1.0
 40
1.0
 10
135.6127526348
 20
59.681608027
 30
0.0
 10
135.7511835125
 20
60.6332723895
 30
0.0
 10
135.9716079633
 20
62.5454810805
 30
0.0
 10
136.049516969
 20
64.4695163898
 30
0.0
 10
136.0495169159
 20
65.4311502167
 30
0.0
  0
SPLINE
  5
3AA
100
AcDbEntity
  8
0
100
AcDbSpline
 62
7
  6
CONTINUOUS
 70
0
 71
3
 72
11
 73
7
 74
0
 42
0.0000001
 43
0.0000001
 44
0.0000000001
 40
0.0
 40
0.0
 40
0.0
 40
0.0
 40
0.251930381
 40
0.5000085946
 40
0.7480808823
 40
1.0
 40
1.0
 40
1.0
 40
1.0
 10
136.0974761192
 20
51.3162485961
 30
0.0
 10
136.2301668419
 20
51.783951822
 30
0.0
 10
136.4430162588
 20
52.7281362266
 30
0.0
 10
136.5572276565
 20
54.1728587966
 30
0.0
 10
136.4430254435
 20
55.6175624641
 30
0.0
 10
136.2301584901
 20
56.5617084966
 30
0.0
 10
136.0974755552
 20
57.0293913389
 30
0.0
  0
SPLINE
  5
3AB
100
AcDbEntity
  8
0
100
AcDbSpline
 62
7
  6
CONTINUOUS
 70
0
 71
3
 72
13
 73
9
 74
0
 42
0.0000001
 43
0.0000001
 44
0.0000000001
 40
0.0
 40
0.0
 40
0.0
 40
0.0
 40
0.2534007557
 40
0.378142432
 40
0.5020403515
 40
0.6256421513
 40
0.7495336374
 40
1.0
 40
1.0
 40
1.0
 40
1.0
 10
135.6127526348
 20
51.0010455174
 30
0.0
 10
135.7494426453
 20
51.4743677947
 30
0.0
 10
135.9151454996
 20
52.193394943
 30
0.0
 10
136.0300731544
 20
53.163454197
 30
0.0
 10
136.0591848547
 20
53.8873715002
 30
0.0
 10
136.0301988109
 20
54.609647053
 30
0.0
 10
135.915569282
 20
55.5717647838
 30
0.0
 10
135.7497136362
 20
56.2832857487
 30
0.0
 10
135.6127526348
 20
56.7505875712
 30
0.0
  0
SPLINE
  5
3AC
100
AcDbEntity
  8
0
100
AcDbSpline
 62
7
  6
CONTINUOUS
 70
0
 71
3
 72
11
 73
7
 74
0
 42
0.0000001
 43
0.0000001
 44
0.0000000001
 40
0.0
 40
0.0
 40
0.0
 40
0.0
 40
0.2703290727
 40
0.5317785007
 40
0.7760074703
 40
1.0
 40
1.0
 40
1.0
 40
1.0
 10
136.0825989452
 20
57.0289523952
 30
0.0
 10
136.0313161004
 20
57.025910843
 30
0.0
 10
135.9307464453
 20
57.0081727707
 30
0.0
 10
135.794067965
 20
56.9491981942
 30
0.0
 10
135.6831843785
 20
56.8633153586
 30
0.0
 10
135.630682711
 20
56.7891943245
 30
0.0
 10
135.6127526348
 20
56.7505875712
 30
0.0
  0
SPLINE
  5
3AD
100
AcDbEntity
  8
0
100
AcDbSpline
 62
7
  6
CONTINUOUS
 70
0
 71
3
 72
10
 73
6
 74
0
 42
0.0000001
 43
0.0000001
 44
0.0000000001
 40
0.0
 40
0.0
 40
0.0
 40
0.0
 40
0.5093603238
 40
0.7560986243
 40
1.0
 40
1.0
 40
1.0
 40
1.0
 10
146.0665135485
 20
51.3162485961
 30
0.0
 10
146.2782643655
 20
51.7720430073
 30
0.0
 10
146.5421621695
 20
52.4764775629
 30
0.0
 10
146.7279562679
 20
53.4474697126
 30
0.0
 10
146.7593338715
 20
53.9321651309
 30
0.0
 10
146.7593338715
 20
54.1728199676
 30
0.0
  0
SPLINE
  5
3AE
100
AcDbEntity
  8
0
100
AcDbSpline
 62
7
  6
CONTINUOUS
 70
0
 71
3
 72
11
 73
7
 74
0
 42
0.0000001
 43
0.0000001
 44
0.0000000001
 40
0.0
 40
0.0
 40
0.0
 40
0.0
 40
0.2554742349
 40
0.5073703995
 40
0.7552316352
 40
1.0
 40
1.0
 40
1.0
 40
1.0
 10
136.0825989452
 20
51.3163080777
 30
0.0
 10
136.0315051429
 20
51.3167191562
 30
0.0
 10
135.9292446003
 20
51.3022389118
 30
0.0
 10
135.7906997303
 20
51.236653499
 30
0.0
 10
135.6795824142
 20
51.1341655571
 30
0.0
 10
135.63001087
 20
51.0468567718
 30
0.0
 10
135.6127526348
 20
51.0010455009
 30
0.0
  0
SPLINE
  5
3AF
100
AcDbEntity
  8
0
100
AcDbSpline
 62
7
  6
CONTINUOUS
 70
0
 71
3
 72
10
 73
6
 74
0
 42
0.0000001
 43
0.0000001
 44
0.0000000001
 40
0.0
 40
0.0
 40
0.0
 40
0.0
 40
0.2439013827
 40
0.4906396903
 40
1.0
 40
1.0
 40
1.0
 40
1.0
 10
146.7593338715
 20
54.1728199676
 30
0.0
 10
146.7593338715
 20
54.4134748113
 30
0.0
 10
146.7279562653
 20
54.8981702435
 30
0.0
 10
146.5421621631
 20
55.8691623924
 30
0.0
 10
146.2782643596
 20
56.5735969404
 30
0.0
 10
146.0665135485
 20
57.0293913389
 30
0.0
  0
SPLINE
  5
3B0
100
AcDbEntity
  8
0
100
AcDbSpline
 62
7
  6
CONTINUOUS
 70
0
 71
3
 72
10
 73
6
 74
0
 42
0.0000001
 43
0.0000001
 44
0.0000000001
 40
0.0
 40
0.0
 40
0.0
 40
0.0
 40
0.5093603238
 40
0.7560986243
 40
1.0
 40
1.0
 40
1.0
 40
1.0
 10
146.0665135485
 20
73.8329090945
 30
0.0
 10
146.2782643655
 20
74.2887035057
 30
0.0
 10
146.5421621695
 20
74.9931380613
 30
0.0
 10
146.7279562679
 20
75.964130211
 30
0.0
 10
146.7593338715
 20
76.4488256293
 30
0.0
 10
146.7593338715
 20
76.689480466
 30
0.0
  0
SPLINE
  5
3B1
100
AcDbEntity
  8
0
100
AcDbSpline
 62
7
  6
CONTINUOUS
 70
0
 71
3
 72
10
 73
6
 74
0
 42
0.0000001
 43
0.0000001
 44
0.0000000001
 40
0.0
 40
0.0
 40
0.0
 40
0.0
 40
0.2439013827
 40
0.4906396903
 40
1.0
 40
1.0
 40
1.0
 40
1.0
 10
146.7593338715
 20
76.689480466
 30
0.0
 10
146.7593338715
 20
76.9301353097
 30
0.0
 10
146.7279562653
 20
77.4148307419
 30
0.0
 10
146.5421621631
 20
78.3858228908
 30
0.0
 10
146.2782643596
 20
79.0902574388
 30
0.0
 10
146.0665135485
 20
79.5460518373
 30
0.0
  0
SPLINE
  5
3B2
100
AcDbEntity
  8
0
100
AcDbSpline
 62
7
  6
CONTINUOUS
 70
0
 71
3
 72
10
 73
6
 74
0
 42
0.0000001
 43
0.0000001
 44
0.0000000001
 40
0.0
 40
0.0
 40
0.0
 40
0.0
 40
0.4999170456
 40
0.7499585154
 40
1.0
 40
1.0
 40
1.0
 40
1.0
 10
146.0665135485
 20
59.7180074739
 30
0.0
 10
146.2839156552
 20
60.65392514
 30
0.0
 10
146.5462946061
 20
62.0748437627
 30
0.0
 10
146.7283974734
 20
63.9891074439
 30
0.0
 10
146.7593338715
 20
64.9505728343
 30
0.0
 10
146.7593338715
 20
65.431150217
 30
0.0
  0
SPLINE
  5
3B3
100
AcDbEntity
  8
0
100
AcDbSpline
 62
7
  6
CONTINUOUS
 70
0
 71
3
 72
10
 73
6
 74
0
 42
0.0000001
 43
0.0000001
 44
0.0000000001
 40
0.0
 40
0.0
 40
0.0
 40
0.0
 40
0.2500414917
 40
0.5000829686
 40
1.0
 40
1.0
 40
1.0
 40
1.0
 10
146.7593338715
 20
65.431150217
 30
0.0
 10
146.7593338715
 20
65.9117276134
 30
0.0
 10
146.7283974708
 20
66.8731930309
 30
0.0
 10
146.5462945998
 20
68.7874567117
 30
0.0
 10
146.283915649
 20
70.2083753201
 30
0.0
 10
146.0665135485
 20
71.1442929595
 30
0.0
  0
SPLINE
  5
3B4
100
AcDbEntity
  8
0
100
AcDbSpline
 62
7
  6
CONTINUOUS
 70
0
 71
3
 72
11
 73
7
 74
0
 42
0.0000001
 43
0.0000001
 44
0.0000000001
 40
0.0
 40
0.0
 40
0.0
 40
0.0
 40
0.2519191169
 40
0.4999914019
 40
0.7480696137
 40
1.0
 40
1.0
 40
1.0
 40
1.0
 10
136.0974755552
 20
73.8329090945
 30
0.0
 10
136.2301584895
 20
74.3005919351
 30
0.0
 10
136.4430254387
 20
75.2447379602
 30
0.0
 10
136.5572276683
 20
76.6894416181
 30
0.0
 10
136.4430162298
 20
78.1341641846
 30
0.0
 10
136.2301668488
 20
79.0783486037
 30
0.0
 10
136.097476116
 20
79.5460518373
 30
0.0
  0
SPLINE
  5
3B5
100
AcDbEntity
  8
0
100
AcDbSpline
 62
7
  6
CONTINUOUS
 70
0
 71
3
 72
13
 73
9
 74
0
 42
0.0000001
 43
0.0000001
 44
0.0000000001
 40
0.0
 40
0.0
 40
0.0
 40
0.0
 40
0.2504663618
 40
0.3743578469
 40
0.4979596453
 40
0.6218575635
 40
0.7465992396
 40
1.0
 40
1.0
 40
1.0
 40
1.0
 10
135.6127526348
 20
74.1117128623
 30
0.0
 10
135.7497136356
 20
74.5790146834
 30
0.0
 10
135.9155692801
 20
75.2905356447
 30
0.0
 10
136.0301988116
 20
76.2526533688
 30
0.0
 10
136.0591848539
 20
76.9749289142
 30
0.0
 10
136.0300731516
 20
77.6988462117
 30
0.0
 10
135.9151454944
 20
78.668905471
 30
0.0
 10
135.7494426505
 20
79.3879326308
 30
0.0
 10
135.6127526348
 20
79.861254916
 30
0.0
  0
SPLINE
  5
3B6
100
AcDbEntity
  8
0
100
AcDbSpline
 62
7
  6
CONTINUOUS
 70
0
 71
3
 72
11
 73
7
 74
0
 42
0.0000001
 43
0.0000001
 44
0.0000000001
 40
0.0
 40
0.0
 40
0.0
 40
0.0
 40
0.2554742367
 40
0.5073704043
 40
0.7552316478
 40
1.0
 40
1.0
 40
1.0
 40
1.0
 10
136.0825989452
 20
79.5459923557
 30
0.0
 10
136.0315051426
 20
79.5455812773
 30
0.0
 10
135.9292445994
 20
79.5600615222
 30
0.0
 10
135.7906997273
 20
79.6256469365
 30
0.0
 10
135.6795824145
 20
79.7281348808
 30
0.0
 10
135.6300108692
 20
79.8154436638
 30
0.0
 10
135.6127526348
 20
79.8612549321
 30
0.0
  0
SPLINE
  5
3B7
100
AcDbEntity
  8
0
100
AcDbSpline
 62
7
  6
CONTINUOUS
 70
0
 71
3
 72
11
 73
7
 74
0
 42
0.0000001
 43
0.0000001
 44
0.0000000001
 40
0.0
 40
0.0
 40
0.0
 40
0.0
 40
0.2703290726
 40
0.5317785002
 40
0.776007469
 40
1.0
 40
1.0
 40
1.0
 40
1.0
 10
136.0825989452
 20
73.8333480382
 30
0.0
 10
136.0313161003
 20
73.8363895904
 30
0.0
 10
135.9307464452
 20
73.8541276626
 30
0.0
 10
135.7940679651
 20
73.9131022389
 30
0.0
 10
135.6831843777
 20
73.9989850738
 30
0.0
 10
135.6306827111
 20
74.0731061088
 30
0.0
 10
135.6127526348
 20
74.1117128623
 30
0.0
  0
SPLINE
  5
3B8
100
AcDbEntity
  8
0
100
AcDbSpline
 62
7
  6
CONTINUOUS
 70
0
 71
3
 72
9
 73
5
 74
0
 42
0.0000001
 43
0.0000001
 44
0.0000000001
 40
0.0
 40
0.0
 40
0.0
 40
0.0
 40
0.4999883328
 40
1.0
 40
1.0
 40
1.0
 40
1.0
 10
136.5193632263
 20
65.4311502167
 30
0.0
 10
136.5193633244
 20
66.3865144456
 30
0.0
 10
136.444478376
 20
68.2979658888
 30
0.0
 10
136.23166022
 20
70.1983539273
 30
0.0
 10
136.0974761965
 20
71.1442929595
 30
0.0
  0
SPLINE
  5
3B9
100
AcDbEntity
  8
0
100
AcDbSpline
 62
7
  6
CONTINUOUS
 70
0
 71
3
 72
9
 73
5
 74
0
 42
0.0000001
 43
0.0000001
 44
0.0000000001
 40
0.0
 40
0.0
 40
0.0
 40
0.0
 40
0.499988031
 40
1.0
 40
1.0
 40
1.0
 40
1.0
 10
136.0495169159
 20
65.4311502167
 30
0.0
 10
136.049516969
 20
66.3927840436
 30
0.0
 10
135.9716079626
 20
68.3168193528
 30
0.0
 10
135.7511835138
 20
70.2290280441
 30
0.0
 10
135.6127526348
 20
71.1806924064
 30
0.0
  0
SPLINE
  5
3BA
100
AcDbEntity
  8
0
100
AcDbSpline
 62
7
  6
CONTINUOUS
 70
0
 71
3
 72
12
 73
8
 74
0
 42
0.0000001
 43
0.0000001
 44
0.0000000001
 40
0.0
 40
0.0
 40
0.0
 40
0.0
 40
0.3199398633
 40
0.6078611088
 40
0.8398206773
 40
0.9295345518
 40
1.0
 40
1.0
 40
1.0
 40
1.0
 10
136.0825989452
 20
71.1437948104
 30
0.0
 10
136.0321006976
 20
71.140393339
 30
0.0
 10
135.9359076469
 20
71.1368903698
 30
0.0
 10
135.8030646053
 20
71.1411465023
 30
0.0
 10
135.7069804147
 20
71.1523394167
 30
0.0
 10
135.6466357043
 20
71.1669308767
 30
0.0
 10
135.6227179448
 20
71.1756973132
 30
0.0
 10
135.6127526348
 20
71.1806926561
 30
0.0
  0
SPLINE
  5
3BB
100
AcDbEntity
  8
0
100
AcDbSpline
 62
7
  6
CONTINUOUS
 70
0
 71
3
 72
9
 73
5
 74
0
 42
0.0000001
 43
0.0000001
 44
0.0000000001
 40
0.0
 40
0.0
 40
0.0
 40
0.0
 40
0.5000116672
 40
1.0
 40
1.0
 40
1.0
 40
1.0
 10
136.0974761976
 20
59.7180074739
 30
0.0
 10
136.2316602186
 20
60.6639465065
 30
0.0
 10
136.4444783766
 20
62.5643345445
 30
0.0
 10
136.5193633243
 20
64.4757859878
 30
0.0
 10
136.5193632263
 20
65.4311502167
 30
0.0
  0
SPLINE
  5
3BC
100
AcDbEntity
  8
0
100
AcDbSpline
 62
7
  6
CONTINUOUS
 70
0
 71
3
 72
12
 73
8
 74
0
 42
0.0000001
 43
0.0000001
 44
0.0000000001
 40
0.0
 40
0.0
 40
0.0
 40
0.0
 40
0.3199398618
 40
0.6078611056
 40
0.8398206709
 40
0.9295345486
 40
1.0
 40
1.0
 40
1.0
 40
1.0
 10
136.0825989452
 20
59.7185056229
 30
0.0
 10
136.0321006977
 20
59.7219070946
 30
0.0
 10
135.935907647
 20
59.7254100652
 30
0.0
 10
135.8030646066
 20
59.7211539304
 30
0.0
 10
135.7069804142
 20
59.7099610269
 30
0.0
 10
135.6466357043
 20
59.6953695598
 30
0.0
 10
135.6227179453
 20
59.6866031195
 30
0.0
 10
135.6127526348
 20
59.6816077764
 30
0.0
  0
SPLINE
  5
3BD
100
AcDbEntity
  8
0
100
AcDbSpline
 62
7
  6
CONTINUOUS
 70
0
 71
3
 72
10
 73
6
 74
0
 42
0.0000001
 43
0.0000001
 44
0.0000000001
 40
0.0
 40
0.0
 40
0.0
 40
0.0
 40
0.5093524587
 40
0.7560997056
 40
1.0
 40
1.0
 40
1.0
 40
1.0
 10
98.4521541946
 20
57.0293913389
 30
0.0
 10
98.240407114
 20
56.5736049704
 30
0.0
 10
97.9765215082
 20
55.869164048
 30
0.0
 10
97.7907506787
 20
54.8981728691
 30
0.0
 10
97.7593338715
 20
54.4134732071
 30
0.0
 10
97.7593338715
 20
54.1728199677
 30
0.0
  0
SPLINE
  5
3BE
100
AcDbEntity
  8
0
100
AcDbSpline
 62
7
  6
CONTINUOUS
 70
0
 71
3
 72
10
 73
6
 74
0
 42
0.0000001
 43
0.0000001
 44
0.0000000001
 40
0.0
 40
0.0
 40
0.0
 40
0.0
 40
0.243900316
 40
0.4906475817
 40
1.0
 40
1.0
 40
1.0
 40
1.0
 10
97.7593338715
 20
54.1728199677
 30
0.0
 10
97.7593338715
 20
53.9321667071
 30
0.0
 10
97.790750792
 20
53.447467016
 30
0.0
 10
97.9765214216
 20
52.4764758039
 30
0.0
 10
98.2404071309
 20
51.7720349281
 30
0.0
 10
98.4521541946
 20
51.3162485961
 30
0.0
  0
SPLINE
  5
3BF
100
AcDbEntity
  8
0
100
AcDbSpline
 62
7
  6
CONTINUOUS
 70
0
 71
3
 72
9
 73
5
 74
0
 42
0.0000001
 43
0.0000001
 44
0.0000000001
 40
0.0
 40
0.0
 40
0.0
 40
0.0
 40
0.5000379142
 40
1.0
 40
1.0
 40
1.0
 40
1.0
 10
98.4521541946
 20
71.1442929595
 30
0.0
 10
98.2347522283
 20
70.2083758981
 30
0.0
 10
97.8847036356
 20
68.3151750872
 30
0.0
 10
97.7593338715
 20
66.3918397517
 30
0.0
 10
97.7593338715
 20
65.4311502167
 30
0.0
  0
SPLINE
  5
3C0
100
AcDbEntity
  8
0
100
AcDbSpline
 62
7
  6
CONTINUOUS
 70
0
 71
3
 72
9
 73
5
 74
0
 42
0.0000001
 43
0.0000001
 44
0.0000000001
 40
0.0
 40
0.0
 40
0.0
 40
0.0
 40
0.4999620995
 40
1.0
 40
1.0
 40
1.0
 40
1.0
 10
97.7593338715
 20
65.4311502167
 30
0.0
 10
97.7593338715
 20
64.4704606554
 30
0.0
 10
97.8847036399
 20
62.5471253198
 30
0.0
 10
98.2347522343
 20
60.6539245096
 30
0.0
 10
98.4521541946
 20
59.7180074739
 30
0.0
  0
SPLINE
  5
3C1
100
AcDbEntity
  8
0
100
AcDbSpline
 62
7
  6
CONTINUOUS
 70
0
 71
3
 72
10
 73
6
 74
0
 42
0.0000001
 43
0.0000001
 44
0.0000000001
 40
0.0
 40
0.0
 40
0.0
 40
0.0
 40
0.5093524587
 40
0.7560997056
 40
1.0
 40
1.0
 40
1.0
 40
1.0
 10
98.4521541946
 20
79.5460518373
 30
0.0
 10
98.240407114
 20
79.0902654688
 30
0.0
 10
97.9765215082
 20
78.3858245464
 30
0.0
 10
97.7907506787
 20
77.4148333675
 30
0.0
 10
97.7593338715
 20
76.9301337054
 30
0.0
 10
97.7593338715
 20
76.6894804661
 30
0.0
  0
SPLINE
  5
3C2
100
AcDbEntity
  8
0
100
AcDbSpline
 62
7
  6
CONTINUOUS
 70
0
 71
3
 72
10
 73
6
 74
0
 42
0.0000001
 43
0.0000001
 44
0.0000000001
 40
0.0
 40
0.0
 40
0.0
 40
0.0
 40
0.243900316
 40
0.4906475817
 40
1.0
 40
1.0
 40
1.0
 40
1.0
 10
97.7593338715
 20
76.6894804661
 30
0.0
 10
97.7593338715
 20
76.4488272055
 30
0.0
 10
97.790750792
 20
75.9641275144
 30
0.0
 10
97.9765214216
 20
74.9931363023
 30
0.0
 10
98.2404071309
 20
74.2886954265
 30
0.0
 10
98.4521541946
 20
73.8329090945
 30
0.0
  0
SPLINE
  5
3C3
100
AcDbEntity
  8
0
100
AcDbSpline
 62
7
  6
CONTINUOUS
 70
0
 71
3
 72
12
 73
8
 74
0
 42
0.0000001
 43
0.0000001
 44
0.0000000001
 40
0.0
 40
0.0
 40
0.0
 40
0.0
 40
0.2331020532
 40
0.4845053107
 40
0.6141485217
 40
0.7443422444
 40
1.0
 40
1.0
 40
1.0
 40
1.0
 10
116.3806542151
 20
77.5688482927
 30
0.0
 10
117.0366024977
 20
77.2912778551
 30
0.0
 10
118.4287207598
 20
76.7784746304
 30
0.0
 10
120.2697745895
 20
76.371521215
 30
0.0
 10
121.8288552352
 20
76.242576754
 30
0.0
 10
123.4058459103
 20
76.2633240879
 30
0.0
 10
124.5784095665
 20
76.4476816467
 30
0.0
 10
125.338013528
 20
76.6300107943
 30
0.0
  0
SPLINE
  5
3C4
100
AcDbEntity
  8
0
100
AcDbSpline
 62
7
  6
CONTINUOUS
 70
0
 71
3
 72
10
 73
6
 74
0
 42
0.0000001
 43
0.0000001
 44
0.0000000001
 40
0.0
 40
0.0
 40
0.0
 40
0.0
 40
0.2210664754
 40
0.4699051005
 40
1.0
 40
1.0
 40
1.0
 40
1.0
 10
116.3806542147
 20
77.5688416191
 30
0.0
 10
116.446497427
 20
77.6095038687
 30
0.0
 10
116.5744306639
 20
77.7157435352
 30
0.0
 10
116.7964938599
 20
77.9877029064
 30
0.0
 10
116.9158172869
 20
78.2397149052
 30
0.0
 10
116.9685243315
 20
78.417638368
 30
0.0
  0
SPLINE
  5
3C5
100
AcDbEntity
  8
0
100
AcDbSpline
 62
7
  6
CONTINUOUS
 70
0
 71
3
 72
13
 73
9
 74
0
 42
0.0000001
 43
0.0000001
 44
0.0000000001
 40
0.0
 40
0.0
 40
0.0
 40
0.0
 40
0.2317348703
 40
0.4828051054
 40
0.6128537039
 40
0.7435845761
 40
0.873211095
 40
1.0
 40
1.0
 40
1.0
 40
1.0
 10
116.9685221807
 20
78.417638368
 30
0.0
 10
117.5432356593
 20
78.128538759
 30
0.0
 10
118.7729598304
 20
77.5870433302
 30
0.0
 10
120.427045723
 20
77.1440138163
 30
0.0
 10
121.8434905447
 20
76.9992588216
 30
0.0
 10
122.9297414577
 20
77.014067713
 30
0.0
 10
123.997780786
 20
77.1520035143
 30
0.0
 10
124.6916713323
 20
77.3165634325
 30
0.0
 10
125.0301455623
 20
77.4131478977
 30
0.0
  0
SPLINE
  5
3C6
100
AcDbEntity
  8
0
100
AcDbSpline
 62
7
  6
CONTINUOUS
 70
0
 71
3
 72
10
 73
6
 74
0
 42
0.0000001
 43
0.0000001
 44
0.0000000001
 40
0.0
 40
0.0
 40
0.0
 40
0.0
 40
0.4533321434
 40
0.7143204039
 40
1.0
 40
1.0
 40
1.0
 40
1.0
 10
115.3199940433
 20
77.861759033
 30
0.0
 10
115.482721754
 20
77.9127172055
 30
0.0
 10
115.7701443317
 20
77.8822118179
 30
0.0
 10
116.1159987712
 20
77.7385879052
 30
0.0
 10
116.2928489738
 20
77.6307951431
 30
0.0
 10
116.3806542151
 20
77.5688482927
 30
0.0
  0
SPLINE
  5
3C7
100
AcDbEntity
  8
0
100
AcDbSpline
 62
7
  6
CONTINUOUS
 70
0
 71
3
 72
9
 73
5
 74
0
 42
0.0000001
 43
0.0000001
 44
0.0000000001
 40
0.0
 40
0.0
 40
0.0
 40
0.0
 40
0.4728429954
 40
1.0
 40
1.0
 40
1.0
 40
1.0
 10
115.3200543527
 20
77.8617049336
 30
0.0
 10
115.3662596624
 20
77.952446094
 30
0.0
 10
115.4206538893
 20
78.1670892339
 30
0.0
 10
115.4019558468
 20
78.3850381156
 30
0.0
 10
115.3775644007
 20
78.495911204
 30
0.0
  0
SPLINE
  5
3C8
100
AcDbEntity
  8
0
100
AcDbSpline
 62
7
  6
CONTINUOUS
 70
0
 71
3
 72
11
 73
7
 74
0
 42
0.0000001
 43
0.0000001
 44
0.0000000001
 40
0.0
 40
0.0
 40
0.0
 40
0.0
 40
0.2325907975
 40
0.4719060163
 40
0.7268761312
 40
1.0
 40
1.0
 40
1.0
 40
1.0
 10
115.3775319231
 20
78.4959112075
 30
0.0
 10
115.4881597234
 20
78.5610521165
 30
0.0
 10
115.7374693752
 20
78.6540578513
 30
0.0
 10
116.1427044453
 20
78.6753384643
 30
0.0
 10
116.5620327194
 20
78.5956389381
 30
0.0
 10
116.8338405262
 20
78.4853713003
 30
0.0
 10
116.9685221807
 20
78.417638368
 30
0.0
  0
SPLINE
  5
3C9
100
AcDbEntity
  8
0
100
AcDbSpline
 62
7
  6
CONTINUOUS
 70
0
 71
3
 72
9
 73
5
 74
0
 42
0.0000001
 43
0.0000001
 44
0.0000000001
 40
0.0
 40
0.0
 40
0.0
 40
0.0
 40
0.2101718617
 40
1.0
 40
1.0
 40
1.0
 40
1.0
 10
113.8982410951
 20
77.2132469492
 30
0.0
 10
114.0012695176
 20
77.2504348368
 30
0.0
 10
114.488104663
 20
77.4366598338
 30
0.0
 10
114.9589303432
 20
77.6640885775
 30
0.0
 10
115.3199940433
 20
77.861759033
 30
0.0
  0
SPLINE
  5
3CA
100
AcDbEntity
  8
0
100
AcDbSpline
 62
7
  6
CONTINUOUS
 70
0
 71
3
 72
9
 73
5
 74
0
 42
0.0000001
 43
0.0000001
 44
0.0000000001
 40
0.0
 40
0.0
 40
0.0
 40
0.0
 40
0.4908479954
 40
1.0
 40
1.0
 40
1.0
 40
1.0
 10
113.8986751609
 20
77.2134379592
 30
0.0
 10
113.9702584765
 20
77.3050021816
 30
0.0
 10
114.0796971032
 20
77.5221214687
 30
0.0
 10
114.1053574654
 20
77.7628415075
 30
0.0
 10
114.0983503084
 20
77.8831964729
 30
0.0
  0
SPLINE
  5
3CB
100
AcDbEntity
  8
0
100
AcDbSpline
 62
7
  6
CONTINUOUS
 70
0
 71
3
 72
9
 73
5
 74
0
 42
0.0000001
 43
0.0000001
 44
0.0000000001
 40
0.0
 40
0.0
 40
0.0
 40
0.0
 40
0.207564642
 40
1.0
 40
1.0
 40
1.0
 40
1.0
 10
114.0983436139
 20
77.8831964729
 30
0.0
 10
114.1906272534
 20
77.9167859436
 30
0.0
 10
114.6315021806
 20
78.0887936025
 30
0.0
 10
115.0544023203
 20
78.305752895
 30
0.0
 10
115.3775319231
 20
78.4959112075
 30
0.0
  0
SPLINE
  5
3CC
100
AcDbEntity
  8
0
100
AcDbSpline
 62
7
  6
CONTINUOUS
 70
0
 71
3
 72
9
 73
5
 74
0
 42
0.0000001
 43
0.0000001
 44
0.0000000001
 40
0.0
 40
0.0
 40
0.0
 40
0.0
 40
0.4941983947
 40
1.0
 40
1.0
 40
1.0
 40
1.0
 10
112.838013528
 20
77.0252784721
 30
0.0
 10
113.0150116001
 20
76.9844103262
 30
0.0
 10
113.3908028699
 20
76.960605743
 30
0.0
 10
113.750178295
 20
77.1006867377
 30
0.0
 10
113.8982410787
 20
77.2131307704
 30
0.0
  0
SPLINE
  5
3CD
100
AcDbEntity
  8
0
100
AcDbSpline
 62
7
  6
CONTINUOUS
 70
0
 71
3
 72
11
 73
7
 74
0
 42
0.0000001
 43
0.0000001
 44
0.0000000001
 40
0.0
 40
0.0
 40
0.0
 40
0.0
 40
0.2448091642
 40
0.4962519849
 40
0.7498218315
 40
1.0
 40
1.0
 40
1.0
 40
1.0
 10
112.838013528
 20
77.0252786042
 30
0.0
 10
112.9562597484
 20
77.0357620806
 30
0.0
 10
113.1937000765
 20
77.10365367
 30
0.0
 10
113.492804566
 20
77.3222648248
 30
0.0
 10
113.7047185446
 20
77.6290983092
 30
0.0
 10
113.7699549981
 20
77.8705710911
 30
0.0
 10
113.7801455853
 20
77.9914558267
 30
0.0
  0
SPLINE
  5
3CE
100
AcDbEntity
  8
0
100
AcDbSpline
 62
7
  6
CONTINUOUS
 70
0
 71
3
 72
12
 73
8
 74
0
 42
0.0000001
 43
0.0000001
 44
0.0000000001
 40
0.0
 40
0.0
 40
0.0
 40
0.0
 40
0.2538401498
 40
0.4411974685
 40
0.6257109051
 40
0.8092772968
 40
1.0
 40
1.0
 40
1.0
 40
1.0
 10
113.7801455623
 20
77.9914558267
 30
0.0
 10
113.8028951078
 20
77.9724968203
 30
0.0
 10
113.8441971602
 20
77.9415147217
 30
0.0
 10
113.9077071125
 20
77.9051994486
 30
0.0
 10
113.9682030877
 20
77.881149535
 30
0.0
 10
114.0329316151
 20
77.8694872809
 30
0.0
 10
114.0774323419
 20
77.8755938292
 30
0.0
 10
114.0983436139
 20
77.8831964729
 30
0.0
  0
SPLINE
  5
3CF
100
AcDbEntity
  8
0
100
AcDbSpline
 62
7
  6
CONTINUOUS
 70
0
 71
3
 72
18
 73
14
 74
0
 42
0.0000001
 43
0.0000001
 44
0.0000000001
 40
0.0
 40
0.0
 40
0.0
 40
0.0
 40
0.0041044404
 40
0.0163361036
 40
0.0366541791
 40
0.0650178541
 40
0.10138632
 40
0.1457107113
 40
0.2578163686
 40
0.400420226
 40
0.5725475326
 40
0.7728940629
 40
1.0
 40
1.0
 40
1.0
 40
1.0
 10
112.2593338715
 20
77.4311502167
 30
0.0
 10
112.2602740191
 20
77.4309237195
 30
0.0
 10
112.2630505451
 20
77.4278953643
 30
0.0
 10
112.2704408315
 20
77.4236660284
 30
0.0
 10
112.2819465241
 20
77.4149220523
 30
0.0
 10
112.2983784416
 20
77.4035216981
 30
0.0
 10
112.3193085695
 20
77.3885899556
 30
0.0
 10
112.3563962825
 20
77.3623738274
 30
0.0
 10
112.4139233916
 20
77.3216889842
 30
0.0
 10
112.4961472306
 20
77.2637878002
 30
0.0
 10
112.5954847156
 20
77.194075098
 30
0.0
 10
112.7113024487
 20
77.1131890963
 30
0.0
 10
112.7940220921
 20
77.0557399242
 30
0.0
 10
112.838013528
 20
77.0252784721
 30
0.0
  0
SPLINE
  5
3D0
100
AcDbEntity
  8
0
100
AcDbSpline
 62
7
  6
CONTINUOUS
 70
0
 71
3
 72
18
 73
14
 74
0
 42
0.0000001
 43
0.0000001
 44
0.0000000001
 40
0.0
 40
0.0
 40
0.0
 40
0.0
 40
0.0041034139
 40
0.0163307354
 40
0.0366417472
 40
0.0649962245
 40
0.101353943
 40
0.1456667341
 40
0.2577500207
 40
0.4003376716
 40
0.5724619041
 40
0.772831025
 40
1.0
 40
1.0
 40
1.0
 40
1.0
 10
113.2593338715
 20
78.4311502167
 30
0.0
 10
113.2597252339
 20
78.4303040389
 30
0.0
 10
113.263304238
 20
78.4284634787
 30
0.0
 10
113.268900373
 20
78.4225028116
 30
0.0
 10
113.2798367883
 20
78.4138315531
 30
0.0
 10
113.294348626
 20
78.4011549459
 30
0.0
 10
113.3132677218
 20
78.3851359146
 30
0.0
 10
113.3465660985
 20
78.356704967
 30
0.0
 10
113.3983279866
 20
78.3127059227
 30
0.0
 10
113.4722781016
 20
78.2499865384
 30
0.0
 10
113.5616793074
 20
78.1744687365
 30
0.0
 10
113.6659653925
 20
78.0867947491
 30
0.0
 10
113.7404953028
 20
78.0244975583
 30
0.0
 10
113.7801455623
 20
77.9914558267
 30
0.0
  0
SPLINE
  5
3D1
100
AcDbEntity
  8
0
100
AcDbSpline
 62
7
  6
CONTINUOUS
 70
0
 71
3
 72
24
 73
20
 74
0
 42
0.0000001
 43
0.0000001
 44
0.0000000001
 40
0.0
 40
0.0
 40
0.0
 40
0.0
 40
0.2041262556
 40
0.3928959215
 40
0.5630421634
 40
0.6400701536
 40
0.7110709586
 40
0.7755109939
 40
0.8328516862
 40
0.8825506927
 40
0.9240711227
 40
0.9569467828
 40
0.9700087865
 40
0.9807502357
 40
0.9891387
 40
0.9951554544
 40
0.9972686731
 40
0.9987820424
 40
1.0
 40
1.0
 40
1.0
 40
1.0
 10
127.7806542151
 20
78.8067139924
 30
0.0
 10
128.0979308917
 20
78.9222800941
 30
0.0
 10
128.7034443737
 20
79.1591380288
 30
0.0
 10
129.5568787801
 20
79.5325944419
 30
0.0
 10
130.2080571136
 20
79.8427064638
 30
0.0
 10
130.6787712511
 20
80.0782057614
 30
0.0
 10
130.9913302068
 20
80.2389610212
 30
0.0
 10
131.2734976284
 20
80.3875629531
 30
0.0
 10
131.5233911751
 20
80.5218024361
 30
0.0
 10
131.7390398724
 20
80.6396563629
 30
0.0
 10
131.9186177191
 20
80.7391159267
 30
0.0
 10
132.0448575081
 20
80.80978352
 30
0.0
 10
132.1265233702
 20
80.855848112
 30
0.0
 10
132.1728899664
 20
80.8820287326
 30
0.0
 10
132.2090448979
 20
80.902627146
 30
0.0
 10
132.2328739763
 20
80.9159459149
 30
0.0
 10
132.2466432246
 20
80.9240772111
 30
0.0
 10
132.2537747436
 20
80.9276174745
 30
0.0
 10
132.2573743673
 20
80.9306815903
 30
0.0
 10
132.2593338715
 20
80.9311502167
 30
0.0
  0
SPLINE
  5
3D2
100
AcDbEntity
  8
0
100
AcDbSpline
 62
7
  6
CONTINUOUS
 70
0
 71
3
 72
11
 73
7
 74
0
 42
0.0000001
 43
0.0000001
 44
0.0000000001
 40
0.0
 40
0.0
 40
0.0
 40
0.0
 40
0.2156799291
 40
0.462648573
 40
0.7291919696
 40
1.0
 40
1.0
 40
1.0
 40
1.0
 10
127.7806542149
 20
78.8067091763
 30
0.0
 10
127.71801594
 20
78.8479540275
 30
0.0
 10
127.596804691
 20
78.956451133
 30
0.0
 10
127.4433952855
 20
79.1596914758
 30
0.0
 10
127.3156612555
 20
79.4018501919
 30
0.0
 10
127.2530283991
 20
79.5787314669
 30
0.0
 10
127.2285194235
 20
79.6696535908
 30
0.0
  0
SPLINE
  5
3D3
100
AcDbEntity
  8
0
100
AcDbSpline
 62
7
  6
CONTINUOUS
 70
0
 71
3
 72
26
 73
22
 74
0
 42
0.0000001
 43
0.0000001
 44
0.0000000001
 40
0.0
 40
0.0
 40
0.0
 40
0.0
 40
0.2052984058
 40
0.3946040281
 40
0.5648011174
 40
0.6417212028
 40
0.7125484965
 40
0.776769123
 40
0.833863537
 40
0.8833083142
 40
0.9245862941
 40
0.9420210561
 40
0.9572507091
 40
0.9702235099
 40
0.9808894554
 40
0.9892182041
 40
0.9951915597
 40
0.9972893333
 40
0.9987914998
 40
0.9996958058
 40
1.0
 40
1.0
 40
1.0
 40
1.0
 10
127.2285221807
 20
79.6696535909
 30
0.0
 10
127.5194002716
 20
79.7949748056
 30
0.0
 10
128.0720554658
 20
80.0510335462
 30
0.0
 10
128.8457029835
 20
80.4523813689
 30
0.0
 10
129.4321338451
 20
80.7834202665
 30
0.0
 10
129.8540909449
 20
81.0335467077
 30
0.0
 10
130.1333637946
 20
81.203696759
 30
0.0
 10
130.3848896314
 20
81.3605653655
 30
0.0
 10
130.6071881042
 20
81.5019386553
 30
0.0
 10
130.798666243
 20
81.6258017322
 30
0.0
 10
130.9382249512
 20
81.7172694759
 30
0.0
 10
131.0333881118
 20
81.7801750114
 30
0.0
 10
131.0920387877
 20
81.8191288459
 30
0.0
 10
131.1419190658
 20
81.8524070365
 30
0.0
 10
131.1829343501
 20
81.8798052684
 30
0.0
 10
131.2148861084
 20
81.9012898504
 30
0.0
 10
131.2359908361
 20
81.9153071344
 30
0.0
 10
131.2481080031
 20
81.9236725905
 30
0.0
 10
131.2540939743
 20
81.9273600439
 30
0.0
 10
131.2571621193
 20
81.9300499628
 30
0.0
 10
131.2591187352
 20
81.9307331344
 30
0.0
 10
131.2593338715
 20
81.9311502167
 30
0.0
  0
SPLINE
  5
3D4
100
AcDbEntity
  8
0
100
AcDbSpline
 62
7
  6
CONTINUOUS
 70
0
 71
3
 72
9
 73
5
 74
0
 42
0.0000001
 43
0.0000001
 44
0.0000000001
 40
0.0
 40
0.0
 40
0.0
 40
0.0
 40
0.2680955608
 40
1.0
 40
1.0
 40
1.0
 40
1.0
 10
126.7199940433
 20
77.6149604179
 30
0.0
 10
126.7852945408
 20
77.7427942338
 30
0.0
 10
127.0567172678
 20
78.2038744635
 30
0.0
 10
127.4457175498
 20
78.6032669632
 30
0.0
 10
127.7806542151
 20
78.8067139924
 30
0.0
  0
SPLINE
  5
3D5
100
AcDbEntity
  8
0
100
AcDbSpline
 62
7
  6
CONTINUOUS
 70
0
 71
3
 72
12
 73
8
 74
0
 42
0.0000001
 43
0.0000001
 44
0.0000000001
 40
0.0
 40
0.0
 40
0.0
 40
0.0
 40
0.079136038
 40
0.1781699688
 40
0.4243434867
 40
0.7100112329
 40
1.0
 40
1.0
 40
1.0
 40
1.0
 10
126.7200216451
 20
77.6149380846
 30
0.0
 10
126.6878657355
 20
77.6197295418
 30
0.0
 10
126.616550583
 20
77.6374095582
 30
0.0
 10
126.4521274369
 20
77.695675895
 30
0.0
 10
126.2179954647
 20
77.80841123
 30
0.0
 10
125.9268506004
 20
77.9797642506
 30
0.0
 10
125.7323572893
 20
78.1148742831
 30
0.0
 10
125.6375353533
 20
78.1869974142
 30
0.0
  0
SPLINE
  5
3D6
100
AcDbEntity
  8
0
100
AcDbSpline
 62
7
  6
CONTINUOUS
 70
0
 71
3
 72
9
 73
5
 74
0
 42
0.0000001
 43
0.0000001
 44
0.0000000001
 40
0.0
 40
0.0
 40
0.0
 40
0.0
 40
0.5170685613
 40
1.0
 40
1.0
 40
1.0
 40
1.0
 10
125.6375319231
 20
78.1869974147
 30
0.0
 10
125.8298922192
 20
78.5140331324
 30
0.0
 10
126.2860626748
 20
79.1016191852
 30
0.0
 10
126.9030882238
 20
79.5294141514
 30
0.0
 10
127.2285221807
 20
79.6696535909
 30
0.0
  0
SPLINE
  5
3D7
100
AcDbEntity
  8
0
100
AcDbSpline
 62
7
  6
CONTINUOUS
 70
0
 71
3
 72
12
 73
8
 74
0
 42
0.0000001
 43
0.0000001
 44
0.0000000001
 40
0.0
 40
0.0
 40
0.0
 40
0.0
 40
0.0795787336
 40
0.1787169368
 40
0.4242449377
 40
0.7091528492
 40
1.0
 40
1.0
 40
1.0
 40
1.0
 10
126.3986736958
 20
77.1324548225
 30
0.0
 10
126.3675246375
 20
77.1386186252
 30
0.0
 10
126.2987441789
 20
77.1582010747
 30
0.0
 10
126.1403899372
 20
77.2182717433
 30
0.0
 10
125.9145742715
 20
77.3294930704
 30
0.0
 10
125.6319204253
 20
77.4956199646
 30
0.0
 10
125.4417968481
 20
77.625006127
 30
0.0
 10
125.3483436145
 20
77.6938145498
 30
0.0
  0
SPLINE
  5
3D8
100
AcDbEntity
  8
0
100
AcDbSpline
 62
7
  6
CONTINUOUS
 70
0
 71
3
 72
9
 73
5
 74
0
 42
0.0000001
 43
0.0000001
 44
0.0000000001
 40
0.0
 40
0.0
 40
0.0
 40
0.0
 40
0.502135597
 40
1.0
 40
1.0
 40
1.0
 40
1.0
 10
125.338013528
 20
76.6300107943
 30
0.0
 10
125.5370030684
 20
76.6460681616
 30
0.0
 10
125.9303301367
 20
76.7529519308
 30
0.0
 10
126.2607969265
 20
76.9904353033
 30
0.0
 10
126.3986736997
 20
77.1324548193
 30
0.0
  0
SPLINE
  5
3D9
100
AcDbEntity
  8
0
100
AcDbSpline
 62
7
  6
CONTINUOUS
 70
0
 71
3
 72
10
 73
6
 74
0
 42
0.0000001
 43
0.0000001
 44
0.0000000001
 40
0.0
 40
0.0
 40
0.0
 40
0.0
 40
0.2112354278
 40
0.4563269284
 40
1.0
 40
1.0
 40
1.0
 40
1.0
 10
125.3380135188
 20
76.6300379125
 30
0.0
 10
125.3050843071
 20
76.6795790546
 30
0.0
 10
125.2422397038
 20
76.792118969
 30
0.0
 10
125.1293680146
 20
77.0503434646
 30
0.0
 10
125.064815409
 20
77.264019705
 30
0.0
 10
125.0301451351
 20
77.4131478976
 30
0.0
  0
SPLINE
  5
3DA
100
AcDbEntity
  8
0
100
AcDbSpline
 62
7
  6
CONTINUOUS
 70
0
 71
3
 72
9
 73
5
 74
0
 42
0.0000001
 43
0.0000001
 44
0.0000000001
 40
0.0
 40
0.0
 40
0.0
 40
0.0
 40
0.2485632221
 40
1.0
 40
1.0
 40
1.0
 40
1.0
 10
125.0301455623
 20
77.4131478977
 30
0.0
 10
125.0644632563
 20
77.4229546178
 30
0.0
 10
125.1964563407
 20
77.4840004477
 30
0.0
 10
125.2938861604
 20
77.6006658951
 30
0.0
 10
125.3483436139
 20
77.6938145498
 30
0.0
  0
SPLINE
  5
3DB
100
AcDbEntity
  8
0
100
AcDbSpline
 62
7
  6
CONTINUOUS
 70
0
 71
3
 72
13
 73
9
 74
0
 42
0.0000001
 43
0.0000001
 44
0.0000000001
 40
0.0
 40
0.0
 40
0.0
 40
0.0
 40
0.2549813311
 40
0.378252329
 40
0.5000000201
 40
0.6217478485
 40
0.7450188774
 40
1.0
 40
1.0
 40
1.0
 40
1.0
 10
107.6752430185
 20
51.3162485961
 30
0.0
 10
107.8935167004
 20
51.771003931
 30
0.0
 10
108.1670146675
 20
52.474431775
 30
0.0
 10
108.3605504259
 20
53.4467061416
 30
0.0
 10
108.4095859469
 20
54.1728204391
 30
0.0
 10
108.3605492194
 20
54.8989345627
 30
0.0
 10
108.1670165817
 20
55.8712094938
 30
0.0
 10
107.8935166247
 20
56.5746364251
 30
0.0
 10
107.6752430185
 20
57.0293913389
 30
0.0
  0
SPLINE
  5
3DC
100
AcDbEntity
  8
0
100
AcDbSpline
 62
7
  6
CONTINUOUS
 70
0
 71
3
 72
9
 73
5
 74
0
 42
0.0000001
 43
0.0000001
 44
0.0000000001
 40
0.0
 40
0.0
 40
0.0
 40
0.0
 40
0.5231729878
 40
1.0
 40
1.0
 40
1.0
 40
1.0
 10
107.7004881447
 20
57.0306323591
 30
0.0
 10
107.7876275292
 20
57.0393193351
 30
0.0
 10
107.9523733388
 20
57.088000214
 30
0.0
 10
108.0873185606
 20
57.197922264
 30
0.0
 10
108.1335008466
 20
57.263017753
 30
0.0
  0
SPLINE
  5
3DD
100
AcDbEntity
  8
0
100
AcDbSpline
 62
7
  6
CONTINUOUS
 70
0
 71
3
 72
13
 73
9
 74
0
 42
0.0000001
 43
0.0000001
 44
0.0000000001
 40
0.0
 40
0.0
 40
0.0
 40
0.0
 40
0.252517921
 40
0.3752265202
 40
0.4969440219
 40
0.6191235866
 40
0.7431397216
 40
1.0
 40
1.0
 40
1.0
 40
1.0
 10
108.1335008466
 20
51.5535614459
 30
0.0
 10
108.3457055835
 20
52.0041099124
 30
0.0
 10
108.6098751263
 20
52.7021682396
 30
0.0
 10
108.7951351057
 20
53.6666893922
 30
0.0
 10
108.841906274
 20
54.3902460295
 30
0.0
 10
108.7948048524
 20
55.1163370896
 30
0.0
 10
108.6089202053
 20
56.0929477713
 30
0.0
 10
108.3452678413
 20
56.8028188409
 30
0.0
 10
108.1335008466
 20
57.263017753
 30
0.0
  0
SPLINE
  5
3DE
100
AcDbEntity
  8
0
100
AcDbSpline
 62
7
  6
CONTINUOUS
 70
0
 71
3
 72
9
 73
5
 74
0
 42
0.0000001
 43
0.0000001
 44
0.0000000001
 40
0.0
 40
0.0
 40
0.0
 40
0.0
 40
0.5066555755
 40
1.0
 40
1.0
 40
1.0
 40
1.0
 10
107.7004881447
 20
51.316080404
 30
0.0
 10
107.7868200025
 20
51.3149146301
 30
0.0
 10
107.9610692564
 20
51.3567992677
 30
0.0
 10
108.090375323
 20
51.4813937046
 30
0.0
 10
108.1335008466
 20
51.5535614459
 30
0.0
  0
SPLINE
  5
3DF
100
AcDbEntity
  8
0
100
AcDbSpline
 62
7
  6
CONTINUOUS
 70
0
 71
3
 72
11
 73
7
 74
0
 42
0.0000001
 43
0.0000001
 44
0.0000000001
 40
0.0
 40
0.0
 40
0.0
 40
0.0
 40
0.25002077
 40
0.5000000058
 40
0.7499792811
 40
1.0
 40
1.0
 40
1.0
 40
1.0
 10
107.6752430185
 20
59.7180074739
 30
0.0
 10
107.8996140399
 20
60.6529245057
 30
0.0
 10
108.2624942983
 20
62.5454253206
 30
0.0
 10
108.4587098668
 20
65.4311504428
 30
0.0
 10
108.2624952819
 20
68.3168755402
 30
0.0
 10
107.8996139881
 20
70.209376117
 30
0.0
 10
107.6752430185
 20
71.1442929595
 30
0.0
  0
SPLINE
  5
3E0
100
AcDbEntity
  8
0
100
AcDbSpline
 62
7
  6
CONTINUOUS
 70
0
 71
3
 72
10
 73
6
 74
0
 42
0.0000001
 43
0.0000001
 44
0.0000000001
 40
0.0
 40
0.0
 40
0.0
 40
0.0
 40
0.5791513539
 40
0.8162909869
 40
1.0
 40
1.0
 40
1.0
 40
1.0
 10
107.7004881447
 20
71.1457021722
 30
0.0
 10
107.7838711898
 20
71.1551406287
 30
0.0
 10
107.9023558655
 20
71.1629576692
 30
0.0
 10
108.0471482376
 20
71.1563441288
 30
0.0
 10
108.1077636538
 20
71.1473985915
 30
0.0
 10
108.1335008466
 20
71.1406065221
 30
0.0
  0
SPLINE
  5
3E1
100
AcDbEntity
  8
0
100
AcDbSpline
 62
7
  6
CONTINUOUS
 70
0
 71
3
 72
11
 73
7
 74
0
 42
0.0000001
 43
0.0000001
 44
0.0000000001
 40
0.0
 40
0.0
 40
0.0
 40
0.0
 40
0.2500162451
 40
0.5000000006
 40
0.7499837957
 40
1.0
 40
1.0
 40
1.0
 40
1.0
 10
108.1335008466
 20
59.7216940224
 30
0.0
 10
108.3511804674
 20
60.6569142206
 30
0.0
 10
108.7011703698
 20
62.5491881883
 30
0.0
 10
108.8888924117
 20
65.4311504303
 30
0.0
 10
108.7011707439
 20
68.313112593
 30
0.0
 10
108.3511803136
 20
70.205386449
 30
0.0
 10
108.1335008466
 20
71.1406065221
 30
0.0
  0
SPLINE
  5
3E2
100
AcDbEntity
  8
0
100
AcDbSpline
 62
7
  6
CONTINUOUS
 70
0
 71
3
 72
10
 73
6
 74
0
 42
0.0000001
 43
0.0000001
 44
0.0000000001
 40
0.0
 40
0.0
 40
0.0
 40
0.0
 40
0.5791510352
 40
0.8162906337
 40
1.0
 40
1.0
 40
1.0
 40
1.0
 10
107.7004881447
 20
59.7165982389
 30
0.0
 10
107.7838711597
 20
59.7071597299
 30
0.0
 10
107.9023557552
 20
59.6993423974
 30
0.0
 10
108.0471482539
 20
59.705955628
 30
0.0
 10
108.1077635959
 20
59.7149019444
 30
0.0
 10
108.1335008466
 20
59.7216940224
 30
0.0
  0
SPLINE
  5
3E3
100
AcDbEntity
  8
0
100
AcDbSpline
 62
7
  6
CONTINUOUS
 70
0
 71
3
 72
13
 73
9
 74
0
 42
0.0000001
 43
0.0000001
 44
0.0000000001
 40
0.0
 40
0.0
 40
0.0
 40
0.0
 40
0.2549811504
 40
0.3782521784
 40
0.4999999778
 40
0.6217476861
 40
0.7450186897
 40
1.0
 40
1.0
 40
1.0
 40
1.0
 10
107.6752430185
 20
73.8329090945
 30
0.0
 10
107.8935166431
 20
74.2876640604
 30
0.0
 10
108.1670155831
 20
74.9910913734
 30
0.0
 10
108.3605492261
 20
75.9633660667
 30
0.0
 10
108.4095859333
 20
76.6894802021
 30
0.0
 10
108.360550497
 20
77.4155944567
 30
0.0
 10
108.1670155693
 20
78.3878690305
 30
0.0
 10
107.8935166684
 20
79.0912965327
 30
0.0
 10
107.6752430185
 20
79.5460518373
 30
0.0
  0
SPLINE
  5
3E4
100
AcDbEntity
  8
0
100
AcDbSpline
 62
7
  6
CONTINUOUS
 70
0
 71
3
 72
9
 73
5
 74
0
 42
0.0000001
 43
0.0000001
 44
0.0000000001
 40
0.0
 40
0.0
 40
0.0
 40
0.0
 40
0.5066558578
 40
1.0
 40
1.0
 40
1.0
 40
1.0
 10
107.7004881447
 20
79.5462200267
 30
0.0
 10
107.7868200439
 20
79.5473857942
 30
0.0
 10
107.9610692453
 20
79.5055010366
 30
0.0
 10
108.0903753533
 20
79.3809066957
 30
0.0
 10
108.1335008466
 20
79.308739
 30
0.0
  0
SPLINE
  5
3E5
100
AcDbEntity
  8
0
100
AcDbSpline
 62
7
  6
CONTINUOUS
 70
0
 71
3
 72
13
 73
9
 74
0
 42
0.0000001
 43
0.0000001
 44
0.0000000001
 40
0.0
 40
0.0
 40
0.0
 40
0.0
 40
0.2568603503
 40
0.38087647
 40
0.5030559765
 40
0.62477347
 40
0.7474820711
 40
1.0
 40
1.0
 40
1.0
 40
1.0
 10
108.1335008466
 20
73.5992827783
 30
0.0
 10
108.3452680097
 20
74.059481759
 30
0.0
 10
108.6089197247
 20
74.7693531463
 30
0.0
 10
108.7948050035
 20
75.7459636668
 30
0.0
 10
108.841906257
 20
76.4720545883
 30
0.0
 10
108.7951350226
 20
77.1956110578
 30
0.0
 10
108.6098754298
 20
78.1601322848
 30
0.0
 10
108.3457055005
 20
78.8581904871
 30
0.0
 10
108.1335008466
 20
79.308739
 30
0.0
  0
SPLINE
  5
3E6
100
AcDbEntity
  8
0
100
AcDbSpline
 62
7
  6
CONTINUOUS
 70
0
 71
3
 72
9
 73
5
 74
0
 42
0.0000001
 43
0.0000001
 44
0.0000000001
 40
0.0
 40
0.0
 40
0.0
 40
0.0
 40
0.5231732165
 40
1.0
 40
1.0
 40
1.0
 40
1.0
 10
107.7004881447
 20
73.831668055
 30
0.0
 10
107.7876275252
 20
73.8229810282
 30
0.0
 10
107.9523729862
 20
73.7742996075
 30
0.0
 10
108.0873186055
 20
73.6643782106
 30
0.0
 10
108.1335008466
 20
73.5992827783
 30
0.0
  0
LINE
  5
3E7
100
AcDbEntity
  8
0
100
AcDbLine
 62
7
  6
CONTINUOUS
 10
108.4593338715
 20
129.0466202705
 11
108.2593338715
 21
129.0466202705
  0
LINE
  5
3E8
100
AcDbEntity
  8
0
100
AcDbLine
 62
7
  6
CONTINUOUS
 10
108.4593338715
 20
129.0466202705
 11
108.3593338715
 21
128.8734151898
  0
SPLINE
  5
3E9
100
AcDbEntity
  8
0
100
AcDbSpline
 62
7
  6
CONTINUOUS
 70
0
 71
3
 72
15
 73
11
 74
0
 42
0.0000001
 43
0.0000001
 44
0.0000000001
 40
0.0
 40
0.0
 40
0.0
 40
0.0
 40
0.3365218901
 40
0.4979468157
 40
0.6462294454
 40
0.7697243132
 40
0.8574148544
 40
0.8913945338
 40
0.9239486167
 40
1.0
 40
1.0
 40
1.0
 40
1.0
 10
113.4644552091
 20
126.156912119
 30
0.0
 10
113.4747623011
 20
126.1286436952
 30
0.0
 10
113.486970828
 20
126.0856563274
 30
0.0
 10
113.4979663888
 20
126.0289180614
 30
0.0
 10
113.501379412
 20
125.9901745432
 30
0.0
 10
113.4995829473
 20
125.9580980624
 30
0.0
 10
113.491287961
 20
125.9365653596
 30
0.0
 10
113.4798789759
 20
125.9280298585
 30
0.0
 10
113.4668797131
 20
125.9259825767
 30
0.0
 10
113.4573818819
 20
125.9300557996
 30
0.0
 10
113.4514930345
 20
125.9334557263
 30
0.0
  0
SPLINE
  5
3EA
100
AcDbEntity
  8
0
100
AcDbSpline
 62
7
  6
CONTINUOUS
 70
0
 71
3
 72
16
 73
12
 74
0
 42
0.0000001
 43
0.0000001
 44
0.0000000001
 40
0.0
 40
0.0
 40
0.0
 40
0.0
 40
0.183279094
 40
0.361818241
 40
0.5295522658
 40
0.6070862196
 40
0.6790367525
 40
0.802195991
 40
0.8930932965
 40
0.9528623092
 40
1.0
 40
1.0
 40
1.0
 40
1.0
 10
113.655642144
 20
126.156915707
 30
0.0
 10
113.655643672
 20
126.1299686029
 30
0.0
 10
113.6544391903
 20
126.0767612788
 30
0.0
 10
113.6487703163
 20
125.9990735059
 30
0.0
 10
113.6405813637
 20
125.9372557438
 30
0.0
 10
113.6317653504
 20
125.8914290288
 30
0.0
 10
113.6224232696
 20
125.8524805238
 30
0.0
 10
113.6094077263
 20
125.8121270101
 30
0.0
 10
113.5911897784
 20
125.7766465148
 30
0.0
 10
113.5689925068
 20
125.7543924165
 30
0.0
 10
113.5510883015
 20
125.7567272457
 30
0.0
 10
113.545126472
 20
125.7602612323
 30
0.0
  0
SPLINE
  5
3EB
100
AcDbEntity
  8
0
100
AcDbSpline
 62
7
  6
CONTINUOUS
 70
0
 71
3
 72
13
 73
9
 74
0
 42
0.0000001
 43
0.0000001
 44
0.0000000001
 40
0.0
 40
0.0
 40
0.0
 40
0.0
 40
0.111802055
 40
0.2072255537
 40
0.3291195862
 40
0.4744099417
 40
0.6385599611
 40
1.0
 40
1.0
 40
1.0
 40
1.0
 10
112.7733955417
 20
132.1311502167
 30
0.0
 10
112.789276939
 20
132.131147125
 30
0.0
 10
112.811648446
 20
132.1022096389
 30
0.0
 10
112.8295488735
 20
132.0614580387
 30
0.0
 10
112.8451425541
 20
132.0114508055
 30
0.0
 10
112.8578366171
 20
131.9517180751
 30
0.0
 10
112.8713626913
 20
131.8572267629
 30
0.0
 10
112.8751647744
 20
131.7824925017
 30
0.0
 10
112.8751652911
 20
131.7311502167
 30
0.0
  0
SPLINE
  5
3EC
100
AcDbEntity
  8
0
100
AcDbSpline
 62
7
  6
CONTINUOUS
 70
0
 71
3
 72
10
 73
6
 74
0
 42
0.0000001
 43
0.0000001
 44
0.0000000001
 40
0.0
 40
0.0
 40
0.0
 40
0.0
 40
0.3392773455
 40
0.62939468
 40
1.0
 40
1.0
 40
1.0
 40
1.0
 10
112.6826695253
 20
131.7311502167
 30
0.0
 10
112.6826717715
 20
131.7581657888
 30
0.0
 10
112.6764671584
 20
131.8091577438
 30
0.0
 10
112.6514297852
 20
131.8819844887
 30
0.0
 10
112.6083223102
 20
131.9311502167
 30
0.0
 10
112.5788121914
 20
131.9311502167
 30
0.0
  0
SPLINE
  5
3ED
100
AcDbEntity
  8
0
100
AcDbSpline
 62
7
  6
CONTINUOUS
 70
0
 71
3
 72
9
 73
5
 74
0
 42
0.0000001
 43
0.0000001
 44
0.0000000001
 40
0.0
 40
0.0
 40
0.0
 40
0.0
 40
0.5001351501
 40
1.0
 40
1.0
 40
1.0
 40
1.0
 10
113.3725745439
 20
126.7361754699
 30
0.0
 10
113.4010004128
 20
126.7089777048
 30
0.0
 10
113.4478149551
 20
126.6428707789
 30
0.0
 10
113.4644483306
 20
126.5633636075
 30
0.0
 10
113.4644489945
 20
126.5240434355
 30
0.0
  0
SPLINE
  5
3EE
100
AcDbEntity
  8
0
100
AcDbSpline
 62
7
  6
CONTINUOUS
 70
0
 71
3
 72
9
 73
5
 74
0
 42
0.0000001
 43
0.0000001
 44
0.0000000001
 40
0.0
 40
0.0
 40
0.0
 40
0.0
 40
0.5000496076
 40
1.0
 40
1.0
 40
1.0
 40
1.0
 10
112.6826695253
 20
127.6882569979
 30
0.0
 10
112.6826733136
 20
127.5965659333
 30
0.0
 10
112.7210967953
 20
127.4112389321
 30
0.0
 10
112.8297615401
 20
127.2567970655
 30
0.0
 10
112.8958658806
 20
127.1932822511
 30
0.0
  0
SPLINE
  5
3EF
100
AcDbEntity
  8
0
100
AcDbSpline
 62
7
  6
CONTINUOUS
 70
0
 71
3
 72
9
 73
5
 74
0
 42
0.0000001
 43
0.0000001
 44
0.0000000001
 40
0.0
 40
0.0
 40
0.0
 40
0.0
 40
0.5003175355
 40
1.0
 40
1.0
 40
1.0
 40
1.0
 10
112.8751652911
 20
127.6882569979
 30
0.0
 10
112.8751665268
 20
127.6223827425
 30
0.0
 10
112.9038105198
 20
127.489235701
 30
0.0
 10
112.9836611688
 20
127.3796013031
 30
0.0
 10
113.0317507215
 20
127.3347036073
 30
0.0
  0
SPLINE
  5
3F0
100
AcDbEntity
  8
0
100
AcDbSpline
 62
7
  6
CONTINUOUS
 70
0
 71
3
 72
11
 73
7
 74
0
 42
0.0000001
 43
0.0000001
 44
0.0000000001
 40
0.0
 40
0.0
 40
0.0
 40
0.0
 40
0.2468212267
 40
0.4955163952
 40
0.7468378766
 40
1.0
 40
1.0
 40
1.0
 40
1.0
 10
112.5788121914
 20
131.9311502167
 30
0.0
 10
112.6041469158
 20
131.9311502167
 30
0.0
 10
112.6555856119
 20
131.9416604288
 30
0.0
 10
112.7202653362
 20
131.986377832
 30
0.0
 10
112.7633637285
 20
132.052836912
 30
0.0
 10
112.7733955416
 20
132.1051646371
 30
0.0
 10
112.7733955417
 20
132.1311502167
 30
0.0
  0
SPLINE
  5
3F1
100
AcDbEntity
  8
0
100
AcDbSpline
 62
7
  6
CONTINUOUS
 70
0
 71
3
 72
9
 73
5
 74
0
 42
0.0000001
 43
0.0000001
 44
0.0000000001
 40
0.0
 40
0.0
 40
0.0
 40
0.0
 40
0.4951854567
 40
1.0
 40
1.0
 40
1.0
 40
1.0
 10
113.4514707583
 20
125.9334686995
 30
0.0
 10
113.4806878995
 20
125.9166001751
 30
0.0
 10
113.5309490738
 20
125.86481032
 30
0.0
 10
113.5463601845
 20
125.7946342098
 30
0.0
 10
113.5451199683
 20
125.7602634985
 30
0.0
  0
SPLINE
  5
3F2
100
AcDbEntity
  8
0
100
AcDbSpline
 62
7
  6
CONTINUOUS
 70
0
 71
3
 72
9
 73
5
 74
0
 42
0.0000001
 43
0.0000001
 44
0.0000000001
 40
0.0
 40
0.0
 40
0.0
 40
0.0
 40
0.2373325247
 40
1.0
 40
1.0
 40
1.0
 40
1.0
 10
135.3430743508
 20
140.9930393712
 30
0.0
 10
135.3357989637
 20
140.9566450173
 30
0.0
 10
135.3082213023
 20
140.8027064589
 30
0.0
 10
135.2856644528
 20
140.6478173284
 30
0.0
 10
135.2608970125
 20
140.5311502167
 30
0.0
  0
ELLIPSE
  5
3F3
100
AcDbEntity
  8
0
100
AcDbEllipse
 62
7
  6
CONTINUOUS
 10
135.683537819
 20
140.5311502167
 30
0.0
 11
0.0
 21
1.0
 31
0.0
 40
0.383864035
 41
0.0
 42
1.0906723322
  0
ELLIPSE
  5
3F4
100
AcDbEntity
  8
0
100
AcDbEllipse
 62
7
  6
CONTINUOUS
 10
134.2285287903
 20
140.5684179979
 30
0.0
 11
0.5486916773
 21
1.2874646535
 31
0.0
 40
0.7145358838
 41
-1.5707963268
 42
-1.3028918007
  0
ELLIPSE
  5
3F5
100
AcDbEntity
  8
0
100
AcDbEllipse
 62
7
  6
CONTINUOUS
 10
133.0769366852
 20
137.8662918463
 30
0.0
 11
-0.5486916773
 21
-1.2874646535
 31
0.0
 40
0.7145358838
 41
1.5707963268
 42
2.1085963504
  0
ELLIPSE
  5
3F6
100
AcDbEntity
  8
0
100
AcDbEllipse
 62
7
  6
CONTINUOUS
 10
121.1929341791
 20
139.82192484
 30
0.0
 11
-1.2104221425
 21
1.2980188316
 31
0.0
 40
0.563438437
 41
0.5435120867
 42
1.5707963268
  0
ELLIPSE
  5
3F7
100
AcDbEntity
  8
0
100
AcDbEllipse
 62
7
  6
CONTINUOUS
 10
116.7787206167
 20
141.5311502167
 30
0.0
 11
3.0
 21
0.0
 31
0.0
 40
1.0
 41
-0.0
 42
1.5707963268
  0
ELLIPSE
  5
3F8
100
AcDbEntity
  8
0
100
AcDbEllipse
 62
7
  6
CONTINUOUS
 10
135.2996737839
 20
141.5311502167
 30
0.0
 11
0.0
 21
3.0
 31
0.0
 40
0.383864035
 41
0.0
 42
1.5707963268
  0
ENDSEC
  0
SECTION
  2
OBJECTS
  0
DICTIONARY
  5
3F9
100
AcDbDictionary
  3
ACAD_GROUP
350
3FA
  3
ACAD_MLINESTYLE
350
3FB
  0
DICTIONARY
  5
3FA
102
{ACAD_REACTORS
330
3F9
102
}
100
AcDbDictionary
  0
DICTIONARY
  5
3FB
102
{ACAD_REACTORS
330
3F9
102
}
100
AcDbDictionary
  3
STANDARD
350
3FC
  0
MLINESTYLE
  5
3FC
102
{ACAD_REACTORS
330
3FB
102
}
100
AcDbMlineStyle
  2
STANDARD
 70
0
  3

 62
256
 51
90.0
 52
90.0
 71
2
 49
0.5
 62
256
  6
BYLAYER
 49
-0.5
 62
256
  6
BYLAYER
  0
ENDSEC
  0
EOF
