999
DXF file: C:\Users\64ciro\Desktop\FILE 3D-2D\ARMATEC\h340ll025_3077.dxf
999
Pro/ENGINEER 2017260 by Parametric Technology Corporation
  0
SECTION
  2
HEADER
  9
$ACADVER
  1
AC1014
  9
$DWGCODEPAGE
  3
ANSI_1252
  9
$EXTMAX
 10
297.0
 20
210.0
 30
0.0
  9
$EXTMIN
 10
0.0
 20
0.0
 30
0.0
  9
$LIMMIN
 10
0.0
 20
0.0
  9
$LIMMAX
 10
297.0
 20
210.0
  9
$VIEWCTR
 10
148.5
 20
105.0
  9
$VIEWSIZE
 40
210.0
  9
$CLAYER
  8
0
  9
$LTSCALE
 40
16.335
  9
$CELTYPE
  6
BYLAYER
  9
$DIMSCALE
 40
1.0
  9
$DIMASZ
 40
1.5
  9
$DIMEXO
 40
0.0625
  9
$DIMDLI
 40
11.286
  9
$DIMEXE
 40
0.125
  9
$DIMCEN
 40
2.673
  9
$DIMLFAC
 40
1.0
  9
$DIMBLK
  1
_CLOSED
  9
$DIMALT
 70
0
  9
$DIMALTF
 40
25.4
  9
$DIMTXT
 40
2.0
  9
$DIMTOL
 70
1
  9
$DIMLIM
 70
0
  9
$DIMTFAC
 40
1.0
  9
$DIMTP
 40
0.01
  9
$DIMTM
 40
0.01
  9
$DIMGAP
 40
0.625
  9
$AUNITS
 70
0
  9
$PDMODE
 70
3
  9
$PDSIZE
 40
0.3125
  9
$HANDSEED
  5
450
  9
$TILEMODE
 70
1
  9
$MEASUREMENT
 70
1
  0
ENDSEC
  0
SECTION
  2
CLASSES
  0
ENDSEC
  0
SECTION
  2
TABLES
  0
TABLE
  2
VPORT
  5
8
100
AcDbSymbolTable
 70
2
  0
VPORT
  5
1F4
100
AcDbSymbolTableRecord
100
AcDbViewportTableRecord
  2
*ACTIVE
 70
0
 10
0.0
 20
0.0
 11
1.0
 21
1.0
 12
148.5
 22
105.0
 13
0.0
 23
0.0
 14
1.0
 24
1.0
 15
0.0
 25
0.0
 16
0.0
 26
0.0
 36
1.0
 17
0.0
 27
0.0
 37
0.0
 40
210.0
 41
1.4142857143
 42
50.0
 43
0.0
 44
0.0
 50
0.0
 51
0.0
 71
0
 72
100
 73
1
 74
1
 75
0
 76
0
 77
0
 78
0
  0
ENDTAB
  0
TABLE
  2
LTYPE
  5
5
100
AcDbSymbolTable
 70
6
  0
LTYPE
  5
14
100
AcDbSymbolTableRecord
100
AcDbLinetypeTableRecord
  2
BYBLOCK
 70
0
  3

 72
65
 73
0
 40
0.0
  0
LTYPE
  5
15
100
AcDbSymbolTableRecord
100
AcDbLinetypeTableRecord
  2
BYLAYER
 70
0
  3

 72
65
 73
0
 40
0.0
  0
LTYPE
  5
16
100
AcDbSymbolTableRecord
100
AcDbLinetypeTableRecord
  2
CONTINUOUS
 70
64
  3
Solid line
 72
65
 73
0
 40
0.0
  0
LTYPE
  5
1F5
100
AcDbSymbolTableRecord
100
AcDbLinetypeTableRecord
  2
CENTER
 70
64
  3
____ _ ____ _ ____ _ ____ _ ____ _ ____ _ ____
 72
65
 73
4
 40
0.6
 49
0.375
 74
0
 49
-0.075
 74
0
 49
0.075
 74
0
 49
-0.075
 74
0
  0
LTYPE
  5
1F6
100
AcDbSymbolTableRecord
100
AcDbLinetypeTableRecord
  2
HIDDEN
 70
64
  3
- - - - - - - - - - - - - - - - - - - -
 72
65
 73
2
 40
0.2
 49
0.1
 74
0
 49
-0.1
 74
0
  0
LTYPE
  5
1F7
100
AcDbSymbolTableRecord
100
AcDbLinetypeTableRecord
  2
PHANTOM
 70
64
  3
_____ _ _ _____ _ _ _____ _ _ _____
 72
65
 73
6
 40
0.8
 49
0.45
 74
0
 49
-0.05
 74
0
 49
0.1
 74
0
 49
-0.05
 74
0
 49
0.1
 74
0
 49
-0.05
 74
0
  0
LTYPE
  5
1F8
100
AcDbSymbolTableRecord
100
AcDbLinetypeTableRecord
  2
DOT
 70
64
  3
. . . . . . . . . . . . . . . . . . . .
 72
65
 73
2
 40
0.2
 49
0.1
 74
0
 49
-0.1
 74
0
  0
LTYPE
  5
1F9
100
AcDbSymbolTableRecord
100
AcDbLinetypeTableRecord
  2
DASHED
 70
64
  3
- - - - - - - - - - - - - - - - - - - -
 72
65
 73
2
 40
0.2
 49
0.1
 74
0
 49
-0.1
 74
0
  0
ENDTAB
  0
TABLE
  2
LAYER
  5
2
100
AcDbSymbolTable
 70
36
  0
LAYER
  5
10
100
AcDbSymbolTableRecord
100
AcDbLayerTableRecord
  2
0
 70
0
 62
7
  6
CONTINUOUS
  0
LAYER
  5
1FA
100
AcDbSymbolTableRecord
100
AcDbLayerTableRecord
  2
DEFAULT_1
 70
0
 62
7
  6
CENTER
  0
LAYER
  5
1FB
100
AcDbSymbolTableRecord
100
AcDbLayerTableRecord
  2
DEFAULT_2
 70
0
 62
8
  6
HIDDEN
  0
LAYER
  5
1FC
100
AcDbSymbolTableRecord
100
AcDbLayerTableRecord
  2
DEFAULT_3
 70
0
 62
7
  6
PHANTOM
  0
LAYER
  5
1FD
100
AcDbSymbolTableRecord
100
AcDbLayerTableRecord
  2
ASSI
 70
0
 62
7
  6
CONTINUOUS
  0
LAYER
  5
1FE
100
AcDbSymbolTableRecord
100
AcDbLayerTableRecord
  2
COSMETICA
 70
0
 62
7
  6
CONTINUOUS
  0
LAYER
  5
1FF
100
AcDbSymbolTableRecord
100
AcDbLayerTableRecord
  2
CSYS
 70
0
 62
7
  6
CONTINUOUS
  0
LAYER
  5
200
100
AcDbSymbolTableRecord
100
AcDbLayerTableRecord
  2
CURVE
 70
0
 62
7
  6
CONTINUOUS
  0
LAYER
  5
201
100
AcDbSymbolTableRecord
100
AcDbLayerTableRecord
  2
DETTAGLI
 70
0
 62
7
  6
CONTINUOUS
  0
LAYER
  5
202
100
AcDbSymbolTableRecord
100
AcDbLayerTableRecord
  2
FILETTI
 70
0
 62
7
  6
CONTINUOUS
  0
LAYER
  5
203
100
AcDbSymbolTableRecord
100
AcDbLayerTableRecord
  2
GEOM
 70
0
 62
7
  6
CONTINUOUS
  0
LAYER
  5
204
100
AcDbSymbolTableRecord
100
AcDbLayerTableRecord
  2
GEOMETRIA_SOLIDA
 70
0
 62
7
  6
CONTINUOUS
  0
LAYER
  5
205
100
AcDbSymbolTableRecord
100
AcDbLayerTableRecord
  2
LAY0001
 70
0
 62
7
  6
CONTINUOUS
  0
LAYER
  5
206
100
AcDbSymbolTableRecord
100
AcDbLayerTableRecord
  2
LAY0002
 70
0
 62
7
  6
CONTINUOUS
  0
LAYER
  5
207
100
AcDbSymbolTableRecord
100
AcDbLayerTableRecord
  2
NOGEOM
 70
0
 62
7
  6
CONTINUOUS
  0
LAYER
  5
208
100
AcDbSymbolTableRecord
100
AcDbLayerTableRecord
  2
PIANI
 70
0
 62
7
  6
CONTINUOUS
  0
LAYER
  5
209
100
AcDbSymbolTableRecord
100
AcDbLayerTableRecord
  2
PIANI_OFFSET
 70
0
 62
7
  6
CONTINUOUS
  0
LAYER
  5
20A
100
AcDbSymbolTableRecord
100
AcDbLayerTableRecord
  2
QUOTE
 70
0
 62
7
  6
CONTINUOUS
  0
LAYER
  5
20B
100
AcDbSymbolTableRecord
100
AcDbLayerTableRecord
  2
RIF
 70
0
 62
7
  6
CONTINUOUS
  0
LAYER
  5
20C
100
AcDbSymbolTableRecord
100
AcDbLayerTableRecord
  2
SKETCH
 70
0
 62
7
  6
CONTINUOUS
  0
LAYER
  5
20D
100
AcDbSymbolTableRecord
100
AcDbLayerTableRecord
  2
TABELLE
 70
0
 62
7
  6
CONTINUOUS
  0
ENDTAB
  0
TABLE
  2
STYLE
  5
3
100
AcDbSymbolTable
 70
1
  0
STYLE
  5
11
100
AcDbSymbolTableRecord
100
AcDbTextStyleTableRecord
  2
STANDARD
 70
0
 40
0.0
 41
0.8
 50
0.0
 71
0
 42
0.2
  3
txt
  4

  0
STYLE
  5
20E
100
AcDbSymbolTableRecord
100
AcDbTextStyleTableRecord
  2
TEXTSTYLE_1
 70
0
 40
0.0
 41
0.8
 50
0.0
 71
0
 42
0.2
  3
gdt
  4

  0
ENDTAB
  0
TABLE
  2
VIEW
  5
6
100
AcDbSymbolTable
 70
0
  0
ENDTAB
  0
TABLE
  2
UCS
  5
7
100
AcDbSymbolTable
 70
0
  0
ENDTAB
  0
TABLE
  2
APPID
  5
9
100
AcDbSymbolTable
 70
1
  0
APPID
  5
20F
100
AcDbSymbolTableRecord
100
AcDbRegAppTableRecord
  2
ACAD
 70
0
  0
ENDTAB
  0
TABLE
  2
BLOCK_RECORD
  5
1
100
AcDbSymbolTable
 70
0
  0
BLOCK_RECORD
  5
1F
100
AcDbSymbolTableRecord
100
AcDbBlockTableRecord
  2
*MODEL_SPACE
  0
BLOCK_RECORD
  5
1B
100
AcDbSymbolTableRecord
100
AcDbBlockTableRecord
  2
*PAPER_SPACE
  0
ENDTAB
  0
TABLE
  2
DIMSTYLE
  5
A
100
AcDbSymbolTable
 70
1
  0
DIMSTYLE
105
210
100
AcDbSymbolTableRecord
100
AcDbDimStyleTableRecord
  2
STANDARD
 70
0
  3

  4

  5
_CLOSED
  6
_CLOSED
  7
_CLOSED
 40
1.0
 41
1.5
 42
0.0625
 43
0.38
 44
0.125
 45
0.0
 46
0.0
 47
0.01
 48
0.01
140
2.0
141
0.09
142
0.0
143
25.4
144
1.0
145
0.0
146
1.0
147
0.625
 71
1.0
 72
0.0
 73
0
 74
0
 75
0
 76
0
 77
1
 78
8
 79
2
170
0
171
1
172
0
173
0
174
0
175
0
176
0
177
0
178
0
270
2
179
2
271
2
272
2
273
2
274
2
275
0
280
0
281
0
282
0
283
1
284
8
285
0
286
0
287
3
288
0
340
11
  0
ENDTAB
  0
ENDSEC
  0
SECTION
  2
BLOCKS
  0
BLOCK
  5
20
100
AcDbEntity
  8
0
100
AcDbBlockBegin
  2
*MODEL_SPACE
 70
0
 10
0.0
 20
0.0
 30
0.0
  3
*MODEL_SPACE
  1

  0
ENDBLK
  5
21
100
AcDbEntity
  8
0
100
AcDbBlockEnd
  0
BLOCK
  5
1C
100
AcDbEntity
  8
0
100
AcDbBlockBegin
  2
*PAPER_SPACE
 70
0
 10
0.0
 20
0.0
 30
0.0
  3
*PAPER_SPACE
  1

  0
ENDBLK
  5
1D
100
AcDbEntity
  8
0
100
AcDbBlockEnd
  0
ENDSEC
  0
SECTION
  2
ENTITIES
  0
LINE
  5
211
100
AcDbEntity
  8
0
100
AcDbLine
 62
7
  6
CONTINUOUS
 10
0.0
 20
0.0
 11
0.0
 21
210.0
  0
LINE
  5
212
100
AcDbEntity
  8
0
100
AcDbLine
 62
7
  6
CONTINUOUS
 10
0.0
 20
0.0
 11
297.0
 21
0.0
  0
LINE
  5
213
100
AcDbEntity
  8
0
100
AcDbLine
 62
7
  6
CONTINUOUS
 10
0.0
 20
210.0
 11
297.0
 21
210.0
  0
LINE
  5
214
100
AcDbEntity
  8
0
100
AcDbLine
 62
7
  6
CONTINUOUS
 10
297.0
 20
0.0
 11
297.0
 21
210.0
  0
LINE
  5
215
100
AcDbEntity
  8
0
100
AcDbLine
 62
7
  6
CONTINUOUS
 10
78.8516590465
 20
69.0938533592
 11
79.8620220175
 21
67.3438533592
  0
LINE
  5
216
100
AcDbEntity
  8
0
100
AcDbLine
 62
7
  6
CONTINUOUS
 10
78.8516590465
 20
69.0938533592
 11
78.8516590465
 21
108.0938533592
  0
LINE
  5
217
100
AcDbEntity
  8
0
100
AcDbLine
 62
7
  6
CONTINUOUS
 10
79.8620220175
 20
67.3438533592
 11
79.8620220175
 21
67.4840215469
  0
LINE
  5
218
100
AcDbEntity
  8
0
100
AcDbLine
 62
7
  6
CONTINUOUS
 10
79.8620220175
 20
75.9286944239
 11
79.8620220175
 21
80.1491804822
  0
LINE
  5
219
100
AcDbEntity
  8
0
100
AcDbLine
 62
7
  6
CONTINUOUS
 10
79.8620220175
 20
97.0385262362
 11
79.8620220175
 21
101.2590122945
  0
LINE
  5
21A
100
AcDbEntity
  8
0
100
AcDbLine
 62
7
  6
CONTINUOUS
 10
79.8620220175
 20
109.7036851715
 11
79.8620220175
 21
109.8438533592
  0
LINE
  5
21B
100
AcDbEntity
  8
0
100
AcDbLine
 62
7
  6
CONTINUOUS
 10
80.0516590465
 20
89.6438533592
 11
80.0516590465
 21
87.7238533592
  0
LINE
  5
21C
100
AcDbEntity
  8
0
100
AcDbLine
 62
7
  6
CONTINUOUS
 10
80.8916590465
 20
87.7238533592
 11
80.8916590465
 21
89.6438533592
  0
LINE
  5
21D
100
AcDbEntity
  8
0
100
AcDbLine
 62
7
  6
CONTINUOUS
 10
84.4078577624
 20
91.4438533592
 11
84.4078577624
 21
85.9238533592
  0
LINE
  5
21E
100
AcDbEntity
  8
0
100
AcDbLine
 62
7
  6
CONTINUOUS
 10
85.2478577624
 20
89.0438533592
 11
85.2478577624
 21
91.4438533592
  0
LINE
  5
21F
100
AcDbEntity
  8
0
100
AcDbLine
 62
7
  6
CONTINUOUS
 10
85.304575413
 20
85.0838533592
 11
85.304575413
 21
88.5938533592
  0
LINE
  5
220
100
AcDbEntity
  8
0
100
AcDbLine
 62
7
  6
CONTINUOUS
 10
91.5907407254
 20
101.2571005948
 11
91.5907407254
 21
97.0407107726
  0
LINE
  5
221
100
AcDbEntity
  8
0
100
AcDbLine
 62
7
  6
CONTINUOUS
 10
91.5907407254
 20
80.1469959283
 11
91.5907407254
 21
75.9306061106
  0
LINE
  5
222
100
AcDbEntity
  8
0
100
AcDbLine
 62
7
  6
CONTINUOUS
 10
91.5907407254
 20
67.3438533592
 11
91.5907407254
 21
67.4837486934
  0
LINE
  5
223
100
AcDbEntity
  8
0
100
AcDbLine
 62
7
  6
CONTINUOUS
 10
91.5907407254
 20
109.7039580232
 11
91.5907407254
 21
109.8438533592
  0
LINE
  5
224
100
AcDbEntity
  8
0
100
AcDbLine
 62
7
  6
CONTINUOUS
 10
92.2835610485
 20
100.8857311209
 11
92.2835610485
 21
97.0329816267
  0
LINE
  5
225
100
AcDbEntity
  8
0
100
AcDbLine
 62
7
  6
CONTINUOUS
 10
92.2835610485
 20
80.1547251958
 11
92.2835610485
 21
76.3019756604
  0
LINE
  5
226
100
AcDbEntity
  8
0
100
AcDbLine
 62
7
  6
CONTINUOUS
 10
92.2835610485
 20
67.7438533592
 11
92.2835610485
 21
67.862847429
  0
LINE
  5
227
100
AcDbEntity
  8
0
100
AcDbLine
 62
7
  6
CONTINUOUS
 10
92.2835610485
 20
109.3248592974
 11
92.2835610485
 21
109.4438533592
  0
LINE
  5
228
100
AcDbEntity
  8
0
100
AcDbLine
 62
7
  6
CONTINUOUS
 10
78.8516590465
 20
108.0938533592
 11
79.8620220175
 21
109.8438533592
  0
LINE
  5
229
100
AcDbEntity
  8
0
100
AcDbLine
 62
7
  6
CONTINUOUS
 10
98.5445522653
 20
69.3009601404
 11
100.9587658276
 21
66.886746578
  0
LINE
  5
22A
100
AcDbEntity
  8
0
100
AcDbLine
 62
7
  6
CONTINUOUS
 10
87.020774129
 20
88.5938533592
 11
89.2140655542
 21
85.0838533592
  0
LINE
  5
22B
100
AcDbEntity
  8
0
100
AcDbLine
 62
7
  6
CONTINUOUS
 10
90.204575413
 20
85.0838533592
 11
88.0112839878
 21
88.5938533592
  0
LINE
  5
22C
100
AcDbEntity
  8
0
100
AcDbLine
 62
7
  6
CONTINUOUS
 10
93.120717205
 20
70.3412965171
 11
93.1207189388
 21
69.1938533592
  0
LINE
  5
22D
100
AcDbEntity
  8
0
100
AcDbLine
 62
7
  6
CONTINUOUS
 10
93.1207172153
 20
103.4125507214
 11
93.1207171625
 21
92.0277543419
  0
LINE
  5
22E
100
AcDbEntity
  8
0
100
AcDbLine
 62
7
  6
CONTINUOUS
 10
93.1207172288
 20
85.159958234
 11
93.1207172757
 21
73.7751927872
  0
LINE
  5
22F
100
AcDbEntity
  8
0
100
AcDbLine
 62
7
  6
CONTINUOUS
 10
93.1207189388
 20
107.9938533592
 11
93.1207172663
 21
106.8464101745
  0
LINE
  5
230
100
AcDbEntity
  8
0
100
AcDbLine
 62
7
  6
CONTINUOUS
 10
93.8135356259
 20
70.7176639696
 11
93.8135392618
 21
69.5938533592
  0
LINE
  5
231
100
AcDbEntity
  8
0
100
AcDbLine
 62
7
  6
CONTINUOUS
 10
93.8135356589
 20
103.1070165894
 11
93.8135354908
 21
91.9568791654
  0
LINE
  5
232
100
AcDbEntity
  8
0
100
AcDbLine
 62
7
  6
CONTINUOUS
 10
93.813535708
 20
85.2308270747
 11
93.8135358566
 21
74.0806904089
  0
LINE
  5
233
100
AcDbEntity
  8
0
100
AcDbLine
 62
7
  6
CONTINUOUS
 10
93.8135392618
 20
107.5938533592
 11
93.8135358275
 21
106.4700428986
  0
LINE
  5
234
100
AcDbEntity
  8
0
100
AcDbLine
 62
7
  6
CONTINUOUS
 10
97.3516590465
 20
116.3938533592
 11
97.3516590465
 21
131.3938533592
  0
LINE
  5
235
100
AcDbEntity
  8
0
100
AcDbLine
 62
7
  6
CONTINUOUS
 10
97.8374454841
 20
107.5938533592
 11
97.8374454841
 21
69.5938533592
  0
LINE
  5
236
100
AcDbEntity
  8
0
100
AcDbLine
 62
7
  6
CONTINUOUS
 10
97.8516590465
 20
121.0938533592
 11
97.8516590465
 21
117.8825284938
  0
LINE
  5
237
100
AcDbEntity
  8
0
100
AcDbLine
 62
7
  6
CONTINUOUS
 10
98.5445522653
 20
107.886746578
 11
98.5445522653
 21
69.3009601404
  0
LINE
  5
238
100
AcDbEntity
  8
0
100
AcDbLine
 62
7
  6
CONTINUOUS
 10
100.3516590465
 20
121.5938533592
 11
100.3516590465
 21
130.8938533592
  0
LINE
  5
239
100
AcDbEntity
  8
0
100
AcDbLine
 62
7
  6
CONTINUOUS
 10
100.9587658276
 20
66.886746578
 11
100.9587658276
 21
110.3009601404
  0
LINE
  5
23A
100
AcDbEntity
  8
0
100
AcDbLine
 62
7
  6
CONTINUOUS
 10
101.0516590465
 20
125.2938533592
 11
101.0516590465
 21
122.3938533592
  0
LINE
  5
23B
100
AcDbEntity
  8
0
100
AcDbLine
 62
7
  6
CONTINUOUS
 10
101.3516590465
 20
121.9281679342
 11
101.3516590465
 21
121.8938533592
  0
LINE
  5
23C
100
AcDbEntity
  8
0
100
AcDbLine
 62
7
  6
CONTINUOUS
 10
101.4040565692
 20
121.0938533592
 11
101.4040565692
 21
116.2578061688
  0
LINE
  5
23D
100
AcDbEntity
  8
0
100
AcDbLine
 62
7
  6
CONTINUOUS
 10
101.6658726088
 20
66.5938533592
 11
101.6658726088
 21
110.4256954041
  0
LINE
  5
23E
100
AcDbEntity
  8
0
100
AcDbLine
 62
7
  6
CONTINUOUS
 10
101.6947008828
 20
121.0938533592
 11
101.6947008828
 21
116.2578061688
  0
LINE
  5
23F
100
AcDbEntity
  8
0
100
AcDbLine
 62
7
  6
CONTINUOUS
 10
102.1016590465
 20
114.6782344998
 11
102.1016590465
 21
111.3566206385
  0
LINE
  5
240
100
AcDbEntity
  8
0
100
AcDbLine
 62
7
  6
CONTINUOUS
 10
103.3997932388
 20
92.8138533592
 11
103.3997932388
 21
84.4138533592
  0
LINE
  5
241
100
AcDbEntity
  8
0
100
AcDbLine
 62
7
  6
CONTINUOUS
 10
104.0997932388
 20
92.1138533592
 11
104.0997932388
 21
85.1138533592
  0
LINE
  5
242
100
AcDbEntity
  8
0
100
AcDbLine
 62
7
  6
CONTINUOUS
 10
104.151659126
 20
125.7048542419
 11
104.151659126
 21
125.5938533592
  0
LWPOLYLINE
  5
243
100
AcDbEntity
  8
0
100
AcDbPolyline
 62
7
  6
CONTINUOUS
 90
20
 70
0
 10
102.1016600852
 20
111.3566202686
 10
102.1004804035
 20
111.3132098002
 10
102.0939526128
 20
111.2458573708
 10
102.0819396029
 20
111.1801058617
 10
102.0647381698
 20
111.1164057851
 10
102.0426700626
 20
111.055135291
 10
102.0160784675
 20
110.9966295804
 10
101.985338676
 20
110.9412065241
 10
101.9508280421
 20
110.8891118002
 10
101.9129305003
 20
110.8405485379
 10
101.8720534645
 20
110.795700104
 10
101.8285864374
 20
110.754683991
 10
101.782913208
 20
110.7175796942
 10
101.7354340007
 20
110.6844472933
 10
101.6865475961
 20
110.6553093909
 10
101.6365756381
 20
110.6301176431
 10
101.5857772879
 20
110.608789289
 10
101.5343797291
 20
110.5912349392
 10
101.4827560761
 20
110.5774047296
 10
101.4635818139
 20
110.5731958636
  0
LINE
  5
244
100
AcDbEntity
  8
0
100
AcDbLine
 62
7
  6
CONTINUOUS
 10
97.8516590465
 20
117.8825284938
 11
97.6016590465
 21
117.4495157919
  0
LINE
  5
245
100
AcDbEntity
  8
0
100
AcDbLine
 62
7
  6
CONTINUOUS
 10
97.3516590465
 20
130.0078150152
 11
98.6441607122
 21
131.3938533592
  0
LINE
  5
246
100
AcDbEntity
  8
0
100
AcDbLine
 62
7
  6
CONTINUOUS
 10
119.6445522653
 20
66.3009601404
 11
120.0587658276
 21
65.886746578
  0
LINE
  5
247
100
AcDbEntity
  8
0
100
AcDbLine
 62
7
  6
CONTINUOUS
 10
93.1207189388
 20
107.9938533592
 11
92.2835610485
 21
109.4438533592
  0
LINE
  5
248
100
AcDbEntity
  8
0
100
AcDbLine
 62
7
  6
CONTINUOUS
 10
105.0797932388
 20
89.7338533592
 11
106.5583560754
 21
86.832010403
  0
LINE
  5
249
100
AcDbEntity
  8
0
100
AcDbLine
 62
7
  6
CONTINUOUS
 10
105.8654216051
 20
89.7338533592
 11
106.9511702586
 21
87.6029516456
  0
LINE
  5
24A
100
AcDbEntity
  8
0
100
AcDbLine
 62
7
  6
CONTINUOUS
 10
105.3516590465
 20
126.5938533592
 11
105.3516590465
 21
130.0938533574
  0
LINE
  5
24B
100
AcDbEntity
  8
0
100
AcDbLine
 62
7
  6
CONTINUOUS
 10
105.4975570802
 20
129.51650309
 11
105.4975570802
 21
126.5938533592
  0
LINE
  5
24C
100
AcDbEntity
  8
0
100
AcDbLine
 62
7
  6
CONTINUOUS
 10
106.3516590465
 20
135.2474431977
 11
106.3516590465
 21
134.5938533592
  0
LINE
  5
24D
100
AcDbEntity
  8
0
100
AcDbLine
 62
7
  6
CONTINUOUS
 10
106.8516590465
 20
131.0938533613
 11
106.8516590465
 21
130.0938533592
  0
LINE
  5
24E
100
AcDbEntity
  8
0
100
AcDbLine
 62
7
  6
CONTINUOUS
 10
108.3516590465
 20
136.3912883077
 11
108.3516590465
 21
139.5938533592
  0
LINE
  5
24F
100
AcDbEntity
  8
0
100
AcDbLine
 62
7
  6
CONTINUOUS
 10
108.6840400231
 20
131.3938533592
 11
108.6840400231
 21
130.0078150152
  0
LINE
  5
250
100
AcDbEntity
  8
0
100
AcDbLine
 62
7
  6
CONTINUOUS
 10
110.4310499714
 20
91.1338533592
 11
110.4310499714
 21
90.4338533592
  0
LINE
  5
251
100
AcDbEntity
  8
0
100
AcDbLine
 62
7
  6
CONTINUOUS
 10
110.4310499714
 20
89.7338533592
 11
110.4310499714
 21
86.1738533592
  0
LINE
  5
252
100
AcDbEntity
  8
0
100
AcDbLine
 62
7
  6
CONTINUOUS
 10
110.4975570802
 20
134.5938533592
 11
110.4795615737
 21
134.3938533592
  0
LINE
  5
253
100
AcDbEntity
  8
0
100
AcDbLine
 62
7
  6
CONTINUOUS
 10
112.3516590465
 20
134.5938533592
 11
112.300172487
 21
134.3938533592
  0
LINE
  5
254
100
AcDbEntity
  8
0
100
AcDbLine
 62
7
  6
CONTINUOUS
 10
114.2057610127
 20
134.5938533592
 11
114.1258232635
 21
134.3938533592
  0
LINE
  5
255
100
AcDbEntity
  8
0
100
AcDbLine
 62
7
  6
CONTINUOUS
 10
115.8783705602
 20
134.5938533592
 11
115.7778064851
 21
134.3938533592
  0
LINE
  5
256
100
AcDbEntity
  8
0
100
AcDbLine
 62
7
  6
CONTINUOUS
 10
102.1281567106
 20
115.4495157922
 11
102.2728265882
 21
115.7093192366
  0
LINE
  5
257
100
AcDbEntity
  8
0
100
AcDbLine
 62
7
  6
CONTINUOUS
 10
117.2057610127
 20
134.5938533592
 11
117.0944145241
 21
134.3938533592
  0
LINE
  5
258
100
AcDbEntity
  8
0
100
AcDbLine
 62
7
  6
CONTINUOUS
 10
101.7657013666
 20
115.6515883861
 11
101.9107144846
 21
115.9113960057
  0
LINE
  5
259
100
AcDbEntity
  8
0
100
AcDbLine
 62
7
  6
CONTINUOUS
 10
101.3516590465
 20
125.5938533592
 11
101.0516590465
 21
125.2938533592
  0
LINE
  5
25A
100
AcDbEntity
  8
0
100
AcDbLine
 62
7
  6
CONTINUOUS
 10
106.8516590465
 20
131.0938533592
 11
107.1516590465
 21
131.3938533592
  0
LINE
  5
25B
100
AcDbEntity
  8
0
100
AcDbLine
 62
7
  6
CONTINUOUS
 10
104.0516590465
 20
126.5938533592
 11
103.501244405
 21
126.0434387178
  0
LINE
  5
25C
100
AcDbEntity
  8
0
100
AcDbLine
 62
7
  6
CONTINUOUS
 10
108.3516590465
 20
136.7485538976
 11
106.6516590465
 21
135.7670584399
  0
LINE
  5
25D
100
AcDbEntity
  8
0
100
AcDbLine
 62
7
  6
CONTINUOUS
 10
108.8249475327
 20
134.5938533592
 11
108.8422046046
 21
134.3938533592
  0
LINE
  5
25E
100
AcDbEntity
  8
0
100
AcDbLine
 62
7
  6
CONTINUOUS
 10
111.1310499714
 20
91.1338533592
 11
111.1310499714
 21
90.4338533592
  0
LINE
  5
25F
100
AcDbEntity
  8
0
100
AcDbLine
 62
7
  6
CONTINUOUS
 10
111.1310499714
 20
89.7338533592
 11
111.1310499714
 21
86.1738533592
  0
LINE
  5
260
100
AcDbEntity
  8
0
100
AcDbLine
 62
7
  6
CONTINUOUS
 10
112.1110499714
 20
89.7338533592
 11
112.1110499714
 21
88.5938533592
  0
LINE
  5
261
100
AcDbEntity
  8
0
100
AcDbLine
 62
7
  6
CONTINUOUS
 10
112.1110499714
 20
86.3538533592
 11
112.1110499714
 21
86.1738533592
  0
LINE
  5
262
100
AcDbEntity
  8
DEFAULT_1
100
AcDbLine
 62
2
  6
CENTER
 10
112.3516590465
 20
139.6938533592
 11
112.3516590465
 21
139.2365877693
  0
LINE
  5
263
100
AcDbEntity
  8
0
100
AcDbLine
 62
7
  6
CONTINUOUS
 10
112.3516590465
 20
136.3912883077
 11
112.3516590465
 21
139.2365877693
  0
LINE
  5
264
100
AcDbEntity
  8
0
100
AcDbLine
 62
7
  6
CONTINUOUS
 10
112.8110499714
 20
89.7338533592
 11
112.8110499714
 21
89.0338533592
  0
LINE
  5
265
100
AcDbEntity
  8
0
100
AcDbLine
 62
7
  6
CONTINUOUS
 10
114.7710499714
 20
89.3138533592
 11
114.7710499714
 21
88.5938533592
  0
LINE
  5
266
100
AcDbEntity
  8
0
100
AcDbLine
 62
7
  6
CONTINUOUS
 10
114.8516590465
 20
116.3938533592
 11
114.8516590465
 21
123.3938533592
  0
LINE
  5
267
100
AcDbEntity
  8
0
100
AcDbLine
 62
7
  6
CONTINUOUS
 10
115.4710499714
 20
89.3138533592
 11
115.4710499714
 21
88.39817348
  0
LINE
  5
268
100
AcDbEntity
  8
0
100
AcDbLine
 62
7
  6
CONTINUOUS
 10
116.3516590465
 20
136.3912883077
 11
116.3516590465
 21
139.5938533592
  0
LINE
  5
269
100
AcDbEntity
  8
0
100
AcDbLine
 62
7
  6
CONTINUOUS
 10
116.6997932388
 20
92.1138533592
 11
116.6997932388
 21
85.1138533592
  0
LINE
  5
26A
100
AcDbEntity
  8
0
100
AcDbLine
 62
7
  6
CONTINUOUS
 10
118.3516590465
 20
134.5938533592
 11
118.2514343925
 21
134.3938533592
  0
LINE
  5
26B
100
AcDbEntity
  8
0
100
AcDbLine
 62
7
  6
CONTINUOUS
 10
118.0579981442
 20
134.5938533592
 11
117.9467686122
 21
134.3938533592
  0
LINE
  5
26C
100
AcDbEntity
  8
0
100
AcDbLine
 62
7
  6
CONTINUOUS
 10
120.7658726088
 20
65.5938533592
 11
130.7914930159
 21
65.5938533592
  0
LINE
  5
26D
100
AcDbEntity
  8
0
100
AcDbLine
 62
7
  6
CONTINUOUS
 10
101.6658726088
 20
66.5938533592
 11
118.9374454841
 21
66.5938533592
  0
LINE
  5
26E
100
AcDbEntity
  8
0
100
AcDbLine
 62
7
  6
CONTINUOUS
 10
144.8412960754
 20
67.3438533592
 11
132.548772987
 21
67.3438533592
  0
LINE
  5
26F
100
AcDbEntity
  8
0
100
AcDbLine
 62
7
  6
CONTINUOUS
 10
91.5907407254
 20
67.3438533592
 11
79.8620220175
 21
67.3438533592
  0
LINE
  5
270
100
AcDbEntity
  8
0
100
AcDbLine
 62
7
  6
CONTINUOUS
 10
144.8412960754
 20
67.4840215469
 11
132.5719155754
 21
67.4840215469
  0
LINE
  5
271
100
AcDbEntity
  8
0
100
AcDbLine
 62
7
  6
CONTINUOUS
 10
91.5512814615
 20
67.4840215469
 11
79.8620220175
 21
67.4840215469
  0
LINE
  5
272
100
AcDbEntity
  8
0
100
AcDbLine
 62
7
  6
CONTINUOUS
 10
123.3516590465
 20
76.6321426051
 11
125.9158138502
 21
75.8879470843
  0
LINE
  5
273
100
AcDbEntity
  8
0
100
AcDbLine
 62
7
  6
CONTINUOUS
 10
123.9056305159
 20
76.7989449995
 11
126.3516590465
 21
76.0804114598
  0
LINE
  5
274
100
AcDbEntity
  8
0
100
AcDbLine
 62
7
  6
CONTINUOUS
 10
103.501242945
 20
126.0434372573
 11
103.5042080808
 21
126.036984668
  0
LINE
  5
275
100
AcDbEntity
  8
0
100
AcDbLine
 62
7
  6
CONTINUOUS
 10
107.4975570802
 20
134.5938533592
 11
107.5483774881
 21
134.3938533592
  0
LINE
  5
276
100
AcDbEntity
  8
0
100
AcDbLine
 62
7
  6
CONTINUOUS
 10
117.3997932388
 20
92.8138533592
 11
117.3997932388
 21
84.4138533592
  0
LINE
  5
277
100
AcDbEntity
  8
0
100
AcDbLine
 62
7
  6
CONTINUOUS
 10
118.3516590465
 20
135.2474431977
 11
118.3516590465
 21
134.5938533592
  0
LINE
  5
278
100
AcDbEntity
  8
0
100
AcDbLine
 62
7
  6
CONTINUOUS
 10
118.9374454841
 20
108.8595401542
 11
118.9374454841
 21
66.5938533592
  0
LINE
  5
279
100
AcDbEntity
  8
0
100
AcDbLine
 62
7
  6
CONTINUOUS
 10
119.6445522653
 20
109.1822566965
 11
119.6445522653
 21
66.3009601404
  0
LINE
  5
27A
100
AcDbEntity
  8
0
100
AcDbLine
 62
7
  6
CONTINUOUS
 10
120.0587658276
 20
65.886746578
 11
120.0587658276
 21
109.7580833681
  0
LINE
  5
27B
100
AcDbEntity
  8
0
100
AcDbLine
 62
7
  6
CONTINUOUS
 10
120.7658726088
 20
65.5938533592
 11
120.7658726088
 21
110.5275602819
  0
LINE
  5
27C
100
AcDbEntity
  8
0
100
AcDbLine
 62
7
  6
CONTINUOUS
 10
122.6016590465
 20
115.3629132515
 11
122.6016590465
 21
112.3938533592
  0
LINE
  5
27D
100
AcDbEntity
  8
0
100
AcDbLine
 62
7
  6
CONTINUOUS
 10
126.3516590465
 20
130.1312404565
 11
121.3516590465
 21
116.3938533592
  0
LINE
  5
27E
100
AcDbEntity
  8
0
100
AcDbLine
 62
7
  6
CONTINUOUS
 10
106.9511702586
 20
87.6029516456
 11
106.5583560754
 21
86.832010403
  0
LINE
  5
27F
100
AcDbEntity
  8
0
100
AcDbLine
 62
7
  6
CONTINUOUS
 10
93.1207189388
 20
69.1938533592
 11
92.2835610485
 21
67.7438533592
  0
LINE
  5
280
100
AcDbEntity
  8
0
100
AcDbLine
 62
7
  6
CONTINUOUS
 10
98.5445522653
 20
107.886746578
 11
100.9587658276
 21
110.3009601404
  0
LINE
  5
281
100
AcDbEntity
  8
0
100
AcDbLine
 62
7
  6
CONTINUOUS
 10
146.1942997336
 20
152.2222804839
 11
128.6587658276
 21
134.686746578
  0
LINE
  5
282
100
AcDbEntity
  8
0
100
AcDbLine
 62
7
  6
CONTINUOUS
 10
93.8135392618
 20
69.5938533592
 11
97.8374454841
 21
69.5938533592
  0
LINE
  5
283
100
AcDbEntity
  8
0
100
AcDbLine
 62
7
  6
CONTINUOUS
 10
125.484041946
 20
78.2323463577
 11
126.3516590465
 21
77.9665620821
  0
LINE
  5
284
100
AcDbEntity
  8
0
100
AcDbLine
 62
7
  6
CONTINUOUS
 10
123.7997242082
 20
78.7510834354
 11
125.1011499036
 21
78.3459917682
  0
LINE
  5
285
100
AcDbEntity
  8
0
100
AcDbLine
 62
7
  6
CONTINUOUS
 10
123.3516590465
 20
78.5256253141
 11
126.3516590465
 21
77.5394744771
  0
LINE
  5
286
100
AcDbEntity
  8
0
100
AcDbLine
 62
7
  6
CONTINUOUS
 10
106.3516590465
 20
134.5938533592
 11
106.4518837004
 21
134.3938533592
  0
LINE
  5
287
100
AcDbEntity
  8
0
100
AcDbLine
 62
7
  6
CONTINUOUS
 10
106.6453199487
 20
134.5938533592
 11
106.724729037
 21
134.3938533592
  0
LINE
  5
288
100
AcDbEntity
  8
0
100
AcDbLine
 62
7
  6
CONTINUOUS
 10
123.3516590465
 20
121.8888081981
 11
123.3516590465
 21
116.2578061688
  0
LINE
  5
289
100
AcDbEntity
  8
0
100
AcDbLine
 62
7
  6
CONTINUOUS
 10
123.3516590465
 20
101.6891689556
 11
123.3516590465
 21
101.2217564839
  0
LINE
  5
28A
100
AcDbEntity
  8
0
100
AcDbLine
 62
7
  6
CONTINUOUS
 10
123.3516590465
 20
99.7022031086
 11
123.3516590465
 21
99.2347906369
  0
LINE
  5
28B
100
AcDbEntity
  8
0
100
AcDbLine
 62
7
  6
CONTINUOUS
 10
123.3516590465
 20
97.7317347782
 11
123.3516590465
 21
97.3486406582
  0
LINE
  5
28C
100
AcDbEntity
  8
0
100
AcDbLine
 62
7
  6
CONTINUOUS
 10
123.3516590465
 20
96.0032214421
 11
123.3516590465
 21
95.554138543
  0
LINE
  5
28D
100
AcDbEntity
  8
0
100
AcDbLine
 62
7
  6
CONTINUOUS
 10
123.3516590465
 20
94.4726718682
 11
123.3516590465
 21
92.3189039486
  0
LINE
  5
28E
100
AcDbEntity
  8
0
100
AcDbLine
 62
7
  6
CONTINUOUS
 10
123.3516590465
 20
91.9266431111
 11
123.3516590465
 21
91.5435477036
  0
LINE
  5
28F
100
AcDbEntity
  8
0
100
AcDbLine
 62
7
  6
CONTINUOUS
 10
123.3516590465
 20
89.7673764485
 11
123.3516590465
 21
89.384281041
  0
LINE
  5
290
100
AcDbEntity
  8
0
100
AcDbLine
 62
7
  6
CONTINUOUS
 10
123.3516590465
 20
88.0516939419
 11
123.3516590465
 21
87.6282727021
  0
LINE
  5
291
100
AcDbEntity
  8
0
100
AcDbLine
 62
7
  6
CONTINUOUS
 10
123.3516590465
 20
87.012386443
 11
123.3516590465
 21
86.6292910355
  0
LINE
  5
292
100
AcDbEntity
  8
0
100
AcDbLine
 62
7
  6
CONTINUOUS
 10
123.3516590465
 20
84.9850954073
 11
123.3516590465
 21
83.0109610337
  0
LINE
  5
293
100
AcDbEntity
  8
0
100
AcDbLine
 62
7
  6
CONTINUOUS
 10
123.3516590465
 20
81.4180893677
 11
123.3516590465
 21
80.298130204
  0
LINE
  5
294
100
AcDbEntity
  8
0
100
AcDbLine
 62
7
  6
CONTINUOUS
 10
123.3516590465
 20
78.9747088569
 11
123.3516590465
 21
78.5256253141
  0
LINE
  5
295
100
AcDbEntity
  8
0
100
AcDbLine
 62
7
  6
CONTINUOUS
 10
123.3516590465
 20
77.1820407289
 11
123.3516590465
 21
76.6321426051
  0
LINE
  5
296
100
AcDbEntity
  8
0
100
AcDbLine
 62
7
  6
CONTINUOUS
 10
123.3516590465
 20
75.1437514829
 11
123.3516590465
 21
74.5938533592
  0
LINE
  5
297
100
AcDbEntity
  8
0
100
AcDbLine
 62
7
  6
CONTINUOUS
 10
123.6516590465
 20
122.7130514239
 11
123.6516590465
 21
122.3938533592
  0
LINE
  5
298
100
AcDbEntity
  8
0
100
AcDbLine
 62
7
  6
CONTINUOUS
 10
123.7345511783
 20
94.4726718682
 11
123.7345511783
 21
93.5873356121
  0
LINE
  5
299
100
AcDbEntity
  8
0
100
AcDbLine
 62
7
  6
CONTINUOUS
 10
123.7345511783
 20
93.2042402047
 11
123.7345511783
 21
92.3189039486
  0
LINE
  5
29A
100
AcDbEntity
  8
0
100
AcDbLine
 62
7
  6
CONTINUOUS
 10
123.7345511783
 20
84.9850954073
 11
123.7345511783
 21
83.3940570849
  0
LINE
  5
29B
100
AcDbEntity
  8
0
100
AcDbLine
 62
7
  6
CONTINUOUS
 10
123.7345511783
 20
81.2219589489
 11
123.7345511783
 21
80.6812262553
  0
LINE
  5
29C
100
AcDbEntity
  8
0
100
AcDbLine
 62
7
  6
CONTINUOUS
 10
124.6123514641
 20
84.8659512537
 11
124.6123514641
 21
83.3940570849
  0
LINE
  5
29D
100
AcDbEntity
  8
0
100
AcDbLine
 62
7
  6
CONTINUOUS
 10
124.7762325659
 20
131.3938533592
 11
124.7762325659
 21
125.8027917752
  0
LINE
  5
29E
100
AcDbEntity
  8
0
100
AcDbLine
 62
7
  6
CONTINUOUS
 10
124.9952435959
 20
84.8659512537
 11
124.9952435959
 21
83.3940570849
  0
LINE
  5
29F
100
AcDbEntity
  8
0
100
AcDbLine
 62
7
  6
CONTINUOUS
 10
125.1011499036
 20
96.1828556317
 11
125.1011499036
 21
95.3745056408
  0
LINE
  5
2A0
100
AcDbEntity
  8
0
100
AcDbLine
 62
7
  6
CONTINUOUS
 10
125.1011499036
 20
79.1543420809
 11
125.1011499036
 21
78.3459917682
  0
LINE
  5
2A1
100
AcDbEntity
  8
0
100
AcDbLine
 62
7
  6
CONTINUOUS
 10
125.484041946
 20
96.2964997547
 11
125.484041946
 21
95.2608589428
  0
LINE
  5
2A2
100
AcDbEntity
  8
0
100
AcDbLine
 62
7
  6
CONTINUOUS
 10
125.484041946
 20
79.2679878133
 11
125.484041946
 21
78.2323463577
  0
LINE
  5
2A3
100
AcDbEntity
  8
0
100
AcDbLine
 62
7
  6
CONTINUOUS
 10
125.9687670041
 20
99.0771539944
 11
125.9687670041
 21
97.7317347782
  0
LINE
  5
2A4
100
AcDbEntity
  8
0
100
AcDbLine
 62
7
  6
CONTINUOUS
 10
125.9687670041
 20
85.0052589672
 11
125.9687670041
 21
83.3940570849
  0
LINE
  5
2A5
100
AcDbEntity
  8
0
100
AcDbLine
 62
7
  6
CONTINUOUS
 10
125.9687670041
 20
81.2329570788
 11
125.9687670041
 21
80.6812262553
  0
LINE
  5
2A6
100
AcDbEntity
  8
0
100
AcDbLine
 62
7
  6
CONTINUOUS
 10
126.3248641272
 20
134.3769846235
 11
126.3248641272
 21
130.0576220209
  0
LINE
  5
2A7
100
AcDbEntity
  8
0
100
AcDbLine
 62
7
  6
CONTINUOUS
 10
126.3516590465
 20
134.3859446731
 11
126.3516590465
 21
130.1312404565
  0
LINE
  5
2A8
100
AcDbEntity
  8
0
100
AcDbLine
 62
7
  6
CONTINUOUS
 10
126.3516590465
 20
100.6535281437
 11
126.3516590465
 21
100.2704314488
  0
LINE
  5
2A9
100
AcDbEntity
  8
0
100
AcDbLine
 62
7
  6
CONTINUOUS
 10
126.3516590465
 20
99.0771539944
 11
126.3516590465
 21
97.3486406582
  0
LINE
  5
2AA
100
AcDbEntity
  8
0
100
AcDbLine
 62
7
  6
CONTINUOUS
 10
126.3516590465
 20
96.989372279
 11
126.3516590465
 21
96.5622856396
  0
LINE
  5
2AB
100
AcDbEntity
  8
0
100
AcDbLine
 62
7
  6
CONTINUOUS
 10
126.3516590465
 20
94.9950756329
 11
126.3516590465
 21
94.567987706
  0
LINE
  5
2AC
100
AcDbEntity
  8
0
100
AcDbLine
 62
7
  6
CONTINUOUS
 10
126.3516590465
 20
93.5873356121
 11
126.3516590465
 21
93.2042402047
  0
LINE
  5
2AD
100
AcDbEntity
  8
0
100
AcDbLine
 62
7
  6
CONTINUOUS
 10
126.3516590465
 20
91.9266431111
 11
126.3516590465
 21
91.5435477036
  0
LINE
  5
2AE
100
AcDbEntity
  8
0
100
AcDbLine
 62
7
  6
CONTINUOUS
 10
126.3516590465
 20
89.7673764485
 11
126.3516590465
 21
89.3439552086
  0
LINE
  5
2AF
100
AcDbEntity
  8
0
100
AcDbLine
 62
7
  6
CONTINUOUS
 10
126.3516590465
 20
88.0113681095
 11
126.3516590465
 21
87.6282727021
  0
LINE
  5
2B0
100
AcDbEntity
  8
0
100
AcDbLine
 62
7
  6
CONTINUOUS
 10
126.3516590465
 20
87.012386443
 11
126.3516590465
 21
86.6292910355
  0
LINE
  5
2B1
100
AcDbEntity
  8
0
100
AcDbLine
 62
7
  6
CONTINUOUS
 10
126.3516590465
 20
85.0052589672
 11
126.3516590465
 21
83.0109610337
  0
LINE
  5
2B2
100
AcDbEntity
  8
0
100
AcDbLine
 62
7
  6
CONTINUOUS
 10
126.3516590465
 20
81.2476212519
 11
126.3516590465
 21
80.298130204
  0
LINE
  5
2B3
100
AcDbEntity
  8
0
100
AcDbLine
 62
7
  6
CONTINUOUS
 10
126.3516590465
 20
79.960859372
 11
126.3516590465
 21
79.533771767
  0
LINE
  5
2B4
100
AcDbEntity
  8
0
100
AcDbLine
 62
7
  6
CONTINUOUS
 10
126.3516590465
 20
77.9665620821
 11
126.3516590465
 21
77.5394744771
  0
LINE
  5
2B5
100
AcDbEntity
  8
0
100
AcDbLine
 62
7
  6
CONTINUOUS
 10
126.3516590465
 20
77.1820407289
 11
126.3516590465
 21
76.7989449995
  0
LINE
  5
2B6
100
AcDbEntity
  8
0
100
AcDbLine
 62
7
  6
CONTINUOUS
 10
126.3516590465
 20
76.0804114598
 11
126.3516590465
 21
75.6973157304
  0
LINE
  5
2B7
100
AcDbEntity
  8
0
100
AcDbLine
 62
7
  6
CONTINUOUS
 10
126.3516590465
 20
74.9769490885
 11
126.3516590465
 21
74.5938533592
  0
LINE
  5
2B8
100
AcDbEntity
  8
0
100
AcDbLine
 62
7
  6
CONTINUOUS
 10
108.6654216051
 20
89.7338533592
 11
106.8515110049
 21
86.1738533592
  0
LINE
  5
2B9
100
AcDbEntity
  8
0
100
AcDbLine
 62
7
  6
CONTINUOUS
 10
109.4510499714
 20
89.7338533592
 11
107.6371393712
 21
86.1738533592
  0
LINE
  5
2BA
100
AcDbEntity
  8
0
100
AcDbLine
 62
7
  6
CONTINUOUS
 10
130.7800861712
 20
132.5654262344
 11
148.0227268583
 21
149.8080669216
  0
LINE
  5
2BB
100
AcDbEntity
  8
0
100
AcDbLine
 62
7
  6
CONTINUOUS
 10
123.6516590465
 20
122.3938533592
 11
123.468816334
 21
122.2110106467
  0
LINE
  5
2BC
100
AcDbEntity
  8
0
100
AcDbLine
 62
7
  6
CONTINUOUS
 10
123.3516590465
 20
74.5938533592
 11
126.3516590465
 21
74.5938533592
  0
LINE
  5
2BD
100
AcDbEntity
  8
0
100
AcDbLine
 62
7
  6
CONTINUOUS
 10
123.911740588
 20
74.9769490885
 11
126.3516590465
 21
74.9769490885
  0
LINE
  5
2BE
100
AcDbEntity
  8
0
100
AcDbLine
 62
7
  6
CONTINUOUS
 10
144.8412960754
 20
75.9286944239
 11
132.5719155754
 21
75.9286944239
  0
LINE
  5
2BF
100
AcDbEntity
  8
0
100
AcDbLine
 62
7
  6
CONTINUOUS
 10
91.5512814615
 20
75.9286944239
 11
79.8620220175
 21
75.9286944239
  0
LINE
  5
2C0
100
AcDbEntity
  8
0
100
AcDbLine
 62
7
  6
CONTINUOUS
 10
123.9056305159
 20
76.7989449995
 11
126.3516590465
 21
76.7989449995
  0
LINE
  5
2C1
100
AcDbEntity
  8
0
100
AcDbLine
 62
7
  6
CONTINUOUS
 10
123.3516590465
 20
77.1820407289
 11
126.3516590465
 21
77.1820407289
  0
LINE
  5
2C2
100
AcDbEntity
  8
0
100
AcDbLine
 62
7
  6
CONTINUOUS
 10
144.8412960754
 20
80.1491804822
 11
132.5719155754
 21
80.1491804822
  0
LINE
  5
2C3
100
AcDbEntity
  8
0
100
AcDbLine
 62
7
  6
CONTINUOUS
 10
91.5512814615
 20
80.1491804822
 11
79.8620220175
 21
80.1491804822
  0
LINE
  5
2C4
100
AcDbEntity
  8
0
100
AcDbLine
 62
7
  6
CONTINUOUS
 10
123.3516590465
 20
80.298130204
 11
126.3516590465
 21
80.298130204
  0
LINE
  5
2C5
100
AcDbEntity
  8
0
100
AcDbLine
 62
7
  6
CONTINUOUS
 10
101.0516590465
 20
122.3938533592
 11
101.2345017589
 21
122.2110106467
  0
LINE
  5
2C6
100
AcDbEntity
  8
0
100
AcDbLine
 62
7
  6
CONTINUOUS
 10
129.3516590465
 20
111.5938533592
 11
129.3516590465
 21
65.5938533592
  0
LINE
  5
2C7
100
AcDbEntity
  8
GEOM
100
AcDbLine
 62
7
  6
CONTINUOUS
 10
129.3516590465
 20
65.5938533592
 11
129.3516590465
 21
111.5938533592
  0
LINE
  5
2C8
100
AcDbEntity
  8
0
100
AcDbLine
 62
7
  6
CONTINUOUS
 10
130.7914930159
 20
111.5938533592
 11
130.7914930159
 21
65.5938533592
  0
LINE
  5
2C9
100
AcDbEntity
  8
0
100
AcDbLine
 62
7
  6
CONTINUOUS
 10
131.5432471143
 20
111.0674694688
 11
131.5432471143
 21
66.1202372495
  0
LINE
  5
2CA
100
AcDbEntity
  8
0
100
AcDbLine
 62
7
  6
CONTINUOUS
 10
131.7970188904
 20
66.8174694738
 11
131.7970188904
 21
66.9806725192
  0
LINE
  5
2CB
100
AcDbEntity
  8
0
100
AcDbLine
 62
7
  6
CONTINUOUS
 10
131.7970188904
 20
75.4827057445
 11
131.7970188904
 21
80.0918197975
  0
LINE
  5
2CC
100
AcDbEntity
  8
0
100
AcDbLine
 62
7
  6
CONTINUOUS
 10
131.7970188904
 20
97.0958869211
 11
131.7970188904
 21
101.7050009659
  0
LINE
  5
2CD
100
AcDbEntity
  8
0
100
AcDbLine
 62
7
  6
CONTINUOUS
 10
131.7970188904
 20
110.2070341996
 11
131.7970188904
 21
110.3702372445
  0
LINE
  5
2CE
100
AcDbEntity
  8
0
100
AcDbLine
 62
7
  6
CONTINUOUS
 10
132.548772987
 20
67.3438533592
 11
132.548772987
 21
67.4841172245
  0
LINE
  5
2CF
100
AcDbEntity
  8
0
100
AcDbLine
 62
7
  6
CONTINUOUS
 10
132.548772987
 20
75.9280248618
 11
132.548772987
 21
80.1499459807
  0
LINE
  5
2D0
100
AcDbEntity
  8
0
100
AcDbLine
 62
7
  6
CONTINUOUS
 10
132.548772987
 20
97.0377607377
 11
132.548772987
 21
101.259681851
  0
LINE
  5
2D1
100
AcDbEntity
  8
0
100
AcDbLine
 62
7
  6
CONTINUOUS
 10
132.548772987
 20
109.7035894938
 11
132.548772987
 21
109.8438533592
  0
LINE
  5
2D2
100
AcDbEntity
  8
0
100
AcDbLine
 62
7
  6
CONTINUOUS
 10
123.7345511783
 20
80.6812262553
 11
125.9687670041
 21
80.6812262553
  0
LINE
  5
2D3
100
AcDbEntity
  8
0
100
AcDbLine
 62
7
  6
CONTINUOUS
 10
123.3516590465
 20
83.0109610337
 11
126.3516590465
 21
83.0109610337
  0
LINE
  5
2D4
100
AcDbEntity
  8
0
100
AcDbLine
 62
7
  6
CONTINUOUS
 10
123.7345511783
 20
83.3940570849
 11
124.6123514641
 21
83.3940570849
  0
LINE
  5
2D5
100
AcDbEntity
  8
0
100
AcDbLine
 62
7
  6
CONTINUOUS
 10
124.9952435959
 20
83.3940570849
 11
125.9687670041
 21
83.3940570849
  0
LINE
  5
2D6
100
AcDbEntity
  8
0
100
AcDbLine
 62
7
  6
CONTINUOUS
 10
103.3997932388
 20
84.4138533592
 11
117.3997932388
 21
84.4138533592
  0
LINE
  5
2D7
100
AcDbEntity
  8
0
100
AcDbLine
 62
7
  6
CONTINUOUS
 10
124.6123514641
 20
84.8659512537
 11
124.9952435959
 21
84.8659512537
  0
LINE
  5
2D8
100
AcDbEntity
  8
0
100
AcDbLine
 62
7
  6
CONTINUOUS
 10
123.3516590465
 20
84.9850954073
 11
123.7345511783
 21
84.9850954073
  0
LINE
  5
2D9
100
AcDbEntity
  8
0
100
AcDbLine
 62
7
  6
CONTINUOUS
 10
125.9687670041
 20
85.0052589672
 11
126.3516590465
 21
85.0052589672
  0
LINE
  5
2DA
100
AcDbEntity
  8
0
100
AcDbLine
 62
7
  6
CONTINUOUS
 10
82.6916590465
 20
85.0838533592
 11
85.304575413
 21
85.0838533592
  0
LINE
  5
2DB
100
AcDbEntity
  8
0
100
AcDbLine
 62
7
  6
CONTINUOUS
 10
89.2140655542
 20
85.0838533592
 11
90.204575413
 21
85.0838533592
  0
LINE
  5
2DC
100
AcDbEntity
  8
0
100
AcDbLine
 62
7
  6
CONTINUOUS
 10
104.0997932388
 20
85.1138533592
 11
116.6997932388
 21
85.1138533592
  0
LINE
  5
2DD
100
AcDbEntity
  8
0
100
AcDbLine
 62
7
  6
CONTINUOUS
 10
84.4078577624
 20
85.9238533592
 11
82.6916590465
 21
85.9238533592
  0
LINE
  5
2DE
100
AcDbEntity
  8
0
100
AcDbLine
 62
7
  6
CONTINUOUS
 10
106.8515110049
 20
86.1738533592
 11
107.6371393712
 21
86.1738533592
  0
LINE
  5
2DF
100
AcDbEntity
  8
0
100
AcDbLine
 62
7
  6
CONTINUOUS
 10
110.4310499714
 20
86.1738533592
 11
111.1310499714
 21
86.1738533592
  0
LINE
  5
2E0
100
AcDbEntity
  8
0
100
AcDbLine
 62
7
  6
CONTINUOUS
 10
112.1110499714
 20
86.1738533592
 11
112.8110499714
 21
86.1738533592
  0
LINE
  5
2E1
100
AcDbEntity
  8
0
100
AcDbLine
 62
7
  6
CONTINUOUS
 10
123.3516590465
 20
86.6292910355
 11
126.3516590465
 21
86.6292910355
  0
LINE
  5
2E2
100
AcDbEntity
  8
0
100
AcDbLine
 62
7
  6
CONTINUOUS
 10
125.484041946
 20
95.2608589428
 11
126.3516590465
 21
94.9950756329
  0
LINE
  5
2E3
100
AcDbEntity
  8
0
100
AcDbLine
 62
7
  6
CONTINUOUS
 10
123.7997242082
 20
95.779597308
 11
125.1011499036
 21
95.3745056408
  0
LINE
  5
2E4
100
AcDbEntity
  8
0
100
AcDbLine
 62
7
  6
CONTINUOUS
 10
123.3516590465
 20
95.554138543
 11
126.3516590465
 21
94.567987706
  0
LINE
  5
2E5
100
AcDbEntity
  8
0
100
AcDbLine
 62
7
  6
CONTINUOUS
 10
123.3516590465
 20
101.2217564839
 11
124.7813942898
 21
100.462896468
  0
LINE
  5
2E6
100
AcDbEntity
  8
0
100
AcDbLine
 62
7
  6
CONTINUOUS
 10
123.3516590465
 20
101.6891689556
 11
125.1683596242
 21
100.6535281437
  0
LINE
  5
2E7
100
AcDbEntity
  8
0
100
AcDbLine
 62
7
  6
CONTINUOUS
 10
97.6016590465
 20
117.4495157919
 11
102.1429670441
 21
114.827590397
  0
LINE
  5
2E8
100
AcDbEntity
  8
0
100
AcDbLine
 62
7
  6
CONTINUOUS
 10
97.8516590465
 20
117.8825284938
 11
102.1774364658
 21
115.3850397363
  0
LINE
  5
2E9
100
AcDbEntity
  8
0
100
AcDbLine
 62
7
  6
CONTINUOUS
 10
131.7970188904
 20
110.3702372445
 11
131.543247114
 21
111.0674694698
  0
LINE
  5
2EA
100
AcDbEntity
  8
0
100
AcDbLine
 62
7
  6
CONTINUOUS
 10
123.1516590465
 20
115.9113960072
 11
122.8016590465
 21
115.709323413
  0
LINE
  5
2EB
100
AcDbEntity
  8
0
100
AcDbLine
 62
7
  6
CONTINUOUS
 10
123.3516590465
 20
87.012386443
 11
126.3516590465
 21
87.012386443
  0
LINE
  5
2EC
100
AcDbEntity
  8
0
100
AcDbLine
 62
7
  6
CONTINUOUS
 10
123.3516590465
 20
87.6282727021
 11
126.3516590465
 21
87.6282727021
  0
LINE
  5
2ED
100
AcDbEntity
  8
0
100
AcDbLine
 62
7
  6
CONTINUOUS
 10
123.9626569617
 20
88.0113681095
 11
126.3516590465
 21
88.0113681095
  0
LINE
  5
2EE
100
AcDbEntity
  8
0
100
AcDbLine
 62
7
  6
CONTINUOUS
 10
85.304575413
 20
88.5938533592
 11
87.020774129
 21
88.5938533592
  0
LINE
  5
2EF
100
AcDbEntity
  8
0
100
AcDbLine
 62
7
  6
CONTINUOUS
 10
114.3510499714
 20
88.5938533592
 11
114.7710499714
 21
88.5938533592
  0
LINE
  5
2F0
100
AcDbEntity
  8
0
100
AcDbLine
 62
7
  6
CONTINUOUS
 10
86.8116590465
 20
89.0438533592
 11
85.2478577624
 21
89.0438533592
  0
LINE
  5
2F1
100
AcDbEntity
  8
0
100
AcDbLine
 62
7
  6
CONTINUOUS
 10
114.7710499714
 20
89.3138533592
 11
115.4710499714
 21
89.3138533592
  0
LINE
  5
2F2
100
AcDbEntity
  8
0
100
AcDbLine
 62
7
  6
CONTINUOUS
 10
123.3516590465
 20
89.384281041
 11
125.7141845096
 21
89.384281041
  0
LINE
  5
2F3
100
AcDbEntity
  8
0
100
AcDbLine
 62
7
  6
CONTINUOUS
 10
105.0797932388
 20
89.7338533592
 11
105.8654216051
 21
89.7338533592
  0
LINE
  5
2F4
100
AcDbEntity
  8
0
100
AcDbLine
 62
7
  6
CONTINUOUS
 10
108.6654216051
 20
89.7338533592
 11
109.4510499714
 21
89.7338533592
  0
LINE
  5
2F5
100
AcDbEntity
  8
0
100
AcDbLine
 62
7
  6
CONTINUOUS
 10
110.4310499714
 20
89.7338533592
 11
111.1310499714
 21
89.7338533592
  0
LINE
  5
2F6
100
AcDbEntity
  8
0
100
AcDbLine
 62
7
  6
CONTINUOUS
 10
112.1110499714
 20
89.7338533592
 11
112.8110499714
 21
89.7338533592
  0
LINE
  5
2F7
100
AcDbEntity
  8
0
100
AcDbLine
 62
7
  6
CONTINUOUS
 10
123.3516590465
 20
89.7673764485
 11
126.3516590465
 21
89.7673764485
  0
LINE
  5
2F8
100
AcDbEntity
  8
0
100
AcDbLine
 62
7
  6
CONTINUOUS
 10
110.4310499714
 20
90.4338533592
 11
111.1310499714
 21
90.4338533592
  0
LINE
  5
2F9
100
AcDbEntity
  8
0
100
AcDbLine
 62
7
  6
CONTINUOUS
 10
110.4310499714
 20
91.1338533592
 11
111.1310499714
 21
91.1338533592
  0
LINE
  5
2FA
100
AcDbEntity
  8
0
100
AcDbLine
 62
7
  6
CONTINUOUS
 10
82.6916590465
 20
91.4438533592
 11
84.4078577624
 21
91.4438533592
  0
LINE
  5
2FB
100
AcDbEntity
  8
0
100
AcDbLine
 62
7
  6
CONTINUOUS
 10
85.2478577624
 20
91.4438533592
 11
86.8116590465
 21
91.4438533592
  0
LINE
  5
2FC
100
AcDbEntity
  8
0
100
AcDbLine
 62
7
  6
CONTINUOUS
 10
123.3516590465
 20
91.5435477036
 11
126.3516590465
 21
91.5435477036
  0
LINE
  5
2FD
100
AcDbEntity
  8
0
100
AcDbLine
 62
7
  6
CONTINUOUS
 10
123.3516590465
 20
91.9266431111
 11
126.3516590465
 21
91.9266431111
  0
LINE
  5
2FE
100
AcDbEntity
  8
0
100
AcDbLine
 62
7
  6
CONTINUOUS
 10
104.0997932388
 20
92.1138533592
 11
116.6997932388
 21
92.1138533592
  0
LINE
  5
2FF
100
AcDbEntity
  8
0
100
AcDbLine
 62
7
  6
CONTINUOUS
 10
86.8116590465
 20
92.2838533592
 11
82.6916590465
 21
92.2838533592
  0
LINE
  5
300
100
AcDbEntity
  8
0
100
AcDbLine
 62
7
  6
CONTINUOUS
 10
123.3516590465
 20
92.3189039486
 11
123.7345511783
 21
92.3189039486
  0
LINE
  5
301
100
AcDbEntity
  8
0
100
AcDbLine
 62
7
  6
CONTINUOUS
 10
114.8516590465
 20
123.3938533592
 11
107.3915383574
 21
131.3938533592
  0
LINE
  5
302
100
AcDbEntity
  8
0
100
AcDbLine
 62
7
  6
CONTINUOUS
 10
144.8412960754
 20
67.3438533592
 11
144.8412960754
 21
67.4840215469
  0
LINE
  5
303
100
AcDbEntity
  8
0
100
AcDbLine
 62
7
  6
CONTINUOUS
 10
144.8412960754
 20
75.9286944239
 11
144.8412960754
 21
80.1491804822
  0
LINE
  5
304
100
AcDbEntity
  8
0
100
AcDbLine
 62
7
  6
CONTINUOUS
 10
144.8412960754
 20
97.0385262362
 11
144.8412960754
 21
101.2590122945
  0
LINE
  5
305
100
AcDbEntity
  8
0
100
AcDbLine
 62
7
  6
CONTINUOUS
 10
144.8412960754
 20
109.7036851715
 11
144.8412960754
 21
109.8438533592
  0
LINE
  5
306
100
AcDbEntity
  8
0
100
AcDbLine
 62
7
  6
CONTINUOUS
 10
145.8516590465
 20
108.0938533592
 11
145.8516590465
 21
69.0938533592
  0
LINE
  5
307
100
AcDbEntity
  8
0
100
AcDbLine
 62
7
  6
CONTINUOUS
 10
103.3997932388
 20
92.8138533592
 11
117.3997932388
 21
92.8138533592
  0
LINE
  5
308
100
AcDbEntity
  8
0
100
AcDbLine
 62
7
  6
CONTINUOUS
 10
123.7345511783
 20
93.2042402047
 11
126.3516590465
 21
93.2042402047
  0
LINE
  5
309
100
AcDbEntity
  8
0
100
AcDbLine
 62
7
  6
CONTINUOUS
 10
123.7345511783
 20
93.5873356121
 11
126.3516590465
 21
93.5873356121
  0
LINE
  5
30A
100
AcDbEntity
  8
0
100
AcDbLine
 62
7
  6
CONTINUOUS
 10
123.3516590465
 20
94.4726718682
 11
123.7345511783
 21
94.4726718682
  0
LINE
  5
30B
100
AcDbEntity
  8
0
100
AcDbLine
 62
7
  6
CONTINUOUS
 10
144.8412960754
 20
97.0385262362
 11
132.5719155754
 21
97.0385262362
  0
LINE
  5
30C
100
AcDbEntity
  8
0
100
AcDbLine
 62
7
  6
CONTINUOUS
 10
91.5512814615
 20
97.0385262362
 11
79.8620220175
 21
97.0385262362
  0
LINE
  5
30D
100
AcDbEntity
  8
0
100
AcDbLine
 62
7
  6
CONTINUOUS
 10
123.3516590465
 20
97.3486406582
 11
126.3516590465
 21
97.3486406582
  0
LINE
  5
30E
100
AcDbEntity
  8
0
100
AcDbLine
 62
7
  6
CONTINUOUS
 10
123.3516590465
 20
97.7317347782
 11
125.9687670041
 21
97.7317347782
  0
LINE
  5
30F
100
AcDbEntity
  8
0
100
AcDbLine
 62
7
  6
CONTINUOUS
 10
103.5042080808
 20
126.036984668
 11
104.1494875342
 21
125.7006877936
  0
LINE
  5
310
100
AcDbEntity
  8
0
100
AcDbLine
 62
7
  6
CONTINUOUS
 10
118.0579981442
 20
134.5938533592
 11
118.2496372638
 21
134.3938533592
  0
LINE
  5
311
100
AcDbEntity
  8
0
100
AcDbLine
 62
7
  6
CONTINUOUS
 10
145.8516590465
 20
108.0938533592
 11
144.8412960754
 21
109.8438533592
  0
LINE
  5
312
100
AcDbEntity
  8
0
100
AcDbLine
 62
7
  6
CONTINUOUS
 10
149.8516590465
 20
150.1938533592
 11
149.8516590465
 21
150.3938533592
  0
LINE
  5
313
100
AcDbEntity
  8
0
100
AcDbLine
 62
7
  6
CONTINUOUS
 10
149.8516590465
 20
150.7305284011
 11
149.8516590465
 21
153.0571783173
  0
LINE
  5
314
100
AcDbEntity
  8
0
100
AcDbLine
 62
7
  6
CONTINUOUS
 10
149.8516590465
 20
153.3938533592
 11
149.8516590465
 21
153.5938533592
  0
LINE
  5
315
100
AcDbEntity
  8
0
100
AcDbLine
 62
7
  6
CONTINUOUS
 10
151.1516590465
 20
148.8938533592
 11
151.1516590465
 21
154.8938533592
  0
LINE
  5
316
100
AcDbEntity
  8
0
100
AcDbLine
 62
7
  6
CONTINUOUS
 10
131.7970188904
 20
66.8174694738
 11
131.543247114
 21
66.1202372485
  0
LINE
  5
317
100
AcDbEntity
  8
0
100
AcDbLine
 62
7
  6
CONTINUOUS
 10
125.1683596242
 20
100.2704314488
 11
123.3516590465
 21
99.2347906369
  0
LINE
  5
318
100
AcDbEntity
  8
0
100
AcDbLine
 62
7
  6
CONTINUOUS
 10
124.7813942898
 20
100.462896468
 11
123.3516590465
 21
99.7022031086
  0
LINE
  5
319
100
AcDbEntity
  8
0
100
AcDbLine
 62
7
  6
CONTINUOUS
 10
125.9687670041
 20
99.0771539944
 11
126.3516590465
 21
99.0771539944
  0
LINE
  5
31A
100
AcDbEntity
  8
0
100
AcDbLine
 62
7
  6
CONTINUOUS
 10
125.1683596242
 20
100.2704314488
 11
126.3516590465
 21
100.2704314488
  0
LINE
  5
31B
100
AcDbEntity
  8
0
100
AcDbLine
 62
7
  6
CONTINUOUS
 10
125.1683596242
 20
100.6535281437
 11
126.3516590465
 21
100.6535281437
  0
LINE
  5
31C
100
AcDbEntity
  8
0
100
AcDbLine
 62
7
  6
CONTINUOUS
 10
144.8412960754
 20
101.2590122945
 11
132.5719155754
 21
101.2590122945
  0
LINE
  5
31D
100
AcDbEntity
  8
0
100
AcDbLine
 62
7
  6
CONTINUOUS
 10
91.5512814615
 20
101.2590122945
 11
79.8620220175
 21
101.2590122945
  0
LINE
  5
31E
100
AcDbEntity
  8
0
100
AcDbLine
 62
7
  6
CONTINUOUS
 10
106.3516590465
 20
134.5938533592
 11
106.6946226107
 21
134.3938533592
  0
LINE
  5
31F
100
AcDbEntity
  8
0
100
AcDbLine
 62
7
  6
CONTINUOUS
 10
156.5950401343
 20
154.8938533592
 11
156.5950401343
 21
154.9465348565
  0
LINE
  5
320
100
AcDbEntity
  8
0
100
AcDbLine
 62
7
  6
CONTINUOUS
 10
93.8135392618
 20
107.5938533592
 11
97.8374454841
 21
107.5938533592
  0
LINE
  5
321
100
AcDbEntity
  8
0
100
AcDbLine
 62
7
  6
CONTINUOUS
 10
144.8412960754
 20
109.7036851715
 11
132.5719155754
 21
109.7036851715
  0
LINE
  5
322
100
AcDbEntity
  8
0
100
AcDbLine
 62
7
  6
CONTINUOUS
 10
91.5512814615
 20
109.7036851715
 11
79.8620220175
 21
109.7036851715
  0
LINE
  5
323
100
AcDbEntity
  8
0
100
AcDbLine
 62
7
  6
CONTINUOUS
 10
144.8412960754
 20
109.8438533592
 11
132.548772987
 21
109.8438533592
  0
LINE
  5
324
100
AcDbEntity
  8
0
100
AcDbLine
 62
7
  6
CONTINUOUS
 10
91.5907407254
 20
109.8438533592
 11
79.8620220175
 21
109.8438533592
  0
LINE
  5
325
100
AcDbEntity
  8
0
100
AcDbLine
 62
7
  6
CONTINUOUS
 10
161.9394190037
 20
154.8938533592
 11
161.9394190037
 21
154.9465348565
  0
LINE
  5
326
100
AcDbEntity
  8
0
100
AcDbLine
 62
7
  6
CONTINUOUS
 10
162.7638990892
 20
154.8938533592
 11
162.7638990892
 21
154.9465348565
  0
LINE
  5
327
100
AcDbEntity
  8
0
100
AcDbLine
 62
7
  6
CONTINUOUS
 10
125.7141845096
 20
89.384281041
 11
123.3516590465
 21
88.0516939419
  0
LINE
  5
328
100
AcDbEntity
  8
0
100
AcDbLine
 62
7
  6
CONTINUOUS
 10
126.3516590465
 20
89.3439552086
 11
123.9626569617
 21
88.0113681095
  0
LINE
  5
329
100
AcDbEntity
  8
0
100
AcDbLine
 62
7
  6
CONTINUOUS
 10
126.3516590465
 20
96.989372279
 11
123.3516590465
 21
96.0032214421
  0
LINE
  5
32A
100
AcDbEntity
  8
0
100
AcDbLine
 62
7
  6
CONTINUOUS
 10
125.1011499036
 20
96.1828556317
 11
123.7997242082
 21
95.779597308
  0
LINE
  5
32B
100
AcDbEntity
  8
0
100
AcDbLine
 62
7
  6
CONTINUOUS
 10
126.3516590465
 20
96.5622856396
 11
125.484041946
 21
96.2964997547
  0
LINE
  5
32C
100
AcDbEntity
  8
0
100
AcDbLine
 62
7
  6
CONTINUOUS
 10
123.4016590465
 20
111.5938533592
 11
130.7914930159
 21
111.5938533592
  0
LINE
  5
32D
100
AcDbEntity
  8
0
100
AcDbLine
 62
7
  6
CONTINUOUS
 10
122.6016590465
 20
115.3629132515
 11
102.4691949579
 21
115.3629132515
  0
LINE
  5
32E
100
AcDbEntity
  8
0
100
AcDbLine
 62
7
  6
CONTINUOUS
 10
102.272828914
 20
115.709323413
 11
122.8016590465
 21
115.709323413
  0
LINE
  5
32F
100
AcDbEntity
  8
0
100
AcDbLine
 62
7
  6
CONTINUOUS
 10
123.1516590465
 20
115.9113960072
 11
101.9107144855
 21
115.9113960072
  0
LINE
  5
330
100
AcDbEntity
  8
0
100
AcDbLine
 62
7
  6
CONTINUOUS
 10
101.4040565692
 20
116.2578061688
 11
123.3516590465
 21
116.2578061688
  0
LINE
  5
331
100
AcDbEntity
  8
0
100
AcDbLine
 62
7
  6
CONTINUOUS
 10
97.3516590465
 20
116.3938533592
 11
99.4301200155
 21
116.3938533592
  0
LINE
  5
332
100
AcDbEntity
  8
0
100
AcDbLine
 62
7
  6
CONTINUOUS
 10
114.8516590465
 20
116.3938533592
 11
121.3516590465
 21
116.3938533592
  0
LINE
  5
333
100
AcDbEntity
  8
0
100
AcDbLine
 62
7
  6
CONTINUOUS
 10
116.3516590465
 20
136.7485538976
 11
118.0516590465
 21
135.7670584399
  0
LINE
  5
334
100
AcDbEntity
  8
0
100
AcDbLine
 62
7
  6
CONTINUOUS
 10
168.1082779586
 20
154.8938533592
 11
168.1082779586
 21
154.9465348565
  0
LINE
  5
335
100
AcDbEntity
  8
0
100
AcDbLine
 62
7
  6
CONTINUOUS
 10
168.1230196445
 20
154.8938533592
 11
168.1230196445
 21
154.9465348565
  0
LINE
  5
336
100
AcDbEntity
  8
0
100
AcDbLine
 62
7
  6
CONTINUOUS
 10
171.4209399862
 20
154.8938533592
 11
171.4209399862
 21
154.9465348565
  0
LINE
  5
337
100
AcDbEntity
  8
0
100
AcDbLine
 62
7
  6
CONTINUOUS
 10
145.8516590465
 20
69.0938533592
 11
144.8412960754
 21
67.3438533592
  0
LINE
  5
338
100
AcDbEntity
  8
0
100
AcDbLine
 62
7
  6
CONTINUOUS
 10
97.8516590465
 20
117.8825284938
 11
97.3516590465
 21
117.8825284938
  0
LINE
  5
339
100
AcDbEntity
  8
0
100
AcDbLine
 62
7
  6
CONTINUOUS
 10
97.3516590465
 20
121.0938533592
 11
101.6947008828
 21
121.0938533592
  0
LINE
  5
33A
100
AcDbEntity
  8
0
100
AcDbLine
 62
7
  6
CONTINUOUS
 10
101.2300584422
 20
121.5938533592
 11
97.8516590465
 21
121.5938533592
  0
LINE
  5
33B
100
AcDbEntity
  8
0
100
AcDbLine
 62
7
  6
CONTINUOUS
 10
101.3516590465
 20
121.8938533592
 11
101.5253221751
 21
121.8938533592
  0
LINE
  5
33C
100
AcDbEntity
  8
0
100
AcDbLine
 62
7
  6
CONTINUOUS
 10
114.8516590465
 20
121.9281679342
 11
101.3516590465
 21
121.9281679342
  0
LINE
  5
33D
100
AcDbEntity
  8
0
100
AcDbLine
 62
7
  6
CONTINUOUS
 10
114.8516590465
 20
122.2110105463
 11
101.2345017589
 21
122.2110106467
  0
LINE
  5
33E
100
AcDbEntity
  8
0
100
AcDbLine
 62
7
  6
CONTINUOUS
 10
123.6516590465
 20
122.3938533592
 11
123.535480452
 21
122.3938533592
  0
LINE
  5
33F
100
AcDbEntity
  8
0
100
AcDbLine
 62
7
  6
CONTINUOUS
 10
114.8516590465
 20
122.3938533592
 11
101.0516590465
 21
122.3938533592
  0
LINE
  5
340
100
AcDbEntity
  8
0
100
AcDbLine
 62
7
  6
CONTINUOUS
 10
106.6453199487
 20
134.5938533592
 11
107.4893145336
 21
134.3938533592
  0
LINE
  5
341
100
AcDbEntity
  8
0
100
AcDbLine
 62
7
  6
CONTINUOUS
 10
117.2057610127
 20
134.5938533592
 11
117.9132438439
 21
134.3938533592
  0
LINE
  5
342
100
AcDbEntity
  8
0
100
AcDbLine
 62
7
  6
CONTINUOUS
 10
172.7203557678
 20
154.9465348565
 11
172.7203557678
 21
154.8938533592
  0
LINE
  5
343
100
AcDbEntity
  8
0
100
AcDbLine
 62
7
  6
CONTINUOUS
 10
173.3478551153
 20
154.9465348565
 11
173.3478551153
 21
154.8938533592
  0
LINE
  5
344
100
AcDbEntity
  8
0
100
AcDbLine
 62
7
  6
CONTINUOUS
 10
173.533923447
 20
154.8938533592
 11
173.533923447
 21
154.9465348565
  0
LINE
  5
345
100
AcDbEntity
  8
0
100
AcDbLine
 62
7
  6
CONTINUOUS
 10
176.0412105565
 20
154.8938533592
 11
176.0412105565
 21
154.9465348565
  0
LINE
  5
346
100
AcDbEntity
  8
0
100
AcDbLine
 62
7
  6
CONTINUOUS
 10
176.2272788881
 20
154.9465348565
 11
176.2272788881
 21
154.8938533592
  0
LINE
  5
347
100
AcDbEntity
  8
0
100
AcDbLine
 62
7
  6
CONTINUOUS
 10
176.8547782357
 20
154.9465348565
 11
176.8547782357
 21
154.8938533592
  0
LINE
  5
348
100
AcDbEntity
  8
0
100
AcDbLine
 62
7
  6
CONTINUOUS
 10
126.3516590465
 20
79.960859372
 11
123.3516590465
 21
78.9747088569
  0
LINE
  5
349
100
AcDbEntity
  8
0
100
AcDbLine
 62
7
  6
CONTINUOUS
 10
102.1774364673
 20
115.3850397301
 11
102.4595088566
 21
115.4514180828
  0
LINE
  5
34A
100
AcDbEntity
  8
0
100
AcDbLine
 62
7
  6
CONTINUOUS
 10
97.3516590465
 20
123.3938533592
 11
100.3516590465
 21
123.3938533592
  0
LINE
  5
34B
100
AcDbEntity
  8
0
100
AcDbLine
 62
7
  6
CONTINUOUS
 10
113.0798803828
 20
125.2938533592
 11
101.0516590465
 21
125.2938533592
  0
LINE
  5
34C
100
AcDbEntity
  8
0
100
AcDbLine
 62
7
  6
CONTINUOUS
 10
112.8001258569
 20
125.5938533592
 11
101.3516590465
 21
125.5938533592
  0
LINE
  5
34D
100
AcDbEntity
  8
0
100
AcDbLine
 62
7
  6
CONTINUOUS
 10
104.0517226338
 20
126.5938533592
 11
111.8676107708
 21
126.5938533592
  0
LINE
  5
34E
100
AcDbEntity
  8
0
100
AcDbLine
 62
7
  6
CONTINUOUS
 10
110.4975570802
 20
134.5938533592
 11
112.1972150514
 21
134.3938533592
  0
LINE
  5
34F
100
AcDbEntity
  8
0
100
AcDbLine
 62
7
  6
CONTINUOUS
 10
112.3516590465
 20
134.5938533592
 11
114.0273495802
 21
134.3938533592
  0
LINE
  5
350
100
AcDbEntity
  8
0
100
AcDbLine
 62
7
  6
CONTINUOUS
 10
108.8249475327
 20
134.5938533592
 11
110.382198577
 21
134.3938533592
  0
LINE
  5
351
100
AcDbEntity
  8
0
100
AcDbLine
 62
7
  6
CONTINUOUS
 10
114.2057610127
 20
134.5938533592
 11
115.6934558443
 21
134.3938533592
  0
LINE
  5
352
100
AcDbEntity
  8
0
100
AcDbLine
 62
7
  6
CONTINUOUS
 10
107.4975570802
 20
134.5938533592
 11
108.7599666153
 21
134.3938533592
  0
LINE
  5
353
100
AcDbEntity
  8
0
100
AcDbLine
 62
7
  6
CONTINUOUS
 10
115.8783705602
 20
134.5938533592
 11
117.0324437542
 21
134.3938533592
  0
LINE
  5
354
100
AcDbEntity
  8
0
100
AcDbLine
 62
7
  6
CONTINUOUS
 10
178.1541940173
 20
154.8938533592
 11
178.1541940173
 21
154.9465348565
  0
LINE
  5
355
100
AcDbEntity
  8
0
100
AcDbLine
 62
7
  6
CONTINUOUS
 10
179.2535007978
 20
154.8938533592
 11
179.2535007978
 21
154.9465348565
  0
LINE
  5
356
100
AcDbEntity
  8
0
100
AcDbLine
 62
7
  6
CONTINUOUS
 10
180.4215142522
 20
154.9465348565
 11
180.4215142522
 21
154.8938533592
  0
LINE
  5
357
100
AcDbEntity
  8
0
100
AcDbLine
 62
7
  6
CONTINUOUS
 10
181.1085809901
 20
154.9465348565
 11
181.1085809901
 21
154.8938533592
  0
LINE
  5
358
100
AcDbEntity
  8
0
100
AcDbLine
 62
7
  6
CONTINUOUS
 10
182.1472245965
 20
154.8938533592
 11
182.1472245965
 21
154.9465348565
  0
LINE
  5
359
100
AcDbEntity
  8
0
100
AcDbLine
 62
7
  6
CONTINUOUS
 10
183.3839447247
 20
154.8938533592
 11
183.3839447247
 21
154.9465348565
  0
LINE
  5
35A
100
AcDbEntity
  8
0
100
AcDbLine
 62
7
  6
CONTINUOUS
 10
125.1011499036
 20
79.1543420809
 11
123.7997242082
 21
78.7510834354
  0
LINE
  5
35B
100
AcDbEntity
  8
0
100
AcDbLine
 62
7
  6
CONTINUOUS
 10
126.3516590465
 20
79.533771767
 11
125.484041946
 21
79.2679878133
  0
LINE
  5
35C
100
AcDbEntity
  8
0
100
AcDbLine
 62
7
  6
CONTINUOUS
 10
126.3516590465
 20
75.6973157304
 11
123.911740588
 21
74.9769490885
  0
LINE
  5
35D
100
AcDbEntity
  8
0
100
AcDbLine
 62
7
  6
CONTINUOUS
 10
125.9158138502
 20
75.8879470843
 11
123.3516590465
 21
75.1437514829
  0
LINE
  5
35E
100
AcDbEntity
  8
0
100
AcDbLine
 62
7
  6
CONTINUOUS
 10
105.4975570802
 20
129.51650309
 11
105.3516590465
 21
129.51650309
  0
LINE
  5
35F
100
AcDbEntity
  8
0
100
AcDbLine
 62
7
  6
CONTINUOUS
 10
108.6038079693
 20
130.0938533592
 11
105.3516590465
 21
130.0938533592
  0
LINE
  5
360
100
AcDbEntity
  8
0
100
AcDbLine
 62
7
  6
CONTINUOUS
 10
98.6441607122
 20
131.3938533592
 11
107.3915383574
 21
131.3938533592
  0
LINE
  5
361
100
AcDbEntity
  8
0
100
AcDbLine
 62
7
  6
CONTINUOUS
 10
108.6840400231
 20
131.3938533592
 11
124.7762325659
 21
131.3938533592
  0
LINE
  5
362
100
AcDbEntity
  8
0
100
AcDbLine
 62
7
  6
CONTINUOUS
 10
126.3516590465
 20
131.3938533592
 11
127.9516590465
 21
131.3938533592
  0
LINE
  5
363
100
AcDbEntity
  8
0
100
AcDbLine
 62
7
  6
CONTINUOUS
 10
127.9516590465
 20
134.3938533592
 11
126.3516590465
 21
134.3938533592
  0
LINE
  5
364
100
AcDbEntity
  8
0
100
AcDbLine
 62
7
  6
CONTINUOUS
 10
100.3516590465
 20
134.3938533592
 11
126.3248641272
 21
134.3938533592
  0
LINE
  5
365
100
AcDbEntity
  8
0
100
AcDbLine
 62
7
  6
CONTINUOUS
 10
118.3516590465
 20
134.5938533592
 11
106.3516590465
 21
134.5938533592
  0
LINE
  5
366
100
AcDbEntity
  8
0
100
AcDbLine
 62
7
  6
CONTINUOUS
 10
106.3516590465
 20
135.2474431977
 11
118.3516590465
 21
135.2474431977
  0
LINE
  5
367
100
AcDbEntity
  8
0
100
AcDbLine
 62
7
  6
CONTINUOUS
 10
185.299688091
 20
154.8938533592
 11
185.299688091
 21
154.9465348565
  0
LINE
  5
368
100
AcDbEntity
  8
0
100
AcDbLine
 62
7
  6
CONTINUOUS
 10
186.5364082192
 20
154.8938533592
 11
186.5364082192
 21
154.9465348565
  0
LINE
  5
369
100
AcDbEntity
  8
0
100
AcDbLine
 62
7
  6
CONTINUOUS
 10
187.567008326
 20
154.9465348565
 11
187.567008326
 21
154.8938533592
  0
LINE
  5
36A
100
AcDbEntity
  8
0
100
AcDbLine
 62
7
  6
CONTINUOUS
 10
188.2540750638
 20
154.9465348565
 11
188.2540750638
 21
154.8938533592
  0
LINE
  5
36B
100
AcDbEntity
  8
0
100
AcDbLine
 62
7
  6
CONTINUOUS
 10
189.5251485289
 20
154.8938533592
 11
189.5251485289
 21
154.9465348565
  0
LINE
  5
36C
100
AcDbEntity
  8
0
100
AcDbLine
 62
7
  6
CONTINUOUS
 10
106.6516590465
 20
135.7670584399
 11
118.0516590465
 21
135.7670584399
  0
LINE
  5
36D
100
AcDbEntity
  8
0
100
AcDbLine
 62
7
  6
CONTINUOUS
 10
108.3516590465
 20
139.5938533592
 11
116.3516590465
 21
139.5938533592
  0
LINE
  5
36E
100
AcDbEntity
  8
0
100
AcDbLine
 62
7
  6
CONTINUOUS
 10
190.7826641854
 20
154.9465348565
 11
190.7826641854
 21
154.8938533592
  0
LINE
  5
36F
100
AcDbEntity
  8
0
100
AcDbLine
 62
7
  6
CONTINUOUS
 10
191.4179942549
 20
154.9465348565
 11
191.4179942549
 21
154.8938533592
  0
LINE
  5
370
100
AcDbEntity
  8
0
100
AcDbLine
 62
7
  6
CONTINUOUS
 10
192.5138888386
 20
154.8938533592
 11
192.5138888386
 21
154.9465348565
  0
LINE
  5
371
100
AcDbEntity
  8
0
100
AcDbLine
 62
7
  6
CONTINUOUS
 10
193.5444889454
 20
154.9465348565
 11
193.5444889454
 21
154.8938533592
  0
LINE
  5
372
100
AcDbEntity
  8
0
100
AcDbLine
 62
7
  6
CONTINUOUS
 10
194.2315556832
 20
154.9465348565
 11
194.2315556832
 21
154.8938533592
  0
LINE
  5
373
100
AcDbEntity
  8
0
100
AcDbLine
 62
7
  6
CONTINUOUS
 10
195.1934491162
 20
154.8938533592
 11
195.1934491162
 21
154.9465348565
  0
LINE
  5
374
100
AcDbEntity
  8
0
100
AcDbLine
 62
7
  6
CONTINUOUS
 10
196.4928648978
 20
154.9465348565
 11
196.4928648978
 21
154.8938533592
  0
LINE
  5
375
100
AcDbEntity
  8
0
100
AcDbLine
 62
7
  6
CONTINUOUS
 10
197.1203642453
 20
154.9465348565
 11
197.1203642453
 21
154.8938533592
  0
LINE
  5
376
100
AcDbEntity
  8
0
100
AcDbLine
 62
7
  6
CONTINUOUS
 10
197.306432577
 20
154.8938533592
 11
197.306432577
 21
154.9465348565
  0
LINE
  5
377
100
AcDbEntity
  8
0
100
AcDbLine
 62
7
  6
CONTINUOUS
 10
199.8137196865
 20
154.8938533592
 11
199.8137196865
 21
154.9465348565
  0
LINE
  5
378
100
AcDbEntity
  8
0
100
AcDbLine
 62
7
  6
CONTINUOUS
 10
199.9997880181
 20
154.9465348565
 11
199.9997880181
 21
154.8938533592
  0
LINE
  5
379
100
AcDbEntity
  8
0
100
AcDbLine
 62
7
  6
CONTINUOUS
 10
200.6272873657
 20
154.9465348565
 11
200.6272873657
 21
154.8938533592
  0
LINE
  5
37A
100
AcDbEntity
  8
0
100
AcDbLine
 62
7
  6
CONTINUOUS
 10
201.9267031473
 20
154.8938533592
 11
201.9267031473
 21
154.9465348565
  0
LINE
  5
37B
100
AcDbEntity
  8
0
100
AcDbLine
 62
7
  6
CONTINUOUS
 10
151.1516590465
 20
148.8938533592
 11
236.3516590465
 21
148.8938533592
  0
LINE
  5
37C
100
AcDbEntity
  8
0
100
AcDbLine
 62
7
  6
CONTINUOUS
 10
149.4369404207
 20
150.3938533592
 11
149.8694295234
 21
150.3938533592
  0
LINE
  5
37D
100
AcDbEntity
  8
0
100
AcDbLine
 62
7
  6
CONTINUOUS
 10
149.8516590465
 20
151.3938533592
 11
238.8516590465
 21
151.3938533592
  0
LINE
  5
37E
100
AcDbEntity
  8
0
100
AcDbLine
 62
7
  6
CONTINUOUS
 10
149.8516590465
 20
152.3938533592
 11
238.8516590465
 21
152.3938533592
  0
LINE
  5
37F
100
AcDbEntity
  8
0
100
AcDbLine
 62
7
  6
CONTINUOUS
 10
149.8694295234
 20
153.3938533592
 11
149.0227268583
 21
153.3938533592
  0
LINE
  5
380
100
AcDbEntity
  8
0
100
AcDbLine
 62
7
  6
CONTINUOUS
 10
203.7130766657
 20
154.8938533592
 11
203.7130766657
 21
154.9465348565
  0
LINE
  5
381
100
AcDbEntity
  8
0
100
AcDbLine
 62
7
  6
CONTINUOUS
 10
204.8123834463
 20
154.9465348565
 11
204.8123834463
 21
154.8938533592
  0
LINE
  5
382
100
AcDbEntity
  8
0
100
AcDbLine
 62
7
  6
CONTINUOUS
 10
205.4994501841
 20
154.9465348565
 11
205.4994501841
 21
154.8938533592
  0
LINE
  5
383
100
AcDbEntity
  8
0
100
AcDbLine
 62
7
  6
CONTINUOUS
 10
206.7361703123
 20
154.9465348565
 11
206.7361703123
 21
154.8938533592
  0
LINE
  5
384
100
AcDbEntity
  8
0
100
AcDbLine
 62
7
  6
CONTINUOUS
 10
207.4232370502
 20
154.9465348565
 11
207.4232370502
 21
154.8938533592
  0
LINE
  5
385
100
AcDbEntity
  8
0
100
AcDbLine
 62
7
  6
CONTINUOUS
 10
208.3851304832
 20
154.8938533592
 11
208.3851304832
 21
154.9465348565
  0
LINE
  5
386
100
AcDbEntity
  8
0
100
AcDbLine
 62
7
  6
CONTINUOUS
 10
151.1516590465
 20
154.8938533592
 11
236.3516590465
 21
154.8938533592
  0
LINE
  5
387
100
AcDbEntity
  8
0
100
AcDbLine
 62
7
  6
CONTINUOUS
 10
156.5950401343
 20
154.9465348565
 11
161.9394190037
 21
154.9465348565
  0
LINE
  5
388
100
AcDbEntity
  8
0
100
AcDbLine
 62
7
  6
CONTINUOUS
 10
162.7638990892
 20
154.9465348565
 11
168.1230196445
 21
154.9465348565
  0
LINE
  5
389
100
AcDbEntity
  8
0
100
AcDbLine
 62
7
  6
CONTINUOUS
 10
171.4209399862
 20
154.9465348565
 11
178.1541940173
 21
154.9465348565
  0
LINE
  5
38A
100
AcDbEntity
  8
0
100
AcDbLine
 62
7
  6
CONTINUOUS
 10
179.2535007978
 20
154.9465348565
 11
185.299688091
 21
154.9465348565
  0
LINE
  5
38B
100
AcDbEntity
  8
0
100
AcDbLine
 62
7
  6
CONTINUOUS
 10
186.5364082192
 20
154.9465348565
 11
194.2315556832
 21
154.9465348565
  0
LINE
  5
38C
100
AcDbEntity
  8
0
100
AcDbLine
 62
7
  6
CONTINUOUS
 10
195.1934491162
 20
154.9465348565
 11
207.4232370502
 21
154.9465348565
  0
LINE
  5
38D
100
AcDbEntity
  8
0
100
AcDbLine
 62
7
  6
CONTINUOUS
 10
208.3851304832
 20
154.9465348565
 11
213.881664386
 21
154.9465348565
  0
LINE
  5
38E
100
AcDbEntity
  8
0
100
AcDbLine
 62
7
  6
CONTINUOUS
 10
214.8435578191
 20
154.9465348565
 11
222.3927036218
 21
154.9465348565
  0
LINE
  5
38F
100
AcDbEntity
  8
0
100
AcDbLine
 62
7
  6
CONTINUOUS
 10
222.5644702653
 20
154.9465348565
 11
223.5950704335
 21
154.9465348565
  0
LINE
  5
390
100
AcDbEntity
  8
0
100
AcDbLine
 62
7
  6
CONTINUOUS
 10
213.1945976482
 20
154.9465348565
 11
213.1945976482
 21
154.8938533592
  0
LINE
  5
391
100
AcDbEntity
  8
0
100
AcDbLine
 62
7
  6
CONTINUOUS
 10
213.881664386
 20
154.9465348565
 11
213.881664386
 21
154.8938533592
  0
LINE
  5
392
100
AcDbEntity
  8
0
100
AcDbLine
 62
7
  6
CONTINUOUS
 10
214.8435578191
 20
154.9465348565
 11
214.8435578191
 21
154.8938533592
  0
LINE
  5
393
100
AcDbEntity
  8
0
100
AcDbLine
 62
7
  6
CONTINUOUS
 10
218.3475981821
 20
154.8938533592
 11
218.3475981821
 21
154.9465348565
  0
LINE
  5
394
100
AcDbEntity
  8
0
100
AcDbLine
 62
7
  6
CONTINUOUS
 10
221.5768118501
 20
154.8938533592
 11
221.5768118501
 21
154.9465348565
  0
LINE
  5
395
100
AcDbEntity
  8
0
100
AcDbLine
 62
7
  6
CONTINUOUS
 10
221.9203452293
 20
154.8938533592
 11
221.9203452293
 21
154.9465348565
  0
LINE
  5
396
100
AcDbEntity
  8
0
100
AcDbLine
 62
7
  6
CONTINUOUS
 10
222.0491702426
 20
154.8938533592
 11
222.0491702426
 21
154.9465348565
  0
LINE
  5
397
100
AcDbEntity
  8
0
100
AcDbLine
 62
7
  6
CONTINUOUS
 10
222.3927036218
 20
154.8938533592
 11
222.3927036218
 21
154.9465348565
  0
LINE
  5
398
100
AcDbEntity
  8
0
100
AcDbLine
 62
7
  6
CONTINUOUS
 10
222.5644702653
 20
154.8938533592
 11
222.5644702653
 21
154.9465348565
  0
LINE
  5
399
100
AcDbEntity
  8
0
100
AcDbLine
 62
7
  6
CONTINUOUS
 10
222.6932953401
 20
154.8938533592
 11
222.6932953401
 21
154.9465348565
  0
LINE
  5
39A
100
AcDbEntity
  8
0
100
AcDbLine
 62
7
  6
CONTINUOUS
 10
222.9938869969
 20
154.8938533592
 11
222.9938869969
 21
154.9465348565
  0
LINE
  5
39B
100
AcDbEntity
  8
0
100
AcDbLine
 62
7
  6
CONTINUOUS
 10
223.1656536404
 20
154.8938533592
 11
223.1656536404
 21
154.9465348565
  0
LINE
  5
39C
100
AcDbEntity
  8
0
100
AcDbLine
 62
7
  6
CONTINUOUS
 10
223.4662454202
 20
154.8938533592
 11
223.4662454202
 21
154.9465348565
  0
LINE
  5
39D
100
AcDbEntity
  8
0
100
AcDbLine
 62
7
  6
CONTINUOUS
 10
223.5950704335
 20
154.8938533592
 11
223.5950704335
 21
154.9465348565
  0
LINE
  5
39E
100
AcDbEntity
  8
0
100
AcDbLine
 62
7
  6
CONTINUOUS
 10
227.8516590465
 20
148.8938533592
 11
227.8516590465
 21
154.8938533592
  0
LINE
  5
39F
100
AcDbEntity
  8
0
100
AcDbLine
 62
7
  6
CONTINUOUS
 10
238.8516590465
 20
151.3938533592
 11
238.8516590465
 21
152.3938533592
  0
ARC
  5
3A0
100
AcDbEntity
  8
0
100
AcDbCircle
 62
7
  6
CONTINUOUS
 10
91.5515378683
 20
64.6677257315
 40
2.8162958271
100
AcDbArc
 50
89.2024165995
 51
90.0052300824
  0
ARC
  5
3A1
100
AcDbEntity
  8
0
100
AcDbCircle
 62
7
  6
CONTINUOUS
 10
132.5718586482
 20
106.9185313848
 40
2.7851537872
100
AcDbArc
 50
89.9988936318
 51
90.4749203107
  0
ARC
  5
3A2
100
AcDbEntity
  8
0
100
AcDbCircle
 62
7
  6
CONTINUOUS
 10
132.5718586382
 20
70.2691751668
 40
2.7851536204
100
AcDbArc
 50
269.5250798672
 51
270.0011065404
  0
ARC
  5
3A3
100
AcDbEntity
  8
0
100
AcDbCircle
 62
7
  6
CONTINUOUS
 10
82.6916590465
 20
87.7238533592
 40
2.64
100
AcDbArc
 50
180.0
 51
270.0
  0
ARC
  5
3A4
100
AcDbEntity
  8
0
100
AcDbCircle
 62
7
  6
CONTINUOUS
 10
82.6916590465
 20
89.6438533592
 40
2.64
100
AcDbArc
 50
90.0
 51
180.0
  0
ARC
  5
3A5
100
AcDbEntity
  8
0
100
AcDbCircle
 62
7
  6
CONTINUOUS
 10
115.0710499714
 20
86.1738533592
 40
2.26
100
AcDbArc
 50
79.8054483672
 51
180.0
  0
ARC
  5
3A6
100
AcDbEntity
  8
0
100
AcDbCircle
 62
7
  6
CONTINUOUS
 10
114.3510499714
 20
86.3538533592
 40
2.24
100
AcDbArc
 50
90.0
 51
180.0
  0
ARC
  5
3A7
100
AcDbEntity
  8
0
100
AcDbCircle
 62
7
  6
CONTINUOUS
 10
86.8116590465
 20
90.2438533592
 40
2.04
100
AcDbArc
 50
306.0188541926
 51
90.0
  0
ARC
  5
3A8
100
AcDbEntity
  8
0
100
AcDbCircle
 62
7
  6
CONTINUOUS
 10
82.6916590465
 20
89.6438533592
 40
1.8
100
AcDbArc
 50
90.0
 51
180.0
  0
ARC
  5
3A9
100
AcDbEntity
  8
0
100
AcDbCircle
 62
7
  6
CONTINUOUS
 10
82.6916590465
 20
87.7238533592
 40
1.8
100
AcDbArc
 50
180.0
 51
270.0
  0
ARC
  5
3AA
100
AcDbEntity
  8
0
100
AcDbCircle
 62
7
  6
CONTINUOUS
 10
113.217314234
 20
87.6107056687
 40
1.48
100
AcDbArc
 50
105.9323912632
 51
138.3721990194
  0
ARC
  5
3AB
100
AcDbEntity
  8
0
100
AcDbCircle
 62
7
  6
CONTINUOUS
 10
86.8116590465
 20
90.2438533592
 40
1.2
100
AcDbArc
 50
270.0
 51
90.0
  0
ARC
  5
3AC
100
AcDbEntity
  8
0
100
AcDbCircle
 62
7
  6
CONTINUOUS
 10
101.6658726088
 20
67.5938533592
 40
1.0
100
AcDbArc
 50
224.9999999998
 51
270.0
  0
ARC
  5
3AD
100
AcDbEntity
  8
0
100
AcDbCircle
 62
7
  6
CONTINUOUS
 10
120.7658726088
 20
66.5938533592
 40
1.0
100
AcDbArc
 50
225.0
 51
270.0
  0
ARC
  5
3AE
100
AcDbEntity
  8
0
100
AcDbCircle
 62
7
  6
CONTINUOUS
 10
97.8374454841
 20
108.5938533592
 40
1.0
100
AcDbArc
 50
270.0
 51
315.0000000002
  0
ARC
  5
3AF
100
AcDbEntity
  8
0
100
AcDbCircle
 62
7
  6
CONTINUOUS
 10
97.8374454841
 20
68.5938533592
 40
1.0
100
AcDbArc
 50
44.9999999998
 51
90.0
  0
ARC
  5
3B0
100
AcDbEntity
  8
0
100
AcDbCircle
 62
7
  6
CONTINUOUS
 10
118.9374454841
 20
65.5938533592
 40
1.0
100
AcDbArc
 50
45.0
 51
90.0
  0
ARC
  5
3B1
100
AcDbEntity
  8
0
100
AcDbCircle
 62
7
  6
CONTINUOUS
 10
130.7914930159
 20
66.3938533592
 40
0.8
100
AcDbArc
 50
270.0
 51
340.0000003059
  0
ARC
  5
3B2
100
AcDbEntity
  8
0
100
AcDbCircle
 62
7
  6
CONTINUOUS
 10
132.548772987
 20
66.5438533592
 40
0.8
100
AcDbArc
 50
90.0
 51
160.0
  0
ARC
  5
3B3
100
AcDbEntity
  8
0
100
AcDbCircle
 62
7
  6
CONTINUOUS
 10
93.8135392618
 20
108.3938533592
 40
0.8
100
AcDbArc
 50
210.0
 51
270.0
  0
ARC
  5
3B4
100
AcDbEntity
  8
0
100
AcDbCircle
 62
7
  6
CONTINUOUS
 10
93.8135392618
 20
68.7938533592
 40
0.8
100
AcDbArc
 50
90.0
 51
150.0
  0
ARC
  5
3B5
100
AcDbEntity
  8
0
100
AcDbCircle
 62
7
  6
CONTINUOUS
 10
91.5907407254
 20
109.0438533592
 40
0.8
100
AcDbArc
 50
30.0
 51
90.0
  0
ARC
  5
3B6
100
AcDbEntity
  8
0
100
AcDbCircle
 62
7
  6
CONTINUOUS
 10
91.5907407254
 20
68.1438533592
 40
0.8
100
AcDbArc
 50
270.0
 51
330.0
  0
ARC
  5
3B7
100
AcDbEntity
  8
0
100
AcDbCircle
 62
7
  6
CONTINUOUS
 10
91.551490775
 20
100.8551389485
 40
0.4038734005
100
AcDbArc
 50
84.4229761276
 51
90.0297896968
  0
ARC
  5
3B8
100
AcDbEntity
  8
0
100
AcDbCircle
 62
7
  6
CONTINUOUS
 10
91.5514909365
 20
76.33256717
 40
0.4038728007
100
AcDbArc
 50
269.9701969846
 51
275.5770091615
  0
ARC
  5
3B9
100
AcDbEntity
  8
0
100
AcDbCircle
 62
7
  6
CONTINUOUS
 10
132.5718673933
 20
101.6576327804
 40
0.3986204885
100
AcDbArc
 50
266.6786620086
 51
270.0064992346
  0
ARC
  5
3BA
100
AcDbEntity
  8
0
100
AcDbCircle
 62
7
  6
CONTINUOUS
 10
132.5718674779
 20
75.5300743629
 40
0.3986200635
100
AcDbArc
 50
89.9935163661
 51
93.3213537121
  0
ARC
  5
3BB
100
AcDbEntity
  8
0
100
AcDbCircle
 62
7
  6
CONTINUOUS
 10
91.5514716425
 20
79.7951501418
 40
0.3540303918
100
AcDbArc
 50
83.6316425623
 51
90.0308877138
  0
ARC
  5
3BC
100
AcDbEntity
  8
0
100
AcDbCircle
 62
7
  6
CONTINUOUS
 10
91.5514718312
 20
97.3925559874
 40
0.3540298027
100
AcDbArc
 50
269.969093985
 51
276.3683373362
  0
ARC
  5
3BD
100
AcDbEntity
  8
0
100
AcDbCircle
 62
7
  6
CONTINUOUS
 10
132.5718753981
 20
96.6895340429
 40
0.3489921952
100
AcDbArc
 50
89.9939143205
 51
93.7956129928
  0
ARC
  5
3BE
100
AcDbEntity
  8
0
100
AcDbCircle
 62
7
  6
CONTINUOUS
 10
132.5718753983
 20
80.498172671
 40
0.3489921909
100
AcDbArc
 50
266.2043869374
 51
270.0060856098
  0
ARC
  5
3BF
100
AcDbEntity
  8
0
100
AcDbCircle
 62
7
  6
CONTINUOUS
 10
57.0854878866
 20
140.5211910337
 40
55.5831179998
100
AcDbArc
 50
353.6709999501
 51
353.8783855052
  0
ARC
  5
3C0
100
AcDbEntity
  8
0
100
AcDbCircle
 62
7
  6
CONTINUOUS
 10
127.9516590465
 20
135.3938533592
 40
4.0
100
AcDbArc
 50
270.0
 51
315.0
  0
ARC
  5
3C1
100
AcDbEntity
  8
0
100
AcDbCircle
 62
7
  6
CONTINUOUS
 10
100.3516590465
 20
131.3938533592
 40
3.0
100
AcDbArc
 50
90.0
 51
180.0
  0
ARC
  5
3C2
100
AcDbEntity
  8
0
100
AcDbCircle
 62
7
  6
CONTINUOUS
 10
91.5515380251
 20
112.5199769385
 40
2.8162917788
100
AcDbArc
 50
269.9947680761
 51
270.7975813567
  0
ARC
  5
3C3
100
AcDbEntity
  8
0
100
AcDbCircle
 62
7
  6
CONTINUOUS
 10
101.6658726088
 20
109.5938533592
 40
1.0
100
AcDbArc
 50
101.6738801042
 51
135.0000000002
  0
ARC
  5
3C4
100
AcDbEntity
  8
0
100
AcDbCircle
 62
7
  6
CONTINUOUS
 10
127.9516590465
 20
135.3938533592
 40
1.0
100
AcDbArc
 50
270.0
 51
315.0
  0
ARC
  5
3C5
100
AcDbEntity
  8
0
100
AcDbCircle
 62
7
  6
CONTINUOUS
 10
130.7914930159
 20
110.7938533592
 40
0.8
100
AcDbArc
 50
19.9999996941
 51
90.0
  0
ARC
  5
3C6
100
AcDbEntity
  8
0
100
AcDbCircle
 62
7
  6
CONTINUOUS
 10
132.548772987
 20
110.6438533592
 40
0.8
100
AcDbArc
 50
200.0
 51
270.0
  0
ARC
  5
3C7
100
AcDbEntity
  8
0
100
AcDbCircle
 62
7
  6
CONTINUOUS
 10
123.4016529783
 20
112.3938491376
 40
0.7999995626
100
AcDbArc
 50
179.9996848806
 51
270.0004104791
  0
ARC
  5
3C8
100
AcDbEntity
  8
0
100
AcDbCircle
 62
7
  6
CONTINUOUS
 10
117.7516590465
 20
135.2474431977
 40
0.6
100
AcDbArc
 50
0.0
 51
60.0
  0
ARC
  5
3C9
100
AcDbEntity
  8
0
100
AcDbCircle
 62
7
  6
CONTINUOUS
 10
106.9516590465
 20
135.2474431977
 40
0.6
100
AcDbArc
 50
120.0
 51
180.0
  0
ARC
  5
3CA
100
AcDbEntity
  8
0
100
AcDbCircle
 62
7
  6
CONTINUOUS
 10
97.8516590465
 20
117.8825284938
 40
0.5
100
AcDbArc
 50
180.0
 51
240.0
  0
ARC
  5
3CB
100
AcDbEntity
  8
0
100
AcDbCircle
 62
7
  6
CONTINUOUS
 10
97.8516590465
 20
121.0938533592
 40
0.5
100
AcDbArc
 50
90.0
 51
180.0
  0
ARC
  5
3CC
100
AcDbEntity
  8
0
100
AcDbCircle
 62
7
  6
CONTINUOUS
 10
100.8516590465
 20
130.8938533592
 40
0.5
100
AcDbArc
 50
90.0
 51
180.0
  0
ARC
  5
3CD
100
AcDbEntity
  8
0
100
AcDbCircle
 62
7
  6
CONTINUOUS
 10
102.0634603257
 20
115.3633136562
 40
0.4057348298
100
AcDbArc
 50
359.9434569011
 51
12.5417249797
  0
ARC
  5
3CE
100
AcDbEntity
  8
0
100
AcDbCircle
 62
7
  6
CONTINUOUS
 10
122.9516590465
 20
116.2578061688
 40
0.4
100
AcDbArc
 50
300.0
 51
360.0
  0
ARC
  5
3CF
100
AcDbEntity
  8
0
100
AcDbCircle
 62
7
  6
CONTINUOUS
 10
123.0016590465
 20
115.3629132515
 40
0.4
100
AcDbArc
 50
120.0
 51
180.0
  0
ARC
  5
3D0
100
AcDbEntity
  8
0
100
AcDbCircle
 62
7
  6
CONTINUOUS
 10
100.9516590465
 20
121.9281679342
 40
0.4
100
AcDbArc
 50
0.0
 51
45.0000000007
  0
ARC
  5
3D1
100
AcDbEntity
  8
0
100
AcDbCircle
 62
7
  6
CONTINUOUS
 10
101.0516590465
 20
121.8938533592
 40
0.3
100
AcDbArc
 50
315.0
 51
360.0
  0
ARC
  5
3D2
100
AcDbEntity
  8
0
100
AcDbCircle
 62
7
  6
CONTINUOUS
 10
101.801660244
 20
114.6782338084
 40
0.299999966
100
AcDbArc
 50
0.0001320901
 51
60.0002581369
  0
ARC
  5
3D3
100
AcDbEntity
  8
0
100
AcDbCircle
 62
7
  6
CONTINUOUS
 10
149.0227268583
 20
149.3938533592
 40
4.0
100
AcDbArc
 50
90.0
 51
135.0
  0
ARC
  5
3D4
100
AcDbEntity
  8
0
100
AcDbCircle
 62
7
  6
CONTINUOUS
 10
236.3516590465
 20
152.3938533592
 40
2.5
100
AcDbArc
 50
0.0
 51
90.0
  0
ARC
  5
3D5
100
AcDbEntity
  8
0
100
AcDbCircle
 62
7
  6
CONTINUOUS
 10
236.3516590465
 20
151.3938533592
 40
2.5
100
AcDbArc
 50
270.0
 51
360.0
  0
ARC
  5
3D6
100
AcDbEntity
  8
0
100
AcDbCircle
 62
7
  6
CONTINUOUS
 10
149.4369404207
 20
148.3938533592
 40
2.0
100
AcDbArc
 50
90.0
 51
135.0
  0
ARC
  5
3D7
100
AcDbEntity
  8
0
100
AcDbCircle
 62
7
  6
CONTINUOUS
 10
151.1516590465
 20
150.1938533592
 40
1.3
100
AcDbArc
 50
180.0
 51
270.0
  0
ARC
  5
3D8
100
AcDbEntity
  8
0
100
AcDbCircle
 62
7
  6
CONTINUOUS
 10
151.1516590465
 20
153.5938533592
 40
1.3
100
AcDbArc
 50
90.0
 51
180.0
  0
SPLINE
  5
3D9
100
AcDbEntity
  8
0
100
AcDbSpline
 62
7
  6
CONTINUOUS
 70
0
 71
3
 72
13
 73
9
 74
0
 42
0.0000001
 43
0.0000001
 44
0.0000000001
 40
0.0
 40
0.0
 40
0.0
 40
0.0
 40
0.0740385779
 40
0.1675066337
 40
0.2783899907
 40
0.4042924489
 40
0.6899917858
 40
1.0
 40
1.0
 40
1.0
 40
1.0
 10
104.8584870061
 20
125.593853028
 30
0.0
 10
105.0484303964
 20
125.6059885092
 30
0.0
 10
105.4784609018
 20
125.6286908907
 30
0.0
 10
106.1934700406
 20
125.6591730791
 30
0.0
 10
107.0419026652
 20
125.6898634798
 30
0.0
 10
108.3843680711
 20
125.7328108871
 30
0.0
 10
110.2386964107
 20
125.7843907814
 30
0.0
 10
111.7695663445
 20
125.8239923887
 30
0.0
 10
112.566234791
 20
125.8446730052
 30
0.0
  0
SPLINE
  5
3DA
100
AcDbEntity
  8
0
100
AcDbSpline
 62
7
  6
CONTINUOUS
 70
0
 71
3
 72
9
 73
5
 74
0
 42
0.0000001
 43
0.0000001
 44
0.0000000001
 40
0.0
 40
0.0
 40
0.0
 40
0.0
 40
0.2530279889
 40
1.0
 40
1.0
 40
1.0
 40
1.0
 10
112.1785075593
 20
126.2604510887
 30
0.0
 10
111.9822343265
 20
126.257270031
 30
0.0
 10
111.2065365448
 20
126.2447026902
 30
0.0
 10
110.4308401466
 20
126.2320462209
 30
0.0
 10
109.8514210626
 20
126.2223279709
 30
0.0
  0
SPLINE
  5
3DB
100
AcDbEntity
  8
0
100
AcDbSpline
 62
7
  6
CONTINUOUS
 70
0
 71
3
 72
28
 73
24
 74
0
 42
0.0000001
 43
0.0000001
 44
0.0000000001
 40
0.0
 40
0.0
 40
0.0
 40
0.0
 40
0.2062272519
 40
0.3974551824
 40
0.4858968749
 40
0.5687936296
 40
0.645623207
 40
0.7159008288
 40
0.7791862023
 40
0.8350882222
 40
0.8832586534
 40
0.9043529737
 40
0.9234088404
 40
0.9403966306
 40
0.9552941295
 40
0.9680803484
 40
0.9787356879
 40
0.9872490135
 40
0.993616361
 40
0.9959966974
 40
0.9978448351
 40
0.9991698159
 40
1.0
 40
1.0
 40
1.0
 40
1.0
 10
109.8514210626
 20
126.2223279709
 30
0.0
 10
109.4146189032
 20
126.2150017494
 30
0.0
 10
108.5727888984
 20
126.2005919967
 30
0.0
 10
107.5436573203
 20
126.1816914384
 30
0.0
 10
106.7757634198
 20
126.1663900779
 30
0.0
 10
106.2501723338
 20
126.1552355991
 30
0.0
 10
105.7630679758
 20
126.1441061116
 30
0.0
 10
105.3175186472
 20
126.1330039812
 30
0.0
 10
104.9163154838
 20
126.1219356717
 30
0.0
 10
104.5619621013
 20
126.1109075843
 30
0.0
 10
104.2969827494
 20
126.1013935334
 30
0.0
 10
104.1100471899
 20
126.0936633564
 30
0.0
 10
103.989134152
 20
126.0881355613
 30
0.0
 10
103.8813629651
 20
126.0826196193
 30
0.0
 10
103.7868910959
 20
126.0771212173
 30
0.0
 10
103.7058596585
 20
126.0716440993
 30
0.0
 10
103.6383803148
 20
126.0662092343
 30
0.0
 10
103.5845592825
 20
126.0608117372
 30
0.0
 10
103.5482742495
 20
126.0560867557
 30
0.0
 10
103.5261981964
 20
126.052080914
 30
0.0
 10
103.5147052232
 20
126.0494102546
 30
0.0
 10
103.5066864576
 20
126.0467938822
 30
0.0
 10
103.5024923917
 20
126.0446818593
 30
0.0
 10
103.501249928
 20
126.043437247
 30
0.0
  0
SPLINE
  5
3DC
100
AcDbEntity
  8
0
100
AcDbSpline
 62
7
  6
CONTINUOUS
 70
0
 71
3
 72
10
 73
6
 74
0
 42
0.0000001
 43
0.0000001
 44
0.0000000001
 40
0.0
 40
0.0
 40
0.0
 40
0.0
 40
0.2489854757
 40
0.4985223433
 40
1.0
 40
1.0
 40
1.0
 40
1.0
 10
108.6071822578
 20
130.0905620428
 30
0.0
 10
108.3440421137
 20
130.0834873668
 30
0.0
 10
107.8175154613
 20
130.0463700357
 30
0.0
 10
106.7717017912
 20
129.8855837356
 30
0.0
 10
106.0021071504
 20
129.6793459249
 30
0.0
 10
105.4975570802
 20
129.51650309
 30
0.0
  0
SPLINE
  5
3DD
100
AcDbEntity
  8
0
100
AcDbSpline
 62
7
  6
CONTINUOUS
 70
0
 71
3
 72
30
 73
26
 74
0
 42
0.0000001
 43
0.0000001
 44
0.0000000001
 40
0.0
 40
0.0
 40
0.0
 40
0.0
 40
0.0007023624
 40
0.0018060984
 40
0.0034389758
 40
0.0056370872
 40
0.0084136016
 40
0.0117740936
 40
0.0202543792
 40
0.0310754152
 40
0.0442164456
 40
0.0596523297
 40
0.0773478472
 40
0.0972599878
 40
0.1193442606
 40
0.1698091145
 40
0.2282598304
 40
0.2941316878
 40
0.3667899861
 40
0.4455342206
 40
0.5296018646
 40
0.618180526
 40
0.710414635
 40
0.8054112809
 40
1.0
 40
1.0
 40
1.0
 40
1.0
 10
104.1516630783
 20
125.7048542317
 30
0.0
 10
104.1516613237
 20
125.7067851581
 30
0.0
 10
104.1545816879
 20
125.7114577864
 30
0.0
 10
104.1627710145
 20
125.7162085771
 30
0.0
 10
104.1753780408
 20
125.7213439961
 30
0.0
 10
104.1928467529
 20
125.726377867
 30
0.0
 10
104.2151823996
 20
125.7315292831
 30
0.0
 10
104.254676651
 20
125.7389924828
 30
0.0
 10
104.3163497035
 20
125.7479669985
 30
0.0
 10
104.4049546258
 20
125.7582099362
 30
0.0
 10
104.5127818915
 20
125.7685129091
 30
0.0
 10
104.6395742721
 20
125.7788630362
 30
0.0
 10
104.7850334093
 20
125.7892393799
 30
0.0
 10
104.9488092748
 20
125.7996380915
 30
0.0
 10
105.2025881614
 20
125.8141729634
 30
0.0
 10
105.5622935614
 20
125.8320230674
 30
0.0
 10
106.0423744168
 20
125.8526940028
 30
0.0
 10
106.583517064
 20
125.8734166513
 30
0.0
 10
107.1804853561
 20
125.8941793172
 30
0.0
 10
107.8275041211
 20
125.9149673044
 30
0.0
 10
108.5183113119
 20
125.9357745007
 30
0.0
 10
109.2462201664
 20
125.9565949531
 30
0.0
 10
110.0041863641
 20
125.9774247209
 30
0.0
 10
111.0535067323
 20
126.0054299218
 30
0.0
 10
111.8493641412
 20
126.0260694483
 30
0.0
 10
112.3841452957
 20
126.039947143
 30
0.0
  0
SPLINE
  5
3DE
100
AcDbEntity
  8
0
100
AcDbSpline
 62
7
  6
CONTINUOUS
 70
0
 71
3
 72
9
 73
5
 74
0
 42
0.0000001
 43
0.0000001
 44
0.0000000001
 40
0.0
 40
0.0
 40
0.0
 40
0.0
 40
0.2530237507
 40
1.0
 40
1.0
 40
1.0
 40
1.0
 10
112.3516590465
 20
134.5938533592
 30
0.0
 10
112.4114694827
 20
134.5767207152
 30
0.0
 10
112.6481109995
 20
134.5099174181
 30
0.0
 10
112.8852389785
 20
134.4448280253
 30
0.0
 10
113.0616974082
 20
134.3938533592
 30
0.0
  0
SPLINE
  5
3DF
100
AcDbEntity
  8
0
100
AcDbSpline
 62
7
  6
CONTINUOUS
 70
0
 71
3
 72
11
 73
7
 74
0
 42
0.0000001
 43
0.0000001
 44
0.0000000001
 40
0.0
 40
0.0
 40
0.0
 40
0.0
 40
0.2514178059
 40
0.5017501979
 40
0.7511495642
 40
1.0
 40
1.0
 40
1.0
 40
1.0
 10
108.3516590465
 20
139.2365877693
 30
0.0
 10
108.5138591301
 20
139.2906544638
 30
0.0
 10
108.8406138704
 20
139.3897551772
 30
0.0
 10
109.3389045086
 20
139.5043304197
 30
0.0
 10
109.8433820972
 20
139.5771413384
 30
0.0
 10
110.1824310585
 20
139.5938533592
 30
0.0
 10
110.3516590471
 20
139.5938533592
 30
0.0
  0
SPLINE
  5
3E0
100
AcDbEntity
  8
0
100
AcDbSpline
 62
7
  6
CONTINUOUS
 70
0
 71
3
 72
11
 73
7
 74
0
 42
0.0000001
 43
0.0000001
 44
0.0000000001
 40
0.0
 40
0.0
 40
0.0
 40
0.0
 40
0.2488504827
 40
0.4982499007
 40
0.7485823605
 40
1.0
 40
1.0
 40
1.0
 40
1.0
 10
110.3516590471
 20
139.5938533592
 30
0.0
 10
110.5208870675
 20
139.5938533592
 30
0.0
 10
110.8599360976
 20
139.57714135
 30
0.0
 10
111.3644137886
 20
139.5043303524
 30
0.0
 10
111.8627043995
 20
139.3897551392
 30
0.0
 10
112.1894590703
 20
139.290654428
 30
0.0
 10
112.3516590465
 20
139.2365877693
 30
0.0
  0
SPLINE
  5
3E1
100
AcDbEntity
  8
0
100
AcDbSpline
 62
7
  6
CONTINUOUS
 70
0
 71
3
 72
15
 73
11
 74
0
 42
0.0000001
 43
0.0000001
 44
0.0000000001
 40
0.0
 40
0.0
 40
0.0
 40
0.0
 40
0.1257074555
 40
0.2508731029
 40
0.375574375
 40
0.5000000233
 40
0.6244256674
 40
0.7491269306
 40
0.874292556
 40
1.0
 40
1.0
 40
1.0
 40
1.0
 10
112.3516590465
 20
136.3912883077
 30
0.0
 10
112.1894608807
 20
136.4453543629
 30
0.0
 10
111.862706549
 20
136.5444541473
 30
0.0
 10
111.3644272694
 20
136.6590310334
 30
0.0
 10
110.8599096738
 20
136.7318389007
 30
0.0
 10
110.3516589577
 20
136.7568913866
 30
0.0
 10
109.8434082558
 20
136.7318388683
 30
0.0
 10
109.3388907094
 20
136.6590309992
 30
0.0
 10
108.8406114849
 20
136.5444541313
 30
0.0
 10
108.5138571974
 20
136.445354358
 30
0.0
 10
108.3516590465
 20
136.3912883077
 30
0.0
  0
SPLINE
  5
3E2
100
AcDbEntity
  8
0
100
AcDbSpline
 62
7
  6
CONTINUOUS
 70
0
 71
3
 72
11
 73
7
 74
0
 42
0.0000001
 43
0.0000001
 44
0.0000000001
 40
0.0
 40
0.0
 40
0.0
 40
0.0
 40
0.2514175677
 40
0.5017500004
 40
0.7511494403
 40
1.0
 40
1.0
 40
1.0
 40
1.0
 10
112.3516590465
 20
139.2365877693
 30
0.0
 10
112.5138589763
 20
139.2906544126
 30
0.0
 10
112.840613581
 20
139.3897551111
 30
0.0
 10
113.3389041394
 20
139.5043303161
 30
0.0
 10
113.843381874
 20
139.5771413587
 30
0.0
 10
114.1824309729
 20
139.5938533592
 30
0.0
 10
114.3516590457
 20
139.5938533592
 30
0.0
  0
SPLINE
  5
3E3
100
AcDbEntity
  8
0
100
AcDbSpline
 62
7
  6
CONTINUOUS
 70
0
 71
3
 72
11
 73
7
 74
0
 42
0.0000001
 43
0.0000001
 44
0.0000000001
 40
0.0
 40
0.0
 40
0.0
 40
0.0
 40
0.2488505601
 40
0.4982499613
 40
0.7485822917
 40
1.0
 40
1.0
 40
1.0
 40
1.0
 10
114.3516590457
 20
139.5938533592
 30
0.0
 10
114.520887119
 20
139.5938533592
 30
0.0
 10
114.8599361914
 20
139.5771413559
 30
0.0
 10
115.3644138371
 20
139.5043303594
 30
0.0
 10
115.8627043923
 20
139.3897551375
 30
0.0
 10
116.1894590256
 20
139.2906544429
 30
0.0
 10
116.3516590465
 20
139.2365877693
 30
0.0
  0
SPLINE
  5
3E4
100
AcDbEntity
  8
0
100
AcDbSpline
 62
7
  6
CONTINUOUS
 70
0
 71
3
 72
15
 73
11
 74
0
 42
0.0000001
 43
0.0000001
 44
0.0000000001
 40
0.0
 40
0.0
 40
0.0
 40
0.0
 40
0.1257074555
 40
0.2508731029
 40
0.375574375
 40
0.5000000233
 40
0.6244256674
 40
0.7491269306
 40
0.874292556
 40
1.0
 40
1.0
 40
1.0
 40
1.0
 10
116.3516590465
 20
136.3912883077
 30
0.0
 10
116.1894608807
 20
136.4453543629
 30
0.0
 10
115.862706549
 20
136.5444541473
 30
0.0
 10
115.3644272694
 20
136.6590310334
 30
0.0
 10
114.8599096738
 20
136.7318389007
 30
0.0
 10
114.3516589577
 20
136.7568913866
 30
0.0
 10
113.8434082558
 20
136.7318388683
 30
0.0
 10
113.3388907094
 20
136.6590309992
 30
0.0
 10
112.8406114849
 20
136.5444541313
 30
0.0
 10
112.5138571974
 20
136.445354358
 30
0.0
 10
112.3516590465
 20
136.3912883077
 30
0.0
  0
LINE
  5
3E5
100
AcDbEntity
  8
0
100
AcDbLine
 62
7
  6
CONTINUOUS
 10
111.5583974054
 20
134.3938533592
 11
111.5661644819
 21
134.4681095347
  0
SPLINE
  5
3E6
100
AcDbEntity
  8
0
100
AcDbSpline
 62
7
  6
CONTINUOUS
 70
0
 71
3
 72
8
 73
4
 74
0
 42
0.0000001
 43
0.0000001
 44
0.0000000001
 40
0.0
 40
0.0
 40
0.0
 40
0.0
 40
1.0
 40
1.0
 40
1.0
 40
1.0
 10
149.8516590465
 20
150.7305284011
 30
0.0
 10
149.8516590465
 20
150.6181471681
 30
0.0
 10
149.8562454192
 20
150.5054585603
 30
0.0
 10
149.8694295234
 20
150.3938533592
 30
0.0
  0
SPLINE
  5
3E7
100
AcDbEntity
  8
0
100
AcDbSpline
 62
7
  6
CONTINUOUS
 70
0
 71
3
 72
8
 73
4
 74
0
 42
0.0000001
 43
0.0000001
 44
0.0000000001
 40
0.0
 40
0.0
 40
0.0
 40
0.0
 40
1.0
 40
1.0
 40
1.0
 40
1.0
 10
149.8694295234
 20
153.3938533592
 30
0.0
 10
149.8562454192
 20
153.2822481581
 30
0.0
 10
149.8516590465
 20
153.1695595502
 30
0.0
 10
149.8516590465
 20
153.0571783173
 30
0.0
  0
SPLINE
  5
3E8
100
AcDbEntity
  8
0
100
AcDbSpline
 62
7
  6
CONTINUOUS
 70
0
 71
3
 72
10
 73
6
 74
0
 42
0.0000001
 43
0.0000001
 44
0.0000000001
 40
0.0
 40
0.0
 40
0.0
 40
0.0
 40
0.2500407678
 40
0.5000815196
 40
1.0
 40
1.0
 40
1.0
 40
1.0
 10
145.8516590465
 20
88.5938533596
 30
0.0
 10
145.8516590464
 20
89.3040293082
 30
0.0
 10
145.8066267496
 20
90.724828046
 30
0.0
 10
145.5414120768
 20
93.5539763716
 30
0.0
 10
145.1588206888
 20
95.6545962265
 30
0.0
 10
144.8412960754
 20
97.0385262362
 30
0.0
  0
SPLINE
  5
3E9
100
AcDbEntity
  8
0
100
AcDbSpline
 62
7
  6
CONTINUOUS
 70
0
 71
3
 72
11
 73
7
 74
0
 42
0.0000001
 43
0.0000001
 44
0.0000000001
 40
0.0
 40
0.0
 40
0.0
 40
0.0
 40
0.2555552247
 40
0.5075012523
 40
0.7553436742
 40
1.0
 40
1.0
 40
1.0
 40
1.0
 10
132.548772987
 20
109.7035894938
 30
0.0
 10
132.467049325
 20
109.702910587
 30
0.0
 10
132.3034919088
 20
109.7259808032
 30
0.0
 10
132.0818344079
 20
109.8306527358
 30
0.0
 10
131.9040057039
 20
109.994323793
 30
0.0
 10
131.8246420298
 20
110.133831611
 30
0.0
 10
131.7970188904
 20
110.2070341996
 30
0.0
  0
SPLINE
  5
3EA
100
AcDbEntity
  8
0
100
AcDbSpline
 62
7
  6
CONTINUOUS
 70
0
 71
3
 72
11
 73
7
 74
0
 42
0.0000001
 43
0.0000001
 44
0.0000000001
 40
0.0
 40
0.0
 40
0.0
 40
0.0
 40
0.2518672219
 40
0.4999999657
 40
0.7481326609
 40
1.0
 40
1.0
 40
1.0
 40
1.0
 10
132.5719155754
 20
101.2590122945
 30
0.0
 10
132.7652848878
 20
101.9506226701
 30
0.0
 10
133.0749348947
 20
103.3466373792
 30
0.0
 10
133.2406708042
 20
105.4813482099
 30
0.0
 10
133.0749533027
 20
107.6160637501
 30
0.0
 10
132.7652781482
 20
109.0120725644
 30
0.0
 10
132.5719155754
 20
109.7036851715
 30
0.0
  0
SPLINE
  5
3EB
100
AcDbEntity
  8
0
100
AcDbSpline
 62
7
  6
CONTINUOUS
 70
0
 71
3
 72
11
 73
7
 74
0
 42
0.0000001
 43
0.0000001
 44
0.0000000001
 40
0.0
 40
0.0
 40
0.0
 40
0.0
 40
0.270180871
 40
0.5315411434
 40
0.7758022115
 40
1.0
 40
1.0
 40
1.0
 40
1.0
 10
132.548772987
 20
101.259681851
 30
0.0
 10
132.4667487878
 20
101.2644517254
 30
0.0
 10
132.3058532586
 20
101.2926717284
 30
0.0
 10
132.0871492752
 20
101.3869323608
 30
0.0
 10
131.9096771391
 20
101.524415682
 30
0.0
 10
131.8257030265
 20
101.6431493564
 30
0.0
 10
131.7970188904
 20
101.7050009659
 30
0.0
  0
SPLINE
  5
3EC
100
AcDbEntity
  8
0
100
AcDbSpline
 62
7
  6
CONTINUOUS
 70
0
 71
3
 72
13
 73
9
 74
0
 42
0.0000001
 43
0.0000001
 44
0.0000000001
 40
0.0
 40
0.0
 40
0.0
 40
0.0
 40
0.2503414297
 40
0.3742306422
 40
0.4978596517
 40
0.6217974376
 40
0.7465751354
 40
1.0
 40
1.0
 40
1.0
 40
1.0
 10
131.7970188904
 20
101.7050009659
 30
0.0
 10
131.9970749993
 20
102.3960747669
 30
0.0
 10
132.2389154044
 20
103.4481372315
 30
0.0
 10
132.4058388742
 20
104.8702811085
 30
0.0
 10
132.448024987
 20
105.9381034371
 30
0.0
 10
132.4056396746
 20
107.0084617489
 30
0.0
 10
132.2382536464
 20
108.4429193298
 30
0.0
 10
131.9966357004
 20
109.5066145353
 30
0.0
 10
131.7970188904
 20
110.2070341996
 30
0.0
  0
SPLINE
  5
3ED
100
AcDbEntity
  8
0
100
AcDbSpline
 62
7
  6
CONTINUOUS
 70
0
 71
3
 72
12
 73
8
 74
0
 42
0.0000001
 43
0.0000001
 44
0.0000000001
 40
0.0
 40
0.0
 40
0.0
 40
0.0
 40
0.3199503595
 40
0.6079454257
 40
0.8399602349
 40
0.9296396639
 40
1.0
 40
1.0
 40
1.0
 40
1.0
 10
132.548772987
 20
97.0377607377
 30
0.0
 10
132.467992204
 20
97.0323921104
 30
0.0
 10
132.314109472
 20
97.026863224
 30
0.0
 10
132.1015862806
 20
97.0335574371
 30
0.0
 10
131.9478589001
 20
97.0512171496
 30
0.0
 10
131.851275822
 20
97.0741970708
 30
0.0
 10
131.8129827526
 20
97.0880048555
 30
0.0
 10
131.7970188904
 20
97.0958869211
 30
0.0
  0
SPLINE
  5
3EE
100
AcDbEntity
  8
0
100
AcDbSpline
 62
7
  6
CONTINUOUS
 70
0
 71
3
 72
9
 73
5
 74
0
 42
0.0000001
 43
0.0000001
 44
0.0000000001
 40
0.0
 40
0.0
 40
0.0
 40
0.0
 40
0.4999890589
 40
1.0
 40
1.0
 40
1.0
 40
1.0
 10
133.185720897
 20
88.5938533592
 30
0.0
 10
133.1857209166
 20
90.0058472196
 30
0.0
 10
133.0770172728
 20
92.8308705625
 30
0.0
 10
132.76740917
 20
95.6400687172
 30
0.0
 10
132.5719155754
 20
97.0385262362
 30
0.0
  0
SPLINE
  5
3EF
100
AcDbEntity
  8
0
100
AcDbSpline
 62
7
  6
CONTINUOUS
 70
0
 71
3
 72
9
 73
5
 74
0
 42
0.0000001
 43
0.0000001
 44
0.0000000001
 40
0.0
 40
0.0
 40
0.0
 40
0.0
 40
0.4999888291
 40
1.0
 40
1.0
 40
1.0
 40
1.0
 10
132.4339668003
 20
88.5938533592
 30
0.0
 10
132.4339668109
 20
90.0157189871
 30
0.0
 10
132.3205627279
 20
92.8605528758
 30
0.0
 10
131.9991496376
 20
95.6883977713
 30
0.0
 10
131.7970188904
 20
97.0958869211
 30
0.0
  0
SPLINE
  5
3F0
100
AcDbEntity
  8
0
100
AcDbSpline
 62
7
  6
CONTINUOUS
 70
0
 71
3
 72
9
 73
5
 74
0
 42
0.0000001
 43
0.0000001
 44
0.0000000001
 40
0.0
 40
0.0
 40
0.0
 40
0.0
 40
0.5000109411
 40
1.0
 40
1.0
 40
1.0
 40
1.0
 10
132.5719155754
 20
80.1491804822
 30
0.0
 10
132.76740917
 20
81.5476380011
 30
0.0
 10
133.0770172729
 20
84.3568361559
 30
0.0
 10
133.1857209164
 20
87.1818594988
 30
0.0
 10
133.185720897
 20
88.5938533592
 30
0.0
  0
SPLINE
  5
3F1
100
AcDbEntity
  8
0
100
AcDbSpline
 62
7
  6
CONTINUOUS
 70
0
 71
3
 72
12
 73
8
 74
0
 42
0.0000001
 43
0.0000001
 44
0.0000000001
 40
0.0
 40
0.0
 40
0.0
 40
0.0
 40
0.3199503589
 40
0.6079454262
 40
0.8399602362
 40
0.9296396646
 40
1.0
 40
1.0
 40
1.0
 40
1.0
 10
132.548772987
 20
80.1499459807
 30
0.0
 10
132.4679922041
 20
80.1553146079
 30
0.0
 10
132.3141094722
 20
80.160843494
 30
0.0
 10
132.1015862804
 20
80.1541492814
 30
0.0
 10
131.9478589
 20
80.1364895664
 30
0.0
 10
131.8512758218
 20
80.1135096469
 30
0.0
 10
131.8129827524
 20
80.099701863
 30
0.0
 10
131.7970188904
 20
80.0918197975
 30
0.0
  0
SPLINE
  5
3F2
100
AcDbEntity
  8
0
100
AcDbSpline
 62
7
  6
CONTINUOUS
 70
0
 71
3
 72
9
 73
5
 74
0
 42
0.0000001
 43
0.0000001
 44
0.0000000001
 40
0.0
 40
0.0
 40
0.0
 40
0.0
 40
0.5000111709
 40
1.0
 40
1.0
 40
1.0
 40
1.0
 10
131.7970188904
 20
80.0918197975
 30
0.0
 10
131.9991496375
 20
81.4993089473
 30
0.0
 10
132.320562728
 20
84.3271538426
 30
0.0
 10
132.4339668108
 20
87.1719877313
 30
0.0
 10
132.4339668003
 20
88.5938533592
 30
0.0
  0
SPLINE
  5
3F3
100
AcDbEntity
  8
0
100
AcDbSpline
 62
7
  6
CONTINUOUS
 70
0
 71
3
 72
11
 73
7
 74
0
 42
0.0000001
 43
0.0000001
 44
0.0000000001
 40
0.0
 40
0.0
 40
0.0
 40
0.0
 40
0.2701808636
 40
0.5315411227
 40
0.7758021626
 40
1.0
 40
1.0
 40
1.0
 40
1.0
 10
132.548772987
 20
75.9280248618
 30
0.0
 10
132.4667487871
 20
75.923254992
 30
0.0
 10
132.3058532542
 20
75.8950350011
 30
0.0
 10
132.0871492839
 20
75.8007743771
 30
0.0
 10
131.9096770834
 20
75.6632911043
 30
0.0
 10
131.8257030337
 20
75.5445573695
 30
0.0
 10
131.7970188904
 20
75.4827057445
 30
0.0
  0
SPLINE
  5
3F4
100
AcDbEntity
  8
0
100
AcDbSpline
 62
7
  6
CONTINUOUS
 70
0
 71
3
 72
11
 73
7
 74
0
 42
0.0000001
 43
0.0000001
 44
0.0000000001
 40
0.0
 40
0.0
 40
0.0
 40
0.0
 40
0.2518673383
 40
0.5000000338
 40
0.7481327778
 40
1.0
 40
1.0
 40
1.0
 40
1.0
 10
132.5719155754
 20
67.4840215469
 30
0.0
 10
132.7652781716
 20
68.1756341467
 30
0.0
 10
133.0749532075
 20
69.5716429883
 30
0.0
 10
133.2406708935
 20
71.7063585029
 30
0.0
 10
133.0749350588
 20
73.8410693727
 30
0.0
 10
132.765284818
 20
75.2370840262
 30
0.0
 10
132.5719155754
 20
75.9286944239
 30
0.0
  0
SPLINE
  5
3F5
100
AcDbEntity
  8
0
100
AcDbSpline
 62
7
  6
CONTINUOUS
 70
0
 71
3
 72
11
 73
7
 74
0
 42
0.0000001
 43
0.0000001
 44
0.0000000001
 40
0.0
 40
0.0
 40
0.0
 40
0.0
 40
0.2555552251
 40
0.5075012551
 40
0.7553436828
 40
1.0
 40
1.0
 40
1.0
 40
1.0
 10
132.548772987
 20
67.4841172245
 30
0.0
 10
132.467049325
 20
67.4847961312
 30
0.0
 10
132.3034919082
 20
67.4617259148
 30
0.0
 10
132.0818344049
 20
67.3570539807
 30
0.0
 10
131.9040057042
 20
67.1933829207
 30
0.0
 10
131.8246420289
 20
67.053875105
 30
0.0
 10
131.7970188904
 20
66.9806725192
 30
0.0
  0
SPLINE
  5
3F6
100
AcDbEntity
  8
0
100
AcDbSpline
 62
7
  6
CONTINUOUS
 70
0
 71
3
 72
13
 73
9
 74
0
 42
0.0000001
 43
0.0000001
 44
0.0000000001
 40
0.0
 40
0.0
 40
0.0
 40
0.0
 40
0.253424864
 40
0.378202563
 40
0.5021403507
 40
0.6257693617
 40
0.7496585741
 40
1.0
 40
1.0
 40
1.0
 40
1.0
 10
131.7970188904
 20
66.9806725192
 30
0.0
 10
131.9966357089
 20
67.6810921789
 30
0.0
 10
132.2382536413
 20
68.7447873893
 30
0.0
 10
132.4056396738
 20
70.1792449749
 30
0.0
 10
132.448025
 20
71.249603299
 30
0.0
 10
132.4058388752
 20
72.317425635
 30
0.0
 10
132.2389154452
 20
73.7395695114
 30
0.0
 10
131.9970749517
 20
74.7916319415
 30
0.0
 10
131.7970188904
 20
75.4827057445
 30
0.0
  0
SPLINE
  5
3F7
100
AcDbEntity
  8
0
100
AcDbSpline
 62
7
  6
CONTINUOUS
 70
0
 71
3
 72
10
 73
6
 74
0
 42
0.0000001
 43
0.0000001
 44
0.0000000001
 40
0.0
 40
0.0
 40
0.0
 40
0.0
 40
0.5091404231
 40
0.7559499606
 40
1.0
 40
1.0
 40
1.0
 40
1.0
 10
144.8412960754
 20
67.4840215469
 30
0.0
 10
145.1507071156
 20
68.1583050603
 30
0.0
 10
145.5355420842
 20
69.2000398177
 30
0.0
 10
145.8060019502
 20
70.6346530142
 30
0.0
 10
145.8516590465
 20
71.3507447383
 30
0.0
 10
145.8516590465
 20
71.7063579856
 30
0.0
  0
SPLINE
  5
3F8
100
AcDbEntity
  8
0
100
AcDbSpline
 62
7
  6
CONTINUOUS
 70
0
 71
3
 72
10
 73
6
 74
0
 42
0.0000001
 43
0.0000001
 44
0.0000000001
 40
0.0
 40
0.0
 40
0.0
 40
0.0
 40
0.2440500455
 40
0.4908595892
 40
1.0
 40
1.0
 40
1.0
 40
1.0
 10
145.8516590465
 20
71.7063579856
 30
0.0
 10
145.8516590464
 20
72.0619712417
 30
0.0
 10
145.8060019468
 20
72.7780629835
 30
0.0
 10
145.5355420761
 20
74.2126761791
 30
0.0
 10
145.1507071082
 20
75.2544109267
 30
0.0
 10
144.8412960754
 20
75.9286944239
 30
0.0
  0
SPLINE
  5
3F9
100
AcDbEntity
  8
0
100
AcDbSpline
 62
7
  6
CONTINUOUS
 70
0
 71
3
 72
10
 73
6
 74
0
 42
0.0000001
 43
0.0000001
 44
0.0000000001
 40
0.0
 40
0.0
 40
0.0
 40
0.0
 40
0.5091404231
 40
0.7559499606
 40
1.0
 40
1.0
 40
1.0
 40
1.0
 10
144.8412960754
 20
101.2590122945
 30
0.0
 10
145.1507071156
 20
101.9332958079
 30
0.0
 10
145.5355420842
 20
102.9750305653
 30
0.0
 10
145.8060019502
 20
104.4096437618
 30
0.0
 10
145.8516590465
 20
105.1257354859
 30
0.0
 10
145.8516590465
 20
105.4813487332
 30
0.0
  0
SPLINE
  5
3FA
100
AcDbEntity
  8
0
100
AcDbSpline
 62
7
  6
CONTINUOUS
 70
0
 71
3
 72
10
 73
6
 74
0
 42
0.0000001
 43
0.0000001
 44
0.0000000001
 40
0.0
 40
0.0
 40
0.0
 40
0.0
 40
0.2440500455
 40
0.4908595892
 40
1.0
 40
1.0
 40
1.0
 40
1.0
 10
145.8516590465
 20
105.4813487332
 30
0.0
 10
145.8516590464
 20
105.8369619893
 30
0.0
 10
145.8060019468
 20
106.5530537311
 30
0.0
 10
145.5355420761
 20
107.9876669267
 30
0.0
 10
145.1507071082
 20
109.0294016742
 30
0.0
 10
144.8412960754
 20
109.7036851715
 30
0.0
  0
SPLINE
  5
3FB
100
AcDbEntity
  8
0
100
AcDbSpline
 62
7
  6
CONTINUOUS
 70
0
 71
3
 72
10
 73
6
 74
0
 42
0.0000001
 43
0.0000001
 44
0.0000000001
 40
0.0
 40
0.0
 40
0.0
 40
0.0
 40
0.4999184928
 40
0.7499592385
 40
1.0
 40
1.0
 40
1.0
 40
1.0
 10
144.8412960754
 20
80.1491804822
 30
0.0
 10
145.1588206967
 20
81.5331105261
 30
0.0
 10
145.5414120847
 20
83.6337303994
 30
0.0
 10
145.8066267529
 20
86.4628787256
 30
0.0
 10
145.8516590465
 20
87.8836774286
 30
0.0
 10
145.8516590465
 20
88.5938533596
 30
0.0
  0
SPLINE
  5
3FC
100
AcDbEntity
  8
0
100
AcDbSpline
 62
7
  6
CONTINUOUS
 70
0
 71
3
 72
8
 73
4
 74
0
 42
0.0000001
 43
0.0000001
 44
0.0000000001
 40
0.0
 40
0.0
 40
0.0
 40
0.0
 40
1.0
 40
1.0
 40
1.0
 40
1.0
 10
126.1649814234
 20
81.9830774014
 30
0.0
 10
126.2905592527
 20
81.8176822918
 30
0.0
 10
126.3516590465
 20
81.5738939541
 30
0.0
 10
126.3516590465
 20
81.2476212519
 30
0.0
  0
SPLINE
  5
3FD
100
AcDbEntity
  8
0
100
AcDbSpline
 62
7
  6
CONTINUOUS
 70
0
 71
3
 72
8
 73
4
 74
0
 42
0.0000001
 43
0.0000001
 44
0.0000000001
 40
0.0
 40
0.0
 40
0.0
 40
0.0
 40
1.0
 40
1.0
 40
1.0
 40
1.0
 10
125.6347547788
 20
82.3749125021
 30
0.0
 10
125.8628606964
 20
82.2777639645
 30
0.0
 10
126.0400500837
 20
82.1476210373
 30
0.0
 10
126.1649814234
 20
81.9830774014
 30
0.0
  0
SPLINE
  5
3FE
100
AcDbEntity
  8
0
100
AcDbSpline
 62
7
  6
CONTINUOUS
 70
0
 71
3
 72
8
 73
4
 74
0
 42
0.0000001
 43
0.0000001
 44
0.0000000001
 40
0.0
 40
0.0
 40
0.0
 40
0.0
 40
1.0
 40
1.0
 40
1.0
 40
1.0
 10
124.811944114
 20
82.5215516585
 30
0.0
 10
125.1316998172
 20
82.5215516585
 30
0.0
 10
125.4066488612
 20
82.4720610398
 30
0.0
 10
125.6347547788
 20
82.3749125021
 30
0.0
  0
SPLINE
  5
3FF
100
AcDbEntity
  8
0
100
AcDbSpline
 62
7
  6
CONTINUOUS
 70
0
 71
3
 72
8
 73
4
 74
0
 42
0.0000001
 43
0.0000001
 44
0.0000000001
 40
0.0
 40
0.0
 40
0.0
 40
0.0
 40
1.0
 40
1.0
 40
1.0
 40
1.0
 10
123.7411051054
 20
82.2113217855
 30
0.0
 10
124.0013535488
 20
82.4170710343
 30
0.0
 10
124.357769059
 20
82.5215516585
 30
0.0
 10
124.811944114
 20
82.5215516585
 30
0.0
  0
SPLINE
  5
400
100
AcDbEntity
  8
0
100
AcDbSpline
 62
7
  6
CONTINUOUS
 70
0
 71
3
 72
8
 73
4
 74
0
 42
0.0000001
 43
0.0000001
 44
0.0000000001
 40
0.0
 40
0.0
 40
0.0
 40
0.0
 40
1.0
 40
1.0
 40
1.0
 40
1.0
 10
123.3516590465
 20
81.4180893677
 30
0.0
 10
123.3516590465
 20
81.7406966704
 30
0.0
 10
123.4820052851
 20
82.006480624
 30
0.0
 10
123.7411051054
 20
82.2113217855
 30
0.0
  0
SPLINE
  5
401
100
AcDbEntity
  8
0
100
AcDbSpline
 62
7
  6
CONTINUOUS
 70
0
 71
3
 72
8
 73
4
 74
0
 42
0.0000001
 43
0.0000001
 44
0.0000000001
 40
0.0
 40
0.0
 40
0.0
 40
0.0
 40
1.0
 40
1.0
 40
1.0
 40
1.0
 10
123.8082703137
 20
81.6928635259
 30
0.0
 10
123.7589911092
 20
81.6013889569
 30
0.0
 10
123.7345511783
 20
81.4455843705
 30
0.0
 10
123.7345511783
 20
81.2219589489
 30
0.0
  0
SPLINE
  5
402
100
AcDbEntity
  8
0
100
AcDbSpline
 62
7
  6
CONTINUOUS
 70
0
 71
3
 72
8
 73
4
 74
0
 42
0.0000001
 43
0.0000001
 44
0.0000000001
 40
0.0
 40
0.0
 40
0.0
 40
0.0
 40
1.0
 40
1.0
 40
1.0
 40
1.0
 10
124.0136331653
 20
81.9275974025
 30
0.0
 10
123.9259970653
 20
81.8616741675
 30
0.0
 10
123.856750654
 20
81.7828552025
 30
0.0
 10
123.8082703137
 20
81.6928635259
 30
0.0
  0
SPLINE
  5
403
100
AcDbEntity
  8
0
100
AcDbSpline
 62
7
  6
CONTINUOUS
 70
0
 71
3
 72
8
 73
4
 74
0
 42
0.0000001
 43
0.0000001
 44
0.0000000001
 40
0.0
 40
0.0
 40
0.0
 40
0.0
 40
1.0
 40
1.0
 40
1.0
 40
1.0
 10
124.8323108423
 20
82.138456251
 30
0.0
 10
124.4718219507
 20
82.138456251
 30
0.0
 10
124.198909508
 20
82.0669693726
 30
0.0
 10
124.0136331653
 20
81.9275974025
 30
0.0
  0
SPLINE
  5
404
100
AcDbEntity
  8
0
100
AcDbSpline
 62
7
  6
CONTINUOUS
 70
0
 71
3
 72
8
 73
4
 74
0
 42
0.0000001
 43
0.0000001
 44
0.0000000001
 40
0.0
 40
0.0
 40
0.0
 40
0.0
 40
1.0
 40
1.0
 40
1.0
 40
1.0
 10
125.6695535761
 20
81.9370403316
 30
0.0
 10
125.4697852898
 20
82.0706354159
 30
0.0
 10
125.1907629538
 20
82.138456251
 30
0.0
 10
124.8323108423
 20
82.138456251
 30
0.0
  0
SPLINE
  5
405
100
AcDbEntity
  8
0
100
AcDbSpline
 62
7
  6
CONTINUOUS
 70
0
 71
3
 72
8
 73
4
 74
0
 42
0.0000001
 43
0.0000001
 44
0.0000000001
 40
0.0
 40
0.0
 40
0.0
 40
0.0
 40
1.0
 40
1.0
 40
1.0
 40
1.0
 10
125.8889128122
 20
81.7111645783
 30
0.0
 10
125.8363841194
 20
81.7993520754
 30
0.0
 10
125.7630643267
 20
81.8745049971
 30
0.0
 10
125.6695535761
 20
81.9370403316
 30
0.0
  0
SPLINE
  5
406
100
AcDbEntity
  8
0
100
AcDbSpline
 62
7
  6
CONTINUOUS
 70
0
 71
3
 72
8
 73
4
 74
0
 42
0.0000001
 43
0.0000001
 44
0.0000000001
 40
0.0
 40
0.0
 40
0.0
 40
0.0
 40
1.0
 40
1.0
 40
1.0
 40
1.0
 10
125.9687670041
 20
81.2329570788
 30
0.0
 10
125.9687670041
 20
81.4620812434
 30
0.0
 10
125.9422904271
 20
81.6215518731
 30
0.0
 10
125.8889128122
 20
81.7111645783
 30
0.0
  0
SPLINE
  5
407
100
AcDbEntity
  8
0
100
AcDbSpline
 62
7
  6
CONTINUOUS
 70
0
 71
3
 72
20
 73
16
 74
0
 42
0.0000001
 43
0.0000001
 44
0.0000000001
 40
0.0
 40
0.0
 40
0.0
 40
0.0
 40
0.2194738711
 40
0.4163575995
 40
0.588211527
 40
0.7328177463
 40
0.79423248
 40
0.8480390225
 40
0.8939933223
 40
0.9319032616
 40
0.9615854969
 40
0.9828787698
 40
0.9903535932
 40
0.9957037863
 40
1.0
 40
1.0
 40
1.0
 40
1.0
 10
120.7658726088
 20
110.5275602819
 30
0.0
 10
120.961742187
 20
110.5977344624
 30
0.0
 10
121.3320582764
 20
110.734412432
 30
0.0
 10
121.8517997384
 20
110.9364944063
 30
0.0
 10
122.3027580642
 20
111.1194645331
 30
0.0
 10
122.6330678491
 20
111.2581207621
 30
0.0
 10
122.8594554622
 20
111.3551805942
 30
0.0
 10
122.9996341708
 20
111.4159752896
 30
0.0
 10
123.119186908
 20
111.4683276742
 30
0.0
 10
123.2176759549
 20
111.5117561054
 30
0.0
 10
123.294639282
 20
111.5460837751
 30
0.0
 10
123.3453174755
 20
111.5684475432
 30
0.0
 10
123.3747380102
 20
111.5819477876
 30
0.0
 10
123.3897292826
 20
111.5880779095
 30
0.0
 10
123.3977218512
 20
111.5928111429
 30
0.0
 10
123.4016590465
 20
111.5938533592
 30
0.0
  0
SPLINE
  5
408
100
AcDbEntity
  8
0
100
AcDbSpline
 62
7
  6
CONTINUOUS
 70
0
 71
3
 72
11
 73
7
 74
0
 42
0.0000001
 43
0.0000001
 44
0.0000000001
 40
0.0
 40
0.0
 40
0.0
 40
0.0
 40
0.2241595111
 40
0.471233921
 40
0.7340747711
 40
1.0
 40
1.0
 40
1.0
 40
1.0
 10
120.7658726088
 20
110.5275567082
 30
0.0
 10
120.6913633319
 20
110.5457593162
 30
0.0
 10
120.5422030525
 20
110.617250265
 30
0.0
 10
120.3591923008
 20
110.7940213192
 30
0.0
 10
120.222260183
 20
111.0247429994
 30
0.0
 10
120.1706981108
 20
111.2005645277
 30
0.0
 10
120.1566937699
 20
111.290471827
 30
0.0
  0
SPLINE
  5
409
100
AcDbEntity
  8
0
100
AcDbSpline
 62
7
  6
CONTINUOUS
 70
0
 71
3
 72
23
 73
19
 74
0
 42
0.0000001
 43
0.0000001
 44
0.0000000001
 40
0.0
 40
0.0
 40
0.0
 40
0.0
 40
0.2200071568
 40
0.4171105337
 40
0.5889619808
 40
0.6647489027
 40
0.7334259578
 40
0.7947403793
 40
0.848439183
 40
0.894287294
 40
0.9320997784
 40
0.9616996717
 40
0.9733675646
 40
0.9829316499
 40
0.9903844335
 40
0.9957184191
 40
0.9989261079
 40
1.0
 40
1.0
 40
1.0
 40
1.0
 10
120.1566987763
 20
111.290471827
 30
0.0
 10
120.3394196713
 20
111.3634942501
 30
0.0
 10
120.6844042728
 20
111.5055577016
 30
0.0
 10
121.1676552089
 20
111.7152494327
 30
0.0
 10
121.5300329849
 20
111.8793131274
 30
0.0
 10
121.7865586716
 20
111.9986145147
 30
0.0
 10
121.9529965889
 20
112.0771743768
 30
0.0
 10
122.101201941
 20
112.148074527
 30
0.0
 10
122.2307050388
 20
112.2107499965
 30
0.0
 10
122.3410975143
 20
112.264664408
 30
0.0
 10
122.4319624205
 20
112.3094318857
 30
0.0
 10
122.4953547604
 20
112.3408237969
 30
0.0
 10
122.5360237912
 20
112.3611087014
 30
0.0
 10
122.5590700133
 20
112.3724593922
 30
0.0
 10
122.5767445734
 20
112.3816130329
 30
0.0
 10
122.5900219
 20
112.3874927902
 30
0.0
 10
122.5968632742
 20
112.3922544711
 30
0.0
 10
122.6011650476
 20
112.3930296594
 30
0.0
 10
122.6016590465
 20
112.3938533592
 30
0.0
  0
SPLINE
  5
40A
100
AcDbEntity
  8
0
100
AcDbSpline
 62
7
  6
CONTINUOUS
 70
0
 71
3
 72
9
 73
5
 74
0
 42
0.0000001
 43
0.0000001
 44
0.0000000001
 40
0.0
 40
0.0
 40
0.0
 40
0.0
 40
0.5502934385
 40
1.0
 40
1.0
 40
1.0
 40
1.0
 10
120.0587658276
 20
109.7580833681
 30
0.0
 10
120.154197893
 20
109.9258644013
 30
0.0
 10
120.3641402776
 20
110.2115571433
 30
0.0
 10
120.6333121592
 20
110.4420629481
 30
0.0
 10
120.7658726088
 20
110.5275602819
 30
0.0
  0
SPLINE
  5
40B
100
AcDbEntity
  8
0
100
AcDbSpline
 62
7
  6
CONTINUOUS
 70
0
 71
3
 72
13
 73
9
 74
0
 42
0.0000001
 43
0.0000001
 44
0.0000000001
 40
0.0
 40
0.0
 40
0.0
 40
0.0
 40
0.0823663348
 40
0.1832109453
 40
0.3016788571
 40
0.4345443951
 40
0.7222390407
 40
1.0
 40
1.0
 40
1.0
 40
1.0
 10
120.0587924587
 20
109.7580585473
 30
0.0
 10
120.0265047223
 20
109.7459965596
 30
0.0
 10
119.9491394166
 20
109.7344261337
 30
0.0
 10
119.8228659805
 20
109.7467725947
 30
0.0
 10
119.6801934354
 20
109.7860503934
 30
0.0
 10
119.4720684094
 20
109.8742432859
 30
0.0
 10
119.2236299528
 20
110.0318093152
 30
0.0
 10
119.0495590114
 20
110.19529702
 30
0.0
 10
118.9760493911
 20
110.2853322407
 30
0.0
  0
SPLINE
  5
40C
100
AcDbEntity
  8
0
100
AcDbSpline
 62
7
  6
CONTINUOUS
 70
0
 71
3
 72
9
 73
5
 74
0
 42
0.0000001
 43
0.0000001
 44
0.0000000001
 40
0.0
 40
0.0
 40
0.0
 40
0.0
 40
0.2784997687
 40
1.0
 40
1.0
 40
1.0
 40
1.0
 10
118.9760544221
 20
110.2853322405
 30
0.0
 10
119.0561436484
 20
110.4063923705
 30
0.0
 10
119.3735778456
 20
110.8195097656
 30
0.0
 10
119.8075048898
 20
111.1509187799
 30
0.0
 10
120.1566987763
 20
111.290471827
 30
0.0
  0
LINE
  5
40D
100
AcDbEntity
  8
0
100
AcDbLine
 62
7
  6
CONTINUOUS
 10
119.6445522653
 20
109.1822566965
 11
120.0587658276
 21
109.7580833681
  0
SPLINE
  5
40E
100
AcDbEntity
  8
0
100
AcDbSpline
 62
7
  6
CONTINUOUS
 70
0
 71
3
 72
13
 73
9
 74
0
 42
0.0000001
 43
0.0000001
 44
0.0000000001
 40
0.0
 40
0.0
 40
0.0
 40
0.0
 40
0.0803039375
 40
0.1799217326
 40
0.297692399
 40
0.4302811092
 40
0.7189244692
 40
1.0
 40
1.0
 40
1.0
 40
1.0
 10
119.6445522657
 20
109.1822566961
 30
0.0
 10
119.613433075
 20
109.1726700963
 30
0.0
 10
119.5394461294
 20
109.1656559065
 30
0.0
 10
119.4193475014
 20
109.1819136423
 30
0.0
 10
119.2829725948
 20
109.2229552373
 30
0.0
 10
119.0824554379
 20
109.3108556603
 30
0.0
 10
118.8402660783
 20
109.4636654646
 30
0.0
 10
118.6672204442
 20
109.6192152746
 30
0.0
 10
118.5918291872
 20
109.7046904415
 30
0.0
  0
LINE
  5
40F
100
AcDbEntity
  8
0
100
AcDbLine
 62
7
  6
CONTINUOUS
 10
118.591829172
 20
109.7046904415
 11
118.9760544221
 21
110.2853322405
  0
SPLINE
  5
410
100
AcDbEntity
  8
0
100
AcDbSpline
 62
7
  6
CONTINUOUS
 70
0
 71
3
 72
9
 73
5
 74
0
 42
0.0000001
 43
0.0000001
 44
0.0000000001
 40
0.0
 40
0.0
 40
0.0
 40
0.0
 40
0.4994987179
 40
1.0
 40
1.0
 40
1.0
 40
1.0
 10
118.9374454841
 20
108.8595401542
 30
0.0
 10
119.0687997035
 20
108.8675352842
 30
0.0
 10
119.3308082606
 20
108.9333978636
 30
0.0
 10
119.5521167196
 20
109.0882188772
 30
0.0
 10
119.6445522653
 20
109.1822566965
 30
0.0
  0
SPLINE
  5
411
100
AcDbEntity
  8
0
100
AcDbSpline
 62
7
  6
CONTINUOUS
 70
0
 71
3
 72
11
 73
7
 74
0
 42
0.0000001
 43
0.0000001
 44
0.0000000001
 40
0.0
 40
0.0
 40
0.0
 40
0.0
 40
0.2104373479
 40
0.4552303201
 40
0.7238104143
 40
1.0
 40
1.0
 40
1.0
 40
1.0
 10
118.9374454841
 20
108.8595399912
 30
0.0
 10
118.880378312
 20
108.887102671
 30
0.0
 10
118.7687925564
 20
108.9713041629
 30
0.0
 10
118.6327528968
 20
109.1435344001
 30
0.0
 10
118.524495735
 20
109.3567989091
 30
0.0
 10
118.4771299054
 20
109.5149473101
 30
0.0
 10
118.4606464584
 20
109.5964742195
 30
0.0
  0
SPLINE
  5
412
100
AcDbEntity
  8
0
100
AcDbSpline
 62
7
  6
CONTINUOUS
 70
0
 71
3
 72
9
 73
5
 74
0
 42
0.0000001
 43
0.0000001
 44
0.0000000001
 40
0.0
 40
0.0
 40
0.0
 40
0.0
 40
0.2402642736
 40
1.0
 40
1.0
 40
1.0
 40
1.0
 10
118.460646466
 20
109.5964742195
 30
0.0
 10
118.4736871418
 20
109.6008811641
 30
0.0
 10
118.525905325
 20
109.6252820272
 30
0.0
 10
118.567806335
 20
109.6683934077
 30
0.0
 10
118.591829172
 20
109.7046904415
 30
0.0
  0
SPLINE
  5
413
100
AcDbEntity
  8
0
100
AcDbSpline
 62
7
  6
CONTINUOUS
 70
0
 71
3
 72
14
 73
10
 74
0
 42
0.0000001
 43
0.0000001
 44
0.0000000001
 40
0.0
 40
0.0
 40
0.0
 40
0.0
 40
0.1587992962
 40
0.2793485662
 40
0.4175283704
 40
0.5665318325
 40
0.7186433319
 40
0.8656068307
 40
1.0
 40
1.0
 40
1.0
 40
1.0
 10
101.6658726088
 20
110.4256954041
 30
0.0
 10
102.5214403578
 20
110.0358541063
 30
0.0
 10
104.0515842806
 20
109.4022455749
 30
0.0
 10
106.4053132982
 20
108.6399238179
 30
0.0
 10
108.7619742705
 20
108.0978518934
 30
0.0
 10
111.3529473507
 20
107.8036888016
 30
0.0
 10
114.0133475857
 20
107.8475830033
 30
0.0
 10
116.5592811671
 20
108.2156090348
 30
0.0
 10
118.1758419892
 20
108.6291175384
 30
0.0
 10
118.9374454841
 20
108.8595401542
 30
0.0
  0
SPLINE
  5
414
100
AcDbEntity
  8
0
100
AcDbSpline
 62
7
  6
CONTINUOUS
 70
0
 71
3
 72
11
 73
7
 74
0
 42
0.0000001
 43
0.0000001
 44
0.0000000001
 40
0.0
 40
0.0
 40
0.0
 40
0.0
 40
0.2460836197
 40
0.4959134737
 40
0.7481082395
 40
1.0
 40
1.0
 40
1.0
 40
1.0
 10
101.6658726067
 20
110.4256657792
 30
0.0
 10
101.7652597165
 20
110.428863957
 30
0.0
 10
101.9662262291
 20
110.4759319774
 30
0.0
 10
102.218915995
 20
110.6542355332
 30
0.0
 10
102.3913375178
 20
110.9135281928
 30
0.0
 10
102.4364400868
 20
111.1178425773
 30
0.0
 10
102.4395505658
 20
111.2195805721
 30
0.0
  0
SPLINE
  5
415
100
AcDbEntity
  8
0
100
AcDbSpline
 62
7
  6
CONTINUOUS
 70
0
 71
3
 72
14
 73
10
 74
0
 42
0.0000001
 43
0.0000001
 44
0.0000000001
 40
0.0
 40
0.0
 40
0.0
 40
0.0
 40
0.157036437
 40
0.2766748555
 40
0.4146335314
 40
0.5643243158
 40
0.7176041205
 40
0.8654083596
 40
1.0
 40
1.0
 40
1.0
 40
1.0
 10
102.4395042061
 20
111.2195805694
 30
0.0
 10
103.213111567
 20
110.8255609881
 30
0.0
 10
104.6027807673
 20
110.1810464067
 30
0.0
 10
106.7579188562
 20
109.3937027086
 30
0.0
 10
108.9407222828
 20
108.8224987655
 30
0.0
 10
111.3654622932
 20
108.5039817219
 30
0.0
 10
113.8667392413
 20
108.5437513238
 30
0.0
 10
116.2517092549
 20
108.9279308952
 30
0.0
 10
117.7557443863
 20
109.3581977029
 30
0.0
 10
118.460646466
 20
109.5964742195
 30
0.0
  0
SPLINE
  5
416
100
AcDbEntity
  8
0
100
AcDbSpline
 62
7
  6
CONTINUOUS
 70
0
 71
3
 72
18
 73
14
 74
0
 42
0.0000001
 43
0.0000001
 44
0.0000000001
 40
0.0
 40
0.0
 40
0.0
 40
0.0
 40
0.0036823015
 40
0.014822325
 40
0.0334606862
 40
0.0596380906
 40
0.0933955
 40
0.1347788508
 40
0.2408766158
 40
0.3790547663
 40
0.5505410377
 40
0.75690005
 40
1.0
 40
1.0
 40
1.0
 40
1.0
 10
101.4635317408
 20
110.5731685144
 30
0.0
 10
101.463541786
 20
110.5734758535
 30
0.0
 10
101.4652144328
 20
110.5716838192
 30
0.0
 10
101.4669671369
 20
110.5712883899
 30
0.0
 10
101.4712459161
 20
110.5681310832
 30
0.0
 10
101.476597859
 20
110.5648427877
 30
0.0
 10
101.4837394007
 20
110.5601034246
 30
0.0
 10
101.4963491825
 20
110.5518291923
 30
0.0
 10
101.5161667645
 20
110.5384858484
 30
0.0
 10
101.5446420352
 20
110.5186453392
 30
0.0
 10
101.5795438742
 20
110.4933557537
 30
0.0
 10
101.6208534714
 20
110.4620086365
 30
0.0
 10
101.6501729785
 20
110.4385658342
 30
0.0
 10
101.6658726088
 20
110.4256954041
 30
0.0
  0
SPLINE
  5
417
100
AcDbEntity
  8
0
100
AcDbSpline
 62
7
  6
CONTINUOUS
 70
0
 71
3
 72
18
 73
14
 74
0
 42
0.0000001
 43
0.0000001
 44
0.0000000001
 40
0.0
 40
0.0
 40
0.0
 40
0.0
 40
0.00378755
 40
0.0152094924
 40
0.0342828499
 40
0.0610246762
 40
0.0954525223
 40
0.1375872511
 40
0.2452050973
 40
0.3844829096
 40
0.556148332
 40
0.761005116
 40
1.0
 40
1.0
 40
1.0
 40
1.0
 10
102.1016590465
 20
111.3566206385
 30
0.0
 10
102.1016715953
 20
111.3570813661
 30
0.0
 10
102.1045142082
 20
111.3551777447
 30
0.0
 10
102.1074803407
 20
111.3553333206
 30
0.0
 10
102.114729059
 20
111.352520434
 30
0.0
 10
102.1237864161
 20
111.3499442267
 30
0.0
 10
102.1358627883
 20
111.3459869941
 30
0.0
 10
102.1571303015
 20
111.3391257959
 30
0.0
 10
102.1904607927
 20
111.3277503929
 30
0.0
 10
102.2382278974
 20
111.3101089563
 30
0.0
 10
102.2964685079
 20
111.2866601195
 30
0.0
 10
102.3649948929
 20
111.2563930049
 30
0.0
 10
102.4135810261
 20
111.2327637172
 30
0.0
 10
102.4395042061
 20
111.2195805694
 30
0.0
  0
SPLINE
  5
418
100
AcDbEntity
  8
0
100
AcDbSpline
 62
7
  6
CONTINUOUS
 70
0
 71
3
 72
21
 73
17
 74
0
 42
0.0000001
 43
0.0000001
 44
0.0000000001
 40
0.0
 40
0.0
 40
0.0
 40
0.0
 40
0.1949080001
 40
0.3826806106
 40
0.5555386557
 40
0.7070461738
 40
0.7729798649
 40
0.8314524034
 40
0.8818918817
 40
0.9238614055
 40
0.9569320881
 40
0.9807566373
 40
0.9891462038
 40
0.9951622499
 40
0.9987860958
 40
1.0
 40
1.0
 40
1.0
 40
1.0
 10
97.8516590465
 20
121.0938533592
 30
0.0
 10
97.8517182614
 20
121.1263381165
 30
0.0
 10
97.8518229907
 20
121.1901184462
 30
0.0
 10
97.8517365353
 20
121.2827087386
 30
0.0
 10
97.8514581128
 20
121.3680649783
 30
0.0
 10
97.8515953997
 20
121.4331158207
 30
0.0
 10
97.8517533145
 20
121.4791003227
 30
0.0
 10
97.8517868563
 20
121.5082439769
 30
0.0
 10
97.8517330052
 20
121.5333833451
 30
0.0
 10
97.8516200915
 20
121.554318127
 30
0.0
 10
97.8515954183
 20
121.5707390575
 30
0.0
 10
97.8514781473
 20
121.5817382357
 30
0.0
 10
97.8516401772
 20
121.5879497919
 30
0.0
 10
97.8514255452
 20
121.591219794
 30
0.0
 10
97.8518680574
 20
121.5925581888
 30
0.0
 10
97.8514567282
 20
121.5938533592
 30
0.0
 10
97.8516590465
 20
121.5938533592
 30
0.0
  0
SPLINE
  5
419
100
AcDbEntity
  8
0
100
AcDbSpline
 62
7
  6
CONTINUOUS
 70
0
 71
3
 72
9
 73
5
 74
0
 42
0.0000001
 43
0.0000001
 44
0.0000000001
 40
0.0
 40
0.0
 40
0.0
 40
0.0
 40
0.4973071138
 40
1.0
 40
1.0
 40
1.0
 40
1.0
 10
102.1429670039
 20
114.8275903273
 30
0.0
 10
102.1872234001
 20
114.8020391705
 30
0.0
 10
102.2634801219
 20
114.7247702957
 30
0.0
 10
102.2885996025
 20
114.6194278404
 30
0.0
 10
102.2875281397
 20
114.5677827758
 30
0.0
  0
LINE
  5
41A
100
AcDbEntity
  8
0
100
AcDbLine
 62
7
  6
CONTINUOUS
 10
102.2875270062
 20
114.5677827758
 11
102.1016590463
 21
114.6782345002
  0
SPLINE
  5
41B
100
AcDbEntity
  8
0
100
AcDbSpline
 62
7
  6
CONTINUOUS
 70
0
 71
3
 72
15
 73
11
 74
0
 42
0.0000001
 43
0.0000001
 44
0.0000000001
 40
0.0
 40
0.0
 40
0.0
 40
0.0
 40
0.1791145953
 40
0.3548854375
 40
0.5221697316
 40
0.67382735
 40
0.7998260285
 40
0.8912316124
 40
0.9491354511
 40
1.0
 40
1.0
 40
1.0
 40
1.0
 10
102.1833091586
 20
115.3687278362
 30
0.0
 10
102.1909272638
 20
115.334047789
 30
0.0
 10
102.2045023971
 20
115.2649871247
 30
0.0
 10
102.2193695907
 20
115.162503931
 30
0.0
 10
102.2274529862
 20
115.0646654177
 30
0.0
 10
102.2280673986
 20
114.9764424093
 30
0.0
 10
102.2195405483
 20
114.9031932181
 30
0.0
 10
102.2051152176
 20
114.8511158128
 30
0.0
 10
102.1763966735
 20
114.8170284934
 30
0.0
 10
102.1516966319
 20
114.8225441446
 30
0.0
 10
102.1429670441
 20
114.827590397
 30
0.0
  0
SPLINE
  5
41C
100
AcDbEntity
  8
0
100
AcDbSpline
 62
7
  6
CONTINUOUS
 70
0
 71
3
 72
9
 73
5
 74
0
 42
0.0000001
 43
0.0000001
 44
0.0000000001
 40
0.0
 40
0.0
 40
0.0
 40
0.0
 40
0.6288366989
 40
1.0
 40
1.0
 40
1.0
 40
1.0
 10
102.1833092353
 20
115.3687279683
 30
0.0
 10
102.2432490118
 20
115.3683942146
 30
0.0
 10
102.3385198716
 20
115.3668221153
 30
0.0
 10
102.4339160706
 20
115.365594437
 30
0.0
 10
102.4691936096
 20
115.3629132515
 30
0.0
  0
SPLINE
  5
41D
100
AcDbEntity
  8
0
100
AcDbSpline
 62
7
  6
CONTINUOUS
 70
0
 71
3
 72
18
 73
14
 74
0
 42
0.0000001
 43
0.0000001
 44
0.0000000001
 40
0.0
 40
0.0
 40
0.0
 40
0.0
 40
0.1851505592
 40
0.365357637
 40
0.5345342569
 40
0.6856953878
 40
0.8109055839
 40
0.8616163143
 40
0.9035480682
 40
0.9367116503
 40
0.9618100053
 40
0.9812880227
 40
1.0
 40
1.0
 40
1.0
 40
1.0
 10
102.4691949579
 20
115.3629132515
 30
0.0
 10
102.4689210655
 20
115.3101403943
 30
0.0
 10
102.4663067805
 20
115.2059988653
 30
0.0
 10
102.4557913069
 20
115.0539532257
 30
0.0
 10
102.4388020368
 20
114.9122151432
 30
0.0
 10
102.4159470058
 20
114.7872210752
 30
0.0
 10
102.3918110404
 20
114.6969524221
 30
0.0
 10
102.3696103813
 20
114.6389000581
 30
0.0
 10
102.3536712698
 20
114.6066877397
 30
0.0
 10
102.337522276
 20
114.5829943084
 30
0.0
 10
102.3211075693
 20
114.5676245513
 30
0.0
 10
102.3031797577
 20
114.5615418592
 30
0.0
 10
102.2921104818
 20
114.5650555395
 30
0.0
 10
102.2875270062
 20
114.5677827758
 30
0.0
  0
SPLINE
  5
41E
100
AcDbEntity
  8
0
100
AcDbSpline
 62
7
  6
CONTINUOUS
 70
0
 71
3
 72
8
 73
4
 74
0
 42
0.0000001
 43
0.0000001
 44
0.0000000001
 40
0.0
 40
0.0
 40
0.0
 40
0.0
 40
1.0
 40
1.0
 40
1.0
 40
1.0
 10
102.1774364658
 20
115.3850397363
 30
0.0
 10
102.179918831
 20
115.3798211012
 30
0.0
 10
102.1821944836
 20
115.3743982673
 30
0.0
 10
102.1833091586
 20
115.3687278362
 30
0.0
  0
SPLINE
  5
41F
100
AcDbEntity
  8
0
100
AcDbSpline
 62
7
  6
CONTINUOUS
 70
0
 71
3
 72
9
 73
5
 74
0
 42
0.0000001
 43
0.0000001
 44
0.0000000001
 40
0.0
 40
0.0
 40
0.0
 40
0.0
 40
0.5001250461
 40
1.0
 40
1.0
 40
1.0
 40
1.0
 10
102.1281567111
 20
115.4495157919
 30
0.0
 10
102.1402376419
 20
115.4427904008
 30
0.0
 10
102.1619460899
 20
115.424308273
 30
0.0
 10
102.1742822508
 20
115.39849483
 30
0.0
 10
102.1774364658
 20
115.3850397363
 30
0.0
  0
SPLINE
  5
420
100
AcDbEntity
  8
0
100
AcDbSpline
 62
7
  6
CONTINUOUS
 70
0
 71
3
 72
9
 73
5
 74
0
 42
0.0000001
 43
0.0000001
 44
0.0000000001
 40
0.0
 40
0.0
 40
0.0
 40
0.0
 40
0.4980872238
 40
1.0
 40
1.0
 40
1.0
 40
1.0
 10
102.272828914
 20
115.709323413
 30
0.0
 10
102.3193759772
 20
115.6819675593
 30
0.0
 10
102.4021752584
 20
115.6066577507
 30
0.0
 10
102.4476802117
 20
115.5045218495
 30
0.0
 10
102.4595135632
 20
115.4514191906
 30
0.0
  0
LINE
  5
421
100
AcDbEntity
  8
0
100
AcDbLine
 62
7
  6
CONTINUOUS
 10
101.7657013666
 20
115.6515883861
 11
102.1281567111
 21
115.4495157919
  0
LINE
  5
422
100
AcDbEntity
  8
0
100
AcDbLine
 62
7
  6
CONTINUOUS
 10
101.9107144855
 20
115.9113960072
 11
102.272828914
 21
115.709323413
  0
SPLINE
  5
423
100
AcDbEntity
  8
0
100
AcDbSpline
 62
7
  6
CONTINUOUS
 70
0
 71
3
 72
9
 73
5
 74
0
 42
0.0000001
 43
0.0000001
 44
0.0000000001
 40
0.0
 40
0.0
 40
0.0
 40
0.0
 40
0.4998661964
 40
1.0
 40
1.0
 40
1.0
 40
1.0
 10
101.4040565692
 20
116.2578061688
 30
0.0
 10
101.4039524173
 20
116.1359063371
 30
0.0
 10
101.4730743557
 20
115.8875089011
 30
0.0
 10
101.6592074785
 20
115.711040436
 30
0.0
 10
101.7657013666
 20
115.6515883861
 30
0.0
  0
SPLINE
  5
424
100
AcDbEntity
  8
0
100
AcDbSpline
 62
7
  6
CONTINUOUS
 70
0
 71
3
 72
9
 73
5
 74
0
 42
0.0000001
 43
0.0000001
 44
0.0000000001
 40
0.0
 40
0.0
 40
0.0
 40
0.0
 40
0.5011111314
 40
1.0
 40
1.0
 40
1.0
 40
1.0
 10
101.6947008828
 20
116.2578061688
 30
0.0
 10
101.6946660083
 20
116.187023634
 30
0.0
 10
101.7375987348
 20
116.0430191071
 30
0.0
 10
101.8485277819
 20
115.944541806
 30
0.0
 10
101.9107144855
 20
115.9113960072
 30
0.0
  0
SPLINE
  5
425
100
AcDbEntity
  8
0
100
AcDbSpline
 62
7
  6
CONTINUOUS
 70
0
 71
3
 72
12
 73
8
 74
0
 42
0.0000001
 43
0.0000001
 44
0.0000000001
 40
0.0
 40
0.0
 40
0.0
 40
0.0
 40
0.1250051057
 40
0.2217804701
 40
0.3422905539
 40
0.6448671048
 40
1.0
 40
1.0
 40
1.0
 40
1.0
 10
101.2300584422
 20
121.5938533592
 30
0.0
 10
101.253104589
 20
121.5938739222
 30
0.0
 10
101.2886921941
 20
121.5615849198
 30
0.0
 10
101.3208723849
 20
121.5093217671
 30
0.0
 10
101.3600718381
 20
121.420719781
 30
0.0
 10
101.3942702289
 20
121.2808738867
 30
0.0
 10
101.4040559607
 20
121.1593262695
 30
0.0
 10
101.4040565692
 20
121.0938533592
 30
0.0
  0
SPLINE
  5
426
100
AcDbEntity
  8
0
100
AcDbSpline
 62
7
  6
CONTINUOUS
 70
0
 71
3
 72
11
 73
7
 74
0
 42
0.0000001
 43
0.0000001
 44
0.0000000001
 40
0.0
 40
0.0
 40
0.0
 40
0.0
 40
0.2481595183
 40
0.4974011189
 40
0.7481650907
 40
1.0
 40
1.0
 40
1.0
 40
1.0
 10
101.2300584422
 20
121.5938533592
 30
0.0
 10
101.2684841352
 20
121.5938533592
 30
0.0
 10
101.3463639769
 20
121.6095529869
 30
0.0
 10
101.4445107196
 20
121.6764988529
 30
0.0
 10
101.5100407713
 20
121.7762013982
 30
0.0
 10
101.5253221812
 20
121.8548585587
 30
0.0
 10
101.5253221751
 20
121.8938533592
 30
0.0
  0
SPLINE
  5
427
100
AcDbEntity
  8
0
100
AcDbSpline
 62
7
  6
CONTINUOUS
 70
0
 71
3
 72
14
 73
10
 74
0
 42
0.0000001
 43
0.0000001
 44
0.0000000001
 40
0.0
 40
0.0
 40
0.0
 40
0.0
 40
0.038886716
 40
0.0678757779
 40
0.1042936616
 40
0.199430771
 40
0.3224785919
 40
0.6352918651
 40
1.0
 40
1.0
 40
1.0
 40
1.0
 10
101.5253221751
 20
121.8938533592
 30
0.0
 10
101.5361886554
 20
121.8938845427
 30
0.0
 10
101.5535590836
 20
121.8808417919
 30
0.0
 10
101.5702251759
 20
121.8576204821
 30
0.0
 10
101.5917813181
 20
121.8178638079
 30
0.0
 10
101.6161832155
 20
121.7509200478
 30
0.0
 10
101.6536903313
 20
121.6071706045
 30
0.0
 10
101.685736007
 20
121.3851630902
 30
0.0
 10
101.6946960993
 20
121.1957675984
 30
0.0
 10
101.6947008828
 20
121.0938533592
 30
0.0
  0
SPLINE
  5
428
100
AcDbEntity
  8
0
100
AcDbSpline
 62
7
  6
CONTINUOUS
 70
0
 71
3
 72
10
 73
6
 74
0
 42
0.0000001
 43
0.0000001
 44
0.0000000001
 40
0.0
 40
0.0
 40
0.0
 40
0.0
 40
0.5091404342
 40
0.7559499799
 40
1.0
 40
1.0
 40
1.0
 40
1.0
 10
79.8620220175
 20
75.9286944239
 30
0.0
 10
79.5526109707
 20
75.2544108961
 30
0.0
 10
79.1677759878
 20
74.2126761137
 30
0.0
 10
78.897316139
 20
72.7780629143
 30
0.0
 10
78.8516590466
 20
72.0619712073
 30
0.0
 10
78.8516590465
 20
71.7063579884
 30
0.0
  0
SPLINE
  5
429
100
AcDbEntity
  8
0
100
AcDbSpline
 62
7
  6
CONTINUOUS
 70
0
 71
3
 72
10
 73
6
 74
0
 42
0.0000001
 43
0.0000001
 44
0.0000000001
 40
0.0
 40
0.0
 40
0.0
 40
0.0
 40
0.2440500308
 40
0.4908595857
 40
1.0
 40
1.0
 40
1.0
 40
1.0
 10
78.8516590465
 20
71.7063579884
 30
0.0
 10
78.8516590463
 20
71.3507447534
 30
0.0
 10
78.8973161438
 20
70.6346530163
 30
0.0
 10
79.1677760006
 20
69.2000398163
 30
0.0
 10
79.5526109824
 20
68.1583050492
 30
0.0
 10
79.8620220175
 20
67.4840215469
 30
0.0
  0
SPLINE
  5
42A
100
AcDbEntity
  8
0
100
AcDbSpline
 62
7
  6
CONTINUOUS
 70
0
 71
3
 72
10
 73
6
 74
0
 42
0.0000001
 43
0.0000001
 44
0.0000000001
 40
0.0
 40
0.0
 40
0.0
 40
0.0
 40
0.2500409217
 40
0.5000817933
 40
1.0
 40
1.0
 40
1.0
 40
1.0
 10
78.8516590464
 20
88.5938533579
 30
0.0
 10
78.8516590465
 20
87.8836769722
 30
0.0
 10
78.8966914175
 20
86.462877457
 30
0.0
 10
79.1619062183
 20
83.6337291427
 30
0.0
 10
79.5444975779
 20
81.5331097341
 30
0.0
 10
79.8620220175
 20
80.1491804822
 30
0.0
  0
SPLINE
  5
42B
100
AcDbEntity
  8
0
100
AcDbSpline
 62
7
  6
CONTINUOUS
 70
0
 71
3
 72
10
 73
6
 74
0
 42
0.0000001
 43
0.0000001
 44
0.0000000001
 40
0.0
 40
0.0
 40
0.0
 40
0.0
 40
0.499918217
 40
0.749959084
 40
1.0
 40
1.0
 40
1.0
 40
1.0
 10
79.8620220175
 20
97.0385262362
 30
0.0
 10
79.5444975713
 20
95.6545969553
 30
0.0
 10
79.1619062105
 20
93.5539775297
 30
0.0
 10
78.8966914145
 20
90.7248292141
 30
0.0
 10
78.8516590464
 20
89.3040297277
 30
0.0
 10
78.8516590464
 20
88.5938533579
 30
0.0
  0
SPLINE
  5
42C
100
AcDbEntity
  8
0
100
AcDbSpline
 62
7
  6
CONTINUOUS
 70
0
 71
3
 72
10
 73
6
 74
0
 42
0.0000001
 43
0.0000001
 44
0.0000000001
 40
0.0
 40
0.0
 40
0.0
 40
0.0
 40
0.5091404342
 40
0.7559499799
 40
1.0
 40
1.0
 40
1.0
 40
1.0
 10
79.8620220175
 20
109.7036851715
 30
0.0
 10
79.5526109707
 20
109.0294016437
 30
0.0
 10
79.1677759878
 20
107.9876668612
 30
0.0
 10
78.897316139
 20
106.5530536619
 30
0.0
 10
78.8516590466
 20
105.8369619549
 30
0.0
 10
78.8516590465
 20
105.481348736
 30
0.0
  0
SPLINE
  5
42D
100
AcDbEntity
  8
0
100
AcDbSpline
 62
7
  6
CONTINUOUS
 70
0
 71
3
 72
10
 73
6
 74
0
 42
0.0000001
 43
0.0000001
 44
0.0000000001
 40
0.0
 40
0.0
 40
0.0
 40
0.0
 40
0.2440500308
 40
0.4908595857
 40
1.0
 40
1.0
 40
1.0
 40
1.0
 10
78.8516590465
 20
105.481348736
 30
0.0
 10
78.8516590463
 20
105.125735501
 30
0.0
 10
78.8973161438
 20
104.4096437639
 30
0.0
 10
79.1677760006
 20
102.9750305639
 30
0.0
 10
79.5526109824
 20
101.9332957968
 30
0.0
 10
79.8620220175
 20
101.2590122945
 30
0.0
  0
SPLINE
  5
42E
100
AcDbEntity
  8
0
100
AcDbSpline
 62
7
  6
CONTINUOUS
 70
0
 71
3
 72
9
 73
5
 74
0
 42
0.0000001
 43
0.0000001
 44
0.0000000001
 40
0.0
 40
0.0
 40
0.0
 40
0.0
 40
0.749941386
 40
1.0
 40
1.0
 40
1.0
 40
1.0
 10
92.2835610485
 20
80.1547251958
 30
0.0
 10
92.5679320337
 20
81.3915420833
 30
0.0
 10
92.8800813616
 20
83.0580949773
 30
0.0
 10
93.0785573943
 20
84.7389022858
 30
0.0
 10
93.1207172288
 20
85.159958234
 30
0.0
  0
SPLINE
  5
42F
100
AcDbEntity
  8
0
100
AcDbSpline
 62
7
  6
CONTINUOUS
 70
0
 71
3
 72
10
 73
6
 74
0
 42
0.0000001
 43
0.0000001
 44
0.0000000001
 40
0.0
 40
0.0
 40
0.0
 40
0.0
 40
0.5791306078
 40
0.8163138977
 40
1.0
 40
1.0
 40
1.0
 40
1.0
 10
91.5907407254
 20
80.1469959283
 30
0.0
 10
91.7241497445
 20
80.1320214561
 30
0.0
 10
91.9136982821
 20
80.1195782751
 30
0.0
 10
92.1453502645
 20
80.129918406
 30
0.0
 10
92.2423544734
 20
80.1439986771
 30
0.0
 10
92.2835610485
 20
80.1547251958
 30
0.0
  0
SPLINE
  5
430
100
AcDbEntity
  8
0
100
AcDbSpline
 62
7
  6
CONTINUOUS
 70
0
 71
3
 72
13
 73
9
 74
0
 42
0.0000001
 43
0.0000001
 44
0.0000000001
 40
0.0
 40
0.0
 40
0.0
 40
0.0
 40
0.2499568938
 40
0.3749782949
 40
0.5000001682
 40
0.6250220484
 40
0.7500435234
 40
1.0
 40
1.0
 40
1.0
 40
1.0
 10
91.5512814615
 20
80.1491804822
 30
0.0
 10
91.879752176
 20
81.5315560884
 30
0.0
 10
92.2774208976
 20
83.6311342049
 30
0.0
 10
92.5540296233
 20
86.4614029051
 30
0.0
 10
92.6245883755
 20
88.5938563187
 30
0.0
 10
92.5540299349
 20
90.7263101721
 30
0.0
 10
92.2774209245
 20
93.5565769416
 30
0.0
 10
91.8797519202
 20
95.6561530065
 30
0.0
 10
91.5512814615
 20
97.0385262362
 30
0.0
  0
SPLINE
  5
431
100
AcDbEntity
  8
0
100
AcDbSpline
 62
7
  6
CONTINUOUS
 70
0
 71
3
 72
10
 73
6
 74
0
 42
0.0000001
 43
0.0000001
 44
0.0000000001
 40
0.0
 40
0.0
 40
0.0
 40
0.0
 40
0.5791307612
 40
0.8163140697
 40
1.0
 40
1.0
 40
1.0
 40
1.0
 10
91.5907407254
 20
97.0407107726
 30
0.0
 10
91.7241497665
 20
97.0556852149
 30
0.0
 10
91.9136983669
 20
97.068128184
 30
0.0
 10
92.1453502516
 20
97.0577877919
 30
0.0
 10
92.2423545163
 20
97.0437081307
 30
0.0
 10
92.2835610485
 20
97.0329816267
 30
0.0
  0
SPLINE
  5
432
100
AcDbEntity
  8
0
100
AcDbSpline
 62
7
  6
CONTINUOUS
 70
0
 71
3
 72
9
 73
5
 74
0
 42
0.0000001
 43
0.0000001
 44
0.0000000001
 40
0.0
 40
0.0
 40
0.0
 40
0.0
 40
0.2500587255
 40
1.0
 40
1.0
 40
1.0
 40
1.0
 10
93.1207171625
 20
92.0277543419
 30
0.0
 10
93.0785574636
 20
92.4488100153
 30
0.0
 10
92.8800801242
 20
94.1296152607
 30
0.0
 10
92.5679318149
 20
95.7961663462
 30
0.0
 10
92.2835610485
 20
97.0329816267
 30
0.0
  0
SPLINE
  5
433
100
AcDbEntity
  8
0
100
AcDbSpline
 62
7
  6
CONTINUOUS
 70
0
 71
3
 72
9
 73
5
 74
0
 42
0.0000001
 43
0.0000001
 44
0.0000000001
 40
0.0
 40
0.0
 40
0.0
 40
0.0
 40
0.5065911241
 40
1.0
 40
1.0
 40
1.0
 40
1.0
 10
92.2835610485
 20
67.862847429
 30
0.0
 10
92.4703446518
 20
68.2640252023
 30
0.0
 10
92.8021543269
 20
69.0739921748
 30
0.0
 10
93.0355733414
 20
69.9187764781
 30
0.0
 10
93.120717205
 20
70.3412965171
 30
0.0
  0
SPLINE
  5
434
100
AcDbEntity
  8
0
100
AcDbSpline
 62
7
  6
CONTINUOUS
 70
0
 71
3
 72
9
 73
5
 74
0
 42
0.0000001
 43
0.0000001
 44
0.0000000001
 40
0.0
 40
0.0
 40
0.0
 40
0.0
 40
0.5067631902
 40
1.0
 40
1.0
 40
1.0
 40
1.0
 10
91.5907407254
 20
67.4837486934
 30
0.0
 10
91.7288246533
 20
67.4818137155
 30
0.0
 10
92.007505279
 20
67.5485017116
 30
0.0
 10
92.2145312232
 20
67.747516104
 30
0.0
 10
92.2835610485
 20
67.862847429
 30
0.0
  0
SPLINE
  5
435
100
AcDbEntity
  8
0
100
AcDbSpline
 62
7
  6
CONTINUOUS
 70
0
 71
3
 72
13
 73
9
 74
0
 42
0.0000001
 43
0.0000001
 44
0.0000000001
 40
0.0
 40
0.0
 40
0.0
 40
0.0
 40
0.2548884513
 40
0.3781903113
 40
0.4999999913
 40
0.6218096687
 40
0.7451115079
 40
1.0
 40
1.0
 40
1.0
 40
1.0
 10
91.5512814615
 20
67.4840215469
 30
0.0
 10
91.8709452932
 20
68.1566773606
 30
0.0
 10
92.2708489943
 20
69.1968629412
 30
0.0
 10
92.5533238826
 20
70.6334751204
 30
0.0
 10
92.6247966565
 20
71.7063579189
 30
0.0
 10
92.5533240258
 20
72.7792406692
 30
0.0
 10
92.270849229
 20
74.2158529156
 30
0.0
 10
91.8709455185
 20
75.2560385851
 30
0.0
 10
91.5512814615
 20
75.9286944239
 30
0.0
  0
SPLINE
  5
436
100
AcDbEntity
  8
0
100
AcDbSpline
 62
7
  6
CONTINUOUS
 70
0
 71
3
 72
9
 73
5
 74
0
 42
0.0000001
 43
0.0000001
 44
0.0000000001
 40
0.0
 40
0.0
 40
0.0
 40
0.0
 40
0.5230345998
 40
1.0
 40
1.0
 40
1.0
 40
1.0
 10
91.5907407254
 20
75.9306061106
 30
0.0
 10
91.7301235002
 20
75.9442978998
 30
0.0
 10
91.9937963831
 20
76.0218995622
 30
0.0
 10
92.2096917324
 20
76.197787761
 30
0.0
 10
92.2835610485
 20
76.3019756604
 30
0.0
  0
SPLINE
  5
437
100
AcDbEntity
  8
0
100
AcDbSpline
 62
7
  6
CONTINUOUS
 70
0
 71
3
 72
9
 73
5
 74
0
 42
0.0000001
 43
0.0000001
 44
0.0000000001
 40
0.0
 40
0.0
 40
0.0
 40
0.0
 40
0.2446460767
 40
1.0
 40
1.0
 40
1.0
 40
1.0
 10
93.1207172757
 20
73.7751927872
 30
0.0
 10
93.0782917311
 20
73.9883683577
 30
0.0
 10
92.874959695
 20
74.8537862859
 30
0.0
 10
92.5611070042
 20
75.690962074
 30
0.0
 10
92.2835610485
 20
76.3019756604
 30
0.0
  0
SPLINE
  5
438
100
AcDbEntity
  8
0
100
AcDbSpline
 62
7
  6
CONTINUOUS
 70
0
 71
3
 72
9
 73
5
 74
0
 42
0.0000001
 43
0.0000001
 44
0.0000000001
 40
0.0
 40
0.0
 40
0.0
 40
0.0
 40
0.2560374861
 40
1.0
 40
1.0
 40
1.0
 40
1.0
 10
92.2835610485
 20
100.8857311209
 30
0.0
 10
92.3776264464
 20
101.0928147901
 30
0.0
 10
92.7263723218
 20
101.9096655795
 30
0.0
 10
92.9917205109
 20
102.7643756976
 30
0.0
 10
93.1207172153
 20
103.4125507214
 30
0.0
  0
SPLINE
  5
439
100
AcDbEntity
  8
0
100
AcDbSpline
 62
7
  6
CONTINUOUS
 70
0
 71
3
 72
9
 73
5
 74
0
 42
0.0000001
 43
0.0000001
 44
0.0000000001
 40
0.0
 40
0.0
 40
0.0
 40
0.0
 40
0.5230346853
 40
1.0
 40
1.0
 40
1.0
 40
1.0
 10
91.5907407254
 20
101.2571005948
 30
0.0
 10
91.7301234979
 20
101.2434087795
 30
0.0
 10
91.9937961735
 20
101.1658067941
 30
0.0
 10
92.2096917594
 20
100.9899189861
 30
0.0
 10
92.2835610485
 20
100.8857311209
 30
0.0
  0
SPLINE
  5
43A
100
AcDbEntity
  8
0
100
AcDbSpline
 62
7
  6
CONTINUOUS
 70
0
 71
3
 72
13
 73
9
 74
0
 42
0.0000001
 43
0.0000001
 44
0.0000000001
 40
0.0
 40
0.0
 40
0.0
 40
0.0
 40
0.2548884846
 40
0.3781903251
 40
0.5000000029
 40
0.6218096813
 40
0.7451115382
 40
1.0
 40
1.0
 40
1.0
 40
1.0
 10
91.5512814615
 20
101.2590122945
 30
0.0
 10
91.8709453714
 20
101.9316681789
 30
0.0
 10
92.2708490056
 20
102.971853835
 30
0.0
 10
92.5533238949
 20
104.4084660437
 30
0.0
 10
92.6247966548
 20
105.4813487834
 30
0.0
 10
92.5533240233
 20
106.5542315809
 30
0.0
 10
92.2708492155
 20
107.9908437971
 30
0.0
 10
91.8709454264
 20
109.0310293871
 30
0.0
 10
91.5512814615
 20
109.7036851715
 30
0.0
  0
SPLINE
  5
43B
100
AcDbEntity
  8
0
100
AcDbSpline
 62
7
  6
CONTINUOUS
 70
0
 71
3
 72
9
 73
5
 74
0
 42
0.0000001
 43
0.0000001
 44
0.0000000001
 40
0.0
 40
0.0
 40
0.0
 40
0.0
 40
0.5067632911
 40
1.0
 40
1.0
 40
1.0
 40
1.0
 10
91.5907407254
 20
109.7039580232
 30
0.0
 10
91.7288246767
 20
109.7058929978
 30
0.0
 10
92.0075052718
 20
109.6392049314
 30
0.0
 10
92.2145312398
 20
109.4401905956
 30
0.0
 10
92.2835610485
 20
109.3248592974
 30
0.0
  0
SPLINE
  5
43C
100
AcDbEntity
  8
0
100
AcDbSpline
 62
7
  6
CONTINUOUS
 70
0
 71
3
 72
9
 73
5
 74
0
 42
0.0000001
 43
0.0000001
 44
0.0000000001
 40
0.0
 40
0.0
 40
0.0
 40
0.0
 40
0.4934089171
 40
1.0
 40
1.0
 40
1.0
 40
1.0
 10
93.1207172663
 20
106.8464101745
 30
0.0
 10
93.0355731673
 20
107.2689302112
 30
0.0
 10
92.8021544203
 20
108.1137145812
 30
0.0
 10
92.4703446361
 20
108.9236815473
 30
0.0
 10
92.2835610485
 20
109.3248592974
 30
0.0
  0
SPLINE
  5
43D
100
AcDbEntity
  8
0
100
AcDbSpline
 62
7
  6
CONTINUOUS
 70
0
 71
3
 72
9
 73
5
 74
0
 42
0.0000001
 43
0.0000001
 44
0.0000000001
 40
0.0
 40
0.0
 40
0.0
 40
0.0
 40
0.4935753409
 40
1.0
 40
1.0
 40
1.0
 40
1.0
 10
93.1207172047
 20
70.3413176459
 30
0.0
 10
93.1908112376
 20
70.4555447405
 30
0.0
 10
93.3998558169
 20
70.6504588652
 30
0.0
 10
93.6760280335
 20
70.7176629524
 30
0.0
 10
93.8135356259
 20
70.7176639694
 30
0.0
  0
SPLINE
  5
43E
100
AcDbEntity
  8
0
100
AcDbSpline
 62
7
  6
CONTINUOUS
 70
0
 71
3
 72
11
 73
7
 74
0
 42
0.0000001
 43
0.0000001
 44
0.0000000001
 40
0.0
 40
0.0
 40
0.0
 40
0.0
 40
0.2794529629
 40
0.5393289214
 40
0.7796602595
 40
1.0
 40
1.0
 40
1.0
 40
1.0
 10
93.1207112585
 20
73.7751593763
 30
0.0
 10
93.1481003846
 20
73.4561691127
 30
0.0
 10
93.1772962535
 20
72.8385185967
 30
0.0
 10
93.1840191364
 20
71.9452415481
 30
0.0
 10
93.1786774424
 20
71.1198558528
 30
0.0
 10
93.1504144084
 20
70.5920052355
 30
0.0
 10
93.1207115174
 20
70.3413197495
 30
0.0
  0
SPLINE
  5
43F
100
AcDbEntity
  8
0
100
AcDbSpline
 62
7
  6
CONTINUOUS
 70
0
 71
3
 72
9
 73
5
 74
0
 42
0.0000001
 43
0.0000001
 44
0.0000000001
 40
0.0
 40
0.0
 40
0.0
 40
0.0
 40
0.474364281
 40
1.0
 40
1.0
 40
1.0
 40
1.0
 10
93.1207172754
 20
73.7751529399
 30
0.0
 10
93.1947758171
 20
73.8731387135
 30
0.0
 10
93.4156335663
 20
74.0315571478
 30
0.0
 10
93.6774358313
 20
74.080692301
 30
0.0
 10
93.8135358566
 20
74.0806904091
 30
0.0
  0
SPLINE
  5
440
100
AcDbEntity
  8
0
100
AcDbSpline
 62
7
  6
CONTINUOUS
 70
0
 71
3
 72
13
 73
9
 74
0
 42
0.0000001
 43
0.0000001
 44
0.0000000001
 40
0.0
 40
0.0
 40
0.0
 40
0.0
 40
0.3068461163
 40
0.5771448994
 40
0.6978921615
 40
0.8088028914
 40
0.9096136691
 40
1.0
 40
1.0
 40
1.0
 40
1.0
 10
93.8135358566
 20
74.0806904089
 30
0.0
 10
93.8135177783
 20
73.7365380893
 30
0.0
 10
93.7878703604
 20
73.0895712917
 30
0.0
 10
93.7578489391
 20
72.3071875627
 30
0.0
 10
93.7673066846
 20
71.7441294743
 30
0.0
 10
93.7851670127
 20
71.3716344913
 30
0.0
 10
93.8053772174
 20
71.0334323233
 30
0.0
 10
93.8135277135
 20
70.819039427
 30
0.0
 10
93.8135356259
 20
70.7176639696
 30
0.0
  0
SPLINE
  5
441
100
AcDbEntity
  8
0
100
AcDbSpline
 62
7
  6
CONTINUOUS
 70
0
 71
3
 72
10
 73
6
 74
0
 42
0.0000001
 43
0.0000001
 44
0.0000000001
 40
0.0
 40
0.0
 40
0.0
 40
0.0
 40
0.1868410391
 40
0.4263772114
 40
1.0
 40
1.0
 40
1.0
 40
1.0
 10
93.1207172284
 20
85.1600182722
 30
0.0
 10
93.1622869391
 20
85.1727634434
 30
0.0
 10
93.2596516323
 20
85.1933848546
 30
0.0
 10
93.4904755774
 20
85.2233158797
 30
0.0
 10
93.6800483329
 20
85.2308257639
 30
0.0
 10
93.813535708
 20
85.2308270743
 30
0.0
  0
SPLINE
  5
442
100
AcDbEntity
  8
0
100
AcDbSpline
 62
7
  6
CONTINUOUS
 70
0
 71
3
 72
11
 73
7
 74
0
 42
0.0000001
 43
0.0000001
 44
0.0000000001
 40
0.0
 40
0.0
 40
0.0
 40
0.0
 40
0.249733306
 40
0.5000000656
 40
0.7502667857
 40
1.0
 40
1.0
 40
1.0
 40
1.0
 10
93.1207107537
 20
92.0276959445
 30
0.0
 10
93.149142467
 20
91.4565756809
 30
0.0
 10
93.1779940446
 20
90.3117658252
 30
0.0
 10
93.1840258501
 20
88.5938569613
 30
0.0
 10
93.1779928964
 20
86.8759483473
 30
0.0
 10
93.1491434167
 20
85.7311387225
 30
0.0
 10
93.1207114888
 20
85.1600186798
 30
0.0
  0
SPLINE
  5
443
100
AcDbEntity
  8
0
100
AcDbSpline
 62
7
  6
CONTINUOUS
 70
0
 71
3
 72
10
 73
6
 74
0
 42
0.0000001
 43
0.0000001
 44
0.0000000001
 40
0.0
 40
0.0
 40
0.0
 40
0.0
 40
0.1868392188
 40
0.4263757652
 40
1.0
 40
1.0
 40
1.0
 40
1.0
 10
93.1207171621
 20
92.027688093
 30
0.0
 10
93.1622874224
 20
92.0149464326
 30
0.0
 10
93.2596522075
 20
91.9943294358
 30
0.0
 10
93.4904753723
 20
91.9643962935
 30
0.0
 10
93.6800480244
 20
91.9568828488
 30
0.0
 10
93.8135354908
 20
91.9568791658
 30
0.0
  0
SPLINE
  5
444
100
AcDbEntity
  8
0
100
AcDbSpline
 62
7
  6
CONTINUOUS
 70
0
 71
3
 72
11
 73
7
 74
0
 42
0.0000001
 43
0.0000001
 44
0.0000000001
 40
0.0
 40
0.0
 40
0.0
 40
0.0
 40
0.2490058758
 40
0.500000192
 40
0.7509943729
 40
1.0
 40
1.0
 40
1.0
 40
1.0
 10
93.8135354908
 20
91.9568791654
 30
0.0
 10
93.8135150247
 20
91.3985401966
 30
0.0
 10
93.7845207679
 20
90.2776702174
 30
0.0
 10
93.7521369922
 20
88.5938521338
 30
0.0
 10
93.7845196182
 20
86.9100345804
 30
0.0
 10
93.8135153689
 20
85.7891654857
 30
0.0
 10
93.813535708
 20
85.2308270747
 30
0.0
  0
SPLINE
  5
445
100
AcDbEntity
  8
0
100
AcDbSpline
 62
7
  6
CONTINUOUS
 70
0
 71
3
 72
9
 73
5
 74
0
 42
0.0000001
 43
0.0000001
 44
0.0000000001
 40
0.0
 40
0.0
 40
0.0
 40
0.0
 40
0.4743621069
 40
1.0
 40
1.0
 40
1.0
 40
1.0
 10
93.1207172152
 20
103.4125540775
 30
0.0
 10
93.1947772606
 20
103.3145705026
 30
0.0
 10
93.4156348451
 20
103.1561553006
 30
0.0
 10
93.6774353858
 20
103.1070162506
 30
0.0
 10
93.8135356589
 20
103.1070165891
 30
0.0
  0
SPLINE
  5
446
100
AcDbEntity
  8
0
100
AcDbSpline
 62
7
  6
CONTINUOUS
 70
0
 71
3
 72
11
 73
7
 74
0
 42
0.0000001
 43
0.0000001
 44
0.0000000001
 40
0.0
 40
0.0
 40
0.0
 40
0.0
 40
0.220339848
 40
0.4606711904
 40
0.7205470975
 40
1.0
 40
1.0
 40
1.0
 40
1.0
 10
93.1207113651
 20
106.8463903925
 30
0.0
 10
93.1504151391
 20
106.5957049938
 30
0.0
 10
93.178676749
 20
106.0678543049
 30
0.0
 10
93.184019148
 20
105.2424689723
 30
0.0
 10
93.177297233
 20
104.3491923618
 30
0.0
 10
93.148100129
 20
103.731542314
 30
0.0
 10
93.1207112973
 20
103.4125522295
 30
0.0
  0
SPLINE
  5
447
100
AcDbEntity
  8
0
100
AcDbSpline
 62
7
  6
CONTINUOUS
 70
0
 71
3
 72
9
 73
5
 74
0
 42
0.0000001
 43
0.0000001
 44
0.0000000001
 40
0.0
 40
0.0
 40
0.0
 40
0.0
 40
0.4935740271
 40
1.0
 40
1.0
 40
1.0
 40
1.0
 10
93.1207172661
 20
106.8463890901
 30
0.0
 10
93.1908119961
 20
106.7321630152
 30
0.0
 10
93.3998569063
 20
106.5372507099
 30
0.0
 10
93.6760280301
 20
106.4700447074
 30
0.0
 10
93.8135358275
 20
106.4700428989
 30
0.0
  0
SPLINE
  5
448
100
AcDbEntity
  8
0
100
AcDbSpline
 62
7
  6
CONTINUOUS
 70
0
 71
3
 72
13
 73
9
 74
0
 42
0.0000001
 43
0.0000001
 44
0.0000000001
 40
0.0
 40
0.0
 40
0.0
 40
0.0
 40
0.0903865016
 40
0.1911975085
 40
0.3021082827
 40
0.4228555467
 40
0.6931541284
 40
1.0
 40
1.0
 40
1.0
 40
1.0
 10
93.8135358275
 20
106.4700428986
 30
0.0
 10
93.8135284326
 20
106.3686672537
 30
0.0
 10
93.8053764569
 20
106.1542739382
 30
0.0
 10
93.785167062
 20
105.8160712649
 30
0.0
 10
93.7673068339
 20
105.4435759815
 30
0.0
 10
93.7578484228
 20
104.8805180957
 30
0.0
 10
93.7878715319
 20
104.0981349213
 30
0.0
 10
93.8135172452
 20
103.4511686212
 30
0.0
 10
93.8135356589
 20
103.1070165894
 30
0.0
  0
SPLINE
  5
449
100
AcDbEntity
  8
0
100
AcDbSpline
 62
7
  6
CONTINUOUS
 70
0
 71
3
 72
10
 73
6
 74
0
 42
0.0000001
 43
0.0000001
 44
0.0000000001
 40
0.0
 40
0.0
 40
0.0
 40
0.0
 40
0.7143811974
 40
0.9079629918
 40
1.0
 40
1.0
 40
1.0
 40
1.0
 10
126.3248641272
 20
134.3769846235
 30
0.0
 10
126.3315934608
 20
134.3782258924
 30
0.0
 10
126.3404775599
 20
134.3801140146
 30
0.0
 10
126.3489533554
 20
134.383134022
 30
0.0
 10
126.3516590465
 20
134.3850630766
 30
0.0
 10
126.3516590465
 20
134.3859446731
 30
0.0
  0
ELLIPSE
  5
44A
100
AcDbEntity
  8
0
100
AcDbEllipse
 62
7
  6
CONTINUOUS
 10
105.6840400231
 20
131.3938533592
 30
0.0
 11
0.0
 21
3.0
 31
0.0
 40
1.0
 41
-1.5707963268
 42
0.0
  0
ELLIPSE
  5
44B
100
AcDbEntity
  8
0
100
AcDbEllipse
 62
7
  6
CONTINUOUS
 10
126.5082833735
 20
131.3938533592
 30
0.0
 11
-0.0
 21
3.0
 31
0.0
 40
0.5773502692
 41
0.1060960822
 42
1.5707963256
  0
ENDSEC
  0
SECTION
  2
OBJECTS
  0
DICTIONARY
  5
44C
100
AcDbDictionary
  3
ACAD_GROUP
350
44D
  3
ACAD_MLINESTYLE
350
44E
  0
DICTIONARY
  5
44D
102
{ACAD_REACTORS
330
44C
102
}
100
AcDbDictionary
  0
DICTIONARY
  5
44E
102
{ACAD_REACTORS
330
44C
102
}
100
AcDbDictionary
  3
STANDARD
350
44F
  0
MLINESTYLE
  5
44F
102
{ACAD_REACTORS
330
44E
102
}
100
AcDbMlineStyle
  2
STANDARD
 70
0
  3

 62
256
 51
90.0
 52
90.0
 71
2
 49
0.5
 62
256
  6
BYLAYER
 49
-0.5
 62
256
  6
BYLAYER
  0
ENDSEC
  0
EOF
